ISO-10303-21;
HEADER;
FILE_DESCRIPTION (( 'STEP AP214' ),
    '1' );
FILE_NAME ('UN100T.STEP',
    '2021-03-12T16:07:46',
    ( '' ),
    ( '' ),
    'SwSTEP 2.0',
    'SolidWorks 2019',
    '' );
FILE_SCHEMA (( 'AUTOMOTIVE_DESIGN' ));
ENDSEC;

DATA;
#1 = EDGE_LOOP ( 'NONE', ( #223, #69, #36, #249 ) ) ;
#2 = FILL_AREA_STYLE_COLOUR ( '', #285 ) ;
#3 = PRODUCT_RELATED_PRODUCT_CATEGORY ( 'part', '', ( #40 ) ) ;
#4 = UNCERTAINTY_MEASURE_WITH_UNIT (LENGTH_MEASURE( 1.000000000000000082E-05 ), #173, 'distance_accuracy_value', 'NONE');
#5 = EDGE_LOOP ( 'NONE', ( #287, #107, #271, #44 ) ) ;
#6 = PRESENTATION_STYLE_ASSIGNMENT (( #10 ) ) ;
#7 = CARTESIAN_POINT ( 'NONE',  ( 441.9538082245450141, 161.7615598902029888, 247.5288085907110087 ) ) ;
#8 = VECTOR ( 'NONE', #64, 1000.000000000000000 ) ;
#9 = UNCERTAINTY_MEASURE_WITH_UNIT (LENGTH_MEASURE( 1.000000000000000082E-05 ), #283, 'distance_accuracy_value', 'NONE');
#10 = SURFACE_STYLE_USAGE ( .BOTH. , #105 ) ;
#11 = COLOUR_RGB ( '',0.7921568627450980005, 0.8196078431372548767, 0.9333333333333333481 ) ;
#12 = LINE ( 'NONE', #169, #8 ) ;
#13 = STYLED_ITEM ( 'NONE', ( #162 ), #91 ) ;
#14 = PRESENTATION_LAYER_ASSIGNMENT (  '', '', ( #111 ) ) ;
#15 = DIRECTION ( 'NONE',  ( 1.000000000000000000, 0.000000000000000000, 0.000000000000000000 ) ) ;
#16 = SURFACE_STYLE_USAGE ( .BOTH. , #144 ) ;
#17 = PRODUCT_DEFINITION_SHAPE ( 'NONE', 'NONE',  #96 ) ;
#18 =( NAMED_UNIT ( * ) PLANE_ANGLE_UNIT ( ) SI_UNIT ( $, .RADIAN. ) );
#19 = LINE ( 'NONE', #216, #110 ) ;
#20 = VERTEX_POINT ( 'NONE', #126 ) ;
#21 = FACE_OUTER_BOUND ( 'NONE', #201, .T. ) ;
#22 = EDGE_CURVE ( 'NONE', #20, #192, #286, .T. ) ;
#23 = LINE ( 'NONE', #121, #78 ) ;
#24 =( NAMED_UNIT ( * ) SI_UNIT ( $, .STERADIAN. ) SOLID_ANGLE_UNIT ( ) );
#25 = CLOSED_SHELL ( 'NONE', ( #290, #67, #247, #80, #165, #55 ) ) ;
#26 = VECTOR ( 'NONE', #279, 1000.000000000000000 ) ;
#27 =( LENGTH_UNIT ( ) NAMED_UNIT ( * ) SI_UNIT ( .MILLI., .METRE. ) );
#28 =( NAMED_UNIT ( * ) PLANE_ANGLE_UNIT ( ) SI_UNIT ( $, .RADIAN. ) );
#29 = DIRECTION ( 'NONE',  ( 0.000000000000000000, 0.000000000000000000, -1.000000000000000000 ) ) ;
#30 = AXIS2_PLACEMENT_3D ( 'NONE', #193, #284, #146 ) ;
#31 = UNCERTAINTY_MEASURE_WITH_UNIT (LENGTH_MEASURE( 1.000000000000000082E-05 ), #230, 'distance_accuracy_value', 'NONE');
#32 = APPLICATION_CONTEXT ( 'automotive_design' ) ;
#33 = EDGE_CURVE ( 'NONE', #92, #225, #12, .T. ) ;
#34 = STYLED_ITEM ( 'NONE', ( #179 ), #80 ) ;
#35 = MECHANICAL_DESIGN_GEOMETRIC_PRESENTATION_REPRESENTATION (  '', ( #43 ), #197 ) ;
#36 = ORIENTED_EDGE ( 'NONE', *, *, #260, .F. ) ;
#37 = PRESENTATION_LAYER_ASSIGNMENT (  '', '', ( #43 ) ) ;
#38 =( NAMED_UNIT ( * ) PLANE_ANGLE_UNIT ( ) SI_UNIT ( $, .RADIAN. ) );
#39 = EDGE_CURVE ( 'NONE', #225, #20, #240, .T. ) ;
#40 = PRODUCT ( 'UN100T', 'UN100T', '', ( #166 ) ) ;
#41 = SURFACE_STYLE_USAGE ( .BOTH. , #242 ) ;
#42 = COLOUR_RGB ( '',0.7921568627450980005, 0.8196078431372548767, 0.9333333333333333481 ) ;
#43 = STYLED_ITEM ( 'NONE', ( #6 ), #165 ) ;
#44 = ORIENTED_EDGE ( 'NONE', *, *, #49, .T. ) ;
#45 = LINE ( 'NONE', #93, #63 ) ;
#46 = SURFACE_SIDE_STYLE ('',( #250 ) ) ;
#47 = VERTEX_POINT ( 'NONE', #289 ) ;
#48 = LINE ( 'NONE', #102, #264 ) ;
#49 = EDGE_CURVE ( 'NONE', #291, #177, #19, .T. ) ;
#50 = CARTESIAN_POINT ( 'NONE',  ( -550.0461917754549859, 201.7615598902029888, -204.4711914092890197 ) ) ;
#51 = VECTOR ( 'NONE', #68, 1000.000000000000000 ) ;
#52 = SURFACE_STYLE_USAGE ( .BOTH. , #159 ) ;
#53 =( LENGTH_UNIT ( ) NAMED_UNIT ( * ) SI_UNIT ( .MILLI., .METRE. ) );
#54 = DIRECTION ( 'NONE',  ( 0.000000000000000000, -1.000000000000000000, 0.000000000000000000 ) ) ;
#55 = ADVANCED_FACE ( 'NONE', ( #199 ), #128, .T. ) ;
#56 = DIRECTION ( 'NONE',  ( 1.000000000000000000, 0.000000000000000000, 0.000000000000000000 ) ) ;
#57 = DIRECTION ( 'NONE',  ( 0.000000000000000000, 0.000000000000000000, -1.000000000000000000 ) ) ;
#58 =( LENGTH_UNIT ( ) NAMED_UNIT ( * ) SI_UNIT ( .MILLI., .METRE. ) );
#59 = VECTOR ( 'NONE', #217, 1000.000000000000000 ) ;
#60 = UNCERTAINTY_MEASURE_WITH_UNIT (LENGTH_MEASURE( 1.000000000000000082E-05 ), #27, 'distance_accuracy_value', 'NONE');
#61 =( GEOMETRIC_REPRESENTATION_CONTEXT ( 3 ) GLOBAL_UNCERTAINTY_ASSIGNED_CONTEXT ( ( #4 ) ) GLOBAL_UNIT_ASSIGNED_CONTEXT ( ( #173, #28, #178 ) ) REPRESENTATION_CONTEXT ( 'NONE', 'WORKASPACE' ) );
#62 = EDGE_CURVE ( 'NONE', #177, #225, #129, .T. ) ;
#63 = VECTOR ( 'NONE', #267, 1000.000000000000000 ) ;
#64 = DIRECTION ( 'NONE',  ( 1.000000000000000000, 0.000000000000000000, 0.000000000000000000 ) ) ;
#65 =( GEOMETRIC_REPRESENTATION_CONTEXT ( 3 ) GLOBAL_UNCERTAINTY_ASSIGNED_CONTEXT ( ( #140 ) ) GLOBAL_UNIT_ASSIGNED_CONTEXT ( ( #150, #131, #103 ) ) REPRESENTATION_CONTEXT ( 'NONE', 'WORKASPACE' ) );
#66 =( NAMED_UNIT ( * ) SI_UNIT ( $, .STERADIAN. ) SOLID_ANGLE_UNIT ( ) );
#67 = ADVANCED_FACE ( 'NONE', ( #109 ), #222, .F. ) ;
#68 = DIRECTION ( 'NONE',  ( -1.000000000000000000, 0.000000000000000000, 0.000000000000000000 ) ) ;
#69 = ORIENTED_EDGE ( 'NONE', *, *, #33, .F. ) ;
#70 = PRESENTATION_STYLE_ASSIGNMENT (( #288 ) ) ;
#71 =( GEOMETRIC_REPRESENTATION_CONTEXT ( 3 ) GLOBAL_UNCERTAINTY_ASSIGNED_CONTEXT ( ( #190 ) ) GLOBAL_UNIT_ASSIGNED_CONTEXT ( ( #115, #184, #273 ) ) REPRESENTATION_CONTEXT ( 'NONE', 'WORKASPACE' ) );
#72 = ORIENTED_EDGE ( 'NONE', *, *, #260, .T. ) ;
#73 = LINE ( 'NONE', #50, #194 ) ;
#74 = CARTESIAN_POINT ( 'NONE',  ( -54.04619177545500008, 201.7615598902029888, 21.52880859071100161 ) ) ;
#75 = FILL_AREA_STYLE ('',( #181 ) ) ;
#76 =( GEOMETRIC_REPRESENTATION_CONTEXT ( 3 ) GLOBAL_UNCERTAINTY_ASSIGNED_CONTEXT ( ( #31 ) ) GLOBAL_UNIT_ASSIGNED_CONTEXT ( ( #230, #207, #195 ) ) REPRESENTATION_CONTEXT ( 'NONE', 'WORKASPACE' ) );
#77 = SURFACE_STYLE_USAGE ( .BOTH. , #275 ) ;
#78 = VECTOR ( 'NONE', #54, 1000.000000000000000 ) ;
#79 = SURFACE_STYLE_USAGE ( .BOTH. , #46 ) ;
#80 = ADVANCED_FACE ( 'NONE', ( #21 ), #255, .F. ) ;
#81 = FILL_AREA_STYLE ('',( #277 ) ) ;
#82 = SURFACE_SIDE_STYLE ('',( #203 ) ) ;
#83 = EDGE_CURVE ( 'NONE', #47, #99, #73, .T. ) ;
#84 = STYLED_ITEM ( 'NONE', ( #237 ), #55 ) ;
#85 = MECHANICAL_DESIGN_GEOMETRIC_PRESENTATION_REPRESENTATION (  '', ( #84 ), #125 ) ;
#86 = DIRECTION ( 'NONE',  ( 0.000000000000000000, 0.000000000000000000, -1.000000000000000000 ) ) ;
#87 = CARTESIAN_POINT ( 'NONE',  ( 441.9538082245450141, 161.7615598902029888, 247.5288085907110087 ) ) ;
#88 = CARTESIAN_POINT ( 'NONE',  ( 441.9538082245450141, 201.7615598902029888, 247.5288085907110087 ) ) ;
#89 = AXIS2_PLACEMENT_3D ( 'NONE', #243, #229, #113 ) ;
#90 = FILL_AREA_STYLE_COLOUR ( '', #42 ) ;
#91 = MANIFOLD_SOLID_BREP ( 'NONE', #25 ) ;
#92 = VERTEX_POINT ( 'NONE', #256 ) ;
#93 = CARTESIAN_POINT ( 'NONE',  ( -550.0461917754549859, 161.7615598902029888, 247.5288085907110087 ) ) ;
#94 = EDGE_LOOP ( 'NONE', ( #97, #154, #133, #149 ) ) ;
#95 =( GEOMETRIC_REPRESENTATION_CONTEXT ( 3 ) GLOBAL_UNCERTAINTY_ASSIGNED_CONTEXT ( ( #137 ) ) GLOBAL_UNIT_ASSIGNED_CONTEXT ( ( #248, #153, #157 ) ) REPRESENTATION_CONTEXT ( 'NONE', 'WORKASPACE' ) );
#96 = PRODUCT_DEFINITION ( 'UNKNOWN', '', #281, #212 ) ;
#97 = ORIENTED_EDGE ( 'NONE', *, *, #22, .T. ) ;
#98 = DIRECTION ( 'NONE',  ( 0.000000000000000000, 0.000000000000000000, -1.000000000000000000 ) ) ;
#99 = VERTEX_POINT ( 'NONE', #123 ) ;
#100 = FACE_OUTER_BOUND ( 'NONE', #5, .T. ) ;
#101 = FILL_AREA_STYLE_COLOUR ( '', #11 ) ;
#102 = CARTESIAN_POINT ( 'NONE',  ( -550.0461917754549859, 201.7615598902029888, -204.4711914092890197 ) ) ;
#103 =( NAMED_UNIT ( * ) SI_UNIT ( $, .STERADIAN. ) SOLID_ANGLE_UNIT ( ) );
#104 = SURFACE_STYLE_FILL_AREA ( #233 ) ;
#105 = SURFACE_SIDE_STYLE ('',( #163 ) ) ;
#106 = EDGE_CURVE ( 'NONE', #99, #192, #48, .T. ) ;
#107 = ORIENTED_EDGE ( 'NONE', *, *, #83, .T. ) ;
#108 = EDGE_LOOP ( 'NONE', ( #221, #134, #172, #112 ) ) ;
#109 = FACE_OUTER_BOUND ( 'NONE', #94, .T. ) ;
#110 = VECTOR ( 'NONE', #15, 1000.000000000000000 ) ;
#111 = STYLED_ITEM ( 'NONE', ( #70 ), #290 ) ;
#112 = ORIENTED_EDGE ( 'NONE', *, *, #62, .T. ) ;
#113 = DIRECTION ( 'NONE',  ( 0.000000000000000000, 1.000000000000000000, 0.000000000000000000 ) ) ;
#114 = CARTESIAN_POINT ( 'NONE',  ( 441.9538082245450141, 201.7615598902029888, 247.5288085907110087 ) ) ;
#115 =( LENGTH_UNIT ( ) NAMED_UNIT ( * ) SI_UNIT ( .MILLI., .METRE. ) );
#116 = ORIENTED_EDGE ( 'NONE', *, *, #106, .T. ) ;
#117 = DIRECTION ( 'NONE',  ( 0.000000000000000000, 0.000000000000000000, 1.000000000000000000 ) ) ;
#118 = MECHANICAL_DESIGN_GEOMETRIC_PRESENTATION_REPRESENTATION (  '', ( #13 ), #76 ) ;
#119 = DIRECTION ( 'NONE',  ( 0.000000000000000000, -1.000000000000000000, 0.000000000000000000 ) ) ;
#120 = ORIENTED_EDGE ( 'NONE', *, *, #49, .F. ) ;
#121 = CARTESIAN_POINT ( 'NONE',  ( -550.0461917754549859, 201.7615598902029888, 247.5288085907110087 ) ) ;
#122 = CARTESIAN_POINT ( 'NONE',  ( 441.9538082245450141, 201.7615598902029888, -204.4711914092890197 ) ) ;
#123 = CARTESIAN_POINT ( 'NONE',  ( -550.0461917754549859, 201.7615598902029888, -204.4711914092890197 ) ) ;
#124 = COLOUR_RGB ( '',0.7921568627450980005, 0.8196078431372548767, 0.9333333333333333481 ) ;
#125 =( GEOMETRIC_REPRESENTATION_CONTEXT ( 3 ) GLOBAL_UNCERTAINTY_ASSIGNED_CONTEXT ( ( #9 ) ) GLOBAL_UNIT_ASSIGNED_CONTEXT ( ( #283, #38, #66 ) ) REPRESENTATION_CONTEXT ( 'NONE', 'WORKASPACE' ) );
#126 = CARTESIAN_POINT ( 'NONE',  ( 441.9538082245450141, 161.7615598902029888, -204.4711914092890197 ) ) ;
#127 = VECTOR ( 'NONE', #119, 1000.000000000000000 ) ;
#128 = PLANE ( 'NONE',  #30 ) ;
#129 = LINE ( 'NONE', #88, #59 ) ;
#130 = PRESENTATION_STYLE_ASSIGNMENT (( #41 ) ) ;
#131 =( NAMED_UNIT ( * ) PLANE_ANGLE_UNIT ( ) SI_UNIT ( $, .RADIAN. ) );
#132 = DIRECTION ( 'NONE',  ( 1.000000000000000000, 0.000000000000000000, 0.000000000000000000 ) ) ;
#133 = ORIENTED_EDGE ( 'NONE', *, *, #83, .F. ) ;
#134 = ORIENTED_EDGE ( 'NONE', *, *, #196, .F. ) ;
#135 = APPLICATION_PROTOCOL_DEFINITION ( 'draft international standard', 'automotive_design', 1998, #241 ) ;
#136 = PLANE ( 'NONE',  #227 ) ;
#137 = UNCERTAINTY_MEASURE_WITH_UNIT (LENGTH_MEASURE( 1.000000000000000082E-05 ), #248, 'distance_accuracy_value', 'NONE');
#138 = DIRECTION ( 'NONE',  ( 0.000000000000000000, -1.000000000000000000, 0.000000000000000000 ) ) ;
#139 =( NAMED_UNIT ( * ) PLANE_ANGLE_UNIT ( ) SI_UNIT ( $, .RADIAN. ) );
#140 = UNCERTAINTY_MEASURE_WITH_UNIT (LENGTH_MEASURE( 1.000000000000000082E-05 ), #150, 'distance_accuracy_value', 'NONE');
#141 = CARTESIAN_POINT ( 'NONE',  ( -550.0461917754549859, 161.7615598902029888, -204.4711914092890197 ) ) ;
#142 = COLOUR_RGB ( '',0.7921568627450980005, 0.8196078431372548767, 0.9333333333333333481 ) ;
#143 =( GEOMETRIC_REPRESENTATION_CONTEXT ( 3 ) GLOBAL_UNCERTAINTY_ASSIGNED_CONTEXT ( ( #182 ) ) GLOBAL_UNIT_ASSIGNED_CONTEXT ( ( #58, #208, #211 ) ) REPRESENTATION_CONTEXT ( 'NONE', 'WORKASPACE' ) );
#144 = SURFACE_SIDE_STYLE ('',( #262 ) ) ;
#145 = MECHANICAL_DESIGN_GEOMETRIC_PRESENTATION_REPRESENTATION (  '', ( #202 ), #191 ) ;
#146 = DIRECTION ( 'NONE',  ( 0.000000000000000000, 0.000000000000000000, -1.000000000000000000 ) ) ;
#147 = SURFACE_STYLE_FILL_AREA ( #170 ) ;
#148 = EDGE_CURVE ( 'NONE', #177, #47, #274, .T. ) ;
#149 = ORIENTED_EDGE ( 'NONE', *, *, #196, .T. ) ;
#150 =( LENGTH_UNIT ( ) NAMED_UNIT ( * ) SI_UNIT ( .MILLI., .METRE. ) );
#151 = MECHANICAL_DESIGN_GEOMETRIC_PRESENTATION_REPRESENTATION (  '', ( #34 ), #71 ) ;
#152 = ORIENTED_EDGE ( 'NONE', *, *, #156, .F. ) ;
#153 =( NAMED_UNIT ( * ) PLANE_ANGLE_UNIT ( ) SI_UNIT ( $, .RADIAN. ) );
#154 = ORIENTED_EDGE ( 'NONE', *, *, #106, .F. ) ;
#155 = FILL_AREA_STYLE ('',( #272 ) ) ;
#156 = EDGE_CURVE ( 'NONE', #291, #92, #23, .T. ) ;
#157 =( NAMED_UNIT ( * ) SI_UNIT ( $, .STERADIAN. ) SOLID_ANGLE_UNIT ( ) );
#158 = PRESENTATION_STYLE_ASSIGNMENT (( #164 ) ) ;
#159 = SURFACE_SIDE_STYLE ('',( #104 ) ) ;
#160 =( NAMED_UNIT ( * ) SI_UNIT ( $, .STERADIAN. ) SOLID_ANGLE_UNIT ( ) );
#161 = PRESENTATION_STYLE_ASSIGNMENT (( #77 ) ) ;
#162 = PRESENTATION_STYLE_ASSIGNMENT (( #52 ) ) ;
#163 = SURFACE_STYLE_FILL_AREA ( #231 ) ;
#164 = SURFACE_STYLE_USAGE ( .BOTH. , #82 ) ;
#165 = ADVANCED_FACE ( 'NONE', ( #100 ), #226, .F. ) ;
#166 = PRODUCT_CONTEXT ( 'NONE', #241, 'mechanical' ) ;
#167 = EDGE_CURVE ( 'NONE', #99, #291, #210, .T. ) ;
#168 = ORIENTED_EDGE ( 'NONE', *, *, #156, .T. ) ;
#169 = CARTESIAN_POINT ( 'NONE',  ( -550.0461917754549859, 161.7615598902029888, 247.5288085907110087 ) ) ;
#170 = FILL_AREA_STYLE ('',( #90 ) ) ;
#171 = SURFACE_STYLE_FILL_AREA ( #155 ) ;
#172 = ORIENTED_EDGE ( 'NONE', *, *, #148, .F. ) ;
#173 =( LENGTH_UNIT ( ) NAMED_UNIT ( * ) SI_UNIT ( .MILLI., .METRE. ) );
#174 = COLOUR_RGB ( '',0.7921568627450980005, 0.8196078431372548767, 0.9333333333333333481 ) ;
#175 = PRESENTATION_LAYER_ASSIGNMENT (  '', '', ( #202 ) ) ;
#176 = CARTESIAN_POINT ( 'NONE',  ( -550.0461917754549859, 201.7615598902029888, -204.4711914092890197 ) ) ;
#177 = VERTEX_POINT ( 'NONE', #257 ) ;
#178 =( NAMED_UNIT ( * ) SI_UNIT ( $, .STERADIAN. ) SOLID_ANGLE_UNIT ( ) );
#179 = PRESENTATION_STYLE_ASSIGNMENT (( #79 ) ) ;
#180 = ORIENTED_EDGE ( 'NONE', *, *, #167, .F. ) ;
#181 = FILL_AREA_STYLE_COLOUR ( '', #215 ) ;
#182 = UNCERTAINTY_MEASURE_WITH_UNIT (LENGTH_MEASURE( 1.000000000000000082E-05 ), #58, 'distance_accuracy_value', 'NONE');
#183 = FILL_AREA_STYLE_COLOUR ( '', #213 ) ;
#184 =( NAMED_UNIT ( * ) PLANE_ANGLE_UNIT ( ) SI_UNIT ( $, .RADIAN. ) );
#185 = FACE_OUTER_BOUND ( 'NONE', #265, .T. ) ;
#186 = CARTESIAN_POINT ( 'NONE',  ( 0.000000000000000000, 0.000000000000000000, 0.000000000000000000 ) ) ;
#187 = UNCERTAINTY_MEASURE_WITH_UNIT (LENGTH_MEASURE( 1.000000000000000082E-05 ), #53, 'distance_accuracy_value', 'NONE');
#188 = LINE ( 'NONE', #122, #127 ) ;
#189 = SHAPE_DEFINITION_REPRESENTATION ( #17, #246 ) ;
#190 = UNCERTAINTY_MEASURE_WITH_UNIT (LENGTH_MEASURE( 1.000000000000000082E-05 ), #115, 'distance_accuracy_value', 'NONE');
#191 =( GEOMETRIC_REPRESENTATION_CONTEXT ( 3 ) GLOBAL_UNCERTAINTY_ASSIGNED_CONTEXT ( ( #60 ) ) GLOBAL_UNIT_ASSIGNED_CONTEXT ( ( #27, #18, #24 ) ) REPRESENTATION_CONTEXT ( 'NONE', 'WORKASPACE' ) );
#192 = VERTEX_POINT ( 'NONE', #141 ) ;
#193 = CARTESIAN_POINT ( 'NONE',  ( -54.04619177545500008, 161.7615598902029888, 21.52880859071100161 ) ) ;
#194 = VECTOR ( 'NONE', #204, 1000.000000000000000 ) ;
#195 =( NAMED_UNIT ( * ) SI_UNIT ( $, .STERADIAN. ) SOLID_ANGLE_UNIT ( ) );
#196 = EDGE_CURVE ( 'NONE', #47, #20, #188, .T. ) ;
#197 =( GEOMETRIC_REPRESENTATION_CONTEXT ( 3 ) GLOBAL_UNCERTAINTY_ASSIGNED_CONTEXT ( ( #187 ) ) GLOBAL_UNIT_ASSIGNED_CONTEXT ( ( #53, #139, #160 ) ) REPRESENTATION_CONTEXT ( 'NONE', 'WORKASPACE' ) );
#198 = SURFACE_SIDE_STYLE ('',( #171 ) ) ;
#199 = FACE_OUTER_BOUND ( 'NONE', #1, .T. ) ;
#200 = DIRECTION ( 'NONE',  ( 0.000000000000000000, 0.000000000000000000, 1.000000000000000000 ) ) ;
#201 = EDGE_LOOP ( 'NONE', ( #266, #205, #120, #168 ) ) ;
#202 = STYLED_ITEM ( 'NONE', ( #158 ), #247 ) ;
#203 = SURFACE_STYLE_FILL_AREA ( #81 ) ;
#204 = DIRECTION ( 'NONE',  ( -1.000000000000000000, 0.000000000000000000, 0.000000000000000000 ) ) ;
#205 = ORIENTED_EDGE ( 'NONE', *, *, #62, .F. ) ;
#206 = SURFACE_STYLE_FILL_AREA ( #75 ) ;
#207 =( NAMED_UNIT ( * ) PLANE_ANGLE_UNIT ( ) SI_UNIT ( $, .RADIAN. ) );
#208 =( NAMED_UNIT ( * ) PLANE_ANGLE_UNIT ( ) SI_UNIT ( $, .RADIAN. ) );
#209 = PRESENTATION_LAYER_ASSIGNMENT (  '', '', ( #244 ) ) ;
#210 = LINE ( 'NONE', #234, #26 ) ;
#211 =( NAMED_UNIT ( * ) SI_UNIT ( $, .STERADIAN. ) SOLID_ANGLE_UNIT ( ) );
#212 = PRODUCT_DEFINITION_CONTEXT ( 'detailed design', #32, 'design' ) ;
#213 = COLOUR_RGB ( '',0.7921568627450980005, 0.8196078431372548767, 0.9333333333333333481 ) ;
#214 = PRESENTATION_LAYER_ASSIGNMENT (  '', '', ( #13 ) ) ;
#215 = COLOUR_RGB ( '',0.7921568627450980005, 0.8196078431372548767, 0.9333333333333333481 ) ;
#216 = CARTESIAN_POINT ( 'NONE',  ( -550.0461917754549859, 201.7615598902029888, 247.5288085907110087 ) ) ;
#217 = DIRECTION ( 'NONE',  ( 0.000000000000000000, -1.000000000000000000, 0.000000000000000000 ) ) ;
#218 = FACE_OUTER_BOUND ( 'NONE', #108, .T. ) ;
#219 = FILL_AREA_STYLE ('',( #282 ) ) ;
#220 = MECHANICAL_DESIGN_GEOMETRIC_PRESENTATION_REPRESENTATION (  '', ( #254 ), #143 ) ;
#221 = ORIENTED_EDGE ( 'NONE', *, *, #39, .T. ) ;
#222 = PLANE ( 'NONE',  #280 ) ;
#223 = ORIENTED_EDGE ( 'NONE', *, *, #39, .F. ) ;
#224 = DIRECTION ( 'NONE',  ( -1.000000000000000000, 0.000000000000000000, 0.000000000000000000 ) ) ;
#225 = VERTEX_POINT ( 'NONE', #7 ) ;
#226 = PLANE ( 'NONE',  #239 ) ;
#227 = AXIS2_PLACEMENT_3D ( 'NONE', #114, #224, #200 ) ;
#228 = DIRECTION ( 'NONE',  ( 0.000000000000000000, -1.000000000000000000, 0.000000000000000000 ) ) ;
#229 = DIRECTION ( 'NONE',  ( 1.000000000000000000, 0.000000000000000000, 0.000000000000000000 ) ) ;
#230 =( LENGTH_UNIT ( ) NAMED_UNIT ( * ) SI_UNIT ( .MILLI., .METRE. ) );
#231 = FILL_AREA_STYLE ('',( #2 ) ) ;
#232 = APPLICATION_PROTOCOL_DEFINITION ( 'draft international standard', 'automotive_design', 1998, #32 ) ;
#233 = FILL_AREA_STYLE ('',( #183 ) ) ;
#234 = CARTESIAN_POINT ( 'NONE',  ( -550.0461917754549859, 201.7615598902029888, 247.5288085907110087 ) ) ;
#235 = AXIS2_PLACEMENT_3D ( 'NONE', #276, #98, #270 ) ;
#236 = VECTOR ( 'NONE', #57, 1000.000000000000000 ) ;
#237 = PRESENTATION_STYLE_ASSIGNMENT (( #16 ) ) ;
#238 = PRESENTATION_LAYER_ASSIGNMENT (  '', '', ( #84 ) ) ;
#239 = AXIS2_PLACEMENT_3D ( 'NONE', #74, #138, #29 ) ;
#240 = LINE ( 'NONE', #87, #253 ) ;
#241 = APPLICATION_CONTEXT ( 'automotive_design' ) ;
#242 = SURFACE_SIDE_STYLE ('',( #147 ) ) ;
#243 = CARTESIAN_POINT ( 'NONE',  ( -550.0461917754549859, 201.7615598902029888, 247.5288085907110087 ) ) ;
#244 = STYLED_ITEM ( 'NONE', ( #130 ), #67 ) ;
#245 = MECHANICAL_DESIGN_GEOMETRIC_PRESENTATION_REPRESENTATION (  '', ( #111 ), #65 ) ;
#246 = ADVANCED_BREP_SHAPE_REPRESENTATION ( 'UN100T', ( #91, #261 ), #61 ) ;
#247 = ADVANCED_FACE ( 'NONE', ( #185 ), #252, .F. ) ;
#248 =( LENGTH_UNIT ( ) NAMED_UNIT ( * ) SI_UNIT ( .MILLI., .METRE. ) );
#249 = ORIENTED_EDGE ( 'NONE', *, *, #22, .F. ) ;
#250 = SURFACE_STYLE_FILL_AREA ( #269 ) ;
#251 = CARTESIAN_POINT ( 'NONE',  ( 441.9538082245450141, 201.7615598902029888, 247.5288085907110087 ) ) ;
#252 = PLANE ( 'NONE',  #89 ) ;
#253 = VECTOR ( 'NONE', #86, 1000.000000000000000 ) ;
#254 = STYLED_ITEM ( 'NONE', ( #161 ), #246 ) ;
#255 = PLANE ( 'NONE',  #235 ) ;
#256 = CARTESIAN_POINT ( 'NONE',  ( -550.0461917754549859, 161.7615598902029888, 247.5288085907110087 ) ) ;
#257 = CARTESIAN_POINT ( 'NONE',  ( 441.9538082245450141, 201.7615598902029888, 247.5288085907110087 ) ) ;
#258 = PRESENTATION_LAYER_ASSIGNMENT (  '', '', ( #34 ) ) ;
#259 = PRESENTATION_LAYER_ASSIGNMENT (  '', '', ( #254 ) ) ;
#260 = EDGE_CURVE ( 'NONE', #192, #92, #45, .T. ) ;
#261 = AXIS2_PLACEMENT_3D ( 'NONE', #186, #278, #56 ) ;
#262 = SURFACE_STYLE_FILL_AREA ( #219 ) ;
#263 = CARTESIAN_POINT ( 'NONE',  ( -550.0461917754549859, 161.7615598902029888, -204.4711914092890197 ) ) ;
#264 = VECTOR ( 'NONE', #228, 1000.000000000000000 ) ;
#265 = EDGE_LOOP ( 'NONE', ( #72, #152, #180, #116 ) ) ;
#266 = ORIENTED_EDGE ( 'NONE', *, *, #33, .T. ) ;
#267 = DIRECTION ( 'NONE',  ( 0.000000000000000000, 0.000000000000000000, 1.000000000000000000 ) ) ;
#268 = MECHANICAL_DESIGN_GEOMETRIC_PRESENTATION_REPRESENTATION (  '', ( #244 ), #95 ) ;
#269 = FILL_AREA_STYLE ('',( #101 ) ) ;
#270 = DIRECTION ( 'NONE',  ( 0.000000000000000000, -1.000000000000000000, 0.000000000000000000 ) ) ;
#271 = ORIENTED_EDGE ( 'NONE', *, *, #167, .T. ) ;
#272 = FILL_AREA_STYLE_COLOUR ( '', #142 ) ;
#273 =( NAMED_UNIT ( * ) SI_UNIT ( $, .STERADIAN. ) SOLID_ANGLE_UNIT ( ) );
#274 = LINE ( 'NONE', #251, #236 ) ;
#275 = SURFACE_SIDE_STYLE ('',( #206 ) ) ;
#276 = CARTESIAN_POINT ( 'NONE',  ( -550.0461917754549859, 201.7615598902029888, 247.5288085907110087 ) ) ;
#277 = FILL_AREA_STYLE_COLOUR ( '', #124 ) ;
#278 = DIRECTION ( 'NONE',  ( 0.000000000000000000, 0.000000000000000000, 1.000000000000000000 ) ) ;
#279 = DIRECTION ( 'NONE',  ( 0.000000000000000000, 0.000000000000000000, 1.000000000000000000 ) ) ;
#280 = AXIS2_PLACEMENT_3D ( 'NONE', #176, #117, #132 ) ;
#281 = PRODUCT_DEFINITION_FORMATION_WITH_SPECIFIED_SOURCE ( 'ANY', '', #40, .NOT_KNOWN. ) ;
#282 = FILL_AREA_STYLE_COLOUR ( '', #174 ) ;
#283 =( LENGTH_UNIT ( ) NAMED_UNIT ( * ) SI_UNIT ( .MILLI., .METRE. ) );
#284 = DIRECTION ( 'NONE',  ( 0.000000000000000000, -1.000000000000000000, 0.000000000000000000 ) ) ;
#285 = COLOUR_RGB ( '',0.7921568627450980005, 0.8196078431372548767, 0.9333333333333333481 ) ;
#286 = LINE ( 'NONE', #263, #51 ) ;
#287 = ORIENTED_EDGE ( 'NONE', *, *, #148, .T. ) ;
#288 = SURFACE_STYLE_USAGE ( .BOTH. , #198 ) ;
#289 = CARTESIAN_POINT ( 'NONE',  ( 441.9538082245450141, 201.7615598902029888, -204.4711914092890197 ) ) ;
#290 = ADVANCED_FACE ( 'NONE', ( #218 ), #136, .F. ) ;
#291 = VERTEX_POINT ( 'NONE', #292 ) ;
#292 = CARTESIAN_POINT ( 'NONE',  ( -550.0461917754549859, 201.7615598902029888, 247.5288085907110087 ) ) ;
ENDSEC;
END-ISO-10303-21;
