ISO-10303-21;
HEADER;
FILE_DESCRIPTION (( 'STEP AP214' ),
    '1' );
FILE_NAME ('UN100T.STEP',
    '2022-11-30T09:36:39',
    ( '' ),
    ( '' ),
    'SwSTEP 2.0',
    'SolidWorks 2019',
    '' );
FILE_SCHEMA (( 'AUTOMOTIVE_DESIGN' ));
ENDSEC;

DATA;
#1 = CARTESIAN_POINT ( 'NONE',  ( 499.9999999999998863, 25.00000000000000000, 230.0000000000000000 ) ) ;
#2 = EDGE_CURVE ( 'NONE', #163, #106, #58, .T. ) ;
#3 = UNCERTAINTY_MEASURE_WITH_UNIT (LENGTH_MEASURE( 1.000000000000000082E-05 ), #115, 'distance_accuracy_value', 'NONE');
#4 = SURFACE_SIDE_STYLE ('',( #91 ) ) ;
#5 = CARTESIAN_POINT ( 'NONE',  ( 499.9999999999998863, 0.000000000000000000, 230.0000000000000000 ) ) ;
#6 = DIRECTION ( 'NONE',  ( 1.000000000000000000, 0.000000000000000000, -0.000000000000000000 ) ) ;
#7 = CARTESIAN_POINT ( 'NONE',  ( -500.0000000000000000, 25.00000000000000000, -230.0000000000000000 ) ) ;
#8 = ADVANCED_FACE ( 'NONE', ( #76 ), #138, .F. ) ;
#9 = CARTESIAN_POINT ( 'NONE',  ( 499.9999999999998863, 0.000000000000000000, -230.0000000000000000 ) ) ;
#10 = ORIENTED_EDGE ( 'NONE', *, *, #107, .F. ) ;
#11 = ORIENTED_EDGE ( 'NONE', *, *, #60, .T. ) ;
#12 = AXIS2_PLACEMENT_3D ( 'NONE', #16, #94, #139 ) ;
#13 = EDGE_LOOP ( 'NONE', ( #184, #85, #25, #42 ) ) ;
#14 = ORIENTED_EDGE ( 'NONE', *, *, #90, .F. ) ;
#15 = LINE ( 'NONE', #108, #116 ) ;
#16 = CARTESIAN_POINT ( 'NONE',  ( 499.9999999999998863, 25.00000000000000000, 230.0000000000000000 ) ) ;
#17 =( LENGTH_UNIT ( ) NAMED_UNIT ( * ) SI_UNIT ( .MILLI., .METRE. ) );
#18 = PLANE ( 'NONE',  #190 ) ;
#19 = DIRECTION ( 'NONE',  ( 0.000000000000000000, -1.000000000000000000, 0.000000000000000000 ) ) ;
#20 = LINE ( 'NONE', #167, #57 ) ;
#21 = EDGE_CURVE ( 'NONE', #106, #170, #89, .T. ) ;
#22 = CARTESIAN_POINT ( 'NONE',  ( 499.9999999999998863, 25.00000000000000000, 230.0000000000000000 ) ) ;
#23 = SURFACE_SIDE_STYLE ('',( #96 ) ) ;
#24 =( NAMED_UNIT ( * ) PLANE_ANGLE_UNIT ( ) SI_UNIT ( $, .RADIAN. ) );
#25 = ORIENTED_EDGE ( 'NONE', *, *, #2, .F. ) ;
#26 = PRESENTATION_STYLE_ASSIGNMENT (( #103 ) ) ;
#27 = ORIENTED_EDGE ( 'NONE', *, *, #147, .T. ) ;
#28 = DIRECTION ( 'NONE',  ( 0.000000000000000000, 0.000000000000000000, 1.000000000000000000 ) ) ;
#29 = VERTEX_POINT ( 'NONE', #5 ) ;
#30 = VECTOR ( 'NONE', #44, 1000.000000000000000 ) ;
#31 = ORIENTED_EDGE ( 'NONE', *, *, #83, .F. ) ;
#32 = UNCERTAINTY_MEASURE_WITH_UNIT (LENGTH_MEASURE( 1.000000000000000082E-05 ), #17, 'distance_accuracy_value', 'NONE');
#33 = FILL_AREA_STYLE ('',( #176 ) ) ;
#34 = APPLICATION_CONTEXT ( 'automotive_design' ) ;
#35 = DIRECTION ( 'NONE',  ( -1.000000000000000000, -0.000000000000000000, -0.000000000000000000 ) ) ;
#36 = ADVANCED_FACE ( 'NONE', ( #159 ), #18, .F. ) ;
#37 = FILL_AREA_STYLE ('',( #70 ) ) ;
#38 = APPLICATION_PROTOCOL_DEFINITION ( 'draft international standard', 'automotive_design', 1998, #34 ) ;
#39 = LINE ( 'NONE', #100, #88 ) ;
#40 = STYLED_ITEM ( 'NONE', ( #189 ), #118 ) ;
#41 = COLOUR_RGB ( '',0.7921568627450980005, 0.8196078431372548767, 0.9333333333333333481 ) ;
#42 = ORIENTED_EDGE ( 'NONE', *, *, #107, .T. ) ;
#43 =( LENGTH_UNIT ( ) NAMED_UNIT ( * ) SI_UNIT ( .MILLI., .METRE. ) );
#44 = DIRECTION ( 'NONE',  ( 0.000000000000000000, 0.000000000000000000, -1.000000000000000000 ) ) ;
#45 =( GEOMETRIC_REPRESENTATION_CONTEXT ( 3 ) GLOBAL_UNCERTAINTY_ASSIGNED_CONTEXT ( ( #32 ) ) GLOBAL_UNIT_ASSIGNED_CONTEXT ( ( #17, #129, #198 ) ) REPRESENTATION_CONTEXT ( 'NONE', 'WORKASPACE' ) );
#46 = VERTEX_POINT ( 'NONE', #63 ) ;
#47 = CARTESIAN_POINT ( 'NONE',  ( -500.0000000000000000, 25.00000000000000000, 230.0000000000000000 ) ) ;
#48 = DIRECTION ( 'NONE',  ( 1.000000000000000000, -0.000000000000000000, 0.000000000000000000 ) ) ;
#49 = CLOSED_SHELL ( 'NONE', ( #79, #146, #8, #191, #36, #197 ) ) ;
#50 = CARTESIAN_POINT ( 'NONE',  ( -500.0000000000000000, 25.00000000000000000, 230.0000000000000000 ) ) ;
#51 = EDGE_CURVE ( 'NONE', #170, #154, #62, .T. ) ;
#52 = CARTESIAN_POINT ( 'NONE',  ( -500.0000000000000000, 25.00000000000000000, 230.0000000000000000 ) ) ;
#53 = LINE ( 'NONE', #150, #117 ) ;
#54 = DIRECTION ( 'NONE',  ( -1.000000000000000000, 0.000000000000000000, -0.000000000000000000 ) ) ;
#55 = AXIS2_PLACEMENT_3D ( 'NONE', #50, #48, #157 ) ;
#56 = DIRECTION ( 'NONE',  ( 0.000000000000000000, 0.000000000000000000, -1.000000000000000000 ) ) ;
#57 = VECTOR ( 'NONE', #97, 1000.000000000000000 ) ;
#58 = LINE ( 'NONE', #61, #30 ) ;
#59 = ORIENTED_EDGE ( 'NONE', *, *, #21, .T. ) ;
#60 = EDGE_CURVE ( 'NONE', #46, #102, #15, .T. ) ;
#61 = CARTESIAN_POINT ( 'NONE',  ( 499.9999999999998863, 25.00000000000000000, 230.0000000000000000 ) ) ;
#62 = LINE ( 'NONE', #156, #125 ) ;
#63 = CARTESIAN_POINT ( 'NONE',  ( -500.0000000000000000, 25.00000000000000000, 230.0000000000000000 ) ) ;
#64 = SURFACE_STYLE_USAGE ( .BOTH. , #4 ) ;
#65 = VECTOR ( 'NONE', #77, 1000.000000000000000 ) ;
#66 = DIRECTION ( 'NONE',  ( 0.000000000000000000, -1.000000000000000000, 0.000000000000000000 ) ) ;
#67 = DIRECTION ( 'NONE',  ( -0.000000000000000000, -1.000000000000000000, -0.000000000000000000 ) ) ;
#68 = DIRECTION ( 'NONE',  ( -1.000000000000000000, -0.000000000000000000, -0.000000000000000000 ) ) ;
#69 = DIRECTION ( 'NONE',  ( 1.000000000000000000, 0.000000000000000000, 0.000000000000000000 ) ) ;
#70 = FILL_AREA_STYLE_COLOUR ( '', #41 ) ;
#71 = LINE ( 'NONE', #98, #137 ) ;
#72 = PLANE ( 'NONE',  #151 ) ;
#73 = AXIS2_PLACEMENT_3D ( 'NONE', #183, #28, #200 ) ;
#74 = ORIENTED_EDGE ( 'NONE', *, *, #60, .F. ) ;
#75 =( GEOMETRIC_REPRESENTATION_CONTEXT ( 3 ) GLOBAL_UNCERTAINTY_ASSIGNED_CONTEXT ( ( #3 ) ) GLOBAL_UNIT_ASSIGNED_CONTEXT ( ( #115, #180, #113 ) ) REPRESENTATION_CONTEXT ( 'NONE', 'WORKASPACE' ) );
#76 = FACE_OUTER_BOUND ( 'NONE', #172, .T. ) ;
#77 = DIRECTION ( 'NONE',  ( 1.000000000000000000, 0.000000000000000000, 0.000000000000000000 ) ) ;
#78 = DIRECTION ( 'NONE',  ( -0.000000000000000000, -0.000000000000000000, 1.000000000000000000 ) ) ;
#79 = ADVANCED_FACE ( 'NONE', ( #126 ), #124, .F. ) ;
#80 = COLOUR_RGB ( '',0.7921568627450980005, 0.8196078431372548767, 0.9333333333333333481 ) ;
#81 = LINE ( 'NONE', #145, #143 ) ;
#82 = CARTESIAN_POINT ( 'NONE',  ( -500.0000000000000000, 25.00000000000000000, -230.0000000000000000 ) ) ;
#83 = EDGE_CURVE ( 'NONE', #154, #102, #81, .T. ) ;
#84 =( NAMED_UNIT ( * ) SI_UNIT ( $, .STERADIAN. ) SOLID_ANGLE_UNIT ( ) );
#85 = ORIENTED_EDGE ( 'NONE', *, *, #147, .F. ) ;
#86 = PRODUCT ( 'UN100T', 'UN100T', '', ( #104 ) ) ;
#87 = ORIENTED_EDGE ( 'NONE', *, *, #51, .T. ) ;
#88 = VECTOR ( 'NONE', #68, 1000.000000000000000 ) ;
#89 = LINE ( 'NONE', #140, #179 ) ;
#90 = EDGE_CURVE ( 'NONE', #46, #163, #142, .T. ) ;
#91 = SURFACE_STYLE_FILL_AREA ( #33 ) ;
#92 = EDGE_LOOP ( 'NONE', ( #136, #175, #31, #120 ) ) ;
#93 = PRODUCT_RELATED_PRODUCT_CATEGORY ( 'part', '', ( #86 ) ) ;
#94 = DIRECTION ( 'NONE',  ( -1.000000000000000000, 0.000000000000000000, 0.000000000000000000 ) ) ;
#95 = EDGE_LOOP ( 'NONE', ( #171, #59, #155, #133 ) ) ;
#96 = SURFACE_STYLE_FILL_AREA ( #37 ) ;
#97 = DIRECTION ( 'NONE',  ( -0.000000000000000000, -1.000000000000000000, -0.000000000000000000 ) ) ;
#98 = CARTESIAN_POINT ( 'NONE',  ( 499.9999999999998863, 0.000000000000000000, 230.0000000000000000 ) ) ;
#99 = MECHANICAL_DESIGN_GEOMETRIC_PRESENTATION_REPRESENTATION (  '', ( #40 ), #45 ) ;
#100 = CARTESIAN_POINT ( 'NONE',  ( -500.0000000000000000, 0.000000000000000000, -230.0000000000000000 ) ) ;
#101 = PRODUCT_DEFINITION ( 'UNKNOWN', '', #174, #158 ) ;
#102 = VERTEX_POINT ( 'NONE', #109 ) ;
#103 = SURFACE_STYLE_USAGE ( .BOTH. , #23 ) ;
#104 = PRODUCT_CONTEXT ( 'NONE', #34, 'mechanical' ) ;
#105 = PRODUCT_DEFINITION_SHAPE ( 'NONE', 'NONE',  #101 ) ;
#106 = VERTEX_POINT ( 'NONE', #193 ) ;
#107 = EDGE_CURVE ( 'NONE', #163, #29, #112, .T. ) ;
#108 = CARTESIAN_POINT ( 'NONE',  ( -500.0000000000000000, 25.00000000000000000, 230.0000000000000000 ) ) ;
#109 = CARTESIAN_POINT ( 'NONE',  ( -500.0000000000000000, 0.000000000000000000, 230.0000000000000000 ) ) ;
#110 = DIRECTION ( 'NONE',  ( 0.000000000000000000, -0.000000000000000000, -1.000000000000000000 ) ) ;
#111 = PRESENTATION_LAYER_ASSIGNMENT (  '', '', ( #202 ) ) ;
#112 = LINE ( 'NONE', #1, #173 ) ;
#113 =( NAMED_UNIT ( * ) SI_UNIT ( $, .STERADIAN. ) SOLID_ANGLE_UNIT ( ) );
#114 = EDGE_CURVE ( 'NONE', #170, #46, #186, .T. ) ;
#115 =( LENGTH_UNIT ( ) NAMED_UNIT ( * ) SI_UNIT ( .MILLI., .METRE. ) );
#116 = VECTOR ( 'NONE', #67, 1000.000000000000000 ) ;
#117 = VECTOR ( 'NONE', #69, 1000.000000000000000 ) ;
#118 = MANIFOLD_SOLID_BREP ( 'Boss-Extrude1', #49 ) ;
#119 = ADVANCED_BREP_SHAPE_REPRESENTATION ( 'UN100T', ( #118, #73 ), #75 ) ;
#120 = ORIENTED_EDGE ( 'NONE', *, *, #162, .F. ) ;
#121 = ORIENTED_EDGE ( 'NONE', *, *, #51, .F. ) ;
#122 = APPLICATION_PROTOCOL_DEFINITION ( 'draft international standard', 'automotive_design', 1998, #141 ) ;
#123 = FACE_OUTER_BOUND ( 'NONE', #160, .T. ) ;
#124 = PLANE ( 'NONE',  #12 ) ;
#125 = VECTOR ( 'NONE', #127, 1000.000000000000000 ) ;
#126 = FACE_OUTER_BOUND ( 'NONE', #13, .T. ) ;
#127 = DIRECTION ( 'NONE',  ( -0.000000000000000000, -1.000000000000000000, -0.000000000000000000 ) ) ;
#128 = CARTESIAN_POINT ( 'NONE',  ( -500.0000000000000000, 25.00000000000000000, 230.0000000000000000 ) ) ;
#129 =( NAMED_UNIT ( * ) PLANE_ANGLE_UNIT ( ) SI_UNIT ( $, .RADIAN. ) );
#130 = PLANE ( 'NONE',  #168 ) ;
#131 = DIRECTION ( 'NONE',  ( 0.000000000000000000, 0.000000000000000000, -1.000000000000000000 ) ) ;
#132 = FACE_OUTER_BOUND ( 'NONE', #92, .T. ) ;
#133 = ORIENTED_EDGE ( 'NONE', *, *, #90, .T. ) ;
#134 = ORIENTED_EDGE ( 'NONE', *, *, #21, .F. ) ;
#135 = AXIS2_PLACEMENT_3D ( 'NONE', #7, #164, #6 ) ;
#136 = ORIENTED_EDGE ( 'NONE', *, *, #169, .F. ) ;
#137 = VECTOR ( 'NONE', #56, 1000.000000000000000 ) ;
#138 = PLANE ( 'NONE',  #55 ) ;
#139 = DIRECTION ( 'NONE',  ( 0.000000000000000000, 0.000000000000000000, 1.000000000000000000 ) ) ;
#140 = CARTESIAN_POINT ( 'NONE',  ( -500.0000000000000000, 25.00000000000000000, -230.0000000000000000 ) ) ;
#141 = APPLICATION_CONTEXT ( 'automotive_design' ) ;
#142 = LINE ( 'NONE', #47, #65 ) ;
#143 = VECTOR ( 'NONE', #188, 1000.000000000000000 ) ;
#144 =( GEOMETRIC_REPRESENTATION_CONTEXT ( 3 ) GLOBAL_UNCERTAINTY_ASSIGNED_CONTEXT ( ( #187 ) ) GLOBAL_UNIT_ASSIGNED_CONTEXT ( ( #43, #24, #84 ) ) REPRESENTATION_CONTEXT ( 'NONE', 'WORKASPACE' ) );
#145 = CARTESIAN_POINT ( 'NONE',  ( -500.0000000000000000, 0.000000000000000000, 230.0000000000000000 ) ) ;
#146 = ADVANCED_FACE ( 'NONE', ( #123 ), #149, .F. ) ;
#147 = EDGE_CURVE ( 'NONE', #106, #185, #20, .T. ) ;
#148 = ORIENTED_EDGE ( 'NONE', *, *, #83, .T. ) ;
#149 = PLANE ( 'NONE',  #135 ) ;
#150 = CARTESIAN_POINT ( 'NONE',  ( -500.0000000000000000, 0.000000000000000000, 230.0000000000000000 ) ) ;
#151 = AXIS2_PLACEMENT_3D ( 'NONE', #128, #131, #54 ) ;
#152 = SHAPE_DEFINITION_REPRESENTATION ( #105, #119 ) ;
#153 = ORIENTED_EDGE ( 'NONE', *, *, #181, .T. ) ;
#154 = VERTEX_POINT ( 'NONE', #178 ) ;
#155 = ORIENTED_EDGE ( 'NONE', *, *, #114, .T. ) ;
#156 = CARTESIAN_POINT ( 'NONE',  ( -500.0000000000000000, 25.00000000000000000, -230.0000000000000000 ) ) ;
#157 = DIRECTION ( 'NONE',  ( 0.000000000000000000, 0.000000000000000000, -1.000000000000000000 ) ) ;
#158 = PRODUCT_DEFINITION_CONTEXT ( 'detailed design', #141, 'design' ) ;
#159 = FACE_OUTER_BOUND ( 'NONE', #95, .T. ) ;
#160 = EDGE_LOOP ( 'NONE', ( #199, #121, #134, #27 ) ) ;
#161 = DIRECTION ( 'NONE',  ( -0.000000000000000000, -1.000000000000000000, -0.000000000000000000 ) ) ;
#162 = EDGE_CURVE ( 'NONE', #185, #154, #39, .T. ) ;
#163 = VERTEX_POINT ( 'NONE', #22 ) ;
#164 = DIRECTION ( 'NONE',  ( 0.000000000000000000, 0.000000000000000000, 1.000000000000000000 ) ) ;
#165 = VECTOR ( 'NONE', #78, 1000.000000000000000 ) ;
#166 = FACE_OUTER_BOUND ( 'NONE', #201, .T. ) ;
#167 = CARTESIAN_POINT ( 'NONE',  ( 499.9999999999998863, 25.00000000000000000, -230.0000000000000000 ) ) ;
#168 = AXIS2_PLACEMENT_3D ( 'NONE', #194, #19, #195 ) ;
#169 = EDGE_CURVE ( 'NONE', #29, #185, #71, .T. ) ;
#170 = VERTEX_POINT ( 'NONE', #82 ) ;
#171 = ORIENTED_EDGE ( 'NONE', *, *, #2, .T. ) ;
#172 = EDGE_LOOP ( 'NONE', ( #148, #74, #182, #87 ) ) ;
#173 = VECTOR ( 'NONE', #161, 1000.000000000000000 ) ;
#174 = PRODUCT_DEFINITION_FORMATION_WITH_SPECIFIED_SOURCE ( 'ANY', '', #86, .NOT_KNOWN. ) ;
#175 = ORIENTED_EDGE ( 'NONE', *, *, #181, .F. ) ;
#176 = FILL_AREA_STYLE_COLOUR ( '', #80 ) ;
#177 = CARTESIAN_POINT ( 'NONE',  ( 0.000000000000000000, 25.00000000000000000, 0.000000000000000000 ) ) ;
#178 = CARTESIAN_POINT ( 'NONE',  ( -500.0000000000000000, 0.000000000000000000, -230.0000000000000000 ) ) ;
#179 = VECTOR ( 'NONE', #35, 1000.000000000000000 ) ;
#180 =( NAMED_UNIT ( * ) PLANE_ANGLE_UNIT ( ) SI_UNIT ( $, .RADIAN. ) );
#181 = EDGE_CURVE ( 'NONE', #102, #29, #53, .T. ) ;
#182 = ORIENTED_EDGE ( 'NONE', *, *, #114, .F. ) ;
#183 = CARTESIAN_POINT ( 'NONE',  ( 0.000000000000000000, 0.000000000000000000, 0.000000000000000000 ) ) ;
#184 = ORIENTED_EDGE ( 'NONE', *, *, #169, .T. ) ;
#185 = VERTEX_POINT ( 'NONE', #9 ) ;
#186 = LINE ( 'NONE', #52, #165 ) ;
#187 = UNCERTAINTY_MEASURE_WITH_UNIT (LENGTH_MEASURE( 1.000000000000000082E-05 ), #43, 'distance_accuracy_value', 'NONE');
#188 = DIRECTION ( 'NONE',  ( -0.000000000000000000, -0.000000000000000000, 1.000000000000000000 ) ) ;
#189 = PRESENTATION_STYLE_ASSIGNMENT (( #64 ) ) ;
#190 = AXIS2_PLACEMENT_3D ( 'NONE', #177, #66, #110 ) ;
#191 = ADVANCED_FACE ( 'NONE', ( #166 ), #72, .F. ) ;
#192 = MECHANICAL_DESIGN_GEOMETRIC_PRESENTATION_REPRESENTATION (  '', ( #202 ), #144 ) ;
#193 = CARTESIAN_POINT ( 'NONE',  ( 499.9999999999998863, 25.00000000000000000, -230.0000000000000000 ) ) ;
#194 = CARTESIAN_POINT ( 'NONE',  ( 0.000000000000000000, 0.000000000000000000, 0.000000000000000000 ) ) ;
#195 = DIRECTION ( 'NONE',  ( 0.000000000000000000, -0.000000000000000000, -1.000000000000000000 ) ) ;
#196 = PRESENTATION_LAYER_ASSIGNMENT (  '', '', ( #40 ) ) ;
#197 = ADVANCED_FACE ( 'NONE', ( #132 ), #130, .T. ) ;
#198 =( NAMED_UNIT ( * ) SI_UNIT ( $, .STERADIAN. ) SOLID_ANGLE_UNIT ( ) );
#199 = ORIENTED_EDGE ( 'NONE', *, *, #162, .T. ) ;
#200 = DIRECTION ( 'NONE',  ( 1.000000000000000000, 0.000000000000000000, 0.000000000000000000 ) ) ;
#201 = EDGE_LOOP ( 'NONE', ( #153, #10, #14, #11 ) ) ;
#202 = STYLED_ITEM ( 'NONE', ( #26 ), #119 ) ;
ENDSEC;
END-ISO-10303-21;
