ISO-10303-21;
HEADER;
FILE_DESCRIPTION (( 'STEP AP214' ),
    '1' );
FILE_NAME ('UN080T.STEP',
    '2021-03-12T16:06:40',
    ( '' ),
    ( '' ),
    'SwSTEP 2.0',
    'SolidWorks 2019',
    '' );
FILE_SCHEMA (( 'AUTOMOTIVE_DESIGN' ));
ENDSEC;

DATA;
#1 = ADVANCED_FACE ( 'NONE', ( #170 ), #265, .F. ) ;
#2 = LINE ( 'NONE', #121, #104 ) ;
#3 = DIRECTION ( 'NONE',  ( 0.000000000000000000, 0.000000000000000000, 1.000000000000000000 ) ) ;
#4 = VECTOR ( 'NONE', #167, 1000.000000000000000 ) ;
#6 =( GEOMETRIC_REPRESENTATION_CONTEXT ( 3 ) GLOBAL_UNCERTAINTY_ASSIGNED_CONTEXT ( ( #109 ) ) GLOBAL_UNIT_ASSIGNED_CONTEXT ( ( #169, #255, #231 ) ) REPRESENTATION_CONTEXT ( 'NONE', 'WORKASPACE' ) );
#5 = CARTESIAN_POINT ( 'NONE',  ( 346.9538082245440478, 161.7615598902029888, -209.4711914092890197 ) ) ;
#7 = DIRECTION ( 'NONE',  ( 0.000000000000000000, 0.000000000000000000, 1.000000000000000000 ) ) ;
#8 = SURFACE_STYLE_FILL_AREA ( #41 ) ;
#9 = VECTOR ( 'NONE', #56, 1000.000000000000000 ) ;
#10 = PLANE ( 'NONE',  #250 ) ;
#11 = SURFACE_STYLE_USAGE ( .BOTH. , #217 ) ;
#12 = MECHANICAL_DESIGN_GEOMETRIC_PRESENTATION_REPRESENTATION (  '', ( #23 ), #50 ) ;
#13 = FILL_AREA_STYLE ('',( #241 ) ) ;
#14 =( NAMED_UNIT ( * ) PLANE_ANGLE_UNIT ( ) SI_UNIT ( $, .RADIAN. ) );
#15 = FILL_AREA_STYLE ('',( #222 ) ) ;
#16 = LINE ( 'NONE', #75, #202 ) ;
#17 = EDGE_CURVE ( 'NONE', #225, #281, #2, .T. ) ;
#18 = COLOUR_RGB ( '',0.7921568627450980005, 0.8196078431372548767, 0.9333333333333333481 ) ;
#19 =( LENGTH_UNIT ( ) NAMED_UNIT ( * ) SI_UNIT ( .MILLI., .METRE. ) );
#20 = SURFACE_STYLE_FILL_AREA ( #110 ) ;
#21 = CARTESIAN_POINT ( 'NONE',  ( -455.0461917754560091, 161.7615598902029888, -209.4711914092890197 ) ) ;
#22 = DIRECTION ( 'NONE',  ( 1.000000000000000000, 0.000000000000000000, 0.000000000000000000 ) ) ;
#23 = STYLED_ITEM ( 'NONE', ( #29 ), #80 ) ;
#24 = CARTESIAN_POINT ( 'NONE',  ( -455.0461917754560091, 201.7615598902029888, -209.4711914092890197 ) ) ;
#25 = EDGE_CURVE ( 'NONE', #281, #242, #16, .T. ) ;
#26 = LINE ( 'NONE', #60, #196 ) ;
#27 = SURFACE_STYLE_FILL_AREA ( #13 ) ;
#28 = ADVANCED_BREP_SHAPE_REPRESENTATION ( 'UN080T', ( #292, #262 ), #51 ) ;
#29 = PRESENTATION_STYLE_ASSIGNMENT (( #77 ) ) ;
#30 = DIRECTION ( 'NONE',  ( 1.000000000000000000, 0.000000000000000000, 0.000000000000000000 ) ) ;
#31 = VECTOR ( 'NONE', #40, 1000.000000000000000 ) ;
#32 = COLOUR_RGB ( '',0.7921568627450980005, 0.8196078431372548767, 0.9333333333333333481 ) ;
#33 = ORIENTED_EDGE ( 'NONE', *, *, #285, .F. ) ;
#34 = PLANE ( 'NONE',  #83 ) ;
#35 = SURFACE_SIDE_STYLE ('',( #249 ) ) ;
#36 = UNCERTAINTY_MEASURE_WITH_UNIT (LENGTH_MEASURE( 1.000000000000000082E-05 ), #211, 'distance_accuracy_value', 'NONE');
#37 = DIRECTION ( 'NONE',  ( 0.000000000000000000, -1.000000000000000000, 0.000000000000000000 ) ) ;
#38 = FACE_OUTER_BOUND ( 'NONE', #127, .T. ) ;
#39 =( GEOMETRIC_REPRESENTATION_CONTEXT ( 3 ) GLOBAL_UNCERTAINTY_ASSIGNED_CONTEXT ( ( #88 ) ) GLOBAL_UNIT_ASSIGNED_CONTEXT ( ( #277, #188, #232 ) ) REPRESENTATION_CONTEXT ( 'NONE', 'WORKASPACE' ) );
#40 = DIRECTION ( 'NONE',  ( 0.000000000000000000, -1.000000000000000000, 0.000000000000000000 ) ) ;
#41 = FILL_AREA_STYLE ('',( #256 ) ) ;
#42 = FILL_AREA_STYLE ('',( #132 ) ) ;
#43 = LINE ( 'NONE', #113, #31 ) ;
#45 = COLOUR_RGB ( '',0.7921568627450980005, 0.8196078431372548767, 0.9333333333333333481 ) ;
#44 =( LENGTH_UNIT ( ) NAMED_UNIT ( * ) SI_UNIT ( .MILLI., .METRE. ) );
#46 = EDGE_CURVE ( 'NONE', #150, #225, #128, .T. ) ;
#47 = ORIENTED_EDGE ( 'NONE', *, *, #87, .T. ) ;
#48 = ORIENTED_EDGE ( 'NONE', *, *, #87, .F. ) ;
#49 = ORIENTED_EDGE ( 'NONE', *, *, #46, .T. ) ;
#50 =( GEOMETRIC_REPRESENTATION_CONTEXT ( 3 ) GLOBAL_UNCERTAINTY_ASSIGNED_CONTEXT ( ( #257 ) ) GLOBAL_UNIT_ASSIGNED_CONTEXT ( ( #178, #14, #144 ) ) REPRESENTATION_CONTEXT ( 'NONE', 'WORKASPACE' ) );
#51 =( GEOMETRIC_REPRESENTATION_CONTEXT ( 3 ) GLOBAL_UNCERTAINTY_ASSIGNED_CONTEXT ( ( #226 ) ) GLOBAL_UNIT_ASSIGNED_CONTEXT ( ( #19, #156, #194 ) ) REPRESENTATION_CONTEXT ( 'NONE', 'WORKASPACE' ) );
#52 = APPLICATION_PROTOCOL_DEFINITION ( 'draft international standard', 'automotive_design', 1998, #204 ) ;
#53 = ADVANCED_FACE ( 'NONE', ( #148 ), #34, .T. ) ;
#54 = STYLED_ITEM ( 'NONE', ( #259 ), #278 ) ;
#55 = VERTEX_POINT ( 'NONE', #290 ) ;
#56 = DIRECTION ( 'NONE',  ( 0.000000000000000000, -1.000000000000000000, 0.000000000000000000 ) ) ;
#57 =( LENGTH_UNIT ( ) NAMED_UNIT ( * ) SI_UNIT ( .MILLI., .METRE. ) );
#58 = VECTOR ( 'NONE', #158, 1000.000000000000000 ) ;
#59 = ORIENTED_EDGE ( 'NONE', *, *, #46, .F. ) ;
#60 = CARTESIAN_POINT ( 'NONE',  ( -455.0461917754560091, 201.7615598902029888, 250.5288085907110371 ) ) ;
#61 = VECTOR ( 'NONE', #63, 1000.000000000000000 ) ;
#62 = FACE_OUTER_BOUND ( 'NONE', #274, .T. ) ;
#63 = DIRECTION ( 'NONE',  ( 0.000000000000000000, -1.000000000000000000, 0.000000000000000000 ) ) ;
#64 =( NAMED_UNIT ( * ) SI_UNIT ( $, .STERADIAN. ) SOLID_ANGLE_UNIT ( ) );
#65 = CARTESIAN_POINT ( 'NONE',  ( -54.04619177545599484, 201.7615598902029888, 20.52880859071100161 ) ) ;
#66 = ORIENTED_EDGE ( 'NONE', *, *, #131, .T. ) ;
#67 = MECHANICAL_DESIGN_GEOMETRIC_PRESENTATION_REPRESENTATION (  '', ( #252 ), #39 ) ;
#68 = SURFACE_SIDE_STYLE ('',( #133 ) ) ;
#69 = ORIENTED_EDGE ( 'NONE', *, *, #119, .T. ) ;
#70 =( NAMED_UNIT ( * ) SI_UNIT ( $, .STERADIAN. ) SOLID_ANGLE_UNIT ( ) );
#71 = PRESENTATION_STYLE_ASSIGNMENT (( #283 ) ) ;
#72 = COLOUR_RGB ( '',0.7921568627450980005, 0.8196078431372548767, 0.9333333333333333481 ) ;
#73 = PRODUCT_DEFINITION_FORMATION_WITH_SPECIFIED_SOURCE ( 'ANY', '', #273, .NOT_KNOWN. ) ;
#74 = SURFACE_STYLE_FILL_AREA ( #15 ) ;
#75 = CARTESIAN_POINT ( 'NONE',  ( -455.0461917754560091, 161.7615598902029888, -209.4711914092890197 ) ) ;
#76 = EDGE_LOOP ( 'NONE', ( #221, #33, #146, #47 ) ) ;
#77 = SURFACE_STYLE_USAGE ( .BOTH. , #205 ) ;
#78 = ORIENTED_EDGE ( 'NONE', *, *, #206, .T. ) ;
#79 = COLOUR_RGB ( '',0.7921568627450980005, 0.8196078431372548767, 0.9333333333333333481 ) ;
#80 = ADVANCED_FACE ( 'NONE', ( #38 ), #124, .F. ) ;
#81 = CARTESIAN_POINT ( 'NONE',  ( -455.0461917754560091, 201.7615598902029888, -209.4711914092890197 ) ) ;
#82 = LINE ( 'NONE', #24, #140 ) ;
#83 = AXIS2_PLACEMENT_3D ( 'NONE', #267, #201, #245 ) ;
#84 = STYLED_ITEM ( 'NONE', ( #71 ), #28 ) ;
#85 = CARTESIAN_POINT ( 'NONE',  ( -455.0461917754560091, 201.7615598902029888, 250.5288085907110371 ) ) ;
#86 = CARTESIAN_POINT ( 'NONE',  ( 346.9538082245440478, 201.7615598902029888, 250.5288085907110371 ) ) ;
#87 = EDGE_CURVE ( 'NONE', #152, #281, #214, .T. ) ;
#88 = UNCERTAINTY_MEASURE_WITH_UNIT (LENGTH_MEASURE( 1.000000000000000082E-05 ), #277, 'distance_accuracy_value', 'NONE');
#89 = DIRECTION ( 'NONE',  ( 0.000000000000000000, 1.000000000000000000, 0.000000000000000000 ) ) ;
#90 = CARTESIAN_POINT ( 'NONE',  ( -455.0461917754560091, 201.7615598902029888, 250.5288085907110371 ) ) ;
#91 = CARTESIAN_POINT ( 'NONE',  ( -455.0461917754560091, 201.7615598902029888, -209.4711914092890197 ) ) ;
#92 = SURFACE_SIDE_STYLE ('',( #8 ) ) ;
#93 = VECTOR ( 'NONE', #94, 1000.000000000000000 ) ;
#94 = DIRECTION ( 'NONE',  ( 1.000000000000000000, 0.000000000000000000, 0.000000000000000000 ) ) ;
#95 = ORIENTED_EDGE ( 'NONE', *, *, #17, .T. ) ;
#96 = ORIENTED_EDGE ( 'NONE', *, *, #105, .T. ) ;
#97 = STYLED_ITEM ( 'NONE', ( #193 ), #1 ) ;
#98 = PRESENTATION_LAYER_ASSIGNMENT (  '', '', ( #84 ) ) ;
#99 =( NAMED_UNIT ( * ) SI_UNIT ( $, .STERADIAN. ) SOLID_ANGLE_UNIT ( ) );
#100 = SURFACE_STYLE_USAGE ( .BOTH. , #35 ) ;
#101 = ORIENTED_EDGE ( 'NONE', *, *, #285, .T. ) ;
#102 = VECTOR ( 'NONE', #22, 1000.000000000000000 ) ;
#103 = ORIENTED_EDGE ( 'NONE', *, *, #111, .F. ) ;
#104 = VECTOR ( 'NONE', #106, 1000.000000000000000 ) ;
#105 = EDGE_CURVE ( 'NONE', #197, #123, #43, .T. ) ;
#106 = DIRECTION ( 'NONE',  ( 0.000000000000000000, 0.000000000000000000, -1.000000000000000000 ) ) ;
#107 =( NAMED_UNIT ( * ) SI_UNIT ( $, .STERADIAN. ) SOLID_ANGLE_UNIT ( ) );
#108 = PLANE ( 'NONE',  #219 ) ;
#109 = UNCERTAINTY_MEASURE_WITH_UNIT (LENGTH_MEASURE( 1.000000000000000082E-05 ), #169, 'distance_accuracy_value', 'NONE');
#110 = FILL_AREA_STYLE ('',( #186 ) ) ;
#111 = EDGE_CURVE ( 'NONE', #55, #197, #26, .T. ) ;
#112 = VECTOR ( 'NONE', #37, 1000.000000000000000 ) ;
#113 = CARTESIAN_POINT ( 'NONE',  ( -455.0461917754560091, 201.7615598902029888, 250.5288085907110371 ) ) ;
#114 = PRODUCT_DEFINITION_CONTEXT ( 'detailed design', #204, 'design' ) ;
#115 = SURFACE_SIDE_STYLE ('',( #135 ) ) ;
#116 = LINE ( 'NONE', #138, #4 ) ;
#117 = COLOUR_RGB ( '',0.7921568627450980005, 0.8196078431372548767, 0.9333333333333333481 ) ;
#118 = EDGE_LOOP ( 'NONE', ( #166, #191, #175, #177 ) ) ;
#119 = EDGE_CURVE ( 'NONE', #150, #152, #261, .T. ) ;
#120 = SURFACE_STYLE_FILL_AREA ( #240 ) ;
#121 = CARTESIAN_POINT ( 'NONE',  ( 346.9538082245440478, 161.7615598902029888, 250.5288085907110371 ) ) ;
#122 =( NAMED_UNIT ( * ) PLANE_ANGLE_UNIT ( ) SI_UNIT ( $, .RADIAN. ) );
#123 = VERTEX_POINT ( 'NONE', #189 ) ;
#124 = PLANE ( 'NONE',  #125 ) ;
#125 = AXIS2_PLACEMENT_3D ( 'NONE', #65, #237, #207 ) ;
#126 = AXIS2_PLACEMENT_3D ( 'NONE', #85, #208, #89 ) ;
#127 = EDGE_LOOP ( 'NONE', ( #69, #180, #155, #66 ) ) ;
#128 = LINE ( 'NONE', #270, #9 ) ;
#129 =( GEOMETRIC_REPRESENTATION_CONTEXT ( 3 ) GLOBAL_UNCERTAINTY_ASSIGNED_CONTEXT ( ( #215 ) ) GLOBAL_UNIT_ASSIGNED_CONTEXT ( ( #142, #122, #70 ) ) REPRESENTATION_CONTEXT ( 'NONE', 'WORKASPACE' ) );
#130 =( NAMED_UNIT ( * ) PLANE_ANGLE_UNIT ( ) SI_UNIT ( $, .RADIAN. ) );
#131 = EDGE_CURVE ( 'NONE', #197, #150, #164, .T. ) ;
#132 = FILL_AREA_STYLE_COLOUR ( '', #45 ) ;
#133 = SURFACE_STYLE_FILL_AREA ( #160 ) ;
#134 = UNCERTAINTY_MEASURE_WITH_UNIT (LENGTH_MEASURE( 1.000000000000000082E-05 ), #57, 'distance_accuracy_value', 'NONE');
#135 = SURFACE_STYLE_FILL_AREA ( #42 ) ;
#136 = CARTESIAN_POINT ( 'NONE',  ( 346.9538082245440478, 201.7615598902029888, 250.5288085907110371 ) ) ;
#137 = CARTESIAN_POINT ( 'NONE',  ( 346.9538082245440478, 201.7615598902029888, -209.4711914092890197 ) ) ;
#138 = CARTESIAN_POINT ( 'NONE',  ( -455.0461917754560091, 161.7615598902029888, 250.5288085907110371 ) ) ;
#139 = PRESENTATION_STYLE_ASSIGNMENT (( #264 ) ) ;
#140 = VECTOR ( 'NONE', #236, 1000.000000000000000 ) ;
#141 = FILL_AREA_STYLE_COLOUR ( '', #117 ) ;
#142 =( LENGTH_UNIT ( ) NAMED_UNIT ( * ) SI_UNIT ( .MILLI., .METRE. ) );
#143 = ADVANCED_FACE ( 'NONE', ( #62 ), #10, .F. ) ;
#144 =( NAMED_UNIT ( * ) SI_UNIT ( $, .STERADIAN. ) SOLID_ANGLE_UNIT ( ) );
#145 = MECHANICAL_DESIGN_GEOMETRIC_PRESENTATION_REPRESENTATION (  '', ( #289 ), #157 ) ;
#146 = ORIENTED_EDGE ( 'NONE', *, *, #179, .F. ) ;
#147 = STYLED_ITEM ( 'NONE', ( #233 ), #292 ) ;
#148 = FACE_OUTER_BOUND ( 'NONE', #118, .T. ) ;
#149 = FILL_AREA_STYLE_COLOUR ( '', #18 ) ;
#150 = VERTEX_POINT ( 'NONE', #162 ) ;
#151 = PRESENTATION_LAYER_ASSIGNMENT (  '', '', ( #289 ) ) ;
#152 = VERTEX_POINT ( 'NONE', #137 ) ;
#153 = UNCERTAINTY_MEASURE_WITH_UNIT (LENGTH_MEASURE( 1.000000000000000082E-05 ), #272, 'distance_accuracy_value', 'NONE');
#154 =( NAMED_UNIT ( * ) PLANE_ANGLE_UNIT ( ) SI_UNIT ( $, .RADIAN. ) );
#155 = ORIENTED_EDGE ( 'NONE', *, *, #111, .T. ) ;
#156 =( NAMED_UNIT ( * ) PLANE_ANGLE_UNIT ( ) SI_UNIT ( $, .RADIAN. ) );
#157 =( GEOMETRIC_REPRESENTATION_CONTEXT ( 3 ) GLOBAL_UNCERTAINTY_ASSIGNED_CONTEXT ( ( #153 ) ) GLOBAL_UNIT_ASSIGNED_CONTEXT ( ( #272, #286, #223 ) ) REPRESENTATION_CONTEXT ( 'NONE', 'WORKASPACE' ) );
#158 = DIRECTION ( 'NONE',  ( 0.000000000000000000, 0.000000000000000000, -1.000000000000000000 ) ) ;
#159 = FACE_OUTER_BOUND ( 'NONE', #248, .T. ) ;
#160 = FILL_AREA_STYLE ('',( #254 ) ) ;
#161 = CARTESIAN_POINT ( 'NONE',  ( 0.000000000000000000, 0.000000000000000000, 0.000000000000000000 ) ) ;
#162 = CARTESIAN_POINT ( 'NONE',  ( 346.9538082245440478, 201.7615598902029888, 250.5288085907110371 ) ) ;
#163 = UNCERTAINTY_MEASURE_WITH_UNIT (LENGTH_MEASURE( 1.000000000000000082E-05 ), #44, 'distance_accuracy_value', 'NONE');
#164 = LINE ( 'NONE', #280, #102 ) ;
#165 = PRESENTATION_LAYER_ASSIGNMENT (  '', '', ( #147 ) ) ;
#166 = ORIENTED_EDGE ( 'NONE', *, *, #17, .F. ) ;
#167 = DIRECTION ( 'NONE',  ( 0.000000000000000000, 0.000000000000000000, 1.000000000000000000 ) ) ;
#168 = DIRECTION ( 'NONE',  ( 0.000000000000000000, 0.000000000000000000, 1.000000000000000000 ) ) ;
#169 =( LENGTH_UNIT ( ) NAMED_UNIT ( * ) SI_UNIT ( .MILLI., .METRE. ) );
#170 = FACE_OUTER_BOUND ( 'NONE', #76, .T. ) ;
#171 = STYLED_ITEM ( 'NONE', ( #139 ), #266 ) ;
#172 = ORIENTED_EDGE ( 'NONE', *, *, #105, .F. ) ;
#173 = SURFACE_SIDE_STYLE ('',( #27 ) ) ;
#174 = DIRECTION ( 'NONE',  ( -1.000000000000000000, 0.000000000000000000, 0.000000000000000000 ) ) ;
#175 = ORIENTED_EDGE ( 'NONE', *, *, #206, .F. ) ;
#176 = DIRECTION ( 'NONE',  ( 0.000000000000000000, 0.000000000000000000, 1.000000000000000000 ) ) ;
#177 = ORIENTED_EDGE ( 'NONE', *, *, #25, .F. ) ;
#178 =( LENGTH_UNIT ( ) NAMED_UNIT ( * ) SI_UNIT ( .MILLI., .METRE. ) );
#179 = EDGE_CURVE ( 'NONE', #152, #55, #82, .T. ) ;
#180 = ORIENTED_EDGE ( 'NONE', *, *, #179, .T. ) ;
#181 = PRESENTATION_LAYER_ASSIGNMENT (  '', '', ( #23 ) ) ;
#182 =( GEOMETRIC_REPRESENTATION_CONTEXT ( 3 ) GLOBAL_UNCERTAINTY_ASSIGNED_CONTEXT ( ( #36 ) ) GLOBAL_UNIT_ASSIGNED_CONTEXT ( ( #211, #130, #107 ) ) REPRESENTATION_CONTEXT ( 'NONE', 'WORKASPACE' ) );
#183 =( NAMED_UNIT ( * ) PLANE_ANGLE_UNIT ( ) SI_UNIT ( $, .RADIAN. ) );
#184 = PLANE ( 'NONE',  #126 ) ;
#185 = FACE_OUTER_BOUND ( 'NONE', #276, .T. ) ;
#186 = FILL_AREA_STYLE_COLOUR ( '', #32 ) ;
#187 = CARTESIAN_POINT ( 'NONE',  ( -455.0461917754560091, 161.7615598902029888, 250.5288085907110371 ) ) ;
#188 =( NAMED_UNIT ( * ) PLANE_ANGLE_UNIT ( ) SI_UNIT ( $, .RADIAN. ) );
#189 = CARTESIAN_POINT ( 'NONE',  ( -455.0461917754560091, 161.7615598902029888, 250.5288085907110371 ) ) ;
#190 = PRESENTATION_LAYER_ASSIGNMENT (  '', '', ( #252 ) ) ;
#191 = ORIENTED_EDGE ( 'NONE', *, *, #234, .F. ) ;
#192 = CARTESIAN_POINT ( 'NONE',  ( 346.9538082245440478, 201.7615598902029888, -209.4711914092890197 ) ) ;
#193 = PRESENTATION_STYLE_ASSIGNMENT (( #11 ) ) ;
#194 =( NAMED_UNIT ( * ) SI_UNIT ( $, .STERADIAN. ) SOLID_ANGLE_UNIT ( ) );
#195 = APPLICATION_CONTEXT ( 'automotive_design' ) ;
#196 = VECTOR ( 'NONE', #7, 1000.000000000000000 ) ;
#197 = VERTEX_POINT ( 'NONE', #90 ) ;
#198 = PRODUCT_CONTEXT ( 'NONE', #195, 'mechanical' ) ;
#199 = FILL_AREA_STYLE ('',( #149 ) ) ;
#200 = ORIENTED_EDGE ( 'NONE', *, *, #119, .F. ) ;
#201 = DIRECTION ( 'NONE',  ( 0.000000000000000000, -1.000000000000000000, 0.000000000000000000 ) ) ;
#202 = VECTOR ( 'NONE', #174, 1000.000000000000000 ) ;
#203 = MECHANICAL_DESIGN_GEOMETRIC_PRESENTATION_REPRESENTATION (  '', ( #84 ), #129 ) ;
#204 = APPLICATION_CONTEXT ( 'automotive_design' ) ;
#205 = SURFACE_SIDE_STYLE ('',( #74 ) ) ;
#206 = EDGE_CURVE ( 'NONE', #242, #123, #116, .T. ) ;
#207 = DIRECTION ( 'NONE',  ( 0.000000000000000000, 0.000000000000000000, -1.000000000000000000 ) ) ;
#208 = DIRECTION ( 'NONE',  ( 1.000000000000000000, 0.000000000000000000, 0.000000000000000000 ) ) ;
#209 = DIRECTION ( 'NONE',  ( -1.000000000000000000, 0.000000000000000000, 0.000000000000000000 ) ) ;
#210 = MECHANICAL_DESIGN_GEOMETRIC_PRESENTATION_REPRESENTATION (  '', ( #54 ), #182 ) ;
#211 =( LENGTH_UNIT ( ) NAMED_UNIT ( * ) SI_UNIT ( .MILLI., .METRE. ) );
#212 = PRESENTATION_STYLE_ASSIGNMENT (( #230 ) ) ;
#213 = CARTESIAN_POINT ( 'NONE',  ( -455.0461917754560091, 201.7615598902029888, 250.5288085907110371 ) ) ;
#214 = LINE ( 'NONE', #192, #61 ) ;
#215 = UNCERTAINTY_MEASURE_WITH_UNIT (LENGTH_MEASURE( 1.000000000000000082E-05 ), #142, 'distance_accuracy_value', 'NONE');
#216 = SHAPE_DEFINITION_REPRESENTATION ( #291, #28 ) ;
#217 = SURFACE_SIDE_STYLE ('',( #120 ) ) ;
#218 = MECHANICAL_DESIGN_GEOMETRIC_PRESENTATION_REPRESENTATION (  '', ( #97 ), #260 ) ;
#219 = AXIS2_PLACEMENT_3D ( 'NONE', #213, #227, #253 ) ;
#220 = APPLICATION_PROTOCOL_DEFINITION ( 'draft international standard', 'automotive_design', 1998, #195 ) ;
#221 = ORIENTED_EDGE ( 'NONE', *, *, #25, .T. ) ;
#222 = FILL_AREA_STYLE_COLOUR ( '', #72 ) ;
#223 =( NAMED_UNIT ( * ) SI_UNIT ( $, .STERADIAN. ) SOLID_ANGLE_UNIT ( ) );
#224 = COLOUR_RGB ( '',0.7921568627450980005, 0.8196078431372548767, 0.9333333333333333481 ) ;
#225 = VERTEX_POINT ( 'NONE', #263 ) ;
#226 = UNCERTAINTY_MEASURE_WITH_UNIT (LENGTH_MEASURE( 1.000000000000000082E-05 ), #19, 'distance_accuracy_value', 'NONE');
#227 = DIRECTION ( 'NONE',  ( 0.000000000000000000, 0.000000000000000000, -1.000000000000000000 ) ) ;
#228 = PRODUCT_RELATED_PRODUCT_CATEGORY ( 'part', '', ( #273 ) ) ;
#229 = SURFACE_SIDE_STYLE ('',( #20 ) ) ;
#230 = SURFACE_STYLE_USAGE ( .BOTH. , #92 ) ;
#231 =( NAMED_UNIT ( * ) SI_UNIT ( $, .STERADIAN. ) SOLID_ANGLE_UNIT ( ) );
#232 =( NAMED_UNIT ( * ) SI_UNIT ( $, .STERADIAN. ) SOLID_ANGLE_UNIT ( ) );
#233 = PRESENTATION_STYLE_ASSIGNMENT (( #251 ) ) ;
#234 = EDGE_CURVE ( 'NONE', #123, #225, #238, .T. ) ;
#235 = PRESENTATION_LAYER_ASSIGNMENT (  '', '', ( #171 ) ) ;
#236 = DIRECTION ( 'NONE',  ( -1.000000000000000000, 0.000000000000000000, 0.000000000000000000 ) ) ;
#237 = DIRECTION ( 'NONE',  ( 0.000000000000000000, -1.000000000000000000, 0.000000000000000000 ) ) ;
#238 = LINE ( 'NONE', #187, #93 ) ;
#239 = CLOSED_SHELL ( 'NONE', ( #143, #1, #278, #266, #80, #53 ) ) ;
#240 = FILL_AREA_STYLE ('',( #141 ) ) ;
#241 = FILL_AREA_STYLE_COLOUR ( '', #224 ) ;
#242 = VERTEX_POINT ( 'NONE', #21 ) ;
#243 = PRODUCT_DEFINITION ( 'UNKNOWN', '', #73, #114 ) ;
#244 = PRESENTATION_LAYER_ASSIGNMENT (  '', '', ( #97 ) ) ;
#245 = DIRECTION ( 'NONE',  ( 0.000000000000000000, 0.000000000000000000, -1.000000000000000000 ) ) ;
#246 =( GEOMETRIC_REPRESENTATION_CONTEXT ( 3 ) GLOBAL_UNCERTAINTY_ASSIGNED_CONTEXT ( ( #163 ) ) GLOBAL_UNIT_ASSIGNED_CONTEXT ( ( #44, #183, #64 ) ) REPRESENTATION_CONTEXT ( 'NONE', 'WORKASPACE' ) );
#247 = PRESENTATION_STYLE_ASSIGNMENT (( #100 ) ) ;
#248 = EDGE_LOOP ( 'NONE', ( #78, #172, #103, #101 ) ) ;
#249 = SURFACE_STYLE_FILL_AREA ( #199 ) ;
#250 = AXIS2_PLACEMENT_3D ( 'NONE', #86, #209, #3 ) ;
#251 = SURFACE_STYLE_USAGE ( .BOTH. , #115 ) ;
#252 = STYLED_ITEM ( 'NONE', ( #212 ), #143 ) ;
#253 = DIRECTION ( 'NONE',  ( 0.000000000000000000, -1.000000000000000000, 0.000000000000000000 ) ) ;
#254 = FILL_AREA_STYLE_COLOUR ( '', #268 ) ;
#255 =( NAMED_UNIT ( * ) PLANE_ANGLE_UNIT ( ) SI_UNIT ( $, .RADIAN. ) );
#256 = FILL_AREA_STYLE_COLOUR ( '', #79 ) ;
#257 = UNCERTAINTY_MEASURE_WITH_UNIT (LENGTH_MEASURE( 1.000000000000000082E-05 ), #178, 'distance_accuracy_value', 'NONE');
#258 = SURFACE_STYLE_USAGE ( .BOTH. , #229 ) ;
#259 = PRESENTATION_STYLE_ASSIGNMENT (( #258 ) ) ;
#260 =( GEOMETRIC_REPRESENTATION_CONTEXT ( 3 ) GLOBAL_UNCERTAINTY_ASSIGNED_CONTEXT ( ( #134 ) ) GLOBAL_UNIT_ASSIGNED_CONTEXT ( ( #57, #154, #99 ) ) REPRESENTATION_CONTEXT ( 'NONE', 'WORKASPACE' ) );
#261 = LINE ( 'NONE', #136, #58 ) ;
#262 = AXIS2_PLACEMENT_3D ( 'NONE', #161, #168, #30 ) ;
#263 = CARTESIAN_POINT ( 'NONE',  ( 346.9538082245440478, 161.7615598902029888, 250.5288085907110371 ) ) ;
#264 = SURFACE_STYLE_USAGE ( .BOTH. , #68 ) ;
#265 = PLANE ( 'NONE',  #282 ) ;
#266 = ADVANCED_FACE ( 'NONE', ( #185 ), #108, .F. ) ;
#267 = CARTESIAN_POINT ( 'NONE',  ( -54.04619177545599484, 161.7615598902029888, 20.52880859071100161 ) ) ;
#268 = COLOUR_RGB ( '',0.7921568627450980005, 0.8196078431372548767, 0.9333333333333333481 ) ;
#269 = PRESENTATION_LAYER_ASSIGNMENT (  '', '', ( #54 ) ) ;
#270 = CARTESIAN_POINT ( 'NONE',  ( 346.9538082245440478, 201.7615598902029888, 250.5288085907110371 ) ) ;
#271 = ORIENTED_EDGE ( 'NONE', *, *, #234, .T. ) ;
#272 =( LENGTH_UNIT ( ) NAMED_UNIT ( * ) SI_UNIT ( .MILLI., .METRE. ) );
#273 = PRODUCT ( 'UN080T', 'UN080T', '', ( #198 ) ) ;
#274 = EDGE_LOOP ( 'NONE', ( #95, #48, #200, #49 ) ) ;
#275 = MECHANICAL_DESIGN_GEOMETRIC_PRESENTATION_REPRESENTATION (  '', ( #171 ), #6 ) ;
#276 = EDGE_LOOP ( 'NONE', ( #271, #59, #287, #96 ) ) ;
#277 =( LENGTH_UNIT ( ) NAMED_UNIT ( * ) SI_UNIT ( .MILLI., .METRE. ) );
#278 = ADVANCED_FACE ( 'NONE', ( #159 ), #184, .F. ) ;
#279 = LINE ( 'NONE', #91, #112 ) ;
#280 = CARTESIAN_POINT ( 'NONE',  ( -455.0461917754560091, 201.7615598902029888, 250.5288085907110371 ) ) ;
#281 = VERTEX_POINT ( 'NONE', #5 ) ;
#282 = AXIS2_PLACEMENT_3D ( 'NONE', #81, #176, #288 ) ;
#283 = SURFACE_STYLE_USAGE ( .BOTH. , #173 ) ;
#284 = MECHANICAL_DESIGN_GEOMETRIC_PRESENTATION_REPRESENTATION (  '', ( #147 ), #246 ) ;
#285 = EDGE_CURVE ( 'NONE', #55, #242, #279, .T. ) ;
#286 =( NAMED_UNIT ( * ) PLANE_ANGLE_UNIT ( ) SI_UNIT ( $, .RADIAN. ) );
#287 = ORIENTED_EDGE ( 'NONE', *, *, #131, .F. ) ;
#288 = DIRECTION ( 'NONE',  ( 1.000000000000000000, 0.000000000000000000, 0.000000000000000000 ) ) ;
#289 = STYLED_ITEM ( 'NONE', ( #247 ), #53 ) ;
#290 = CARTESIAN_POINT ( 'NONE',  ( -455.0461917754560091, 201.7615598902029888, -209.4711914092890197 ) ) ;
#291 = PRODUCT_DEFINITION_SHAPE ( 'NONE', 'NONE',  #243 ) ;
#292 = MANIFOLD_SOLID_BREP ( 'NONE', #239 ) ;
ENDSEC;
END-ISO-10303-21;
