ISO-10303-21;
HEADER;
FILE_DESCRIPTION (( 'STEP AP214' ),
    '1' );
FILE_NAME ('UN060T.STEP',
    '2022-10-07T08:26:03',
    ( '' ),
    ( '' ),
    'SwSTEP 2.0',
    'SolidWorks 2019',
    '' );
FILE_SCHEMA (( 'AUTOMOTIVE_DESIGN' ));
ENDSEC;

DATA;
#1 = ORIENTED_EDGE ( 'NONE', *, *, #127, .F. ) ;
#2 = DIRECTION ( 'NONE',  ( 0.000000000000000000, 0.000000000000000000, -1.000000000000000000 ) ) ;
#3 = SURFACE_STYLE_FILL_AREA ( #172 ) ;
#4 = VECTOR ( 'NONE', #64, 1000.000000000000000 ) ;
#5 = DIRECTION ( 'NONE',  ( 1.000000000000000000, 0.000000000000000000, 0.000000000000000000 ) ) ;
#6 = FACE_OUTER_BOUND ( 'NONE', #106, .T. ) ;
#7 = AXIS2_PLACEMENT_3D ( 'NONE', #113, #83, #100 ) ;
#8 = PLANE ( 'NONE',  #7 ) ;
#9 = ADVANCED_BREP_SHAPE_REPRESENTATION ( 'UN060T', ( #13, #15 ), #10 ) ;
#10 =( GEOMETRIC_REPRESENTATION_CONTEXT ( 3 ) GLOBAL_UNCERTAINTY_ASSIGNED_CONTEXT ( ( #114 ) ) GLOBAL_UNIT_ASSIGNED_CONTEXT ( ( #93, #44, #135 ) ) REPRESENTATION_CONTEXT ( 'NONE', 'WORKASPACE' ) );
#11 = VERTEX_POINT ( 'NONE', #169 ) ;
#12 = ORIENTED_EDGE ( 'NONE', *, *, #182, .F. ) ;
#13 = MANIFOLD_SOLID_BREP ( 'Boss-Extrude1', #38 ) ;
#14 = EDGE_LOOP ( 'NONE', ( #155, #122, #199, #184 ) ) ;
#15 = AXIS2_PLACEMENT_3D ( 'NONE', #140, #33, #25 ) ;
#16 = FACE_OUTER_BOUND ( 'NONE', #168, .T. ) ;
#17 = COLOUR_RGB ( '',0.7921568627450980005, 0.8196078431372548767, 0.9333333333333333481 ) ;
#18 = CARTESIAN_POINT ( 'NONE',  ( -300.9999999999999432, 0.000000000000000000, 230.0000000000000000 ) ) ;
#19 = ORIENTED_EDGE ( 'NONE', *, *, #115, .F. ) ;
#20 = DIRECTION ( 'NONE',  ( 0.000000000000000000, -0.000000000000000000, -1.000000000000000000 ) ) ;
#21 = LINE ( 'NONE', #157, #129 ) ;
#22 = VECTOR ( 'NONE', #73, 1000.000000000000000 ) ;
#23 = LINE ( 'NONE', #128, #148 ) ;
#24 = LINE ( 'NONE', #139, #58 ) ;
#25 = DIRECTION ( 'NONE',  ( 1.000000000000000000, 0.000000000000000000, 0.000000000000000000 ) ) ;
#26 = LINE ( 'NONE', #136, #170 ) ;
#27 = ORIENTED_EDGE ( 'NONE', *, *, #131, .F. ) ;
#28 =( GEOMETRIC_REPRESENTATION_CONTEXT ( 3 ) GLOBAL_UNCERTAINTY_ASSIGNED_CONTEXT ( ( #51 ) ) GLOBAL_UNIT_ASSIGNED_CONTEXT ( ( #178, #162, #81 ) ) REPRESENTATION_CONTEXT ( 'NONE', 'WORKASPACE' ) );
#29 = CARTESIAN_POINT ( 'NONE',  ( 301.0000000000000568, 25.00000000000000000, -230.0000000000000000 ) ) ;
#30 = ORIENTED_EDGE ( 'NONE', *, *, #143, .F. ) ;
#31 = DIRECTION ( 'NONE',  ( -0.000000000000000000, -1.000000000000000000, -0.000000000000000000 ) ) ;
#32 = CARTESIAN_POINT ( 'NONE',  ( 301.0000000000000568, 25.00000000000000000, 230.0000000000000000 ) ) ;
#33 = DIRECTION ( 'NONE',  ( 0.000000000000000000, 0.000000000000000000, 1.000000000000000000 ) ) ;
#34 = DIRECTION ( 'NONE',  ( 0.000000000000000000, 0.000000000000000000, 1.000000000000000000 ) ) ;
#35 = PRODUCT ( 'UN060T', 'UN060T', '', ( #88 ) ) ;
#36 = CARTESIAN_POINT ( 'NONE',  ( 301.0000000000000568, 0.000000000000000000, -230.0000000000000000 ) ) ;
#37 = MECHANICAL_DESIGN_GEOMETRIC_PRESENTATION_REPRESENTATION (  '', ( #71 ), #171 ) ;
#38 = CLOSED_SHELL ( 'NONE', ( #53, #134, #177, #61, #149, #102 ) ) ;
#39 = VERTEX_POINT ( 'NONE', #50 ) ;
#40 = VERTEX_POINT ( 'NONE', #197 ) ;
#41 = ORIENTED_EDGE ( 'NONE', *, *, #84, .F. ) ;
#42 = VECTOR ( 'NONE', #108, 1000.000000000000000 ) ;
#43 = APPLICATION_CONTEXT ( 'automotive_design' ) ;
#44 =( NAMED_UNIT ( * ) PLANE_ANGLE_UNIT ( ) SI_UNIT ( $, .RADIAN. ) );
#45 = DIRECTION ( 'NONE',  ( 1.000000000000000000, -0.000000000000000000, 0.000000000000000000 ) ) ;
#46 = VERTEX_POINT ( 'NONE', #67 ) ;
#47 = CARTESIAN_POINT ( 'NONE',  ( -300.9999999999999432, 25.00000000000000000, -230.0000000000000000 ) ) ;
#48 = DIRECTION ( 'NONE',  ( -0.000000000000000000, -1.000000000000000000, -0.000000000000000000 ) ) ;
#49 =( NAMED_UNIT ( * ) SI_UNIT ( $, .STERADIAN. ) SOLID_ANGLE_UNIT ( ) );
#50 = CARTESIAN_POINT ( 'NONE',  ( -300.9999999999999432, 25.00000000000000000, -230.0000000000000000 ) ) ;
#51 = UNCERTAINTY_MEASURE_WITH_UNIT (LENGTH_MEASURE( 1.000000000000000082E-05 ), #178, 'distance_accuracy_value', 'NONE');
#52 = DIRECTION ( 'NONE',  ( -1.000000000000000000, -0.000000000000000000, -0.000000000000000000 ) ) ;
#53 = ADVANCED_FACE ( 'NONE', ( #6 ), #180, .F. ) ;
#54 = PRESENTATION_LAYER_ASSIGNMENT (  '', '', ( #183 ) ) ;
#55 = ORIENTED_EDGE ( 'NONE', *, *, #79, .T. ) ;
#56 = VERTEX_POINT ( 'NONE', #98 ) ;
#57 = EDGE_CURVE ( 'NONE', #46, #11, #196, .T. ) ;
#58 = VECTOR ( 'NONE', #103, 1000.000000000000000 ) ;
#59 = PRESENTATION_STYLE_ASSIGNMENT (( #201 ) ) ;
#60 = PLANE ( 'NONE',  #107 ) ;
#61 = ADVANCED_FACE ( 'NONE', ( #145 ), #8, .F. ) ;
#62 = VERTEX_POINT ( 'NONE', #36 ) ;
#63 = LINE ( 'NONE', #192, #22 ) ;
#64 = DIRECTION ( 'NONE',  ( -0.000000000000000000, -0.000000000000000000, 1.000000000000000000 ) ) ;
#65 = DIRECTION ( 'NONE',  ( 0.000000000000000000, -0.000000000000000000, -1.000000000000000000 ) ) ;
#66 = AXIS2_PLACEMENT_3D ( 'NONE', #101, #117, #34 ) ;
#67 = CARTESIAN_POINT ( 'NONE',  ( -300.9999999999999432, 25.00000000000000000, 230.0000000000000000 ) ) ;
#68 = LINE ( 'NONE', #160, #120 ) ;
#69 = VECTOR ( 'NONE', #138, 1000.000000000000000 ) ;
#70 = SURFACE_STYLE_FILL_AREA ( #86 ) ;
#71 = STYLED_ITEM ( 'NONE', ( #59 ), #9 ) ;
#72 = SHAPE_DEFINITION_REPRESENTATION ( #141, #9 ) ;
#73 = DIRECTION ( 'NONE',  ( 0.000000000000000000, 0.000000000000000000, -1.000000000000000000 ) ) ;
#74 = PLANE ( 'NONE',  #158 ) ;
#75 = CARTESIAN_POINT ( 'NONE',  ( 301.0000000000000568, 0.000000000000000000, 230.0000000000000000 ) ) ;
#76 = ORIENTED_EDGE ( 'NONE', *, *, #118, .T. ) ;
#77 = FACE_OUTER_BOUND ( 'NONE', #14, .T. ) ;
#78 = CARTESIAN_POINT ( 'NONE',  ( 0.000000000000000000, 25.00000000000000000, 0.000000000000000000 ) ) ;
#79 = EDGE_CURVE ( 'NONE', #56, #121, #68, .T. ) ;
#80 = LINE ( 'NONE', #82, #4 ) ;
#81 =( NAMED_UNIT ( * ) SI_UNIT ( $, .STERADIAN. ) SOLID_ANGLE_UNIT ( ) );
#82 = CARTESIAN_POINT ( 'NONE',  ( -300.9999999999999432, 25.00000000000000000, 230.0000000000000000 ) ) ;
#83 = DIRECTION ( 'NONE',  ( 0.000000000000000000, 0.000000000000000000, -1.000000000000000000 ) ) ;
#84 = EDGE_CURVE ( 'NONE', #40, #39, #23, .T. ) ;
#85 = EDGE_LOOP ( 'NONE', ( #55, #19, #133, #198 ) ) ;
#86 = FILL_AREA_STYLE ('',( #150 ) ) ;
#87 = ORIENTED_EDGE ( 'NONE', *, *, #194, .T. ) ;
#88 = PRODUCT_CONTEXT ( 'NONE', #43, 'mechanical' ) ;
#89 = DIRECTION ( 'NONE',  ( -0.000000000000000000, -1.000000000000000000, -0.000000000000000000 ) ) ;
#90 = VECTOR ( 'NONE', #116, 1000.000000000000000 ) ;
#91 = FILL_AREA_STYLE_COLOUR ( '', #165 ) ;
#92 = EDGE_LOOP ( 'NONE', ( #185, #105, #30, #27 ) ) ;
#93 =( LENGTH_UNIT ( ) NAMED_UNIT ( * ) SI_UNIT ( .MILLI., .METRE. ) );
#94 = SURFACE_SIDE_STYLE ('',( #3 ) ) ;
#95 = EDGE_CURVE ( 'NONE', #46, #56, #24, .T. ) ;
#96 = SURFACE_STYLE_USAGE ( .BOTH. , #112 ) ;
#97 =( LENGTH_UNIT ( ) NAMED_UNIT ( * ) SI_UNIT ( .MILLI., .METRE. ) );
#98 = CARTESIAN_POINT ( 'NONE',  ( -300.9999999999999432, 0.000000000000000000, 230.0000000000000000 ) ) ;
#99 = APPLICATION_PROTOCOL_DEFINITION ( 'draft international standard', 'automotive_design', 1998, #146 ) ;
#100 = DIRECTION ( 'NONE',  ( -1.000000000000000000, 0.000000000000000000, -0.000000000000000000 ) ) ;
#101 = CARTESIAN_POINT ( 'NONE',  ( 301.0000000000000568, 25.00000000000000000, 230.0000000000000000 ) ) ;
#102 = ADVANCED_FACE ( 'NONE', ( #142 ), #125, .T. ) ;
#103 = DIRECTION ( 'NONE',  ( -0.000000000000000000, -1.000000000000000000, -0.000000000000000000 ) ) ;
#104 = VERTEX_POINT ( 'NONE', #126 ) ;
#105 = ORIENTED_EDGE ( 'NONE', *, *, #79, .F. ) ;
#106 = EDGE_LOOP ( 'NONE', ( #151, #173, #12, #187 ) ) ;
#107 = AXIS2_PLACEMENT_3D ( 'NONE', #174, #45, #2 ) ;
#108 = DIRECTION ( 'NONE',  ( 0.000000000000000000, 0.000000000000000000, -1.000000000000000000 ) ) ;
#109 = EDGE_LOOP ( 'NONE', ( #191, #1, #41, #87 ) ) ;
#110 = LINE ( 'NONE', #29, #188 ) ;
#111 = DIRECTION ( 'NONE',  ( 0.000000000000000000, -1.000000000000000000, 0.000000000000000000 ) ) ;
#112 = SURFACE_SIDE_STYLE ('',( #70 ) ) ;
#113 = CARTESIAN_POINT ( 'NONE',  ( -300.9999999999999432, 25.00000000000000000, 230.0000000000000000 ) ) ;
#114 = UNCERTAINTY_MEASURE_WITH_UNIT (LENGTH_MEASURE( 1.000000000000000082E-05 ), #93, 'distance_accuracy_value', 'NONE');
#115 = EDGE_CURVE ( 'NONE', #11, #121, #176, .T. ) ;
#116 = DIRECTION ( 'NONE',  ( 1.000000000000000000, 0.000000000000000000, 0.000000000000000000 ) ) ;
#117 = DIRECTION ( 'NONE',  ( -1.000000000000000000, 0.000000000000000000, 0.000000000000000000 ) ) ;
#118 = EDGE_CURVE ( 'NONE', #39, #46, #80, .T. ) ;
#119 = UNCERTAINTY_MEASURE_WITH_UNIT (LENGTH_MEASURE( 1.000000000000000082E-05 ), #97, 'distance_accuracy_value', 'NONE');
#120 = VECTOR ( 'NONE', #5, 1000.000000000000000 ) ;
#121 = VERTEX_POINT ( 'NONE', #144 ) ;
#122 = ORIENTED_EDGE ( 'NONE', *, *, #95, .F. ) ;
#123 = DIRECTION ( 'NONE',  ( 0.000000000000000000, -1.000000000000000000, 0.000000000000000000 ) ) ;
#124 = AXIS2_PLACEMENT_3D ( 'NONE', #181, #111, #65 ) ;
#125 = PLANE ( 'NONE',  #124 ) ;
#126 = CARTESIAN_POINT ( 'NONE',  ( -300.9999999999999432, 0.000000000000000000, -230.0000000000000000 ) ) ;
#127 = EDGE_CURVE ( 'NONE', #39, #104, #26, .T. ) ;
#128 = CARTESIAN_POINT ( 'NONE',  ( -300.9999999999999432, 25.00000000000000000, -230.0000000000000000 ) ) ;
#129 = VECTOR ( 'NONE', #190, 1000.000000000000000 ) ;
#130 = PRODUCT_DEFINITION_CONTEXT ( 'detailed design', #146, 'design' ) ;
#131 = EDGE_CURVE ( 'NONE', #62, #104, #21, .T. ) ;
#132 = ORIENTED_EDGE ( 'NONE', *, *, #84, .T. ) ;
#133 = ORIENTED_EDGE ( 'NONE', *, *, #57, .F. ) ;
#134 = ADVANCED_FACE ( 'NONE', ( #153 ), #74, .F. ) ;
#135 =( NAMED_UNIT ( * ) SI_UNIT ( $, .STERADIAN. ) SOLID_ANGLE_UNIT ( ) );
#136 = CARTESIAN_POINT ( 'NONE',  ( -300.9999999999999432, 25.00000000000000000, -230.0000000000000000 ) ) ;
#137 = ORIENTED_EDGE ( 'NONE', *, *, #182, .T. ) ;
#138 = DIRECTION ( 'NONE',  ( -0.000000000000000000, -0.000000000000000000, 1.000000000000000000 ) ) ;
#139 = CARTESIAN_POINT ( 'NONE',  ( -300.9999999999999432, 25.00000000000000000, 230.0000000000000000 ) ) ;
#140 = CARTESIAN_POINT ( 'NONE',  ( 0.000000000000000000, 0.000000000000000000, 0.000000000000000000 ) ) ;
#141 = PRODUCT_DEFINITION_SHAPE ( 'NONE', 'NONE',  #200 ) ;
#142 = FACE_OUTER_BOUND ( 'NONE', #92, .T. ) ;
#143 = EDGE_CURVE ( 'NONE', #104, #56, #189, .T. ) ;
#144 = CARTESIAN_POINT ( 'NONE',  ( 301.0000000000000568, 0.000000000000000000, 230.0000000000000000 ) ) ;
#145 = FACE_OUTER_BOUND ( 'NONE', #85, .T. ) ;
#146 = APPLICATION_CONTEXT ( 'automotive_design' ) ;
#147 = AXIS2_PLACEMENT_3D ( 'NONE', #78, #123, #20 ) ;
#148 = VECTOR ( 'NONE', #52, 1000.000000000000000 ) ;
#149 = ADVANCED_FACE ( 'NONE', ( #16 ), #156, .F. ) ;
#150 = FILL_AREA_STYLE_COLOUR ( '', #17 ) ;
#151 = ORIENTED_EDGE ( 'NONE', *, *, #167, .T. ) ;
#152 = VECTOR ( 'NONE', #48, 1000.000000000000000 ) ;
#153 = FACE_OUTER_BOUND ( 'NONE', #109, .T. ) ;
#154 = DIRECTION ( 'NONE',  ( 1.000000000000000000, 0.000000000000000000, -0.000000000000000000 ) ) ;
#155 = ORIENTED_EDGE ( 'NONE', *, *, #143, .T. ) ;
#156 = PLANE ( 'NONE',  #147 ) ;
#157 = CARTESIAN_POINT ( 'NONE',  ( -300.9999999999999432, 0.000000000000000000, -230.0000000000000000 ) ) ;
#158 = AXIS2_PLACEMENT_3D ( 'NONE', #47, #175, #154 ) ;
#159 = APPLICATION_PROTOCOL_DEFINITION ( 'draft international standard', 'automotive_design', 1998, #43 ) ;
#160 = CARTESIAN_POINT ( 'NONE',  ( -300.9999999999999432, 0.000000000000000000, 230.0000000000000000 ) ) ;
#161 = PRODUCT_DEFINITION_FORMATION_WITH_SPECIFIED_SOURCE ( 'ANY', '', #35, .NOT_KNOWN. ) ;
#162 =( NAMED_UNIT ( * ) PLANE_ANGLE_UNIT ( ) SI_UNIT ( $, .RADIAN. ) );
#163 = CARTESIAN_POINT ( 'NONE',  ( -300.9999999999999432, 25.00000000000000000, 230.0000000000000000 ) ) ;
#164 = PRODUCT_RELATED_PRODUCT_CATEGORY ( 'part', '', ( #35 ) ) ;
#165 = COLOUR_RGB ( '',0.7921568627450980005, 0.8196078431372548767, 0.9333333333333333481 ) ;
#166 = MECHANICAL_DESIGN_GEOMETRIC_PRESENTATION_REPRESENTATION (  '', ( #183 ), #28 ) ;
#167 = EDGE_CURVE ( 'NONE', #121, #62, #202, .T. ) ;
#168 = EDGE_LOOP ( 'NONE', ( #137, #132, #76, #186 ) ) ;
#169 = CARTESIAN_POINT ( 'NONE',  ( 301.0000000000000568, 25.00000000000000000, 230.0000000000000000 ) ) ;
#170 = VECTOR ( 'NONE', #89, 1000.000000000000000 ) ;
#171 =( GEOMETRIC_REPRESENTATION_CONTEXT ( 3 ) GLOBAL_UNCERTAINTY_ASSIGNED_CONTEXT ( ( #119 ) ) GLOBAL_UNIT_ASSIGNED_CONTEXT ( ( #97, #179, #49 ) ) REPRESENTATION_CONTEXT ( 'NONE', 'WORKASPACE' ) );
#172 = FILL_AREA_STYLE ('',( #91 ) ) ;
#173 = ORIENTED_EDGE ( 'NONE', *, *, #194, .F. ) ;
#174 = CARTESIAN_POINT ( 'NONE',  ( -300.9999999999999432, 25.00000000000000000, 230.0000000000000000 ) ) ;
#175 = DIRECTION ( 'NONE',  ( 0.000000000000000000, 0.000000000000000000, 1.000000000000000000 ) ) ;
#176 = LINE ( 'NONE', #32, #152 ) ;
#177 = ADVANCED_FACE ( 'NONE', ( #77 ), #60, .F. ) ;
#178 =( LENGTH_UNIT ( ) NAMED_UNIT ( * ) SI_UNIT ( .MILLI., .METRE. ) );
#179 =( NAMED_UNIT ( * ) PLANE_ANGLE_UNIT ( ) SI_UNIT ( $, .RADIAN. ) );
#180 = PLANE ( 'NONE',  #66 ) ;
#181 = CARTESIAN_POINT ( 'NONE',  ( 0.000000000000000000, 0.000000000000000000, 0.000000000000000000 ) ) ;
#182 = EDGE_CURVE ( 'NONE', #11, #40, #63, .T. ) ;
#183 = STYLED_ITEM ( 'NONE', ( #195 ), #13 ) ;
#184 = ORIENTED_EDGE ( 'NONE', *, *, #127, .T. ) ;
#185 = ORIENTED_EDGE ( 'NONE', *, *, #167, .F. ) ;
#186 = ORIENTED_EDGE ( 'NONE', *, *, #57, .T. ) ;
#187 = ORIENTED_EDGE ( 'NONE', *, *, #115, .T. ) ;
#188 = VECTOR ( 'NONE', #31, 1000.000000000000000 ) ;
#189 = LINE ( 'NONE', #18, #69 ) ;
#190 = DIRECTION ( 'NONE',  ( -1.000000000000000000, -0.000000000000000000, -0.000000000000000000 ) ) ;
#191 = ORIENTED_EDGE ( 'NONE', *, *, #131, .T. ) ;
#192 = CARTESIAN_POINT ( 'NONE',  ( 301.0000000000000568, 25.00000000000000000, 230.0000000000000000 ) ) ;
#193 = PRESENTATION_LAYER_ASSIGNMENT (  '', '', ( #71 ) ) ;
#194 = EDGE_CURVE ( 'NONE', #40, #62, #110, .T. ) ;
#195 = PRESENTATION_STYLE_ASSIGNMENT (( #96 ) ) ;
#196 = LINE ( 'NONE', #163, #90 ) ;
#197 = CARTESIAN_POINT ( 'NONE',  ( 301.0000000000000568, 25.00000000000000000, -230.0000000000000000 ) ) ;
#198 = ORIENTED_EDGE ( 'NONE', *, *, #95, .T. ) ;
#199 = ORIENTED_EDGE ( 'NONE', *, *, #118, .F. ) ;
#200 = PRODUCT_DEFINITION ( 'UNKNOWN', '', #161, #130 ) ;
#201 = SURFACE_STYLE_USAGE ( .BOTH. , #94 ) ;
#202 = LINE ( 'NONE', #75, #42 ) ;
ENDSEC;
END-ISO-10303-21;
