ISO-10303-21;
HEADER;
FILE_DESCRIPTION (( 'STEP AP214' ),
    '1' );
FILE_NAME ('FR120T.C_STEP_v11023.STEP',
    '2023-10-12T13:17:55',
    ( '' ),
    ( '' ),
    'SwSTEP 2.0',
    'SolidWorks 2019',
    '' );
FILE_SCHEMA (( 'AUTOMOTIVE_DESIGN' ));
ENDSEC;

DATA;
#1 = CARTESIAN_POINT ( 'NONE',  ( 609.9999999999996589, 0.000000000000000000, -254.9999999999999432 ) ) ;
#2 = SURFACE_SIDE_STYLE ('',( #67 ) ) ;
#3 = AXIS2_PLACEMENT_3D ( 'NONE', #93, #177, #156 ) ;
#4 = DIRECTION ( 'NONE',  ( 1.000000000000000000, 0.000000000000000000, 0.000000000000000000 ) ) ;
#5 = VERTEX_POINT ( 'NONE', #1 ) ;
#6 = ORIENTED_EDGE ( 'NONE', *, *, #208, .F. ) ;
#7 = COLOUR_RGB ( '',0.7921568627450980005, 0.8196078431372548767, 0.9333333333333333481 ) ;
#8 = ORIENTED_EDGE ( 'NONE', *, *, #238, .T. ) ;
#9 = ORIENTED_EDGE ( 'NONE', *, *, #143, .T. ) ;
#10 = ORIENTED_EDGE ( 'NONE', *, *, #190, .F. ) ;
#11 = ADVANCED_FACE ( 'NONE', ( #86 ), #69, .T. ) ;
#12 = PLANE ( 'NONE',  #58 ) ;
#13 = DIRECTION ( 'NONE',  ( 0.000000000000000000, -1.000000000000000000, 0.000000000000000000 ) ) ;
#14 = LINE ( 'NONE', #101, #165 ) ;
#15 = DIRECTION ( 'NONE',  ( -1.000000000000000000, -0.000000000000000000, -0.000000000000000000 ) ) ;
#16 = UNCERTAINTY_MEASURE_WITH_UNIT (LENGTH_MEASURE( 1.000000000000000082E-05 ), #68, 'distance_accuracy_value', 'NONE');
#17 = ADVANCED_FACE ( 'NONE', ( #34 ), #12, .F. ) ;
#18 = FILL_AREA_STYLE ('',( #22 ) ) ;
#19 = FILL_AREA_STYLE_COLOUR ( '', #241 ) ;
#20 = ORIENTED_EDGE ( 'NONE', *, *, #171, .F. ) ;
#21 =( LENGTH_UNIT ( ) NAMED_UNIT ( * ) SI_UNIT ( .MILLI., .METRE. ) );
#22 = FILL_AREA_STYLE_COLOUR ( '', #7 ) ;
#23 = CARTESIAN_POINT ( 'NONE',  ( 609.9999999999996589, 12.00000000000000000, -254.9999999999999432 ) ) ;
#24 = ORIENTED_EDGE ( 'NONE', *, *, #143, .F. ) ;
#25 = CARTESIAN_POINT ( 'NONE',  ( 609.9999999999996589, 12.00000000000000000, 255.0000000000000568 ) ) ;
#26 = FACE_OUTER_BOUND ( 'NONE', #85, .T. ) ;
#27 = ORIENTED_EDGE ( 'NONE', *, *, #117, .F. ) ;
#28 = FACE_OUTER_BOUND ( 'NONE', #41, .T. ) ;
#29 =( GEOMETRIC_REPRESENTATION_CONTEXT ( 3 ) GLOBAL_UNCERTAINTY_ASSIGNED_CONTEXT ( ( #99 ) ) GLOBAL_UNIT_ASSIGNED_CONTEXT ( ( #21, #106, #48 ) ) REPRESENTATION_CONTEXT ( 'NONE', 'WORKASPACE' ) );
#30 = PRESENTATION_LAYER_ASSIGNMENT (  '', '', ( #263 ) ) ;
#31 = CARTESIAN_POINT ( 'NONE',  ( -580.0000000000003411, 12.00000000000000000, 225.0000000000000568 ) ) ;
#32 = ORIENTED_EDGE ( 'NONE', *, *, #243, .F. ) ;
#33 = EDGE_CURVE ( 'NONE', #216, #237, #244, .T. ) ;
#34 = FACE_OUTER_BOUND ( 'NONE', #96, .T. ) ;
#35 = FACE_OUTER_BOUND ( 'NONE', #224, .T. ) ;
#36 = AXIS2_PLACEMENT_3D ( 'NONE', #31, #195, #269 ) ;
#37 = VECTOR ( 'NONE', #4, 1000.000000000000000 ) ;
#38 = CARTESIAN_POINT ( 'NONE',  ( -610.0000000000003411, 0.000000000000000000, -254.9999999999999432 ) ) ;
#39 = EDGE_CURVE ( 'NONE', #237, #127, #14, .T. ) ;
#40 = CARTESIAN_POINT ( 'NONE',  ( 609.9999999999996589, 0.000000000000000000, 255.0000000000000568 ) ) ;
#41 = EDGE_LOOP ( 'NONE', ( #158, #92, #196, #151 ) ) ;
#42 = APPLICATION_PROTOCOL_DEFINITION ( 'draft international standard', 'automotive_design', 1998, #187 ) ;
#43 = CARTESIAN_POINT ( 'NONE',  ( -610.0000000000003411, 0.000000000000000000, 225.0000000000000568 ) ) ;
#44 = SURFACE_STYLE_FILL_AREA ( #217 ) ;
#45 = ORIENTED_EDGE ( 'NONE', *, *, #167, .F. ) ;
#46 = AXIS2_PLACEMENT_3D ( 'NONE', #145, #225, #246 ) ;
#47 = ORIENTED_EDGE ( 'NONE', *, *, #163, .F. ) ;
#48 =( NAMED_UNIT ( * ) SI_UNIT ( $, .STERADIAN. ) SOLID_ANGLE_UNIT ( ) );
#49 =( NAMED_UNIT ( * ) SI_UNIT ( $, .STERADIAN. ) SOLID_ANGLE_UNIT ( ) );
#50 = ORIENTED_EDGE ( 'NONE', *, *, #167, .T. ) ;
#51 =( NAMED_UNIT ( * ) SI_UNIT ( $, .STERADIAN. ) SOLID_ANGLE_UNIT ( ) );
#52 = ORIENTED_EDGE ( 'NONE', *, *, #135, .T. ) ;
#53 = DIRECTION ( 'NONE',  ( 0.000000000000000000, 0.000000000000000000, -1.000000000000000000 ) ) ;
#54 = VECTOR ( 'NONE', #197, 1000.000000000000000 ) ;
#55 = ORIENTED_EDGE ( 'NONE', *, *, #204, .F. ) ;
#56 =( GEOMETRIC_REPRESENTATION_CONTEXT ( 3 ) GLOBAL_UNCERTAINTY_ASSIGNED_CONTEXT ( ( #16 ) ) GLOBAL_UNIT_ASSIGNED_CONTEXT ( ( #68, #124, #51 ) ) REPRESENTATION_CONTEXT ( 'NONE', 'WORKASPACE' ) );
#57 = ORIENTED_EDGE ( 'NONE', *, *, #79, .F. ) ;
#58 = AXIS2_PLACEMENT_3D ( 'NONE', #164, #206, #265 ) ;
#59 = DIRECTION ( 'NONE',  ( -1.000000000000000000, -0.000000000000000000, -0.000000000000000000 ) ) ;
#60 = PRODUCT_DEFINITION_CONTEXT ( 'detailed design', #201, 'design' ) ;
#61 = DIRECTION ( 'NONE',  ( -0.000000000000000000, -1.000000000000000000, -0.000000000000000000 ) ) ;
#62 = VECTOR ( 'NONE', #89, 1000.000000000000000 ) ;
#63 = ADVANCED_FACE ( 'NONE', ( #100 ), #166, .F. ) ;
#64 = CARTESIAN_POINT ( 'NONE',  ( -610.0000000000003411, 0.000000000000000000, 255.0000000000000568 ) ) ;
#65 = DIRECTION ( 'NONE',  ( 0.000000000000000000, -1.000000000000000000, 0.000000000000000000 ) ) ;
#66 = CIRCLE ( 'NONE', #36, 30.00000000000000000 ) ;
#67 = SURFACE_STYLE_FILL_AREA ( #18 ) ;
#68 =( LENGTH_UNIT ( ) NAMED_UNIT ( * ) SI_UNIT ( .MILLI., .METRE. ) );
#69 = CYLINDRICAL_SURFACE ( 'NONE', #182, 30.00000000000000000 ) ;
#70 = ADVANCED_FACE ( 'NONE', ( #35 ), #118, .T. ) ;
#71 =( NAMED_UNIT ( * ) PLANE_ANGLE_UNIT ( ) SI_UNIT ( $, .RADIAN. ) );
#72 = LINE ( 'NONE', #40, #98 ) ;
#73 = PLANE ( 'NONE',  #193 ) ;
#74 = DIRECTION ( 'NONE',  ( 1.000000000000000000, -0.000000000000000000, 0.000000000000000000 ) ) ;
#75 = ORIENTED_EDGE ( 'NONE', *, *, #190, .T. ) ;
#76 = MECHANICAL_DESIGN_GEOMETRIC_PRESENTATION_REPRESENTATION (  '', ( #263 ), #220 ) ;
#77 = DIRECTION ( 'NONE',  ( -0.000000000000000000, -0.000000000000000000, 1.000000000000000000 ) ) ;
#78 = ADVANCED_BREP_SHAPE_REPRESENTATION ( 'FR120T.C_STEP_v11023', ( #162, #3 ), #56 ) ;
#79 = EDGE_CURVE ( 'NONE', #115, #223, #266, .T. ) ;
#80 = CARTESIAN_POINT ( 'NONE',  ( -610.0000000000003411, 12.00000000000000000, 255.0000000000000568 ) ) ;
#81 = AXIS2_PLACEMENT_3D ( 'NONE', #221, #74, #179 ) ;
#82 = DIRECTION ( 'NONE',  ( 0.000000000000000000, -1.000000000000000000, 0.000000000000000000 ) ) ;
#83 = PLANE ( 'NONE',  #227 ) ;
#84 = CARTESIAN_POINT ( 'NONE',  ( -610.0000000000003411, 12.00000000000000000, -254.9999999999999432 ) ) ;
#85 = EDGE_LOOP ( 'NONE', ( #6, #202, #10, #130, #134, #20 ) ) ;
#86 = FACE_OUTER_BOUND ( 'NONE', #255, .T. ) ;
#87 = MECHANICAL_DESIGN_GEOMETRIC_PRESENTATION_REPRESENTATION (  '', ( #120 ), #29 ) ;
#88 = DIRECTION ( 'NONE',  ( 0.000000000000000000, 0.000000000000000000, -1.000000000000000000 ) ) ;
#89 = DIRECTION ( 'NONE',  ( 0.000000000000000000, 1.000000000000000000, -0.000000000000000000 ) ) ;
#90 = ORIENTED_EDGE ( 'NONE', *, *, #114, .F. ) ;
#91 = VECTOR ( 'NONE', #253, 1000.000000000000000 ) ;
#92 = ORIENTED_EDGE ( 'NONE', *, *, #117, .T. ) ;
#93 = CARTESIAN_POINT ( 'NONE',  ( 0.000000000000000000, 0.000000000000000000, 0.000000000000000000 ) ) ;
#94 = PLANE ( 'NONE',  #169 ) ;
#95 = ADVANCED_FACE ( 'NONE', ( #28 ), #73, .F. ) ;
#96 = EDGE_LOOP ( 'NONE', ( #75, #9, #260, #184 ) ) ;
#97 = ORIENTED_EDGE ( 'NONE', *, *, #33, .T. ) ;
#98 = VECTOR ( 'NONE', #53, 1000.000000000000000 ) ;
#99 = UNCERTAINTY_MEASURE_WITH_UNIT (LENGTH_MEASURE( 1.000000000000000082E-05 ), #21, 'distance_accuracy_value', 'NONE');
#100 = FACE_OUTER_BOUND ( 'NONE', #235, .T. ) ;
#101 = CARTESIAN_POINT ( 'NONE',  ( -610.0000000000003411, 12.00000000000000000, 255.0000000000000568 ) ) ;
#102 = SURFACE_STYLE_USAGE ( .BOTH. , #2 ) ;
#103 = CARTESIAN_POINT ( 'NONE',  ( 609.9999999999996589, 0.000000000000000000, 225.0000000000000568 ) ) ;
#104 = PRESENTATION_STYLE_ASSIGNMENT (( #102 ) ) ;
#105 = VERTEX_POINT ( 'NONE', #43 ) ;
#106 =( NAMED_UNIT ( * ) PLANE_ANGLE_UNIT ( ) SI_UNIT ( $, .RADIAN. ) );
#107 = DIRECTION ( 'NONE',  ( 0.000000000000000000, -1.000000000000000000, 0.000000000000000000 ) ) ;
#108 = PRODUCT_DEFINITION_FORMATION_WITH_SPECIFIED_SOURCE ( 'ANY', '', #110, .NOT_KNOWN. ) ;
#109 = VECTOR ( 'NONE', #61, 1000.000000000000000 ) ;
#110 = PRODUCT ( 'FR120T.C_STEP_v11023', 'FR120T.C_STEP_v11023', '', ( #271 ) ) ;
#111 = DIRECTION ( 'NONE',  ( -1.000000000000000000, 0.000000000000000000, 0.000000000000000000 ) ) ;
#112 = EDGE_CURVE ( 'NONE', #176, #216, #148, .T. ) ;
#113 = VERTEX_POINT ( 'NONE', #172 ) ;
#114 = EDGE_CURVE ( 'NONE', #161, #176, #199, .T. ) ;
#115 = VERTEX_POINT ( 'NONE', #149 ) ;
#116 = CLOSED_SHELL ( 'NONE', ( #95, #63, #222, #17, #141, #215, #11, #70 ) ) ;
#117 = EDGE_CURVE ( 'NONE', #176, #218, #123, .T. ) ;
#118 = CYLINDRICAL_SURFACE ( 'NONE', #258, 30.00000000000000000 ) ;
#119 = DIRECTION ( 'NONE',  ( 0.000000000000000000, 0.000000000000000000, -1.000000000000000000 ) ) ;
#120 = STYLED_ITEM ( 'NONE', ( #212 ), #78 ) ;
#121 = VECTOR ( 'NONE', #229, 1000.000000000000000 ) ;
#122 = CARTESIAN_POINT ( 'NONE',  ( 609.9999999999996589, 12.00000000000000000, 225.0000000000000568 ) ) ;
#123 = LINE ( 'NONE', #122, #207 ) ;
#124 =( NAMED_UNIT ( * ) PLANE_ANGLE_UNIT ( ) SI_UNIT ( $, .RADIAN. ) );
#125 = DIRECTION ( 'NONE',  ( 0.000000000000000000, -0.000000000000000000, -1.000000000000000000 ) ) ;
#126 = LINE ( 'NONE', #175, #91 ) ;
#127 = VERTEX_POINT ( 'NONE', #152 ) ;
#128 = ORIENTED_EDGE ( 'NONE', *, *, #171, .T. ) ;
#129 = ORIENTED_EDGE ( 'NONE', *, *, #114, .T. ) ;
#130 = ORIENTED_EDGE ( 'NONE', *, *, #243, .T. ) ;
#131 = APPLICATION_PROTOCOL_DEFINITION ( 'draft international standard', 'automotive_design', 1998, #201 ) ;
#132 = CARTESIAN_POINT ( 'NONE',  ( -580.0000000000003411, 12.00000000000000000, 255.0000000000000568 ) ) ;
#133 = PLANE ( 'NONE',  #81 ) ;
#134 = ORIENTED_EDGE ( 'NONE', *, *, #238, .F. ) ;
#135 = EDGE_CURVE ( 'NONE', #115, #161, #150, .T. ) ;
#136 = CARTESIAN_POINT ( 'NONE',  ( 609.9999999999996589, 12.00000000000000000, 255.0000000000000568 ) ) ;
#137 = CARTESIAN_POINT ( 'NONE',  ( 609.9999999999996589, 12.00000000000000000, -254.9999999999999432 ) ) ;
#138 = CIRCLE ( 'NONE', #203, 30.00000000000000000 ) ;
#139 = PRODUCT_DEFINITION_SHAPE ( 'NONE', 'NONE',  #270 ) ;
#140 = EDGE_LOOP ( 'NONE', ( #52, #129, #259, #97, #240, #210 ) ) ;
#141 = ADVANCED_FACE ( 'NONE', ( #191 ), #83, .F. ) ;
#142 = ORIENTED_EDGE ( 'NONE', *, *, #257, .T. ) ;
#143 = EDGE_CURVE ( 'NONE', #261, #161, #233, .T. ) ;
#144 = VECTOR ( 'NONE', #211, 1000.000000000000000 ) ;
#145 = CARTESIAN_POINT ( 'NONE',  ( -610.0000000000003411, 12.00000000000000000, -254.9999999999999432 ) ) ;
#146 = VECTOR ( 'NONE', #214, 1000.000000000000000 ) ;
#147 = AXIS2_PLACEMENT_3D ( 'NONE', #228, #230, #248 ) ;
#148 = LINE ( 'NONE', #25, #144 ) ;
#149 = CARTESIAN_POINT ( 'NONE',  ( -580.0000000000003411, 12.00000000000000000, 255.0000000000000568 ) ) ;
#150 = LINE ( 'NONE', #80, #121 ) ;
#151 = ORIENTED_EDGE ( 'NONE', *, *, #257, .F. ) ;
#152 = CARTESIAN_POINT ( 'NONE',  ( -610.0000000000003411, 12.00000000000000000, 225.0000000000000568 ) ) ;
#153 = CARTESIAN_POINT ( 'NONE',  ( -610.0000000000003411, 12.00000000000000000, -254.9999999999999432 ) ) ;
#154 = CARTESIAN_POINT ( 'NONE',  ( 0.000000000000000000, 0.000000000000000000, 0.000000000000000000 ) ) ;
#155 = EDGE_LOOP ( 'NONE', ( #8, #183, #254, #50 ) ) ;
#156 = DIRECTION ( 'NONE',  ( 1.000000000000000000, 0.000000000000000000, 0.000000000000000000 ) ) ;
#157 = CARTESIAN_POINT ( 'NONE',  ( -580.0000000000003411, 0.000000000000000000, 255.0000000000000568 ) ) ;
#158 = ORIENTED_EDGE ( 'NONE', *, *, #112, .F. ) ;
#159 = ORIENTED_EDGE ( 'NONE', *, *, #33, .F. ) ;
#160 = PRODUCT_RELATED_PRODUCT_CATEGORY ( 'part', '', ( #110 ) ) ;
#161 = VERTEX_POINT ( 'NONE', #213 ) ;
#162 = MANIFOLD_SOLID_BREP ( 'Fillet1', #116 ) ;
#163 = EDGE_CURVE ( 'NONE', #218, #261, #138, .T. ) ;
#164 = CARTESIAN_POINT ( 'NONE',  ( -610.0000000000003411, 12.00000000000000000, 255.0000000000000568 ) ) ;
#165 = VECTOR ( 'NONE', #77, 1000.000000000000000 ) ;
#166 = PLANE ( 'NONE',  #46 ) ;
#167 = EDGE_CURVE ( 'NONE', #237, #113, #252, .T. ) ;
#168 = DIRECTION ( 'NONE',  ( 0.000000000000000000, -1.000000000000000000, 0.000000000000000000 ) ) ;
#169 = AXIS2_PLACEMENT_3D ( 'NONE', #154, #82, #200 ) ;
#170 = CARTESIAN_POINT ( 'NONE',  ( 609.9999999999996589, 12.00000000000000000, 225.0000000000000568 ) ) ;
#171 = EDGE_CURVE ( 'NONE', #5, #113, #209, .T. ) ;
#172 = CARTESIAN_POINT ( 'NONE',  ( -610.0000000000003411, 0.000000000000000000, -254.9999999999999432 ) ) ;
#173 = CARTESIAN_POINT ( 'NONE',  ( 579.9999999999996589, 0.000000000000000000, 255.0000000000000568 ) ) ;
#174 = CARTESIAN_POINT ( 'NONE',  ( 579.9999999999996589, 0.000000000000000000, 225.0000000000000568 ) ) ;
#175 = CARTESIAN_POINT ( 'NONE',  ( -610.0000000000003411, 0.000000000000000000, 255.0000000000000568 ) ) ;
#176 = VERTEX_POINT ( 'NONE', #170 ) ;
#177 = DIRECTION ( 'NONE',  ( 0.000000000000000000, 0.000000000000000000, 1.000000000000000000 ) ) ;
#178 = CARTESIAN_POINT ( 'NONE',  ( 0.000000000000000000, 12.00000000000000000, 0.000000000000000000 ) ) ;
#179 = DIRECTION ( 'NONE',  ( 0.000000000000000000, 0.000000000000000000, -1.000000000000000000 ) ) ;
#180 = DIRECTION ( 'NONE',  ( 0.000000000000000000, -1.000000000000000000, 0.000000000000000000 ) ) ;
#181 = CARTESIAN_POINT ( 'NONE',  ( -610.0000000000003411, 12.00000000000000000, 225.0000000000000568 ) ) ;
#182 = AXIS2_PLACEMENT_3D ( 'NONE', #267, #226, #119 ) ;
#183 = ORIENTED_EDGE ( 'NONE', *, *, #204, .T. ) ;
#184 = ORIENTED_EDGE ( 'NONE', *, *, #79, .T. ) ;
#185 = VECTOR ( 'NONE', #15, 1000.000000000000000 ) ;
#186 = UNCERTAINTY_MEASURE_WITH_UNIT (LENGTH_MEASURE( 1.000000000000000082E-05 ), #194, 'distance_accuracy_value', 'NONE');
#187 = APPLICATION_CONTEXT ( 'automotive_design' ) ;
#188 = CARTESIAN_POINT ( 'NONE',  ( -610.0000000000003411, 12.00000000000000000, -254.9999999999999432 ) ) ;
#189 = DIRECTION ( 'NONE',  ( 0.000000000000000000, 0.000000000000000000, -1.000000000000000000 ) ) ;
#190 = EDGE_CURVE ( 'NONE', #223, #261, #247, .T. ) ;
#191 = FACE_OUTER_BOUND ( 'NONE', #140, .T. ) ;
#192 = DIRECTION ( 'NONE',  ( 0.000000000000000000, 0.000000000000000000, 1.000000000000000000 ) ) ;
#193 = AXIS2_PLACEMENT_3D ( 'NONE', #136, #111, #192 ) ;
#194 =( LENGTH_UNIT ( ) NAMED_UNIT ( * ) SI_UNIT ( .MILLI., .METRE. ) );
#195 = DIRECTION ( 'NONE',  ( -0.000000000000000000, 1.000000000000000000, -0.000000000000000000 ) ) ;
#196 = ORIENTED_EDGE ( 'NONE', *, *, #208, .T. ) ;
#197 = DIRECTION ( 'NONE',  ( -0.000000000000000000, 1.000000000000000000, -0.000000000000000000 ) ) ;
#198 = AXIS2_PLACEMENT_3D ( 'NONE', #250, #249, #234 ) ;
#199 = CIRCLE ( 'NONE', #147, 30.00000000000000000 ) ;
#200 = DIRECTION ( 'NONE',  ( 0.000000000000000000, -0.000000000000000000, -1.000000000000000000 ) ) ;
#201 = APPLICATION_CONTEXT ( 'automotive_design' ) ;
#202 = ORIENTED_EDGE ( 'NONE', *, *, #163, .T. ) ;
#203 = AXIS2_PLACEMENT_3D ( 'NONE', #174, #168, #88 ) ;
#204 = EDGE_CURVE ( 'NONE', #105, #127, #231, .T. ) ;
#205 = CARTESIAN_POINT ( 'NONE',  ( -580.0000000000003411, 12.00000000000000000, 225.0000000000000568 ) ) ;
#206 = DIRECTION ( 'NONE',  ( 0.000000000000000000, 0.000000000000000000, -1.000000000000000000 ) ) ;
#207 = VECTOR ( 'NONE', #65, 1000.000000000000000 ) ;
#208 = EDGE_CURVE ( 'NONE', #218, #5, #72, .T. ) ;
#209 = LINE ( 'NONE', #38, #185 ) ;
#210 = ORIENTED_EDGE ( 'NONE', *, *, #264, .T. ) ;
#211 = DIRECTION ( 'NONE',  ( 0.000000000000000000, 0.000000000000000000, -1.000000000000000000 ) ) ;
#212 = PRESENTATION_STYLE_ASSIGNMENT (( #256 ) ) ;
#213 = CARTESIAN_POINT ( 'NONE',  ( 579.9999999999996589, 12.00000000000000000, 255.0000000000000568 ) ) ;
#214 = DIRECTION ( 'NONE',  ( -0.000000000000000000, -1.000000000000000000, -0.000000000000000000 ) ) ;
#215 = ADVANCED_FACE ( 'NONE', ( #26 ), #94, .T. ) ;
#216 = VERTEX_POINT ( 'NONE', #137 ) ;
#217 = FILL_AREA_STYLE ('',( #19 ) ) ;
#218 = VERTEX_POINT ( 'NONE', #103 ) ;
#219 = LINE ( 'NONE', #23, #146 ) ;
#220 =( GEOMETRIC_REPRESENTATION_CONTEXT ( 3 ) GLOBAL_UNCERTAINTY_ASSIGNED_CONTEXT ( ( #186 ) ) GLOBAL_UNIT_ASSIGNED_CONTEXT ( ( #194, #71, #49 ) ) REPRESENTATION_CONTEXT ( 'NONE', 'WORKASPACE' ) );
#221 = CARTESIAN_POINT ( 'NONE',  ( -610.0000000000003411, 12.00000000000000000, 255.0000000000000568 ) ) ;
#222 = ADVANCED_FACE ( 'NONE', ( #236 ), #133, .F. ) ;
#223 = VERTEX_POINT ( 'NONE', #157 ) ;
#224 = EDGE_LOOP ( 'NONE', ( #239, #55, #32, #57 ) ) ;
#225 = DIRECTION ( 'NONE',  ( 0.000000000000000000, 0.000000000000000000, 1.000000000000000000 ) ) ;
#226 = DIRECTION ( 'NONE',  ( 0.000000000000000000, -1.000000000000000000, 0.000000000000000000 ) ) ;
#227 = AXIS2_PLACEMENT_3D ( 'NONE', #178, #107, #125 ) ;
#228 = CARTESIAN_POINT ( 'NONE',  ( 579.9999999999996589, 12.00000000000000000, 225.0000000000000568 ) ) ;
#229 = DIRECTION ( 'NONE',  ( 1.000000000000000000, 0.000000000000000000, 0.000000000000000000 ) ) ;
#230 = DIRECTION ( 'NONE',  ( -0.000000000000000000, 1.000000000000000000, -0.000000000000000000 ) ) ;
#231 = LINE ( 'NONE', #181, #62 ) ;
#232 = VECTOR ( 'NONE', #180, 1000.000000000000000 ) ;
#233 = LINE ( 'NONE', #268, #54 ) ;
#234 = DIRECTION ( 'NONE',  ( 0.000000000000000000, 0.000000000000000000, -1.000000000000000000 ) ) ;
#235 = EDGE_LOOP ( 'NONE', ( #128, #45, #159, #142 ) ) ;
#236 = FACE_OUTER_BOUND ( 'NONE', #155, .T. ) ;
#237 = VERTEX_POINT ( 'NONE', #84 ) ;
#238 = EDGE_CURVE ( 'NONE', #113, #105, #126, .T. ) ;
#239 = ORIENTED_EDGE ( 'NONE', *, *, #264, .F. ) ;
#240 = ORIENTED_EDGE ( 'NONE', *, *, #39, .T. ) ;
#241 = COLOUR_RGB ( '',0.7921568627450980005, 0.8196078431372548767, 0.9333333333333333481 ) ;
#242 = CIRCLE ( 'NONE', #198, 30.00000000000000000 ) ;
#243 = EDGE_CURVE ( 'NONE', #223, #105, #242, .T. ) ;
#244 = LINE ( 'NONE', #188, #245 ) ;
#245 = VECTOR ( 'NONE', #59, 1000.000000000000000 ) ;
#246 = DIRECTION ( 'NONE',  ( 1.000000000000000000, 0.000000000000000000, -0.000000000000000000 ) ) ;
#247 = LINE ( 'NONE', #64, #37 ) ;
#248 = DIRECTION ( 'NONE',  ( 0.000000000000000000, 0.000000000000000000, -1.000000000000000000 ) ) ;
#249 = DIRECTION ( 'NONE',  ( 0.000000000000000000, -1.000000000000000000, 0.000000000000000000 ) ) ;
#250 = CARTESIAN_POINT ( 'NONE',  ( -580.0000000000003411, 0.000000000000000000, 225.0000000000000568 ) ) ;
#251 = SHAPE_DEFINITION_REPRESENTATION ( #139, #78 ) ;
#252 = LINE ( 'NONE', #153, #109 ) ;
#253 = DIRECTION ( 'NONE',  ( -0.000000000000000000, -0.000000000000000000, 1.000000000000000000 ) ) ;
#254 = ORIENTED_EDGE ( 'NONE', *, *, #39, .F. ) ;
#255 = EDGE_LOOP ( 'NONE', ( #90, #24, #47, #27 ) ) ;
#256 = SURFACE_STYLE_USAGE ( .BOTH. , #272 ) ;
#257 = EDGE_CURVE ( 'NONE', #216, #5, #219, .T. ) ;
#258 = AXIS2_PLACEMENT_3D ( 'NONE', #205, #13, #189 ) ;
#259 = ORIENTED_EDGE ( 'NONE', *, *, #112, .T. ) ;
#260 = ORIENTED_EDGE ( 'NONE', *, *, #135, .F. ) ;
#261 = VERTEX_POINT ( 'NONE', #173 ) ;
#262 = PRESENTATION_LAYER_ASSIGNMENT (  '', '', ( #120 ) ) ;
#263 = STYLED_ITEM ( 'NONE', ( #104 ), #162 ) ;
#264 = EDGE_CURVE ( 'NONE', #127, #115, #66, .T. ) ;
#265 = DIRECTION ( 'NONE',  ( -1.000000000000000000, 0.000000000000000000, -0.000000000000000000 ) ) ;
#266 = LINE ( 'NONE', #132, #232 ) ;
#267 = CARTESIAN_POINT ( 'NONE',  ( 579.9999999999996589, 12.00000000000000000, 225.0000000000000568 ) ) ;
#268 = CARTESIAN_POINT ( 'NONE',  ( 579.9999999999996589, 12.00000000000000000, 255.0000000000000568 ) ) ;
#269 = DIRECTION ( 'NONE',  ( 0.000000000000000000, 0.000000000000000000, -1.000000000000000000 ) ) ;
#270 = PRODUCT_DEFINITION ( 'UNKNOWN', '', #108, #60 ) ;
#271 = PRODUCT_CONTEXT ( 'NONE', #187, 'mechanical' ) ;
#272 = SURFACE_SIDE_STYLE ('',( #44 ) ) ;
ENDSEC;
END-ISO-10303-21;
