ISO-10303-21;
HEADER;
FILE_DESCRIPTION (( 'STEP AP214' ),
    '1' );
FILE_NAME ('AU060T.C_STEP_V11122.STEP',
    '2022-11-16T09:49:50',
    ( '' ),
    ( '' ),
    'SwSTEP 2.0',
    'SolidWorks 2019',
    '' );
FILE_SCHEMA (( 'AUTOMOTIVE_DESIGN' ));
ENDSEC;

DATA;
#1 = MANIFOLD_SOLID_BREP ( 'Boss-Extrude1', #61 ) ;
#2 = CARTESIAN_POINT ( 'NONE',  ( -301.0000000000000568, 12.00000000000000000, -224.0000000000000284 ) ) ;
#3 = FACE_OUTER_BOUND ( 'NONE', #171, .T. ) ;
#4 = ADVANCED_FACE ( 'NONE', ( #158 ), #134, .F. ) ;
#5 = LINE ( 'NONE', #122, #147 ) ;
#6 = PRODUCT_RELATED_PRODUCT_CATEGORY ( 'part', '', ( #41 ) ) ;
#7 = DIRECTION ( 'NONE',  ( 0.000000000000000000, 1.000000000000000000, 0.000000000000000000 ) ) ;
#8 = ORIENTED_EDGE ( 'NONE', *, *, #133, .T. ) ;
#9 = VECTOR ( 'NONE', #48, 1000.000000000000000 ) ;
#10 = CARTESIAN_POINT ( 'NONE',  ( 301.0000000000000568, 0.000000000000000000, 223.9999999999999716 ) ) ;
#11 = EDGE_CURVE ( 'NONE', #196, #42, #112, .T. ) ;
#12 = PRESENTATION_STYLE_ASSIGNMENT (( #90 ) ) ;
#13 = ORIENTED_EDGE ( 'NONE', *, *, #83, .T. ) ;
#14 = COLOUR_RGB ( '',0.7921568627450980005, 0.8196078431372548767, 0.9333333333333333481 ) ;
#15 = AXIS2_PLACEMENT_3D ( 'NONE', #186, #201, #93 ) ;
#16 =( NAMED_UNIT ( * ) SI_UNIT ( $, .STERADIAN. ) SOLID_ANGLE_UNIT ( ) );
#17 = DIRECTION ( 'NONE',  ( -1.000000000000000000, -0.000000000000000000, -0.000000000000000000 ) ) ;
#18 = VECTOR ( 'NONE', #125, 1000.000000000000000 ) ;
#19 = PLANE ( 'NONE',  #71 ) ;
#20 = LINE ( 'NONE', #146, #18 ) ;
#21 = EDGE_CURVE ( 'NONE', #115, #85, #160, .T. ) ;
#22 = PLANE ( 'NONE',  #157 ) ;
#23 = FACE_OUTER_BOUND ( 'NONE', #197, .T. ) ;
#24 = ORIENTED_EDGE ( 'NONE', *, *, #190, .F. ) ;
#25 = ADVANCED_FACE ( 'NONE', ( #94 ), #19, .F. ) ;
#26 = PRESENTATION_STYLE_ASSIGNMENT (( #88 ) ) ;
#27 = FILL_AREA_STYLE ('',( #170 ) ) ;
#28 = ORIENTED_EDGE ( 'NONE', *, *, #133, .F. ) ;
#29 = ORIENTED_EDGE ( 'NONE', *, *, #53, .T. ) ;
#30 =( NAMED_UNIT ( * ) PLANE_ANGLE_UNIT ( ) SI_UNIT ( $, .RADIAN. ) );
#31 = EDGE_CURVE ( 'NONE', #181, #73, #82, .T. ) ;
#32 = DIRECTION ( 'NONE',  ( -1.000000000000000000, 0.000000000000000000, 2.478176394252581634E-16 ) ) ;
#33 = AXIS2_PLACEMENT_3D ( 'NONE', #141, #32, #79 ) ;
#34 = DIRECTION ( 'NONE',  ( 1.000000000000000000, 0.000000000000000000, 0.000000000000000000 ) ) ;
#35 = LINE ( 'NONE', #184, #9 ) ;
#36 = DIRECTION ( 'NONE',  ( 0.000000000000000000, 0.000000000000000000, -1.000000000000000000 ) ) ;
#37 = PRESENTATION_LAYER_ASSIGNMENT (  '', '', ( #164 ) ) ;
#38 = DIRECTION ( 'NONE',  ( 0.000000000000000000, 1.000000000000000000, 0.000000000000000000 ) ) ;
#39 = VERTEX_POINT ( 'NONE', #126 ) ;
#40 =( LENGTH_UNIT ( ) NAMED_UNIT ( * ) SI_UNIT ( .MILLI., .METRE. ) );
#41 = PRODUCT ( 'AU060T.C_STEP_V11122', 'AU060T.C_STEP_V11122', '', ( #111 ) ) ;
#42 = VERTEX_POINT ( 'NONE', #62 ) ;
#43 = VECTOR ( 'NONE', #172, 1000.000000000000000 ) ;
#44 = CARTESIAN_POINT ( 'NONE',  ( -300.9999999999999432, 12.00000000000000000, 223.9999999999999716 ) ) ;
#45 = ORIENTED_EDGE ( 'NONE', *, *, #50, .F. ) ;
#46 = ORIENTED_EDGE ( 'NONE', *, *, #11, .T. ) ;
#47 = PRODUCT_DEFINITION_FORMATION_WITH_SPECIFIED_SOURCE ( 'ANY', '', #41, .NOT_KNOWN. ) ;
#48 = DIRECTION ( 'NONE',  ( 2.478176394252581634E-16, 0.000000000000000000, 1.000000000000000000 ) ) ;
#49 = VECTOR ( 'NONE', #162, 1000.000000000000000 ) ;
#50 = EDGE_CURVE ( 'NONE', #85, #181, #127, .T. ) ;
#51 = CARTESIAN_POINT ( 'NONE',  ( -301.0000000000000568, 12.00000000000000000, -224.0000000000000284 ) ) ;
#52 = CARTESIAN_POINT ( 'NONE',  ( 300.9999999999999432, 12.00000000000000000, -224.0000000000000284 ) ) ;
#53 = EDGE_CURVE ( 'NONE', #183, #181, #20, .T. ) ;
#54 = SURFACE_STYLE_FILL_AREA ( #108 ) ;
#55 = SURFACE_STYLE_FILL_AREA ( #27 ) ;
#56 = ORIENTED_EDGE ( 'NONE', *, *, #91, .T. ) ;
#57 = PRODUCT_DEFINITION_SHAPE ( 'NONE', 'NONE',  #148 ) ;
#58 = SURFACE_SIDE_STYLE ('',( #55 ) ) ;
#59 = EDGE_LOOP ( 'NONE', ( #154, #167, #24, #102 ) ) ;
#60 = EDGE_LOOP ( 'NONE', ( #140, #113, #137, #8 ) ) ;
#61 = CLOSED_SHELL ( 'NONE', ( #4, #25, #63, #128, #175, #103 ) ) ;
#62 = CARTESIAN_POINT ( 'NONE',  ( -301.0000000000000568, 12.00000000000000000, -224.0000000000000284 ) ) ;
#63 = ADVANCED_FACE ( 'NONE', ( #3 ), #189, .F. ) ;
#64 = STYLED_ITEM ( 'NONE', ( #12 ), #1 ) ;
#65 = UNCERTAINTY_MEASURE_WITH_UNIT (LENGTH_MEASURE( 1.000000000000000082E-05 ), #114, 'distance_accuracy_value', 'NONE');
#66 =( GEOMETRIC_REPRESENTATION_CONTEXT ( 3 ) GLOBAL_UNCERTAINTY_ASSIGNED_CONTEXT ( ( #75 ) ) GLOBAL_UNIT_ASSIGNED_CONTEXT ( ( #40, #179, #101 ) ) REPRESENTATION_CONTEXT ( 'NONE', 'WORKASPACE' ) );
#67 = LINE ( 'NONE', #52, #49 ) ;
#68 = AXIS2_PLACEMENT_3D ( 'NONE', #120, #36, #116 ) ;
#69 = DIRECTION ( 'NONE',  ( 2.478176394252581634E-16, 0.000000000000000000, 1.000000000000000000 ) ) ;
#70 =( LENGTH_UNIT ( ) NAMED_UNIT ( * ) SI_UNIT ( .MILLI., .METRE. ) );
#71 = AXIS2_PLACEMENT_3D ( 'NONE', #2, #81, #173 ) ;
#72 = PLANE ( 'NONE',  #68 ) ;
#73 = VERTEX_POINT ( 'NONE', #185 ) ;
#74 = DIRECTION ( 'NONE',  ( -1.000000000000000000, -0.000000000000000000, -0.000000000000000000 ) ) ;
#75 = UNCERTAINTY_MEASURE_WITH_UNIT (LENGTH_MEASURE( 1.000000000000000082E-05 ), #40, 'distance_accuracy_value', 'NONE');
#76 = VECTOR ( 'NONE', #155, 1000.000000000000000 ) ;
#77 = ORIENTED_EDGE ( 'NONE', *, *, #83, .F. ) ;
#78 = COLOUR_RGB ( '',0.7921568627450980005, 0.8196078431372548767, 0.9333333333333333481 ) ;
#79 = DIRECTION ( 'NONE',  ( 2.478176394252581634E-16, 0.000000000000000000, 1.000000000000000000 ) ) ;
#80 = CARTESIAN_POINT ( 'NONE',  ( -301.0000000000000568, 12.00000000000000000, -224.0000000000000284 ) ) ;
#81 = DIRECTION ( 'NONE',  ( 0.000000000000000000, 0.000000000000000000, 1.000000000000000000 ) ) ;
#82 = LINE ( 'NONE', #145, #76 ) ;
#83 = EDGE_CURVE ( 'NONE', #42, #115, #35, .T. ) ;
#84 = LINE ( 'NONE', #106, #98 ) ;
#85 = VERTEX_POINT ( 'NONE', #110 ) ;
#86 = DIRECTION ( 'NONE',  ( 0.000000000000000000, -0.000000000000000000, 1.000000000000000000 ) ) ;
#87 = ORIENTED_EDGE ( 'NONE', *, *, #156, .F. ) ;
#88 = SURFACE_STYLE_USAGE ( .BOTH. , #58 ) ;
#89 = ORIENTED_EDGE ( 'NONE', *, *, #31, .F. ) ;
#90 = SURFACE_STYLE_USAGE ( .BOTH. , #152 ) ;
#91 = EDGE_CURVE ( 'NONE', #42, #39, #95, .T. ) ;
#92 = APPLICATION_CONTEXT ( 'automotive_design' ) ;
#93 = DIRECTION ( 'NONE',  ( 1.000000000000000000, 0.000000000000000000, 0.000000000000000000 ) ) ;
#94 = FACE_OUTER_BOUND ( 'NONE', #60, .T. ) ;
#95 = LINE ( 'NONE', #193, #131 ) ;
#96 = VECTOR ( 'NONE', #34, 1000.000000000000000 ) ;
#97 = EDGE_CURVE ( 'NONE', #183, #196, #67, .T. ) ;
#98 = VECTOR ( 'NONE', #199, 1000.000000000000000 ) ;
#99 = LINE ( 'NONE', #165, #124 ) ;
#100 = ORIENTED_EDGE ( 'NONE', *, *, #97, .F. ) ;
#101 =( NAMED_UNIT ( * ) SI_UNIT ( $, .STERADIAN. ) SOLID_ANGLE_UNIT ( ) );
#102 = ORIENTED_EDGE ( 'NONE', *, *, #21, .T. ) ;
#103 = ADVANCED_FACE ( 'NONE', ( #191 ), #22, .F. ) ;
#104 = VECTOR ( 'NONE', #17, 1000.000000000000000 ) ;
#105 = DIRECTION ( 'NONE',  ( -0.000000000000000000, -1.000000000000000000, -0.000000000000000000 ) ) ;
#106 = CARTESIAN_POINT ( 'NONE',  ( -300.9999999999999432, 12.00000000000000000, 223.9999999999999716 ) ) ;
#107 = ORIENTED_EDGE ( 'NONE', *, *, #156, .T. ) ;
#108 = FILL_AREA_STYLE ('',( #178 ) ) ;
#109 = APPLICATION_PROTOCOL_DEFINITION ( 'draft international standard', 'automotive_design', 1998, #92 ) ;
#110 = CARTESIAN_POINT ( 'NONE',  ( -300.9999999999999432, 0.000000000000000000, 223.9999999999999716 ) ) ;
#111 = PRODUCT_CONTEXT ( 'NONE', #198, 'mechanical' ) ;
#112 = LINE ( 'NONE', #80, #104 ) ;
#113 = ORIENTED_EDGE ( 'NONE', *, *, #91, .F. ) ;
#114 =( LENGTH_UNIT ( ) NAMED_UNIT ( * ) SI_UNIT ( .MILLI., .METRE. ) );
#115 = VERTEX_POINT ( 'NONE', #44 ) ;
#116 = DIRECTION ( 'NONE',  ( -1.000000000000000000, 0.000000000000000000, -0.000000000000000000 ) ) ;
#117 = UNCERTAINTY_MEASURE_WITH_UNIT (LENGTH_MEASURE( 1.000000000000000082E-05 ), #70, 'distance_accuracy_value', 'NONE');
#118 = ORIENTED_EDGE ( 'NONE', *, *, #21, .F. ) ;
#119 = AXIS2_PLACEMENT_3D ( 'NONE', #51, #174, #202 ) ;
#120 = CARTESIAN_POINT ( 'NONE',  ( -300.9999999999999432, 12.00000000000000000, 223.9999999999999716 ) ) ;
#121 = ORIENTED_EDGE ( 'NONE', *, *, #190, .T. ) ;
#122 = CARTESIAN_POINT ( 'NONE',  ( -301.0000000000000568, 0.000000000000000000, -224.0000000000000284 ) ) ;
#123 = EDGE_LOOP ( 'NONE', ( #200, #28, #100, #29 ) ) ;
#124 = VECTOR ( 'NONE', #74, 1000.000000000000000 ) ;
#125 = DIRECTION ( 'NONE',  ( -0.000000000000000000, -1.000000000000000000, -0.000000000000000000 ) ) ;
#126 = CARTESIAN_POINT ( 'NONE',  ( -301.0000000000000568, 0.000000000000000000, -224.0000000000000284 ) ) ;
#127 = LINE ( 'NONE', #187, #96 ) ;
#128 = ADVANCED_FACE ( 'NONE', ( #136 ), #72, .F. ) ;
#129 = CARTESIAN_POINT ( 'NONE',  ( 0.000000000000000000, 0.000000000000000000, 0.000000000000000000 ) ) ;
#130 = DIRECTION ( 'NONE',  ( -0.000000000000000000, -1.000000000000000000, -0.000000000000000000 ) ) ;
#131 = VECTOR ( 'NONE', #130, 1000.000000000000000 ) ;
#132 =( NAMED_UNIT ( * ) PLANE_ANGLE_UNIT ( ) SI_UNIT ( $, .RADIAN. ) );
#133 = EDGE_CURVE ( 'NONE', #196, #73, #139, .T. ) ;
#134 = PLANE ( 'NONE',  #33 ) ;
#135 = ORIENTED_EDGE ( 'NONE', *, *, #97, .T. ) ;
#136 = FACE_OUTER_BOUND ( 'NONE', #59, .T. ) ;
#137 = ORIENTED_EDGE ( 'NONE', *, *, #11, .F. ) ;
#138 =( GEOMETRIC_REPRESENTATION_CONTEXT ( 3 ) GLOBAL_UNCERTAINTY_ASSIGNED_CONTEXT ( ( #65 ) ) GLOBAL_UNIT_ASSIGNED_CONTEXT ( ( #114, #30, #182 ) ) REPRESENTATION_CONTEXT ( 'NONE', 'WORKASPACE' ) );
#139 = LINE ( 'NONE', #194, #180 ) ;
#140 = ORIENTED_EDGE ( 'NONE', *, *, #143, .T. ) ;
#141 = CARTESIAN_POINT ( 'NONE',  ( 300.9999999999999432, 12.00000000000000000, -224.0000000000000284 ) ) ;
#142 = PRESENTATION_LAYER_ASSIGNMENT (  '', '', ( #64 ) ) ;
#143 = EDGE_CURVE ( 'NONE', #73, #39, #99, .T. ) ;
#144 = CARTESIAN_POINT ( 'NONE',  ( -300.9999999999999432, 12.00000000000000000, 223.9999999999999716 ) ) ;
#145 = CARTESIAN_POINT ( 'NONE',  ( 300.9999999999999432, 0.000000000000000000, -224.0000000000000284 ) ) ;
#146 = CARTESIAN_POINT ( 'NONE',  ( 301.0000000000000568, 12.00000000000000000, 223.9999999999999716 ) ) ;
#147 = VECTOR ( 'NONE', #69, 1000.000000000000000 ) ;
#148 = PRODUCT_DEFINITION ( 'UNKNOWN', '', #47, #169 ) ;
#149 = CARTESIAN_POINT ( 'NONE',  ( 300.9999999999999432, 12.00000000000000000, -224.0000000000000284 ) ) ;
#150 = EDGE_LOOP ( 'NONE', ( #89, #45, #87, #177 ) ) ;
#151 = CARTESIAN_POINT ( 'NONE',  ( 0.000000000000000000, 12.00000000000000000, 0.000000000000000000 ) ) ;
#152 = SURFACE_SIDE_STYLE ('',( #54 ) ) ;
#153 = CARTESIAN_POINT ( 'NONE',  ( 301.0000000000000568, 12.00000000000000000, 223.9999999999999716 ) ) ;
#154 = ORIENTED_EDGE ( 'NONE', *, *, #50, .T. ) ;
#155 = DIRECTION ( 'NONE',  ( -2.478176394252581634E-16, -0.000000000000000000, -1.000000000000000000 ) ) ;
#156 = EDGE_CURVE ( 'NONE', #39, #85, #5, .T. ) ;
#157 = AXIS2_PLACEMENT_3D ( 'NONE', #129, #38, #86 ) ;
#158 = FACE_OUTER_BOUND ( 'NONE', #123, .T. ) ;
#159 = SHAPE_DEFINITION_REPRESENTATION ( #57, #192 ) ;
#160 = LINE ( 'NONE', #144, #43 ) ;
#161 = MECHANICAL_DESIGN_GEOMETRIC_PRESENTATION_REPRESENTATION (  '', ( #64 ), #163 ) ;
#162 = DIRECTION ( 'NONE',  ( -2.478176394252581634E-16, -0.000000000000000000, -1.000000000000000000 ) ) ;
#163 =( GEOMETRIC_REPRESENTATION_CONTEXT ( 3 ) GLOBAL_UNCERTAINTY_ASSIGNED_CONTEXT ( ( #117 ) ) GLOBAL_UNIT_ASSIGNED_CONTEXT ( ( #70, #132, #16 ) ) REPRESENTATION_CONTEXT ( 'NONE', 'WORKASPACE' ) );
#164 = STYLED_ITEM ( 'NONE', ( #26 ), #192 ) ;
#165 = CARTESIAN_POINT ( 'NONE',  ( -301.0000000000000568, 0.000000000000000000, -224.0000000000000284 ) ) ;
#166 = APPLICATION_PROTOCOL_DEFINITION ( 'draft international standard', 'automotive_design', 1998, #198 ) ;
#167 = ORIENTED_EDGE ( 'NONE', *, *, #53, .F. ) ;
#168 = DIRECTION ( 'NONE',  ( 0.000000000000000000, -0.000000000000000000, 1.000000000000000000 ) ) ;
#169 = PRODUCT_DEFINITION_CONTEXT ( 'detailed design', #92, 'design' ) ;
#170 = FILL_AREA_STYLE_COLOUR ( '', #78 ) ;
#171 = EDGE_LOOP ( 'NONE', ( #107, #118, #77, #56 ) ) ;
#172 = DIRECTION ( 'NONE',  ( -0.000000000000000000, -1.000000000000000000, -0.000000000000000000 ) ) ;
#173 = DIRECTION ( 'NONE',  ( 1.000000000000000000, 0.000000000000000000, -0.000000000000000000 ) ) ;
#174 = DIRECTION ( 'NONE',  ( 1.000000000000000000, 0.000000000000000000, -2.478176394252581634E-16 ) ) ;
#175 = ADVANCED_FACE ( 'NONE', ( #23 ), #195, .T. ) ;
#176 = MECHANICAL_DESIGN_GEOMETRIC_PRESENTATION_REPRESENTATION (  '', ( #164 ), #138 ) ;
#177 = ORIENTED_EDGE ( 'NONE', *, *, #143, .F. ) ;
#178 = FILL_AREA_STYLE_COLOUR ( '', #14 ) ;
#179 =( NAMED_UNIT ( * ) PLANE_ANGLE_UNIT ( ) SI_UNIT ( $, .RADIAN. ) );
#180 = VECTOR ( 'NONE', #105, 1000.000000000000000 ) ;
#181 = VERTEX_POINT ( 'NONE', #10 ) ;
#182 =( NAMED_UNIT ( * ) SI_UNIT ( $, .STERADIAN. ) SOLID_ANGLE_UNIT ( ) );
#183 = VERTEX_POINT ( 'NONE', #153 ) ;
#184 = CARTESIAN_POINT ( 'NONE',  ( -301.0000000000000568, 12.00000000000000000, -224.0000000000000284 ) ) ;
#185 = CARTESIAN_POINT ( 'NONE',  ( 300.9999999999999432, 0.000000000000000000, -224.0000000000000284 ) ) ;
#186 = CARTESIAN_POINT ( 'NONE',  ( 0.000000000000000000, 0.000000000000000000, 0.000000000000000000 ) ) ;
#187 = CARTESIAN_POINT ( 'NONE',  ( -300.9999999999999432, 0.000000000000000000, 223.9999999999999716 ) ) ;
#188 = AXIS2_PLACEMENT_3D ( 'NONE', #151, #7, #168 ) ;
#189 = PLANE ( 'NONE',  #119 ) ;
#190 = EDGE_CURVE ( 'NONE', #115, #183, #84, .T. ) ;
#191 = FACE_OUTER_BOUND ( 'NONE', #150, .T. ) ;
#192 = ADVANCED_BREP_SHAPE_REPRESENTATION ( 'AU060T.C_STEP_V11122', ( #1, #15 ), #66 ) ;
#193 = CARTESIAN_POINT ( 'NONE',  ( -301.0000000000000568, 12.00000000000000000, -224.0000000000000284 ) ) ;
#194 = CARTESIAN_POINT ( 'NONE',  ( 300.9999999999999432, 12.00000000000000000, -224.0000000000000284 ) ) ;
#195 = PLANE ( 'NONE',  #188 ) ;
#196 = VERTEX_POINT ( 'NONE', #149 ) ;
#197 = EDGE_LOOP ( 'NONE', ( #135, #46, #13, #121 ) ) ;
#198 = APPLICATION_CONTEXT ( 'automotive_design' ) ;
#199 = DIRECTION ( 'NONE',  ( 1.000000000000000000, 0.000000000000000000, 0.000000000000000000 ) ) ;
#200 = ORIENTED_EDGE ( 'NONE', *, *, #31, .T. ) ;
#201 = DIRECTION ( 'NONE',  ( 0.000000000000000000, 0.000000000000000000, 1.000000000000000000 ) ) ;
#202 = DIRECTION ( 'NONE',  ( -2.478176394252581634E-16, 0.000000000000000000, -1.000000000000000000 ) ) ;
ENDSEC;
END-ISO-10303-21;
