  0
SECTION
  2
HEADER
  9
$ACADVER
  1
AC1015
  9
$ACADMAINTVER
 70
     6
  9
$DWGCODEPAGE
  3
ANSI_1252
  9
$INSBASE
 10
0.0
 20
0.0
 30
0.0
  9
$EXTMIN
 10
-192.4959715892
 20
218.0324014903
 30
0.0
  9
$EXTMAX
 10
-141.9959715892
 20
403.6324014903
 30
0.0
  9
$LIMMIN
 10
0.0
 20
0.0
  9
$LIMMAX
 10
420.0
 20
297.0
  9
$ORTHOMODE
 70
     0
  9
$REGENMODE
 70
     1
  9
$FILLMODE
 70
     1
  9
$QTEXTMODE
 70
     0
  9
$MIRRTEXT
 70
     1
  9
$LTSCALE
 40
1.0
  9
$ATTMODE
 70
     1
  9
$TEXTSIZE
 40
3.5
  9
$TRACEWID
 40
1.0
  9
$TEXTSTYLE
  7
Standard
  9
$CLAYER
  8
0
  9
$CELTYPE
  6
ByLayer
  9
$CECOLOR
 62
   256
  9
$CELTSCALE
 40
1.0
  9
$DISPSILH
 70
     0
  9
$DIMSCALE
 40
1.0
  9
$DIMASZ
 40
3.302
  9
$DIMEXO
 40
1.0
  9
$DIMDLI
 40
3.75
  9
$DIMRND
 40
0.0
  9
$DIMDLE
 40
0.0
  9
$DIMEXE
 40
1.0
  9
$DIMTP
 40
0.0
  9
$DIMTM
 40
0.0
  9
$DIMTXT
 40
3.5
  9
$DIMCEN
 40
2.5
  9
$DIMTSZ
 40
0.0
  9
$DIMTOL
 70
     0
  9
$DIMLIM
 70
     0
  9
$DIMTIH
 70
     1
  9
$DIMTOH
 70
     1
  9
$DIMSE1
 70
     0
  9
$DIMSE2
 70
     0
  9
$DIMTAD
 70
     1
  9
$DIMZIN
 70
     1
  9
$DIMBLK
  1

  9
$DIMASO
 70
     1
  9
$DIMSHO
 70
     1
  9
$DIMPOST
  1

  9
$DIMAPOST
  1

  9
$DIMALT
 70
     0
  9
$DIMALTD
 70
     3
  9
$DIMALTF
 40
0.0393700787
  9
$DIMLFAC
 40
1.0
  9
$DIMTOFL
 70
     1
  9
$DIMTVP
 40
0.0
  9
$DIMTIX
 70
     0
  9
$DIMSOXD
 70
     0
  9
$DIMSAH
 70
     0
  9
$DIMBLK1
  1

  9
$DIMBLK2
  1

  9
$DIMSTYLE
  2
ISO-25
  9
$DIMCLRD
 70
     0
  9
$DIMCLRE
 70
     0
  9
$DIMCLRT
 70
     0
  9
$DIMTFAC
 40
1.0
  9
$DIMGAP
 40
1.524
  9
$DIMJUST
 70
     0
  9
$DIMSD1
 70
     0
  9
$DIMSD2
 70
     0
  9
$DIMTOLJ
 70
     0
  9
$DIMTZIN
 70
     1
  9
$DIMALTZ
 70
     0
  9
$DIMALTTZ
 70
     0
  9
$DIMUPT
 70
     0
  9
$DIMDEC
 70
     2
  9
$DIMTDEC
 70
     2
  9
$DIMALTU
 70
     2
  9
$DIMALTTD
 70
     3
  9
$DIMTXSTY
  7
Standard
  9
$DIMAUNIT
 70
     0
  9
$DIMADEC
 70
     2
  9
$DIMALTRND
 40
0.0
  9
$DIMAZIN
 70
     0
  9
$DIMDSEP
 70
    44
  9
$DIMATFIT
 70
     3
  9
$DIMFRAC
 70
     0
  9
$DIMLDRBLK
  1

  9
$DIMLUNIT
 70
     2
  9
$DIMLWD
 70
    -2
  9
$DIMLWE
 70
    -2
  9
$DIMTMOVE
 70
     0
  9
$LUNITS
 70
     2
  9
$LUPREC
 70
     2
  9
$SKETCHINC
 40
1.0
  9
$FILLETRAD
 40
10.0
  9
$AUNITS
 70
     0
  9
$AUPREC
 70
     2
  9
$MENU
  1
.
  9
$ELEVATION
 40
0.0
  9
$PELEVATION
 40
0.0
  9
$THICKNESS
 40
0.0
  9
$LIMCHECK
 70
     0
  9
$CHAMFERA
 40
0.0
  9
$CHAMFERB
 40
0.0
  9
$CHAMFERC
 40
0.0
  9
$CHAMFERD
 40
0.0
  9
$SKPOLY
 70
     0
  9
$TDCREATE
 40
2458821.667785081
  9
$TDUCREATE
 40
2458821.667785081
  9
$TDUPDATE
 40
2458821.668010347
  9
$TDUUPDATE
 40
2458821.668010347
  9
$TDINDWG
 40
0.0000000116
  9
$TDUSRTIMER
 40
0.0000000116
  9
$USRTIMER
 70
     1
  9
$ANGBASE
 50
0.0
  9
$ANGDIR
 70
     0
  9
$PDMODE
 70
     0
  9
$PDSIZE
 40
-1.0
  9
$PLINEWID
 40
0.0
  9
$SPLFRAME
 70
     0
  9
$SPLINETYPE
 70
     6
  9
$SPLINESEGS
 70
     8
  9
$HANDSEED
  5
A29
  9
$SURFTAB1
 70
     6
  9
$SURFTAB2
 70
     6
  9
$SURFTYPE
 70
     6
  9
$SURFU
 70
     6
  9
$SURFV
 70
     6
  9
$UCSBASE
  2

  9
$UCSNAME
  2

  9
$UCSORG
 10
0.0
 20
0.0
 30
0.0
  9
$UCSXDIR
 10
1.0
 20
0.0
 30
0.0
  9
$UCSYDIR
 10
0.0
 20
1.0
 30
0.0
  9
$UCSORTHOREF
  2

  9
$UCSORTHOVIEW
 70
     0
  9
$UCSORGTOP
 10
0.0
 20
0.0
 30
0.0
  9
$UCSORGBOTTOM
 10
0.0
 20
0.0
 30
0.0
  9
$UCSORGLEFT
 10
0.0
 20
0.0
 30
0.0
  9
$UCSORGRIGHT
 10
0.0
 20
0.0
 30
0.0
  9
$UCSORGFRONT
 10
0.0
 20
0.0
 30
0.0
  9
$UCSORGBACK
 10
0.0
 20
0.0
 30
0.0
  9
$PUCSBASE
  2

  9
$PUCSNAME
  2

  9
$PUCSORG
 10
0.0
 20
0.0
 30
0.0
  9
$PUCSXDIR
 10
1.0
 20
0.0
 30
0.0
  9
$PUCSYDIR
 10
0.0
 20
1.0
 30
0.0
  9
$PUCSORTHOREF
  2

  9
$PUCSORTHOVIEW
 70
     0
  9
$PUCSORGTOP
 10
0.0
 20
0.0
 30
0.0
  9
$PUCSORGBOTTOM
 10
0.0
 20
0.0
 30
0.0
  9
$PUCSORGLEFT
 10
0.0
 20
0.0
 30
0.0
  9
$PUCSORGRIGHT
 10
0.0
 20
0.0
 30
0.0
  9
$PUCSORGFRONT
 10
0.0
 20
0.0
 30
0.0
  9
$PUCSORGBACK
 10
0.0
 20
0.0
 30
0.0
  9
$USERI1
 70
     0
  9
$USERI2
 70
     0
  9
$USERI3
 70
     0
  9
$USERI4
 70
     0
  9
$USERI5
 70
     0
  9
$USERR1
 40
0.0
  9
$USERR2
 40
0.0
  9
$USERR3
 40
0.0
  9
$USERR4
 40
0.0
  9
$USERR5
 40
0.0
  9
$WORLDVIEW
 70
     1
  9
$SHADEDGE
 70
     3
  9
$SHADEDIF
 70
    70
  9
$TILEMODE
 70
     0
  9
$MAXACTVP
 70
    64
  9
$PINSBASE
 10
0.0
 20
0.0
 30
0.0
  9
$PLIMCHECK
 70
     0
  9
$PEXTMIN
 10
-192.4959715892
 20
218.0324014903
 30
0.0
  9
$PEXTMAX
 10
-141.9959715892
 20
403.6324014903
 30
0.0
  9
$PLIMMIN
 10
0.0
 20
0.0
  9
$PLIMMAX
 10
0.0
 20
0.0
  9
$UNITMODE
 70
     0
  9
$VISRETAIN
 70
     1
  9
$PLINEGEN
 70
     0
  9
$PSLTSCALE
 70
     1
  9
$TREEDEPTH
 70
  3020
  9
$CMLSTYLE
  2
Standard
  9
$CMLJUST
 70
     0
  9
$CMLSCALE
 40
20.0
  9
$PROXYGRAPHICS
 70
     1
  9
$MEASUREMENT
 70
     1
  9
$CELWEIGHT
370
    -1
  9
$ENDCAPS
280
     0
  9
$JOINSTYLE
280
     0
  9
$LWDISPLAY
290
     1
  9
$INSUNITS
 70
     4
  9
$HYPERLINKBASE
  1

  9
$STYLESHEET
  1

  9
$XEDIT
290
     1
  9
$CEPSNTYPE
380
     0
  9
$PSTYLEMODE
290
     1
  9
$FINGERPRINTGUID
  2
{f2674ce4-e678-4f0b-8102-5377f18c5a18}
  9
$VERSIONGUID
  2
{FAEB1C32-E019-11D5-929B-00C0DF256EC4}
  9
$EXTNAMES
290
     1
  9
$PSVPSCALE
 40
0.0
  9
$OLESTARTUP
290
     0
  0
ENDSEC
  0
SECTION
  2
CLASSES
  0
CLASS
  1
ACDBDICTIONARYWDFLT
  2
AcDbDictionaryWithDefault
  3
ObjectDBX Classes
 90
        0
280
     0
281
     0
  0
CLASS
  1
VISUALSTYLE
  2
AcDbVisualStyle
  3
ObjectDBX Classes
 90
     4095
280
     0
281
     0
  0
CLASS
  1
MATERIAL
  2
AcDbMaterial
  3
ObjectDBX Classes
 90
     1153
280
     0
281
     0
  0
CLASS
  1
SCALE
  2
AcDbScale
  3
ObjectDBX Classes
 90
     1153
280
     0
281
     0
  0
CLASS
  1
TABLESTYLE
  2
AcDbTableStyle
  3
ObjectDBX Classes
 90
     4095
280
     0
281
     0
  0
CLASS
  1
MLEADERSTYLE
  2
AcDbMLeaderStyle
  3
ACDB_MLEADERSTYLE_CLASS
 90
     4095
280
     0
281
     0
  0
CLASS
  1
SUN
  2
AcDbSun
  3
SCENEOE
 90
     1153
280
     0
281
     0
  0
CLASS
  1
ACDBPLACEHOLDER
  2
AcDbPlaceHolder
  3
ObjectDBX Classes
 90
        0
280
     0
281
     0
  0
CLASS
  1
LAYOUT
  2
AcDbLayout
  3
ObjectDBX Classes
 90
        0
280
     0
281
     0
  0
ENDSEC
  0
SECTION
  2
TABLES
  0
TABLE
  2
VPORT
  5
8
330
0
100
AcDbSymbolTable
 70
     1
  0
VPORT
  5
29
330
8
100
AcDbSymbolTableRecord
100
AcDbViewportTableRecord
  2
*Active
 70
     0
 10
0.0
 20
0.0
 11
1.0
 21
1.0
 12
-167.2459715892
 22
310.8324014903
 13
0.0
 23
0.0
 14
10.0
 24
10.0
 15
10.0
 25
10.0
 16
0.0
 26
0.0
 36
1.0
 17
0.0
 27
0.0
 37
0.0
 40
189.312
 41
0.2720905172
 42
50.0
 43
0.0
 44
0.0
 50
0.0
 51
0.0
 71
     0
 72
   100
 73
     1
 74
     3
 75
     0
 76
     0
 77
     0
 78
     0
281
     0
 65
     1
110
0.0
120
0.0
130
0.0
111
1.0
121
0.0
131
0.0
112
0.0
122
1.0
132
0.0
 79
     0
146
0.0
  0
ENDTAB
  0
TABLE
  2
LTYPE
  5
5
330
0
100
AcDbSymbolTable
 70
     6
  0
LTYPE
  5
14
330
5
100
AcDbSymbolTableRecord
100
AcDbLinetypeTableRecord
  2
ByBlock
 70
     0
  3

 72
    65
 73
     0
 40
0.0
  0
LTYPE
  5
15
330
5
100
AcDbSymbolTableRecord
100
AcDbLinetypeTableRecord
  2
ByLayer
 70
     0
  3

 72
    65
 73
     0
 40
0.0
  0
LTYPE
  5
16
330
5
100
AcDbSymbolTableRecord
100
AcDbLinetypeTableRecord
  2
Continuous
 70
     0
  3
Solid line
 72
    65
 73
     0
 40
0.0
  0
LTYPE
  5
6E
330
5
100
AcDbSymbolTableRecord
100
AcDbLinetypeTableRecord
  2
HIDDEN
 70
     0
  3
Hidden __ __ __ __ __ __ __ __ __ __ __ __ __ __
 72
    65
 73
     2
 40
1.905
 49
1.27
 74
     0
 49
-0.635
 74
     0
  0
LTYPE
  5
6F
330
5
100
AcDbSymbolTableRecord
100
AcDbLinetypeTableRecord
  2
PHANTOM
 70
     0
  3
Phantom ______  __  __  ______  __  __  ______
 72
    65
 73
     6
 40
12.7
 49
6.35
 74
     0
 49
-1.27
 74
     0
 49
1.27
 74
     0
 49
-1.27
 74
     0
 49
1.27
 74
     0
 49
-1.27
 74
     0
  0
LTYPE
  5
70
330
5
100
AcDbSymbolTableRecord
100
AcDbLinetypeTableRecord
  2
CENTER
 70
     0
  3
Center ____ _ ____ _ ____ _ ____ _ ____ _ ____
 72
    65
 73
     4
 40
10.16
 49
6.35
 74
     0
 49
-1.27
 74
     0
 49
1.27
 74
     0
 49
-1.27
 74
     0
  0
LTYPE
  5
71
330
5
100
AcDbSymbolTableRecord
100
AcDbLinetypeTableRecord
  2
CENTERX2
 70
     0
  3
Center (2x) ________  __  ________  __  _____
 72
    65
 73
     4
 40
20.32
 49
12.7
 74
     0
 49
-2.54
 74
     0
 49
2.54
 74
     0
 49
-2.54
 74
     0
  0
LTYPE
  5
72
330
5
100
AcDbSymbolTableRecord
100
AcDbLinetypeTableRecord
  2
DOT2
 70
     0
  3
Dot (.5x) ........................................
 72
    65
 73
     2
 40
0.635
 49
0.0
 74
     0
 49
-0.635
 74
     0
  0
ENDTAB
  0
TABLE
  2
LAYER
  5
2
330
0
100
AcDbSymbolTable
 70
     1
  0
LAYER
  5
10
330
2
100
AcDbSymbolTableRecord
100
AcDbLayerTableRecord
  2
0
 70
     0
 62
     7
  6
Continuous
370
    -3
390
F
  0
ENDTAB
  0
TABLE
  2
STYLE
  5
3
330
0
100
AcDbSymbolTable
 70
     1
  0
STYLE
  5
11
330
3
100
AcDbSymbolTableRecord
100
AcDbTextStyleTableRecord
  2
Standard
 70
     0
 40
0.0
 41
1.0
 50
0.0
 71
     0
 42
3.5
  3
txt
  4

  0
ENDTAB
  0
TABLE
  2
VIEW
  5
6
330
0
100
AcDbSymbolTable
 70
     0
  0
ENDTAB
  0
TABLE
  2
UCS
  5
7
330
0
100
AcDbSymbolTable
 70
     0
  0
ENDTAB
  0
TABLE
  2
APPID
  5
9
330
0
100
AcDbSymbolTable
 70
     1
  0
APPID
  5
12
330
9
100
AcDbSymbolTableRecord
100
AcDbRegAppTableRecord
  2
ACAD
 70
     0
  0
ENDTAB
  0
TABLE
  2
DIMSTYLE
  5
A
330
0
100
AcDbSymbolTable
 70
     1
100
AcDbDimStyleTable
  0
DIMSTYLE
105
27
330
A
100
AcDbSymbolTableRecord
100
AcDbDimStyleTableRecord
  2
ISO-25
 70
     0
 41
2.5
 42
0.625
 43
3.75
 44
1.25
 73
     0
 74
     0
 77
     1
 78
     8
140
2.5
141
2.5
143
0.0393700787
147
0.625
171
     3
172
     1
178
     0
271
     2
272
     2
274
     3
278
    44
283
     0
284
     8
340
11
  0
ENDTAB
  0
TABLE
  2
BLOCK_RECORD
  5
1
330
0
100
AcDbSymbolTable
 70
     1
  0
BLOCK_RECORD
  5
1F
330
1
100
AcDbSymbolTableRecord
100
AcDbBlockTableRecord
  2
*Model_Space
340
22
  0
BLOCK_RECORD
  5
23
330
1
100
AcDbSymbolTableRecord
100
AcDbBlockTableRecord
  2
*Paper_Space
340
26
  0
BLOCK_RECORD
  5
1B
330
1
100
AcDbSymbolTableRecord
100
AcDbBlockTableRecord
  2
*Paper_Space0
340
1E
  0
ENDTAB
  0
ENDSEC
  0
SECTION
  2
BLOCKS
  0
BLOCK
  5
20
330
1F
100
AcDbEntity
  8
0
100
AcDbBlockBegin
  2
*Model_Space
 70
     0
 10
0.0
 20
0.0
 30
0.0
  3
*Model_Space
  1

  0
ENDBLK
  5
21
330
1F
100
AcDbEntity
  8
0
100
AcDbBlockEnd
  0
BLOCK
  5
24
330
23
100
AcDbEntity
 67
     1
  8
0
100
AcDbBlockBegin
  2
*Paper_Space
 70
     0
 10
0.0
 20
0.0
 30
0.0
  3
*Paper_Space
  1

  0
ENDBLK
  5
25
330
23
100
AcDbEntity
 67
     1
  8
0
100
AcDbBlockEnd
  0
BLOCK
  5
1C
330
1B
100
AcDbEntity
  8
0
100
AcDbBlockBegin
  2
*Paper_Space0
 70
     0
 10
0.0
 20
0.0
 30
0.0
  3
*Paper_Space0
  1

  0
LWPOLYLINE
  5
99C
330
1B
100
AcDbEntity
  8
0
  6
Continuous
 62
     7
370
    25
100
AcDbPolyline
 90
        3
 70
   128
 43
0.0
 10
374.0510458463
 20
374.6324014903
 10
374.0446940176
 20
374.5711770973
 10
373.967997689
 20
373.2350666763
  0
SPLINE
  5
9A2
330
1B
100
AcDbEntity
  8
0
  6
Continuous
 62
     7
370
    25
100
AcDbSpline
210
0.0
220
0.0
230
1.0
 70
     8
 71
     3
 72
    12
 73
     8
 74
     0
 42
0.000000001
 43
0.00000001
 40
0.0
 40
0.0
 40
0.0
 40
0.0
 40
0.1506294741414471
 40
0.3959929635790573
 40
0.6425678066576098
 40
0.8898175853648821
 40
1.0
 40
1.0
 40
1.0
 40
1.0
 10
264.092415467121
 20
304.7347178873725
 30
0.0
 10
264.1028060676819
 20
304.7232982509123
 30
0.0
 10
264.1301221340291
 20
304.6932769306451
 30
0.0
 10
264.1941431604888
 20
304.6690939955245
 30
0.0
 10
264.2695879630708
 20
304.6677275689682
 30
0.0
 10
264.3313661356067
 20
304.6868858232967
 30
0.0
 10
264.3571696959158
 20
304.7128374283483
 30
0.0
 10
264.3651239278904
 20
304.720837296747
 30
0.0
  0
SPLINE
  5
9A3
330
1B
100
AcDbEntity
  8
0
  6
Continuous
 62
     7
370
    25
100
AcDbSpline
210
0.0
220
0.0
230
1.0
 70
     8
 71
     3
 72
    12
 73
     8
 74
     0
 42
0.000000001
 43
0.00000001
 40
0.0
 40
0.0
 40
0.0
 40
0.0
 40
0.1600464454505305
 40
0.4000254666241736
 40
0.6411892584352351
 40
0.8830131745053426
 40
1.0
 40
1.0
 40
1.0
 40
1.0
 10
262.3038619116791
 20
307.0919569204653
 30
0.0
 10
262.2912459617775
 20
307.0808914049094
 30
0.0
 10
262.2597132324369
 20
307.0532338832993
 30
0.0
 10
262.233836555763
 20
306.9884993567166
 30
0.0
 10
262.2313157877288
 20
306.9129795744846
 30
0.0
 10
262.2500037855567
 20
306.8501093041548
 30
0.0
 10
262.2763182223651
 20
306.8232803830045
 30
0.0
 10
262.2848977939059
 20
306.8145330687432
 30
0.0
  0
SPLINE
  5
9A4
330
1B
100
AcDbEntity
  8
0
  6
Continuous
 62
     7
370
    25
100
AcDbSpline
210
0.0
220
0.0
230
1.0
 70
     8
 71
     3
 72
    12
 73
     8
 74
     0
 42
0.000000001
 43
0.00000001
 40
0.0
 40
0.0
 40
0.0
 40
0.0
 40
0.1311508072483143
 40
0.3551698021774155
 40
0.5907591011153298
 40
0.8330958443853415
 40
1.0
 40
1.0
 40
1.0
 40
1.0
 10
259.8996979971027
 20
309.5564785007446
 30
0.0
 10
259.908642962083
 20
309.5461062366802
 30
0.0
 10
259.9328668422797
 20
309.5180170845567
 30
0.0
 10
259.9906010510233
 20
309.4910902409913
 30
0.0
 10
260.0635495411845
 20
309.4829537989389
 30
0.0
 10
260.1318284753874
 20
309.4986106180687
 30
0.0
 10
260.1641596145293
 20
309.5268059369787
 30
0.0
 10
260.1773454947609
 20
309.538305070882
 30
0.0
  0
SPLINE
  5
9A5
330
1B
100
AcDbEntity
  8
0
  6
Continuous
 62
     7
370
    25
100
AcDbSpline
210
0.0
220
0.0
230
1.0
 70
     8
 71
     3
 72
    13
 73
     9
 74
     0
 42
0.000000001
 43
0.00000001
 40
0.0
 40
0.0
 40
0.0
 40
0.0
 40
0.0085469084950859
 40
0.2318895119442556
 40
0.4667674846170246
 40
0.7083725287333855
 40
0.9587142679606844
 40
1.0
 40
1.0
 40
1.0
 40
1.0
 10
266.4904657559576
 20
302.2766305382011
 30
0.0
 10
266.4897114051991
 20
302.2761571571259
 30
0.0
 10
266.4692448201951
 20
302.2633136703176
 30
0.0
 10
266.4415749223991
 20
302.220155401051
 30
0.0
 10
266.4172815887919
 20
302.1505770816619
 30
0.0
 10
266.4239890933518
 20
302.0740267539594
 30
0.0
 10
266.4451221071237
 20
302.0191818180729
 30
0.0
 10
266.4678808951595
 20
301.9989499447213
 30
0.0
 10
266.4711028591957
 20
301.9960857162651
 30
0.0
  0
SPLINE
  5
9A6
330
1B
100
AcDbEntity
  8
0
  6
Continuous
 62
     7
370
    25
100
AcDbSpline
210
0.0
220
0.0
230
1.0
 70
     8
 71
     3
 72
    13
 73
     9
 74
     0
 42
0.000000001
 43
0.00000001
 40
0.0
 40
0.0
 40
0.0
 40
0.0
 40
0.106176877942196
 40
0.302662110786462
 40
0.5211816923419593
 40
0.7541101665916334
 40
0.9993342225934714
 40
1.0
 40
1.0
 40
1.0
 40
1.0
 10
267.9723536193436
 20
300.2686591715649
 30
0.0
 10
267.9796331332053
 20
300.2602544995057
 30
0.0
 10
268.0003837247993
 20
300.2362965923306
 30
0.0
 10
268.0491899010326
 20
300.2095408018484
 30
0.0
 10
268.1166223094376
 20
300.1946132826325
 30
0.0
 10
268.1883743217456
 20
300.207404988579
 30
0.0
 10
268.237511118438
 20
300.2286775754722
 30
0.0
 10
268.2535280953044
 20
300.2487001968949
 30
0.0
 10
268.2535714632679
 20
300.2487544106408
 30
0.0
  0
SPLINE
  5
9B5
330
1B
100
AcDbEntity
  8
0
  6
Continuous
 62
     7
370
    25
100
AcDbSpline
210
0.0
220
0.0
230
1.0
 70
     8
 71
     3
 72
    38
 73
    34
 74
     0
 42
0.000000001
 43
0.00000001
 40
0.0
 40
0.0
 40
0.0
 40
0.0
 40
0.0625
 40
0.0625
 40
0.125
 40
0.125
 40
0.1875
 40
0.1875
 40
0.25
 40
0.25
 40
0.3125
 40
0.3125
 40
0.375
 40
0.375
 40
0.4375
 40
0.4375
 40
0.5
 40
0.5
 40
0.5625
 40
0.5625
 40
0.625
 40
0.625
 40
0.6875
 40
0.6875
 40
0.75
 40
0.75
 40
0.8125
 40
0.8125
 40
0.875
 40
0.875
 40
0.9375
 40
0.9375
 40
1.0
 40
1.0
 40
1.0
 40
1.0
 10
370.7166472779815
 20
339.4324014902919
 30
0.0
 10
370.7166472779815
 20
339.4324014902919
 30
0.0
 10
370.754089868533
 20
339.3626587830395
 30
0.0
 10
370.9032667188399
 20
339.0793502803839
 30
0.0
 10
371.0152018666676
 20
338.8655635578941
 30
0.0
 10
371.3090772818082
 20
338.2838823400814
 30
0.0
 10
371.4914146373264
 20
337.9153641131939
 30
0.0
 10
371.9090263370565
 20
337.0199776016315
 30
0.0
 10
372.1444596566522
 20
336.4922915806628
 30
0.0
 10
372.6272239963772
 20
335.3044286872876
 30
0.0
 10
372.8735496548643
 20
334.6449824579815
 30
0.0
 10
373.322715399486
 20
333.258933647833
 30
0.0
 10
373.5246872884945
 20
332.5341820406139
 30
0.0
 10
373.8511814644818
 20
331.0760429498322
 30
0.0
 10
373.9762081297093
 20
330.3426429693624
 30
0.0
 10
374.1422591574306
 20
328.884038259198
 30
0.0
 10
374.183780967283
 20
328.1580364319293
 30
0.0
 10
374.183780967333
 20
326.7067665495543
 30
0.0
 10
374.1422591575065
 20
325.9807647222096
 30
0.0
 10
373.9762081298757
 20
324.5221600123893
 30
0.0
 10
373.8511814644984
 20
323.7887600308478
 30
0.0
 10
373.5246872886543
 20
322.3306209406131
 30
0.0
 10
373.3227153994892
 20
321.6058693327961
 30
0.0
 10
372.8735496550364
 20
320.2198205231355
 30
0.0
 10
372.6272239967973
 20
319.5603742943126
 30
0.0
 10
372.1444596566723
 20
318.3725113999377
 30
0.0
 10
371.9090263370726
 20
317.8448253789655
 30
0.0
 10
371.4914146373119
 20
316.9494388673897
 30
0.0
 10
371.3090772819251
 20
316.5809206407457
 30
0.0
 10
371.0152018665789
 20
315.9992394225301
 30
0.0
 10
370.9032667182944
 20
315.7854526991556
 30
0.0
 10
370.7540898684132
 20
315.5021441973306
 30
0.0
 10
370.7166472779816
 20
315.4324014902919
 30
0.0
 10
370.7166472779816
 20
315.4324014902919
 30
0.0
  0
SPLINE
  5
9BA
330
1B
100
AcDbEntity
  8
0
  6
Continuous
 62
     7
370
    25
100
AcDbSpline
210
0.0
220
0.0
230
1.0
 70
     8
 71
     3
 72
    12
 73
     8
 74
     0
 42
0.000000001
 43
0.00000001
 40
0.0
 40
0.0
 40
0.0
 40
0.0
 40
0.2499999999999409
 40
0.2499999999999409
 40
0.4999999999998819
 40
0.4999999999998819
 40
1.0
 40
1.0
 40
1.0
 40
1.0
 10
270.0410331683815
 20
299.7156976316915
 30
0.0
 10
270.0481545176816
 20
299.7075361758815
 30
0.0
 10
270.0465052945024
 20
299.6931401663153
 30
0.0
 10
270.0273961289462
 20
299.6529440356215
 30
0.0
 10
270.0097882765647
 20
299.6274308038572
 30
0.0
 10
269.9377963683149
 20
299.540282761515
 30
0.0
 10
269.8659435391816
 20
299.4694254757416
 30
0.0
 10
269.7857287021815
 20
299.3996905895315
 30
0.0
  0
SPLINE
  5
9C4
330
1B
100
AcDbEntity
  8
0
  6
Continuous
 62
     7
370
    25
100
AcDbSpline
210
0.0
220
0.0
230
1.0
 70
     8
 71
     3
 72
    33
 73
    29
 74
     0
 42
0.000000001
 43
0.00000001
 40
0.0
 40
0.0
 40
0.0
 40
0.0
 40
0.01250507528946
 40
0.0249679719431805
 40
0.037407920728353
 40
0.0498442588681428
 40
0.0622963404070888
 40
0.0934422456895503
 40
0.1245872488759239
 40
0.1556860245714503
 40
0.1868672818177134
 40
0.2490420531051338
 40
0.3112486322906416
 40
0.3735780997991887
 40
0.4361923099704371
 40
0.4988953263802155
 40
0.5615521983582021
 40
0.6241722254881447
 40
0.6867860061515146
 40
0.7493991497646729
 40
0.8119937384109087
 40
0.843353904664799
 40
0.8746397712961219
 40
0.9059724394442452
 40
0.9373084737105315
 40
0.9581812415146034
 40
0.9790480015665652
 40
1.0
 40
1.0
 40
1.0
 40
1.0
 10
370.7166472779814
 20
385.0324014902919
 30
0.0
 10
370.7168197629468
 20
385.0331506835998
 30
0.0
 10
370.7171641510997
 20
385.0346465432455
 30
0.0
 10
370.7199385370358
 20
385.0468109604515
 30
0.0
 10
370.7243346281271
 20
385.0662511094619
 30
0.0
 10
370.730488928153
 20
385.0936634970002
 30
0.0
 10
370.7422430795157
 20
385.1464773860116
 30
0.0
 10
370.7637021000431
 20
385.2435865937165
 30
0.0
 10
370.7997791419384
 20
385.4114754599474
 30
0.0
 10
370.8437839178503
 20
385.6241415829716
 30
0.0
 10
370.9106597626713
 20
385.9646145565645
 30
0.0
 10
371.0054258223161
 20
386.4911886856305
 30
0.0
 10
371.1200094110518
 20
387.2607525658427
 30
0.0
 10
371.2186264180506
 20
388.1429954223752
 30
0.0
 10
371.2857576267426
 20
389.1067770871168
 30
0.0
 10
371.3101020421572
 20
390.1141825812917
 30
0.0
 10
371.2874157423682
 20
391.1223566321133
 30
0.0
 10
371.2215904987382
 20
392.089587321609
 30
0.0
 10
371.123430035753
 20
392.978412319721
 30
0.0
 10
371.0083637854657
 20
393.7561812186622
 30
0.0
 10
370.9127866598396
 20
394.288933103492
 30
0.0
 10
370.845246132207
 20
394.6334705672372
 30
0.0
 10
370.8007736977074
 20
394.8486290708869
 30
0.0
 10
370.7642937235285
 20
395.0185008667186
 30
0.0
 10
370.7401373072785
 20
395.1278787538787
 30
0.0
 10
370.7258686918335
 20
395.1918320550153
 30
0.0
 10
370.7180996595228
 20
395.2260932968626
 30
0.0
 10
370.7171320625733
 20
395.2302959037841
 30
0.0
 10
370.7166472779813
 20
395.2324014902917
 30
0.0
  0
SPLINE
  5
9C5
330
1B
100
AcDbEntity
  8
0
  6
Continuous
 62
     7
370
    25
100
AcDbSpline
210
0.0
220
0.0
230
1.0
 70
     8
 71
     3
 72
    11
 73
     7
 74
     0
 42
0.000000001
 43
0.00000001
 40
0.0
 40
0.0
 40
0.0
 40
0.0
 40
0.2513367525390767
 40
0.5000865741021719
 40
0.7487927774177106
 40
1.0
 40
1.0
 40
1.0
 40
1.0
 10
394.7012548146333
 20
374.7118966367919
 30
0.0
 10
394.6699331229523
 20
374.6996153368149
 30
0.0
 10
394.6076121240156
 20
374.6751791444599
 30
0.0
 10
394.5102350111441
 20
374.6508297911287
 30
0.0
 10
394.4110867799131
 20
374.6351933918245
 30
0.0
 10
394.3441563329515
 20
374.6333352228835
 30
0.0
 10
394.3105236861443
 20
374.6324014902918
 30
0.0
  0
SPLINE
  5
9C7
330
1B
100
AcDbEntity
  8
0
  6
Continuous
 62
     7
370
    25
100
AcDbSpline
210
0.0
220
0.0
230
1.0
 70
     8
 71
     3
 72
    40
 73
    36
 74
     0
 42
0.000000001
 43
0.00000001
 40
0.0
 40
0.0
 40
0.0
 40
0.0
 40
0.013365797707096
 40
0.0267498719365621
 40
0.0401532942168093
 40
0.0535771314429904
 40
0.0670224456504239
 40
0.0804902937935824
 40
0.0939817275308223
 40
0.1074977930150421
 40
0.1210395306904306
 40
0.1346079750954436
 40
0.1482041546721499
 40
0.1618290915820618
 40
0.1754838015285487
 40
0.1891692935859247
 40
0.2028865700352867
 40
0.2166366262071526
 40
0.2304204503309554
 40
0.2883846912677454
 40
0.3478235221226991
 40
0.4087999445637013
 40
0.471372312977921
 40
0.5333589464632442
 40
0.597990453499569
 40
0.6614991939440525
 40
0.7288528591793344
 40
0.7929743526119896
 40
0.8633335042392021
 40
0.8823089994433496
 40
0.9028052971184177
 40
0.9248224873458137
 40
0.948360637281357
 40
0.9734197963579188
 40
1.0
 40
1.0
 40
1.0
 40
1.0
 10
415.7166472779813
 20
383.632401494692
 30
0.0
 10
415.7156970883495
 20
383.6319937345536
 30
0.0
 10
415.7137954097872
 20
383.6311776567015
 30
0.0
 10
415.6984011858184
 20
383.6245868769796
 30
0.0
 10
415.6737888002844
 20
383.6140692577569
 30
0.0
 10
415.6390296234426
 20
383.5992379833045
 30
0.0
 10
415.5943429135527
 20
383.5801969354337
 30
0.0
 10
415.5396453399837
 20
383.5569182208744
 30
0.0
 10
415.4749405755188
 20
383.5294093385792
 30
0.0
 10
415.4002147168018
 20
383.4976682810308
 30
0.0
 10
415.3154644333972
 20
383.461695595127
 30
0.0
 10
415.2206894575835
 20
383.4214911404583
 30
0.0
 10
415.115894663065
 20
383.3770549662637
 30
0.0
 10
415.0010895218247
 20
383.3283870533035
 30
0.0
 10
414.8762884236988
 20
383.2754874673304
 30
0.0
 10
414.7415101593568
 20
383.218356002849
 30
0.0
 10
414.5967798800282
 20
383.1569934583573
 30
0.0
 10
414.4421219450179
 20
383.0913968761073
 30
0.0
 10
414.1019379633171
 20
382.9470417935278
 30
0.0
 10
413.5019346063538
 20
382.69191588325
 30
0.0
 10
412.5235391398364
 20
382.2762373699793
 30
0.0
 10
411.3610359922644
 20
381.7831613277498
 30
0.0
 10
410.0316049571036
 20
381.2193695227434
 30
0.0
 10
408.537200631616
 20
380.5847523784328
 30
0.0
 10
406.9095644244762
 20
379.8941088775057
 30
0.0
 10
405.1232349503488
 20
379.1355574081162
 30
0.0
 10
403.2435060363813
 20
378.3380228628172
 30
0.0
 10
401.2156304274308
 20
377.4767182648946
 30
0.0
 10
399.6221335553462
 20
376.8007676869792
 30
0.0
 10
398.4652991316251
 20
376.3095201146917
 30
0.0
 10
397.8138075786337
 20
376.0327683685638
 30
0.0
 10
397.1100887277174
 20
375.7339699834972
 30
0.0
 10
396.3539287351945
 20
375.4130773047463
 30
0.0
 10
395.5455641689546
 20
375.0701845392154
 30
0.0
 10
394.9881640320954
 20
374.8336483397481
 30
0.0
 10
394.7012548146333
 20
374.7118966367919
 30
0.0
  0
LINE
  5
9D1
330
1B
100
AcDbEntity
  8
0
  6
Continuous
 62
     7
370
    25
100
AcDbLine
 10
271.0564893139
 20
296.7184452593
 30
0.0
 11
286.0944233006
 21
309.7907218354
 31
0.0
  0
LINE
  5
9D2
330
1B
100
AcDbEntity
  8
0
  6
Continuous
 62
     7
370
    25
100
AcDbLine
 10
270.3490066048
 20
327.9037517608
 30
0.0
 11
255.3110726194
 21
314.8314751832
 31
0.0
  0
LINE
  5
9D3
330
1B
100
AcDbEntity
  8
0
  6
Continuous
 62
     7
370
    25
100
AcDbLine
 10
301.1837809673
 20
315.4324014903
 30
0.0
 11
370.716647278
 21
315.4324014903
 31
0.0
  0
LINE
  5
9D4
330
1B
100
AcDbEntity
  8
0
  6
Continuous
 62
     7
370
    25
100
AcDbLine
 10
370.716647278
 20
339.4324014903
 30
0.0
 11
301.1837809673
 21
339.4324014903
 31
0.0
  0
LINE
  5
9D5
330
1B
100
AcDbEntity
  8
0
  6
Continuous
 62
     7
370
    25
100
AcDbLine
 10
415.716647278
 20
223.0324014903
 30
0.0
 11
415.716647278
 21
373.0324014903
 31
0.0
  0
LINE
  5
9D6
330
1B
100
AcDbEntity
  8
0
  6
Continuous
 62
     7
370
    25
100
AcDbLine
 10
370.716647278
 20
315.4324014903
 30
0.0
 11
370.716647278
 21
223.0324014903
 31
0.0
  0
LINE
  5
9D7
330
1B
100
AcDbEntity
  8
0
  6
Continuous
 62
     7
370
    25
100
AcDbLine
 10
370.716647278
 20
373.0324014903
 30
0.0
 11
370.716647278
 21
339.4324014903
 31
0.0
  0
LINE
  5
9D8
330
1B
100
AcDbEntity
  8
0
  6
Continuous
 62
     7
370
    25
100
AcDbLine
 10
418.466647278
 20
217.9624014903
 30
0.0
 11
418.466647278
 21
221.6024014903
 31
0.0
  0
LINE
  5
9D9
330
1B
100
AcDbEntity
  8
0
  6
Continuous
 62
     7
370
    25
100
AcDbLine
 10
367.966647278
 20
221.6024014903
 30
0.0
 11
367.966647278
 21
217.9624014903
 31
0.0
  0
LINE
  5
9DA
330
1B
100
AcDbEntity
  8
0
  6
Continuous
 62
     7
370
    25
100
AcDbLine
 10
314.716647278
 20
385.1324014903
 30
0.0
 11
370.7390891035
 21
385.1324014903
 31
0.0
  0
LINE
  5
9DB
330
1B
100
AcDbEntity
  8
0
  6
Continuous
 62
     7
370
    25
100
AcDbLine
 10
370.716647278
 20
395.1324014903
 30
0.0
 11
314.716647278
 21
395.1324014903
 31
0.0
  0
LINE
  5
9DC
330
1B
100
AcDbEntity
  8
0
  6
Continuous
 62
     7
370
    25
100
AcDbLine
 10
415.716647278
 20
383.6324014947
 30
0.0
 11
415.716647278
 21
403.1324014903
 31
0.0
  0
LINE
  5
9DD
330
1B
100
AcDbEntity
  8
0
  6
Continuous
 62
     7
370
    25
100
AcDbLine
 10
370.716647278
 20
385.0324014903
 30
0.0
 11
370.716647278
 21
374.6324014903
 31
0.0
  0
LINE
  5
9DE
330
1B
100
AcDbEntity
  8
0
  6
Continuous
 62
     7
370
    25
100
AcDbLine
 10
370.716647278
 20
403.1324014903
 30
0.0
 11
370.716647278
 21
395.2324014903
 31
0.0
  0
LINE
  5
9DF
330
1B
100
AcDbEntity
  8
0
  6
Continuous
 62
     7
370
    25
100
AcDbLine
 10
370.716647278
 20
395.2324014903
 30
0.0
 11
370.6326369005
 21
395.2324014903
 31
0.0
  0
LINE
  5
9E0
330
1B
100
AcDbEntity
  8
0
  6
Continuous
 62
     7
370
    25
100
AcDbLine
 10
370.6326369005
 20
385.0324014903
 30
0.0
 11
370.716647278
 21
385.0324014903
 31
0.0
  0
LINE
  5
9E1
330
1B
100
AcDbEntity
  8
0
  6
Continuous
 62
     7
370
    25
100
AcDbLine
 10
255.3110726194
 20
314.8314751832
 30
0.0
 11
271.0564893152
 21
296.7184452578
 31
0.0
  0
LINE
  5
9E2
330
1B
100
AcDbEntity
  8
0
  6
Continuous
 62
     7
370
    25
100
AcDbLine
 10
415.7166472621
 20
373.0324014903
 30
0.0
 11
370.716647278
 21
373.0324014903
 31
0.0
  0
LINE
  5
9E3
330
1B
100
AcDbEntity
  8
0
  6
Continuous
 62
     7
370
    25
100
AcDbLine
 10
418.4666472727
 20
218.0324014903
 30
0.0
 11
367.966647278
 21
218.0324014903
 31
0.0
  0
LINE
  5
9E4
330
1B
100
AcDbEntity
  8
0
  6
Continuous
 62
     7
370
    25
100
AcDbLine
 10
369.4666472864
 20
223.0324014903
 30
0.0
 11
416.966647278
 21
223.0324014903
 31
0.0
  0
LINE
  5
9E5
330
1B
100
AcDbEntity
  8
0
  6
Continuous
 62
     7
370
    25
100
AcDbLine
 10
269.7857287022
 20
299.3996905895
 30
0.0
 11
269.3329027115
 21
299.0060554512
 31
0.0
  0
LINE
  5
9E6
330
1B
100
AcDbEntity
  8
0
  6
Continuous
 62
     7
370
    25
100
AcDbLine
 10
269.4032689015
 20
298.9251084092
 30
0.0
 11
268.6842439025
 21
299.7522520521
 31
0.0
  0
LINE
  5
9E7
330
1B
100
AcDbEntity
  8
0
  6
Continuous
 62
     7
370
    25
100
AcDbLine
 10
269.633253411
 20
299.5750933474
 30
0.0
 11
269.1804276457
 21
299.1814579494
 31
0.0
  0
LINE
  5
9E8
330
1B
100
AcDbEntity
  8
0
  6
Continuous
 62
     7
370
    25
100
AcDbLine
 10
269.7857284596
 20
299.3996908685
 30
0.0
 11
269.633253394
 21
299.5750933669
 31
0.0
  0
LINE
  5
9E9
330
1B
100
AcDbEntity
  8
0
  6
Continuous
 62
     7
370
    25
100
AcDbLine
 10
268.7926710109
 20
299.6275209321
 30
0.0
 11
269.2454967892
 21
300.0211563148
 31
0.0
  0
LINE
  5
9EA
330
1B
100
AcDbEntity
  8
0
  6
Continuous
 62
     7
370
    25
100
AcDbLine
 10
314.216647278
 20
394.6324012481
 30
0.0
 11
314.216647278
 21
385.6324017325
 31
0.0
  0
LINE
  5
9EB
330
1B
100
AcDbEntity
  8
0
  6
Continuous
 62
     7
370
    25
100
AcDbLine
 10
394.3105236861
 20
374.6324014903
 30
0.0
 11
370.7166472994
 21
374.6324014903
 31
0.0
  0
LINE
  5
9EC
330
1B
100
AcDbEntity
  8
0
  6
Continuous
 62
     7
370
    25
100
AcDbLine
 10
371.216647374
 20
403.6324014903
 30
0.0
 11
415.2166471959
 21
403.6324014903
 31
0.0
  0
LINE
  5
9ED
330
1B
100
AcDbEntity
  8
0
  6
Continuous
 62
     8
370
    25
100
AcDbLine
 10
286.0944233006
 20
309.7907218354
 30
0.0
 11
270.349006614
 21
327.9037517502
 31
0.0
  0
LINE
  5
9EE
330
1B
100
AcDbEntity
  8
0
  6
Continuous
 62
     8
370
    25
100
AcDbLine
 10
301.1837809673
 20
339.4324014903
 30
0.0
 11
301.1837809673
 21
315.4324014903
 31
0.0
  0
LINE
  5
9EF
330
1B
100
AcDbEntity
  8
0
  6
Continuous
 62
     8
370
    25
100
AcDbLine
 10
373.967997689
 20
373.2350666763
 30
0.0
 11
412.465296867
 21
373.2350666763
 31
0.0
  0
LINE
  5
9F0
330
1B
100
AcDbEntity
  8
0
  6
Continuous
 62
     8
370
    25
100
AcDbLine
 10
367.9666472833
 20
221.5324014903
 30
0.0
 11
418.466647278
 21
221.5324014903
 31
0.0
  0
LINE
  5
9F1
330
1B
100
AcDbEntity
  8
0
  6
Continuous
 62
     8
370
    25
100
AcDbLine
 10
314.716647278
 20
395.1324010524
 30
0.0
 11
314.716647278
 21
385.1324016487
 31
0.0
  0
LINE
  5
9F2
330
1B
100
AcDbEntity
  8
0
  6
Continuous
 62
     8
370
    25
100
AcDbLine
 10
370.7166472939
 20
403.1324014903
 30
0.0
 11
415.716647278
 21
403.1324014903
 31
0.0
  0
ARC
  5
9F3
330
1B
100
AcDbEntity
  8
0
  6
Continuous
 62
     7
370
    25
100
AcDbCircle
 10
301.1837809674
 20
292.4324014902
 30
0.0
 40
23.0000000000972
100
AcDbArc
 50
90.0000000001
 51
130.9999999999
  0
ARC
  5
9F4
330
1B
100
AcDbEntity
  8
0
  6
Continuous
 62
     7
370
    25
100
AcDbCircle
 10
301.1837809673
 20
292.4324014904
 30
0.0
 40
46.99999999986879
100
AcDbArc
 50
90.0
 51
131.0
  0
ARC
  5
9F5
330
1B
100
AcDbEntity
  8
0
  6
Continuous
 62
     7
370
    25
100
AcDbCircle
 10
374.1679799302
 20
373.2324014903
 30
0.0
 40
0.199999999999136
100
AcDbArc
 50
179.2364578532
 51
270.0000000002
  0
ARC
  5
9F6
330
1B
100
AcDbEntity
  8
0
  6
Continuous
 62
     7
370
    25
100
AcDbCircle
 10
412.2653146258
 20
373.2324014903
 30
0.0
 40
0.2000000000017508
100
AcDbArc
 50
270.0000000006
 51
0.7635421461
  0
ARC
  5
9F7
330
1B
100
AcDbEntity
  8
0
  6
Continuous
 62
     7
370
    25
100
AcDbCircle
 10
397.2583139447
 20
373.0324014903
 30
0.0
 40
15.20833333326383
100
AcDbArc
 50
0.7635421487
 51
32.6337453767
  0
ARC
  5
9F8
330
1B
100
AcDbEntity
  8
0
  6
Continuous
 62
     7
370
    25
100
AcDbCircle
 10
416.966647278
 20
221.5324014903
 30
0.0
 40
1.499999999999176
100
AcDbArc
 50
360.0
 51
90.0
  0
ARC
  5
9F9
330
1B
100
AcDbEntity
  8
0
  6
Continuous
 62
     7
370
    25
100
AcDbCircle
 10
369.466647278
 20
221.5324014903
 30
0.0
 40
1.500000000001705
100
AcDbArc
 50
90.0000000001
 51
179.9999999999
  0
ARC
  5
9FA
330
1B
100
AcDbEntity
  8
0
  6
Continuous
 62
     7
370
    25
100
AcDbCircle
 10
269.2720570956
 20
299.0760503254
 30
0.0
 40
0.2000000002201514
100
AcDbArc
 50
221.0000000581
 51
311.000000013
  0
ARC
  5
9FB
330
1B
100
AcDbEntity
  8
0
  6
Continuous
 62
     7
370
    25
100
AcDbCircle
 10
257.3973886718
 20
312.7362937274
 30
0.0
 40
0.2000000004535327
100
AcDbArc
 50
131.0000001828
 51
220.9999998651
  0
ARC
  5
9FC
330
1B
100
AcDbEntity
  8
0
  6
Continuous
 62
     7
370
    25
100
AcDbCircle
 10
314.716647278
 20
385.6324014903
 30
0.0
 40
0.4999999999997304
100
AcDbArc
 50
179.9999861253
 51
270.0
  0
ARC
  5
9FD
330
1B
100
AcDbEntity
  8
0
  6
Continuous
 62
     7
370
    25
100
AcDbCircle
 10
314.716647278
 20
394.6324014903
 30
0.0
 40
0.5000000000003557
100
AcDbArc
 50
90.0
 51
180.0000138747
  0
ARC
  5
9FE
330
1B
100
AcDbEntity
  8
0
  6
Continuous
 62
     7
370
    25
100
AcDbCircle
 10
415.216647278
 20
403.1324014903
 30
0.0
 40
0.5000000000022186
100
AcDbArc
 50
0.0000000002
 51
90.000004702
  0
ARC
  5
9FF
330
1B
100
AcDbEntity
  8
0
  6
Continuous
 62
     7
370
    25
100
AcDbCircle
 10
371.216647278
 20
403.1324014903
 30
0.0
 40
0.4999999999956247
100
AcDbArc
 50
89.9999952972
 51
180.0000000005
  0
ARC
  5
A00
330
1B
100
AcDbEntity
  8
0
  6
Continuous
 62
     7
370
    25
100
AcDbCircle
 10
269.3498232175
 20
298.9126760739
 30
0.0
 40
0.317708288135494
100
AcDbArc
 50
122.2205390847
 51
159.4816131725
  0
ARC
  5
A01
330
1B
100
AcDbEntity
  8
0
  6
Continuous
 62
     7
370
    25
100
AcDbCircle
 10
268.9620665827
 20
299.3587390564
 30
0.0
 40
0.3177082883138738
100
AcDbArc
 50
122.2205390554
 51
159.4816131677
  0
ARC
  5
A02
330
1B
100
AcDbEntity
  8
0
  6
Continuous
 62
     7
370
    25
100
AcDbCircle
 10
269.2015771295
 20
299.155371092
 30
0.0
 40
0.1988506200110499
100
AcDbArc
 50
221.3360605849
 51
311.3321637653
  0
VIEWPORT
  5
A25
330
1B
100
AcDbEntity
  8
0
100
AcDbViewport
 10
0.0
 20
0.0
 30
0.0
 40
205.6
 41
156.0
 68
     1
 69
     1
 12
-167.2459715892
 22
310.8324014903
 13
0.0
 23
0.0
 14
10.0
 24
10.0
 15
10.0
 25
10.0
 16
0.0
 26
0.0
 36
1.0
 17
0.0
 27
0.0
 37
0.0
 42
50.0
 43
0.0
 44
0.0
 45
189.312
 50
0.0
 51
0.0
 72
   100
 90
   557152
  1

281
     0
 71
     1
 74
     0
110
0.0
120
0.0
130
0.0
111
1.0
121
0.0
131
0.0
112
0.0
122
1.0
132
0.0
 79
     0
146
0.0
  0
ENDBLK
  5
1D
330
1B
100
AcDbEntity
  8
0
100
AcDbBlockEnd
  0
ENDSEC
  0
SECTION
  2
ENTITIES
  0
LWPOLYLINE
  5
7C
330
1F
100
AcDbEntity
  8
0
  6
Continuous
 62
     7
370
    25
100
AcDbPolyline
 90
        3
 70
   128
 43
0.0
 10
-186.4115730209
 20
374.6324014903
 10
-186.4179248496
 20
374.5711770973
 10
-186.4946211782
 20
373.2350666763
  0
LWPOLYLINE
  5
7D
330
1F
100
AcDbEntity
  8
0
  6
Continuous
 62
     7
370
    25
100
AcDbPolyline
 90
        3
 70
   128
 43
0.0
 10
-147.9973220002
 20
373.2350666763
 10
-148.0740183288
 20
374.5711770973
 10
-148.0803701575
 20
374.6324014903
  0
SPLINE
  5
82
330
1F
100
AcDbEntity
  8
0
  6
Continuous
 62
     7
370
    25
100
AcDbSpline
210
0.0
220
0.0
230
1.0
 70
     8
 71
     3
 72
     9
 73
     5
 74
     0
 42
0.000000001
 43
0.00000001
 40
0.0
 40
0.0
 40
0.0
 40
0.0
 40
0.8595874146386757
 40
1.0
 40
1.0
 40
1.0
 40
1.0
 10
-168.8189917895808
 20
312.6565638505603
 30
0.0
 10
-168.8195836411322
 20
312.6431715566585
 30
0.0
 10
-168.8202721709329
 20
312.627591647421
 30
0.0
 10
-168.8147238379448
 20
312.6133555735958
 30
0.0
 10
-168.8139447821655
 20
312.6113566496646
 30
0.0
  0
SPLINE
  5
83
330
1F
100
AcDbEntity
  8
0
  6
Continuous
 62
     7
370
    25
100
AcDbSpline
210
0.0
220
0.0
230
1.0
 70
     8
 71
     3
 72
     9
 73
     5
 74
     0
 42
0.000000001
 43
0.00000001
 40
0.0
 40
0.0
 40
0.0
 40
0.0
 40
0.0926713705165087
 40
1.0
 40
1.0
 40
1.0
 40
1.0
 10
-165.6778692123611
 20
312.6111573000681
 30
0.0
 10
-165.6773169870071
 20
312.612455208007
 30
0.0
 10
-165.6713580230799
 20
312.6264606978542
 30
0.0
 10
-165.6718074390534
 20
312.6420588308144
 30
0.0
 10
-165.6722152070327
 20
312.6562114634159
 30
0.0
  0
SPLINE
  5
8A
330
1F
100
AcDbEntity
  8
0
  6
Continuous
 62
     7
370
    25
100
AcDbSpline
210
0.0
220
0.0
230
1.0
 70
     8
 71
     3
 72
    11
 73
     7
 74
     0
 42
0.000000001
 43
0.00000001
 40
0.0
 40
0.0
 40
0.0
 40
0.0
 40
0.1134881733697257
 40
0.3403500726040525
 40
0.7259707300154412
 40
1.0
 40
1.0
 40
1.0
 40
1.0
 10
-167.2459715891848
 20
312.0834679794116
 30
0.0
 10
-167.1986136121415
 20
312.0832911530335
 30
0.0
 10
-167.0565874393124
 20
312.0827608522205
 30
0.0
 10
-166.7538708831877
 20
312.0742008314797
 30
0.0
 10
-166.3843864677315
 20
312.0547017097418
 30
0.0
 10
-166.1125722226185
 20
312.0217560433759
 30
0.0
 10
-165.9996561802357
 20
312.0080698796572
 30
0.0
  0
SPLINE
  5
8B
330
1F
100
AcDbEntity
  8
0
  6
Continuous
 62
     7
370
    25
100
AcDbSpline
210
0.0
220
0.0
230
1.0
 70
     8
 71
     3
 72
    14
 73
    10
 74
     0
 42
0.000000001
 43
0.00000001
 40
0.0
 40
0.0
 40
0.0
 40
0.0
 40
0.1765046457296139
 40
0.4174286961274178
 40
0.5879638560559418
 40
0.7086129283104518
 40
0.7939468452910744
 40
0.8542948715734151
 40
1.0
 40
1.0
 40
1.0
 40
1.0
 10
-168.4191993019952
 20
312.0187241644142
 30
0.0
 10
-168.350687121885
 20
312.0264761926942
 30
0.0
 10
-168.1886576756116
 20
312.0448095291565
 30
0.0
 10
-167.9587798303517
 20
312.0610256639641
 30
0.0
 10
-167.7504713192258
 20
312.072363871885
 30
0.0
 10
-167.6028561835337
 20
312.0778992864516
 30
0.0
 10
-167.4983824343065
 20
312.0806728372972
 30
0.0
 10
-167.3840442978664
 20
312.0828806077315
 30
0.0
 10
-167.3031639929325
 20
312.0832246786275
 30
0.0
 10
-167.2459715891848
 20
312.0834679794116
 30
0.0
  0
SPLINE
  5
8C
330
1F
100
AcDbEntity
  8
0
  6
Continuous
 62
     7
370
    25
100
AcDbSpline
210
0.0
220
0.0
230
1.0
 70
     8
 71
     3
 72
    12
 73
     8
 74
     0
 42
0.000000001
 43
0.00000001
 40
0.0
 40
0.0
 40
0.0
 40
0.0
 40
0.02007267774836
 40
0.2543170890073257
 40
0.5052173453192234
 40
0.7707966874786313
 40
1.0
 40
1.0
 40
1.0
 40
1.0
 10
-165.9989536159026
 20
312.0131568636708
 30
0.0
 10
-165.9970778204195
 20
312.0126774615143
 30
0.0
 10
-165.9733118409722
 20
312.0066035254696
 30
0.0
 10
-165.9228555714108
 20
312.0151987275227
 30
0.0
 10
-165.8566392368057
 20
312.0446680858396
 30
0.0
 10
-165.8040790551725
 20
312.0981935985412
 30
0.0
 10
-165.7890634580602
 20
312.1438774432857
 30
0.0
 10
-165.7821076269189
 20
312.165040045582
 30
0.0
  0
SPLINE
  5
8D
330
1F
100
AcDbEntity
  8
0
  6
Continuous
 62
     7
370
    25
100
AcDbSpline
210
0.0
220
0.0
230
1.0
 70
     8
 71
     3
 72
    12
 73
     8
 74
     0
 42
0.000000001
 43
0.00000001
 40
0.0
 40
0.0
 40
0.0
 40
0.0
 40
0.1877916574804407
 40
0.4218741433247968
 40
0.6726009606313188
 40
0.9379967166144615
 40
1.0
 40
1.0
 40
1.0
 40
1.0
 10
-168.7097394241538
 20
312.1653230644144
 30
0.0
 10
-168.7044861648334
 20
312.1478783871483
 30
0.0
 10
-168.6926847126008
 20
312.1086889025036
 30
0.0
 10
-168.6498644585462
 20
312.0570481188293
 30
0.0
 10
-168.5873152797511
 20
312.0202565741023
 30
0.0
 10
-168.5300259416871
 20
312.0060020031516
 30
0.0
 10
-168.4992024617614
 20
312.0133138917999
 30
0.0
 10
-168.4933650684555
 20
312.0146986273959
 30
0.0
  0
SPLINE
  5
8E
330
1F
100
AcDbEntity
  8
0
  6
Continuous
 62
     7
370
    25
100
AcDbSpline
210
0.0
220
0.0
230
1.0
 70
     8
 71
     3
 72
     9
 73
     5
 74
     0
 42
0.000000001
 43
0.00000001
 40
0.0
 40
0.0
 40
0.0
 40
0.0
 40
0.1744378434859685
 40
1.0
 40
1.0
 40
1.0
 40
1.0
 10
-165.6750753348608
 20
312.627170392706
 30
0.0
 10
-165.6720129409051
 20
312.6267336583712
 30
0.0
 10
-165.6544571520085
 20
312.6242299910124
 30
0.0
 10
-165.6294686742005
 20
312.6200141043348
 30
0.0
 10
-165.6088391325735
 20
312.6165336278378
 30
0.0
  0
SPLINE
  5
8F
330
1F
100
AcDbEntity
  8
0
  6
Continuous
 62
     7
370
    25
100
AcDbSpline
210
0.0
220
0.0
230
1.0
 70
     8
 71
     3
 72
     9
 73
     5
 74
     0
 42
0.000000001
 43
0.00000001
 40
0.0
 40
0.0
 40
0.0
 40
0.0
 40
0.8255174913928917
 40
0.9999999999999999
 40
0.9999999999999999
 40
0.9999999999999999
 40
0.9999999999999999
 10
-168.8831037918437
 20
312.6165337401155
 30
0.0
 10
-168.8624754317574
 20
312.6200141154276
 30
0.0
 10
-168.8374870332057
 20
312.6242301076367
 30
0.0
 10
-168.8199301966247
 20
312.6267341387388
 30
0.0
 10
-168.8168668357347
 20
312.6271710483671
 30
0.0
  0
SPLINE
  5
90
330
1F
100
AcDbEntity
  8
0
  6
Continuous
 62
     7
370
    25
100
AcDbSpline
210
0.0
220
0.0
230
1.0
 70
     8
 71
     3
 72
    11
 73
     7
 74
     0
 42
0.000000001
 43
0.00000001
 40
0.0
 40
0.0
 40
0.0
 40
0.0
 40
0.237019269072572
 40
0.5873932662993271
 40
0.9429285513075171
 40
0.9999999999999999
 40
0.9999999999999999
 40
0.9999999999999999
 40
0.9999999999999999
 10
-162.4340704898204
 20
311.0418607635227
 30
0.0
 10
-162.4339090443714
 20
311.0249280158591
 30
0.0
 10
-162.4335089420086
 20
310.9829644151926
 30
0.0
 10
-162.4010291453265
 20
310.9232208698416
 30
0.0
 10
-162.3639045155389
 20
310.8802055475807
 30
0.0
 10
-162.3364618124327
 20
310.8702002317235
 30
0.0
 10
-162.3326659586707
 20
310.8688163040656
 30
0.0
  0
SPLINE
  5
91
330
1F
100
AcDbEntity
  8
0
  6
Continuous
 62
     7
370
    25
100
AcDbSpline
210
0.0
220
0.0
230
1.0
 70
     8
 71
     3
 72
    11
 73
     7
 74
     0
 42
0.000000001
 43
0.00000001
 40
0.0
 40
0.0
 40
0.0
 40
0.0
 40
0.0293105907309545
 40
0.3795500084960848
 40
0.7349487315824177
 40
1.0
 40
1.0
 40
1.0
 40
1.0
 10
-172.1590146487325
 20
310.8678965526277
 30
0.0
 10
-172.1570626979403
 20
310.8685919528868
 30
0.0
 10
-172.1317864097013
 20
310.8775968609308
 30
0.0
 10
-172.0948991881631
 20
310.9180761982521
 30
0.0
 10
-172.0593610938202
 20
310.9784591718962
 30
0.0
 10
-172.0584208999566
 20
311.0228910983848
 30
0.0
 10
-172.0580192566662
 20
311.0418720616136
 30
0.0
  0
SPLINE
  5
94
330
1F
100
AcDbEntity
  8
0
  6
Continuous
 62
     7
370
    25
100
AcDbSpline
210
0.0
220
0.0
230
1.0
 70
     8
 71
     3
 72
    14
 73
    10
 74
     0
 42
0.000000001
 43
0.00000001
 40
0.0
 40
0.0
 40
0.0
 40
0.0
 40
0.0769514408012286
 40
0.2376382337280146
 40
0.3879629832073156
 40
0.5397356432017566
 40
0.6928581894756664
 40
0.8466741691508413
 40
1.0
 40
1.0
 40
1.0
 40
1.0
 10
-174.7268433865172
 20
307.1887931819206
 30
0.0
 10
-174.7296700069949
 20
307.0436018935758
 30
0.0
 10
-174.7383990585987
 20
306.5952282054981
 30
0.0
 10
-174.5850306540392
 20
305.8712979200503
 30
0.0
 10
-174.2867565541823
 20
305.0428237922492
 30
0.0
 10
-173.8567776567907
 20
304.2776835388839
 30
0.0
 10
-173.3049992244839
 20
303.5732545340246
 30
0.0
 10
-172.6497283709359
 20
302.9359715920874
 30
0.0
 10
-172.1365057110851
 20
302.5830506548517
 30
0.0
 10
-171.8803038914829
 20
302.4068717887008
 30
0.0
  0
SPLINE
  5
95
330
1F
100
AcDbEntity
  8
0
  6
Continuous
 62
     7
370
    25
100
AcDbSpline
210
0.0
220
0.0
230
1.0
 70
     8
 71
     3
 72
    13
 73
     9
 74
     0
 42
0.000000001
 43
0.00000001
 40
0.0
 40
0.0
 40
0.0
 40
0.0
 40
0.1464166446611073
 40
0.3290493106971273
 40
0.5140869527960571
 40
0.7018192264183288
 40
0.8931355584366593
 40
1.0
 40
1.0
 40
1.0
 40
1.0
 10
-161.5370770872645
 20
303.2546542847689
 30
0.0
 10
-161.3743242411575
 20
303.4150666935344
 30
0.0
 10
-161.0085617832792
 20
303.7755693717219
 30
0.0
 10
-160.5498932846058
 20
304.4178632531793
 30
0.0
 10
-160.1530701084394
 20
305.1609955530704
 30
0.0
 10
-159.8841753303025
 20
305.9635973159486
 30
0.0
 10
-159.7460744578973
 20
306.6804108597631
 30
0.0
 10
-159.7602177519024
 20
307.1242574687281
 30
0.0
 10
-159.7652865402
 20
307.2833268125933
 30
0.0
  0
SPLINE
  5
98
330
1F
100
AcDbEntity
  8
0
  6
Continuous
 62
     7
370
    25
100
AcDbSpline
210
0.0
220
0.0
230
1.0
 70
     8
 71
     3
 72
    11
 73
     7
 74
     0
 42
0.000000001
 43
0.00000001
 40
0.0
 40
0.0
 40
0.0
 40
0.0
 40
0.2434650916813894
 40
0.4912514902685756
 40
0.7428405357629546
 40
0.9999999999999999
 40
0.9999999999999999
 40
0.9999999999999999
 40
0.9999999999999999
 10
-172.0556249953673
 20
311.4238905217754
 30
0.0
 10
-172.0530434201421
 20
311.4448730341284
 30
0.0
 10
-172.0478344488357
 20
311.4872104813236
 30
0.0
 10
-172.0005751332167
 20
311.565307978574
 30
0.0
 10
-171.9296262246851
 20
311.6403104153782
 30
0.0
 10
-171.8702093343285
 20
311.6745527696034
 30
0.0
 10
-171.8401756037161
 20
311.6918614109032
 30
0.0
  0
SPLINE
  5
99
330
1F
100
AcDbEntity
  8
0
  6
Continuous
 62
     7
370
    25
100
AcDbSpline
210
0.0
220
0.0
230
1.0
 70
     8
 71
     3
 72
    11
 73
     7
 74
     0
 42
0.000000001
 43
0.00000001
 40
0.0
 40
0.0
 40
0.0
 40
0.0
 40
0.2571591525080222
 40
0.5087470343692896
 40
0.7565359549533768
 40
1.0
 40
1.0
 40
1.0
 40
1.0
 10
-162.6517673147966
 20
311.6918613099118
 30
0.0
 10
-162.6217336512798
 20
311.6745527899085
 30
0.0
 10
-162.5623169939439
 20
311.6403107334422
 30
0.0
 10
-162.4913683367281
 20
311.5653087881561
 30
0.0
 10
-162.4441088627383
 20
311.4872118774554
 30
0.0
 10
-162.4388998429749
 20
311.4448747210051
 30
0.0
 10
-162.4363182625855
 20
311.4238925059624
 30
0.0
  0
SPLINE
  5
9A
330
1F
100
AcDbEntity
  8
0
  6
Continuous
 62
     7
370
    25
100
AcDbSpline
210
0.0
220
0.0
230
1.0
 70
     8
 71
     3
 72
    12
 73
     8
 74
     0
 42
0.000000001
 43
0.00000001
 40
0.0
 40
0.0
 40
0.0
 40
0.0
 40
0.1522427959874
 40
0.4422617374673738
 40
0.6466368159621377
 40
0.8822507517978206
 40
0.9999999999999999
 40
0.9999999999999999
 40
0.9999999999999999
 40
0.9999999999999999
 10
-159.8572150120637
 20
309.7724144042502
 30
0.0
 10
-159.8465757682701
 20
309.7773163354857
 30
0.0
 10
-159.8156690155731
 20
309.791556330299
 30
0.0
 10
-159.7828998597529
 20
309.8312256795216
 30
0.0
 10
-159.7578714028814
 20
309.8810987708861
 30
0.0
 10
-159.7487062278428
 20
309.9235922116018
 30
0.0
 10
-159.749380457778
 20
309.9506162378875
 30
0.0
 10
-159.7496051276688
 20
309.959621303843
 30
0.0
  0
SPLINE
  5
9B
330
1F
100
AcDbEntity
  8
0
  6
Continuous
 62
     7
370
    25
100
AcDbSpline
210
0.0
220
0.0
230
1.0
 70
     8
 71
     3
 72
    12
 73
     8
 74
     0
 42
0.000000001
 43
0.00000001
 40
0.0
 40
0.0
 40
0.0
 40
0.0
 40
0.3355401731361552
 40
0.4772468681352268
 40
0.7122596277616358
 40
0.9682153167044625
 40
1.0
 40
1.0
 40
1.0
 40
1.0
 10
-174.7423380507008
 20
309.9596213038466
 30
0.0
 10
-174.7412342264161
 20
309.9336298151636
 30
0.0
 10
-174.7396642305557
 20
309.8966614949287
 30
0.0
 10
-174.7175987020968
 20
309.846082456415
 30
0.0
 10
-174.688791211133
 20
309.8073187851123
 30
0.0
 10
-174.6584129855951
 20
309.7785171067966
 30
0.0
 10
-174.6376036618992
 20
309.7711669422638
 30
0.0
 10
-174.6353050002338
 20
309.770355020565
 30
0.0
  0
SPLINE
  5
A0
330
1F
100
AcDbEntity
  8
0
  6
Continuous
 62
     7
370
    25
100
AcDbSpline
210
0.0
220
0.0
230
1.0
 70
     8
 71
     3
 72
    12
 73
     8
 74
     0
 42
0.000000001
 43
0.00000001
 40
0.0
 40
0.0
 40
0.0
 40
0.0
 40
0.0897130957458225
 40
0.3196531232746126
 40
0.576279734768967
 40
0.859596471552037
 40
1.0
 40
1.0
 40
1.0
 40
1.0
 10
-160.5827425758328
 20
309.5483199837973
 30
0.0
 10
-160.5776966862671
 20
309.5425444059112
 30
0.0
 10
-160.5597178800967
 20
309.5219656766336
 30
0.0
 10
-160.5150642645066
 20
309.4979746748892
 30
0.0
 10
-160.4509999821461
 20
309.4833532248775
 30
0.0
 10
-160.3904549776776
 20
309.4879594911574
 30
0.0
 10
-160.3591895378513
 20
309.5064816203875
 30
0.0
 10
-160.3488294526009
 20
309.5126190948291
 30
0.0
  0
SPLINE
  5
A1
330
1F
100
AcDbEntity
  8
0
  6
Continuous
 62
     7
370
    25
100
AcDbSpline
210
0.0
220
0.0
230
1.0
 70
     8
 71
     3
 72
    12
 73
     8
 74
     0
 42
0.000000001
 43
0.00000001
 40
0.0
 40
0.0
 40
0.0
 40
0.0
 40
0.1005855026585141
 40
0.3701558563897374
 40
0.6698141999514171
 40
0.9410655387313482
 40
1.0
 40
1.0
 40
1.0
 40
1.0
 10
-174.1435014158856
 20
309.5119354576628
 30
0.0
 10
-174.1361726254702
 20
309.5074192467584
 30
0.0
 10
-174.1092025888266
 20
309.4907995364546
 30
0.0
 10
-174.0501747635583
 20
309.4828144042347
 30
0.0
 10
-173.9793168241836
 20
309.495817625822
 30
0.0
 10
-173.9302758913898
 20
309.5227203224105
 30
0.0
 10
-173.9119942422997
 20
309.5441791626046
 30
0.0
 10
-173.9087311730216
 20
309.548009324853
 30
0.0
  0
SPLINE
  5
A4
330
1F
100
AcDbEntity
  8
0
  6
Continuous
 62
     7
370
    25
100
AcDbSpline
210
0.0
220
0.0
230
1.0
 70
     8
 71
     3
 72
     9
 73
     5
 74
     0
 42
0.000000001
 43
0.00000001
 40
0.0
 40
0.0
 40
0.0
 40
0.0
 40
0.0027266365979508
 40
0.9999999999999999
 40
0.9999999999999999
 40
0.9999999999999999
 40
0.9999999999999999
 10
-159.0919217883737
 20
306.8660288138933
 30
0.0
 10
-159.091929026027
 20
306.8659923609048
 30
0.0
 10
-159.0945834513827
 20
306.8526231467971
 30
0.0
 10
-159.0895487008017
 20
306.8392054621326
 30
0.0
 10
-159.0845276781559
 20
306.825824362618
 30
0.0
  0
SPLINE
  5
A8
330
1F
100
AcDbEntity
  8
0
  6
Continuous
 62
     7
370
    25
100
AcDbSpline
210
0.0
220
0.0
230
1.0
 70
     8
 71
     3
 72
    12
 73
     8
 74
     0
 42
0.000000001
 43
0.00000001
 40
0.0
 40
0.0
 40
0.0
 40
0.0
 40
0.2463817539816179
 40
0.4943278408559829
 40
0.7453967891612803
 40
0.8725233483422997
 40
1.0
 40
1.0
 40
1.0
 40
1.0
 10
-159.1383656830546
 20
307.7360572193567
 30
0.0
 10
-159.1303881087776
 20
307.7029714743919
 30
0.0
 10
-159.1143823088192
 20
307.6365899156634
 30
0.0
 10
-159.0970414555789
 20
307.5120015041222
 30
0.0
 10
-159.0882212384401
 20
307.4118621594378
 30
0.0
 10
-159.0846295499903
 20
307.341265558763
 30
0.0
 10
-159.0843252554889
 20
307.3124377204816
 30
0.0
 10
-159.0841728990279
 20
307.2980039814626
 30
0.0
  0
SPLINE
  5
A9
330
1F
100
AcDbEntity
  8
0
  6
Continuous
 62
     7
370
    25
100
AcDbSpline
210
0.0
220
0.0
230
1.0
 70
     8
 71
     3
 72
    11
 73
     7
 74
     0
 42
0.000000001
 43
0.00000001
 40
0.0
 40
0.0
 40
0.0
 40
0.0
 40
0.2501010919551575
 40
0.5001393120195102
 40
0.7501078756011805
 40
1.0
 40
1.0
 40
1.0
 40
1.0
 10
-175.57440446447
 20
304.7494867132073
 30
0.0
 10
-175.5490699403862
 20
304.7558377982334
 30
0.0
 10
-175.498407260961
 20
304.7685383717122
 30
0.0
 10
-175.4391102456355
 20
304.8224312233442
 30
0.0
 10
-175.4015246459329
 20
304.8932301347786
 30
0.0
 10
-175.4016361718898
 20
304.9454997934357
 30
0.0
 10
-175.401691926341
 20
304.9716306262006
 30
0.0
  0
SPLINE
  5
AA
330
1F
100
AcDbEntity
  8
0
  6
Continuous
 62
     7
370
    25
100
AcDbSpline
210
0.0
220
0.0
230
1.0
 70
     8
 71
     3
 72
    11
 73
     7
 74
     0
 42
0.000000001
 43
0.00000001
 40
0.0
 40
0.0
 40
0.0
 40
0.0
 40
0.2498921243995447
 40
0.4998606879814147
 40
0.7498989080454258
 40
1.0
 40
1.0
 40
1.0
 40
1.0
 10
-159.0902512520254
 20
304.9716306262046
 30
0.0
 10
-159.0903070064766
 20
304.9454997934395
 30
0.0
 10
-159.0904185324334
 20
304.8932301347822
 30
0.0
 10
-159.0528329327311
 20
304.8224312233476
 30
0.0
 10
-158.993535917406
 20
304.7685383717151
 30
0.0
 10
-158.9428732379812
 20
304.7558377982354
 30
0.0
 10
-158.9175387138975
 20
304.7494867132089
 30
0.0
  0
SPLINE
  5
B1
330
1F
100
AcDbEntity
  8
0
  6
Continuous
 62
     7
370
    25
100
AcDbSpline
210
0.0
220
0.0
230
1.0
 70
     8
 71
     3
 72
    10
 73
     6
 74
     0
 42
0.000000001
 43
0.00000001
 40
0.0
 40
0.0
 40
0.0
 40
0.0
 40
0.2916907281160864
 40
0.7817131025457367
 40
1.0
 40
1.0
 40
1.0
 40
1.0
 10
-174.7394115797966
 20
301.8658700389816
 30
0.0
 10
-174.7396471644507
 20
301.8509388425521
 30
0.0
 10
-174.7402785167467
 20
301.8109241600119
 30
0.0
 10
-174.7189460808471
 20
301.7605949165803
 30
0.0
 10
-174.6919177794742
 20
301.7363682520241
 30
0.0
 10
-174.6835881919843
 20
301.728902073546
 30
0.0
  0
SPLINE
  5
B2
330
1F
100
AcDbEntity
  8
0
  6
Continuous
 62
     7
370
    25
100
AcDbSpline
210
0.0
220
0.0
230
1.0
 70
     8
 71
     3
 72
    10
 73
     6
 74
     0
 42
0.000000001
 43
0.00000001
 40
0.0
 40
0.0
 40
0.0
 40
0.0
 40
0.1964433481381918
 40
0.6866361957897499
 40
1.0
 40
1.0
 40
1.0
 40
1.0
 10
-159.8082101545635
 20
301.7288019814375
 30
0.0
 10
-159.800643334723
 20
301.7354334630527
 30
0.0
 10
-159.7741947303861
 20
301.7586127427373
 30
0.0
 10
-159.7522873923914
 20
301.8086942818856
 30
0.0
 10
-159.7524353913016
 20
301.8498137845549
 30
0.0
 10
-159.7524931065871
 20
301.8658491988021
 30
0.0
  0
SPLINE
  5
B5
330
1F
100
AcDbEntity
  8
0
  6
Continuous
 62
     7
370
    25
100
AcDbSpline
210
0.0
220
0.0
230
1.0
 70
     8
 71
     3
 72
    13
 73
     9
 74
     0
 42
0.000000001
 43
0.00000001
 40
0.0
 40
0.0
 40
0.0
 40
0.0
 40
0.1298744993539161
 40
0.2587610544193462
 40
0.3864188234446551
 40
0.5126003960180108
 40
0.7590084135689669
 40
0.9999999999999999
 40
0.9999999999999999
 40
0.9999999999999999
 40
0.9999999999999999
 10
-174.9120114049367
 20
302.6283634958632
 30
0.0
 10
-174.9009304235714
 20
302.6153853558848
 30
0.0
 10
-174.8788527529251
 20
302.5895277995369
 30
0.0
 10
-174.8465457644201
 20
302.5432916903401
 30
0.0
 10
-174.8167061780785
 20
302.4941444944728
 30
0.0
 10
-174.7824553841711
 20
302.4277212398052
 30
0.0
 10
-174.7496103151049
 20
302.3443651142469
 30
0.0
 10
-174.7446997633713
 20
302.2936696819199
 30
0.0
 10
-174.7422717727803
 20
302.2686036528106
 30
0.0
  0
SPLINE
  5
B6
330
1F
100
AcDbEntity
  8
0
  6
Continuous
 62
     7
370
    25
100
AcDbSpline
210
0.0
220
0.0
230
1.0
 70
     8
 71
     3
 72
    13
 73
     9
 74
     0
 42
0.000000001
 43
0.00000001
 40
0.0
 40
0.0
 40
0.0
 40
0.0
 40
0.2409925441031755
 40
0.4873972171356215
 40
0.613579619781998
 40
0.7412363741394393
 40
0.8701202072774387
 40
1.0
 40
1.0
 40
1.0
 40
1.0
 10
-159.7496712539289
 20
302.2686031840667
 30
0.0
 10
-159.7472432752675
 20
302.2936692971343
 30
0.0
 10
-159.7423327912222
 20
302.3443644495464
 30
0.0
 10
-159.7094879495706
 20
302.4277206719259
 30
0.0
 10
-159.6752370293486
 20
302.4941436970949
 30
0.0
 10
-159.6453977921402
 20
302.5432907115157
 30
0.0
 10
-159.6130900650381
 20
302.5895276366796
 30
0.0
 10
-159.5910129139356
 20
302.6153852553355
 30
0.0
 10
-159.5799318518289
 20
302.6283638265708
 30
0.0
  0
SPLINE
  5
B7
330
1F
100
AcDbEntity
  8
0
  6
Continuous
 62
     7
370
    25
100
AcDbSpline
210
0.0
220
0.0
230
1.0
 70
     8
 71
     3
 72
    11
 73
     7
 74
     0
 42
0.000000001
 43
0.00000001
 40
0.0
 40
0.0
 40
0.0
 40
0.0
 40
0.3521631936048442
 40
0.6649042051833047
 40
0.8740555368724895
 40
0.9999999999999999
 40
0.9999999999999999
 40
0.9999999999999999
 40
0.9999999999999999
 10
-172.1101461093947
 20
300.6358540910337
 30
0.0
 10
-172.098408389348
 20
300.6490482970228
 30
0.0
 10
-172.0762469041044
 20
300.6739597108377
 30
0.0
 10
-172.0616821133735
 20
300.7156917756402
 30
0.0
 10
-172.0557281557538
 20
300.7473882457293
 30
0.0
 10
-172.055408879222
 20
300.7640502449175
 30
0.0
 10
-172.055288880368
 20
300.7703125931023
 30
0.0
  0
SPLINE
  5
B8
330
1F
100
AcDbEntity
  8
0
  6
Continuous
 62
     7
370
    25
100
AcDbSpline
210
0.0
220
0.0
230
1.0
 70
     8
 71
     3
 72
    11
 73
     7
 74
     0
 42
0.000000001
 43
0.00000001
 40
0.0
 40
0.0
 40
0.0
 40
0.0
 40
0.2377468342948262
 40
0.5656058144705389
 40
0.9501614337704601
 40
1.0
 40
1.0
 40
1.0
 40
1.0
 10
-162.4363839352854
 20
300.7700185240137
 30
0.0
 10
-162.4359408162561
 20
300.7581425021813
 30
0.0
 10
-162.4348866247241
 20
300.7298891417478
 30
0.0
 10
-162.4192089775459
 20
300.6851804408431
 30
0.0
 10
-162.4012900089116
 20
300.6500660796063
 30
0.0
 10
-162.3844936464639
 20
300.6364396981216
 30
0.0
 10
-162.3825665796426
 20
300.6348763270205
 30
0.0
  0
SPLINE
  5
BD
330
1F
100
AcDbEntity
  8
0
  6
Continuous
 62
     7
370
    25
100
AcDbSpline
210
0.0
220
0.0
230
1.0
 70
     8
 71
     3
 72
    11
 73
     7
 74
     0
 42
0.000000001
 43
0.00000001
 40
0.0
 40
0.0
 40
0.0
 40
0.0
 40
0.2156964387230853
 40
0.483080274607793
 40
0.7748120509657538
 40
1.0
 40
1.0
 40
1.0
 40
1.0
 10
-162.0382543313879
 20
300.2637821330708
 30
0.0
 10
-162.0244098920127
 20
300.2505898546522
 30
0.0
 10
-161.9934034664327
 20
300.2210440284953
 30
0.0
 10
-161.927366934068
 20
300.1982500569623
 30
0.0
 10
-161.8561003282146
 20
300.1968910293888
 30
0.0
 10
-161.8147539473021
 20
300.2167661290673
 30
0.0
 10
-161.7967420466912
 20
300.2254244036768
 30
0.0
  0
SPLINE
  5
BE
330
1F
100
AcDbEntity
  8
0
  6
Continuous
 62
     7
370
    25
100
AcDbSpline
210
0.0
220
0.0
230
1.0
 70
     8
 71
     3
 72
    12
 73
     8
 74
     0
 42
0.000000001
 43
0.00000001
 40
0.0
 40
0.0
 40
0.0
 40
0.0
 40
0.133943130915258
 40
0.3774865865210625
 40
0.6440728984470174
 40
0.9349345284118425
 40
1.0
 40
1.0
 40
1.0
 40
1.0
 10
-172.6952564188298
 20
300.2259003546766
 30
0.0
 10
-172.6849546967958
 20
300.2200442613878
 30
0.0
 10
-172.655921764242
 20
300.2035402671116
 30
0.0
 10
-172.5977017974033
 20
300.1956573855907
 30
0.0
 10
-172.528285261273
 20
300.2083758773388
 30
0.0
 10
-172.4763696269064
 20
300.2346077157918
 30
0.0
 10
-172.4578621226222
 20
300.2600480864705
 30
0.0
 10
-172.4544788469769
 20
300.2646987289992
 30
0.0
  0
SPLINE
  5
BF
330
1F
100
AcDbEntity
  8
0
  6
Continuous
 62
     7
370
    25
100
AcDbSpline
210
0.0
220
0.0
230
1.0
 70
     8
 71
     3
 72
    12
 73
     8
 74
     0
 42
0.000000001
 43
0.00000001
 40
0.0
 40
0.0
 40
0.0
 40
0.0
 40
0.0189356920139596
 40
0.2420405097013291
 40
0.4859243125838956
 40
0.7409736295910425
 40
1.0
 40
1.0
 40
1.0
 40
1.0
 10
-168.8194708996744
 20
299.1561725662237
 30
0.0
 10
-168.8196963332117
 20
299.1543546574267
 30
0.0
 10
-168.822577878192
 20
299.1311177157028
 30
0.0
 10
-168.8099036676326
 20
299.0837259431075
 30
0.0
 10
-168.7757431726338
 20
299.0225997161605
 30
0.0
 10
-168.7172808755888
 20
298.973641586412
 30
0.0
 10
-168.6682906856448
 20
298.962499493018
 30
0.0
 10
-168.6436060888092
 20
298.9568853469276
 30
0.0
  0
SPLINE
  5
C0
330
1F
100
AcDbEntity
  8
0
  6
Continuous
 62
     7
370
    25
100
AcDbSpline
210
0.0
220
0.0
230
1.0
 70
     8
 71
     3
 72
    12
 73
     8
 74
     0
 42
0.000000001
 43
0.00000001
 40
0.0
 40
0.0
 40
0.0
 40
0.0
 40
0.0083613448070958
 40
0.253199631337259
 40
0.5092471302572897
 40
0.7739900999160828
 40
1.0
 40
1.0
 40
1.0
 40
1.0
 10
-165.8492107328908
 20
298.9569058966294
 30
0.0
 10
-165.8484060002053
 20
298.9568719707153
 30
0.0
 10
-165.8240369514472
 20
298.9558446205553
 30
0.0
 10
-165.7761923245175
 20
298.9762200086174
 30
0.0
 10
-165.7173890404536
 20
299.0206299282774
 30
0.0
 10
-165.6785531818177
 20
299.0849638324976
 30
0.0
 10
-165.6745693523926
 20
299.1324502745616
 30
0.0
 10
-165.6727346511695
 20
299.1543195425536
 30
0.0
  0
SPLINE
  5
C1
330
1F
100
AcDbEntity
  8
0
  6
Continuous
 62
     7
370
    25
100
AcDbSpline
210
0.0
220
0.0
230
1.0
 70
     8
 71
     3
 72
    12
 73
     8
 74
     0
 42
0.000000001
 43
0.00000001
 40
0.0
 40
0.0
 40
0.0
 40
0.0
 40
0.1954455470773338
 40
0.4310254602811223
 40
0.5976509474917185
 40
0.7154890024283616
 40
1.0
 40
1.0
 40
1.0
 40
1.0
 10
-167.9428912304707
 20
298.8965365855407
 30
0.0
 10
-167.8975767228916
 20
298.8938640437899
 30
0.0
 10
-167.7976424610022
 20
298.8879701589946
 30
0.0
 10
-167.6588127067707
 20
298.8828185598888
 30
0.0
 10
-167.5379651880259
 20
298.8794173595186
 30
0.0
 10
-167.4056975965856
 20
298.8767634171321
 30
0.0
 10
-167.3121332559744
 20
298.8763457018119
 30
0.0
 10
-167.2459715893357
 20
298.8760503249452
 30
0.0
  0
SPLINE
  5
C2
330
1F
100
AcDbEntity
  8
0
  6
Continuous
 62
     7
370
    25
100
AcDbSpline
210
0.0
220
0.0
230
1.0
 70
     8
 71
     3
 72
    10
 73
     6
 74
     0
 42
0.000000001
 43
0.00000001
 40
0.0
 40
0.0
 40
0.0
 40
0.0
 40
0.3478479616961321
 40
0.8524612237917106
 40
1.0
 40
1.0
 40
1.0
 40
1.0
 10
-168.5887883237846
 20
298.95261961344
 30
0.0
 10
-168.5142621070306
 20
298.943872831789
 30
0.0
 10
-168.3316228021203
 20
298.922437339817
 30
0.0
 10
-168.115802067876
 20
298.9058646135165
 30
0.0
 10
-167.9747923763648
 20
298.8982575579553
 30
0.0
 10
-167.9428912304707
 20
298.8965365855407
 30
0.0
  0
SPLINE
  5
C4
330
1F
100
AcDbEntity
  8
0
  6
Continuous
 62
     7
370
    25
100
AcDbSpline
210
0.0
220
0.0
230
1.0
 70
     8
 71
     3
 72
    11
 73
     7
 74
     0
 42
0.000000001
 43
0.00000001
 40
0.0
 40
0.0
 40
0.0
 40
0.0
 40
0.1543251886180456
 40
0.4609620069919499
 40
0.9817525409915621
 40
1.0
 40
1.0
 40
1.0
 40
1.0
 10
-167.2459715893357
 20
298.8760503249452
 30
0.0
 10
-167.1952724302154
 20
298.8762166971836
 30
0.0
 10
-167.0438364504496
 20
298.8767136431559
 30
0.0
 10
-166.7216732030421
 20
298.8863129447975
 30
0.0
 10
-166.4436013149988
 20
298.8967658302776
 30
0.0
 10
-166.2682848552188
 20
298.9156784734751
 30
0.0
 10
-166.262350060353
 20
298.9163187023383
 30
0.0
  0
SPLINE
  5
C5
330
1F
100
AcDbEntity
  8
0
  6
Continuous
 62
     7
370
    25
100
AcDbSpline
210
0.0
220
0.0
230
1.0
 70
     8
 71
     3
 72
    11
 73
     7
 74
     0
 42
0.000000001
 43
0.00000001
 40
0.0
 40
0.0
 40
0.0
 40
0.0
 40
0.1786271018562462
 40
0.3526704220259612
 40
0.6851965162026928
 40
1.0
 40
1.0
 40
1.0
 40
1.0
 10
-169.0455703120972
 20
299.6662939628492
 30
0.0
 10
-169.0278417818357
 20
299.6632234372627
 30
0.0
 10
-168.9928396562666
 20
299.6571611793902
 30
0.0
 10
-168.9295899711013
 20
299.6366142954824
 30
0.0
 10
-168.862392029398
 20
299.6021493434481
 30
0.0
 10
-168.8359433233721
 20
299.5685458324303
 30
0.0
 10
-168.8230810271289
 20
299.5522040759339
 30
0.0
  0
SPLINE
  5
C6
330
1F
100
AcDbEntity
  8
0
  6
Continuous
 62
     7
370
    25
100
AcDbSpline
210
0.0
220
0.0
230
1.0
 70
     8
 71
     3
 72
    12
 73
     8
 74
     0
 42
0.000000001
 43
0.00000001
 40
0.0
 40
0.0
 40
0.0
 40
0.0
 40
0.1954809223150115
 40
0.4487438059495906
 40
0.7162677954718077
 40
0.8562862548248157
 40
1.0
 40
1.0
 40
1.0
 40
1.0
 10
-165.677533857707
 20
299.514654822658
 30
0.0
 10
-165.6763012266844
 20
299.5271476564261
 30
0.0
 10
-165.673471612777
 20
299.5558260650697
 30
0.0
 10
-165.6271284621361
 20
299.6021818573848
 30
0.0
 10
-165.5626756724151
 20
299.6366089659599
 30
0.0
 10
-165.4990446889452
 20
299.6571618176048
 30
0.0
 10
-165.4640818361792
 20
299.6632236730703
 30
0.0
 10
-165.446372734312
 20
299.6662940751528
 30
0.0
  0
LWPOLYLINE
  5
CB
330
1F
100
AcDbEntity
  8
0
  6
Continuous
 62
     7
370
    25
100
AcDbPolyline
 90
       50
 70
   128
 43
0.0
 10
-167.2459715892
 20
314.0767656029
 10
-165.8393228107
 20
314.0086078955
 10
-164.4557711662
 20
313.8052539209
 10
-163.1180345355
 20
313.4700427457
 10
-161.8480785171
 20
313.0084785282
 10
-160.6667557538
 20
312.4281401401
 10
-159.5934635325
 20
311.7385567216
 10
-158.645825282
 20
310.9510512135
 10
-157.8394011961
 20
310.0785544343
 10
-157.187432736
 20
309.1353927571
 10
-156.7006252058
 20
308.1370528706
 10
-156.3869719716
 20
307.0999274881
 10
-156.251623211
 20
306.0410461797
 10
-156.2968013467
 20
304.9777957472
 10
-156.5217645552
 20
303.9276347333
 10
-156.9228189466
 20
302.9078067528
 10
-157.4933792191
 20
301.935057353
 10
-158.2240767886
 20
301.0253590521
 10
-159.1029136214
 20
300.1936490711
 10
-160.1154592408
 20
299.4535840648
 10
-161.2450876759
 20
298.8173158803
 10
-162.4732504589
 20
298.2952920235
 10
-163.7797811909
 20
297.8960841117
 10
-165.1432266735
 20
297.6262471278
 10
-166.5411991694
 20
297.4902117876
 10
-167.950744009
 20
297.4902117876
 10
-169.3487165049
 20
297.6262471278
 10
-170.7121619874
 20
297.8960841117
 10
-172.0186927195
 20
298.2952920235
 10
-173.2468555025
 20
298.8173158803
 10
-174.3764839376
 20
299.4535840648
 10
-175.389029557
 20
300.1936490711
 10
-176.2678663898
 20
301.0253590521
 10
-176.9985639593
 20
301.935057353
 10
-177.5691242317
 20
302.9078067528
 10
-177.9701786232
 20
303.9276347333
 10
-178.1951418316
 20
304.9777957472
 10
-178.2403199674
 20
306.0410461797
 10
-178.1049712067
 20
307.0999274881
 10
-177.7913179726
 20
308.1370528706
 10
-177.3045104424
 20
309.1353927571
 10
-176.6525419822
 20
310.0785544343
 10
-175.8461178963
 20
310.9510512135
 10
-174.8984796458
 20
311.7385567216
 10
-173.8251874246
 20
312.4281401401
 10
-172.6438646612
 20
313.0084785282
 10
-171.3739086429
 20
313.4700427457
 10
-170.0361720122
 20
313.8052539209
 10
-168.6526203677
 20
314.0086078955
 10
-167.2459715892
 20
314.0767656029
  0
LWPOLYLINE
  5
CC
330
1F
100
AcDbEntity
  8
0
  6
Continuous
 62
     7
370
    25
100
AcDbPolyline
 90
       53
 70
   128
 43
0.0
 10
-167.2459715892
 20
314.8314751832
 10
-168.6924117522
 20
314.7654429923
 10
-170.1177595606
 20
314.5683093179
 10
-171.5012302337
 20
314.2429488127
 10
-172.8226496537
 20
313.7941059656
 10
-174.06274855
 20
313.228325916
 10
-175.2034434881
 20
312.553859011
 10
-176.2281005672
 20
311.7805404969
 10
-177.1217779799
 20
310.919647099
 10
-177.871443897
 20
309.9837325816
 10
-178.4661665014
 20
308.9864446858
 10
-178.8972733983
 20
307.9423261149
 10
-179.1584780784
 20
306.8666024688
 10
-179.2459715892
 20
305.7749602205
 10
-179.1584780784
 20
304.6833179722
 10
-178.8972733983
 20
303.6075943261
 10
-178.4661665014
 20
302.5634757551
 10
-177.871443897
 20
301.5661878594
 10
-177.1217779799
 20
300.6302733419
 10
-176.2281005672
 20
299.769379944
 10
-175.2034434881
 20
298.9960614299
 10
-174.06274855
 20
298.321594525
 10
-172.8226496537
 20
297.7558144754
 10
-171.5012302337
 20
297.3069716283
 10
-170.1177595606
 20
296.9816111231
 10
-168.6924117522
 20
296.7844774486
 10
-167.2459715892
 20
296.7184452578
 10
-165.7995314261
 20
296.7844774486
 10
-164.3741836177
 20
296.9816111231
 10
-162.9907129447
 20
297.3069716283
 10
-161.6692935247
 20
297.7558144754
 10
-160.4291946284
 20
298.321594525
 10
-159.2884996903
 20
298.9960614299
 10
-158.2638426111
 20
299.769379944
 10
-157.3701651985
 20
300.6302733419
 10
-156.6204992813
 20
301.5661878594
 10
-156.025776677
 20
302.5634757551
 10
-155.5946697801
 20
303.6075943261
 10
-155.3334651
 20
304.6833179722
 10
-155.2459715892
 20
305.7749602205
 10
-155.3334651
 20
306.8666024688
 10
-155.5946697801
 20
307.9423261149
 10
-156.025776677
 20
308.9864446858
 10
-156.6204992813
 20
309.9837325816
 10
-157.3701651985
 20
310.919647099
 10
-158.2638426111
 20
311.7805404969
 10
-159.2884996903
 20
312.553859011
 10
-160.4291946284
 20
313.228325916
 10
-161.6692935247
 20
313.7941059656
 10
-162.9907129447
 20
314.2429488127
 10
-164.3741836177
 20
314.5683093179
 10
-165.7995314261
 20
314.7654429923
 10
-167.2459715892
 20
314.8314751832
  0
LWPOLYLINE
  5
CF
330
1F
100
AcDbEntity
  8
0
  6
Continuous
 62
     7
370
    25
100
AcDbPolyline
 90
       47
 70
   128
 43
0.0
 10
-167.2459715892
 20
313.0767754091
 10
-165.9285592592
 20
313.0087659084
 10
-164.6356878282
 20
312.8060042947
 10
-163.3914410449
 20
312.472267633
 10
-162.2189968726
 20
312.0137728061
 10
-161.1401957278
 20
311.439060705
 10
-160.1751336348
 20
310.7588371287
 10
-159.3417878743
 20
309.9857733555
 10
-158.6556821011
 20
309.1342701008
 10
-158.1295971677
 20
308.220189259
 10
-157.7733330409
 20
307.2605584268
 10
-157.5935262473
 20
306.2732537109
 10
-157.5935262473
 20
305.2766667301
 10
-157.7733330409
 20
304.2893620142
 10
-158.1295971677
 20
303.329731182
 10
-158.6556821011
 20
302.4156503402
 10
-159.3417878743
 20
301.5641470855
 10
-160.1751336348
 20
300.7910833123
 10
-161.1401957278
 20
300.110859736
 10
-162.2189968726
 20
299.5361476349
 10
-163.3914410449
 20
299.0776528079
 10
-164.6356878282
 20
298.7439161463
 10
-165.9285592592
 20
298.5411545325
 10
-167.2459715892
 20
298.4731450318
 10
-168.5633839192
 20
298.5411545325
 10
-169.8562553501
 20
298.7439161463
 10
-171.1005021334
 20
299.0776528079
 10
-172.2729463058
 20
299.5361476349
 10
-173.3517474505
 20
300.110859736
 10
-174.3168095436
 20
300.7910833123
 10
-175.1501553041
 20
301.5641470855
 10
-175.8362610772
 20
302.4156503402
 10
-176.3623460107
 20
303.329731182
 10
-176.7186101375
 20
304.2893620142
 10
-176.8984169311
 20
305.2766667301
 10
-176.8984169311
 20
306.2732537109
 10
-176.7186101375
 20
307.2605584268
 10
-176.3623460107
 20
308.220189259
 10
-175.8362610772
 20
309.1342701008
 10
-175.1501553041
 20
309.9857733555
 10
-174.3168095436
 20
310.7588371287
 10
-173.3517474505
 20
311.439060705
 10
-172.2729463058
 20
312.0137728061
 10
-171.1005021334
 20
312.472267633
 10
-169.8562553501
 20
312.8060042947
 10
-168.5633839192
 20
313.0087659084
 10
-167.2459715892
 20
313.0767754091
  0
LWPOLYLINE
  5
D0
330
1F
100
AcDbEntity
  8
0
  6
Continuous
 62
     7
370
    25
100
AcDbPolyline
 90
       50
 70
   128
 43
0.0
 10
-167.2459715892
 20
314.0767656029
 10
-168.6526203677
 20
314.0086078955
 10
-170.0361720122
 20
313.8052539209
 10
-171.3739086429
 20
313.4700427457
 10
-172.6438646612
 20
313.0084785282
 10
-173.8251874246
 20
312.4281401401
 10
-174.8984796458
 20
311.7385567216
 10
-175.8461178963
 20
310.9510512135
 10
-176.6525419822
 20
310.0785544343
 10
-177.3045104424
 20
309.1353927571
 10
-177.7913179726
 20
308.1370528706
 10
-178.1049712067
 20
307.0999274881
 10
-178.2403199674
 20
306.0410461797
 10
-178.1951418316
 20
304.9777957472
 10
-177.9701786232
 20
303.9276347333
 10
-177.5691242317
 20
302.9078067528
 10
-176.9985639593
 20
301.935057353
 10
-176.2678663898
 20
301.0253590521
 10
-175.389029557
 20
300.1936490711
 10
-174.3764839376
 20
299.4535840648
 10
-173.2468555025
 20
298.8173158803
 10
-172.0186927195
 20
298.2952920235
 10
-170.7121619874
 20
297.8960841117
 10
-169.3487165049
 20
297.6262471278
 10
-167.950744009
 20
297.4902117876
 10
-166.5411991694
 20
297.4902117876
 10
-165.1432266735
 20
297.6262471278
 10
-163.7797811909
 20
297.8960841117
 10
-162.4732504589
 20
298.2952920235
 10
-161.2450876759
 20
298.8173158803
 10
-160.1154592408
 20
299.4535840648
 10
-159.1029136214
 20
300.1936490711
 10
-158.2240767886
 20
301.0253590521
 10
-157.4933792191
 20
301.935057353
 10
-156.9228189466
 20
302.9078067528
 10
-156.5217645552
 20
303.9276347333
 10
-156.2968013467
 20
304.9777957472
 10
-156.251623211
 20
306.0410461797
 10
-156.3869719716
 20
307.0999274881
 10
-156.7006252058
 20
308.1370528706
 10
-157.187432736
 20
309.1353927571
 10
-157.8394011961
 20
310.0785544343
 10
-158.645825282
 20
310.9510512135
 10
-159.5934635325
 20
311.7385567216
 10
-160.6667557538
 20
312.4281401401
 10
-161.8480785171
 20
313.0084785282
 10
-163.1180345355
 20
313.4700427457
 10
-164.4557711662
 20
313.8052539209
 10
-165.8393228107
 20
314.0086078955
 10
-167.2459715892
 20
314.0767656029
  0
LWPOLYLINE
  5
D1
330
1F
100
AcDbEntity
  8
0
  6
Continuous
 62
     7
370
    25
100
AcDbPolyline
 90
        3
 70
   128
 43
0.0
 10
-168.4796493237
 20
298.9579038543
 10
-168.5225339245
 20
298.9622762936
 10
-168.6326605551
 20
298.9742028954
  0
LWPOLYLINE
  5
D2
330
1F
100
AcDbEntity
  8
0
  6
Continuous
 62
     7
370
    25
100
AcDbPolyline
 90
       45
 70
   128
 43
0.0
 10
-168.8022478393
 20
298.9945448315
 10
-169.7753163188
 20
299.1587507255
 10
-170.9809818065
 20
299.4821389635
 10
-172.1170711208
 20
299.9264168966
 10
-173.1624210672
 20
300.4833084675
 10
-174.0975587543
 20
301.1424398398
 10
-174.9050643362
 20
301.8915326433
 10
-175.5698955117
 20
302.7166326964
 10
-176.079667734
 20
303.6023699461
 10
-176.4248849112
 20
304.5322447835
 10
-176.5991163003
 20
305.4889353997
 10
-176.5991163003
 20
306.4546204587
 10
-176.4248849112
 20
307.4113110749
 10
-176.079667734
 20
308.3411859122
 10
-175.5698955117
 20
309.226923162
 10
-174.9050643362
 20
310.0520232151
 10
-174.0975587543
 20
310.8011160185
 10
-173.1624210672
 20
311.4602473909
 10
-172.1170711208
 20
312.0171389617
 10
-170.9809818065
 20
312.4614168948
 10
-169.7753163188
 20
312.7848051328
 10
-168.5225339245
 20
312.9812795648
 10
-167.2459715892
 20
313.0471802438
 10
-165.9694092539
 20
312.9812795648
 10
-164.7166268596
 20
312.7848051328
 10
-163.5109613719
 20
312.4614168948
 10
-162.3748720576
 20
312.0171389617
 10
-161.3295221111
 20
311.4602473909
 10
-160.3943844241
 20
310.8011160185
 10
-159.5868788422
 20
310.0520232151
 10
-158.9220476667
 20
309.226923162
 10
-158.4122754443
 20
308.3411859122
 10
-158.0670582672
 20
307.4113110749
 10
-157.892826878
 20
306.4546204587
 10
-157.892826878
 20
305.4889353997
 10
-158.0670582672
 20
304.5322447835
 10
-158.4122754443
 20
303.6023699461
 10
-158.9220476667
 20
302.7166326964
 10
-159.5868788422
 20
301.8915326433
 10
-160.3943844241
 20
301.1424398398
 10
-161.3295221111
 20
300.4833084675
 10
-162.3748720576
 20
299.9264168966
 10
-163.5109613719
 20
299.4821389635
 10
-164.7166268596
 20
299.1587507255
 10
-165.6872222692
 20
298.9948592835
  0
LWPOLYLINE
  5
D3
330
1F
100
AcDbEntity
  8
0
  6
Continuous
 62
     7
370
    25
100
AcDbPolyline
 90
        3
 70
   128
 43
0.0
 10
-165.8592826344
 20
298.9742028941
 10
-165.9694092539
 20
298.9622762936
 10
-166.0420292216
 20
298.9549613304
  0
LWPOLYLINE
  5
E4
330
1F
100
AcDbEntity
  8
0
  6
Continuous
 62
     7
370
    25
100
AcDbPolyline
 90
        3
 70
   128
 43
0.0
 10
-176.495971582
 20
306.6931677673
 10
-176.4734390541
 20
307.180417242
 10
-176.4663837107
 20
307.2513668937
  0
SPLINE
  5
E6
330
1F
100
AcDbEntity
  8
0
  6
Continuous
 62
     7
370
    25
100
AcDbSpline
210
0.0
220
0.0
230
1.0
 70
     8
 71
     3
 72
    12
 73
     8
 74
     0
 42
0.000000001
 43
0.00000001
 40
0.0
 40
0.0
 40
0.0
 40
0.0
 40
0.2500000000000697
 40
0.2500000000000697
 40
0.5000000000001393
 40
0.5000000000001393
 40
1.0
 40
1.0
 40
1.0
 40
1.0
 10
-158.1742258437759
 20
307.9261171801615
 30
0.0
 10
-158.1633942893259
 20
307.8851476090315
 30
0.0
 10
-158.153611470776
 20
307.8391024163039
 30
0.0
 10
-158.1358118064786
 20
307.7383420410729
 30
0.0
 10
-158.1281085165829
 20
307.6848811971889
 30
0.0
 10
-158.1095679955573
 20
307.5277955459615
 30
0.0
 10
-158.1032310205059
 20
307.4295625948116
 30
0.0
 10
-158.1032271017949
 20
307.3598265783814
 30
0.0
  0
SPLINE
  5
E9
330
1F
100
AcDbEntity
  8
0
  6
Continuous
 62
     7
370
    25
100
AcDbSpline
210
0.0
220
0.0
230
1.0
 70
     8
 71
     3
 72
    12
 73
     8
 74
     0
 42
0.000000001
 43
0.00000001
 40
0.0
 40
0.0
 40
0.0
 40
0.0
 40
0.4999999999999922
 40
0.4999999999999922
 40
0.7499999999999961
 40
0.7499999999999961
 40
1.0
 40
1.0
 40
1.0
 40
1.0
 10
-176.3887162163679
 20
307.3598265945815
 30
0.0
 10
-176.388714269164
 20
307.4293272584915
 30
0.0
 10
-176.3823701655119
 20
307.5278279457313
 30
0.0
 10
-176.3638391713521
 20
307.684847767659
 30
0.0
 10
-176.3561426360708
 20
307.7382712739843
 30
0.0
 10
-176.3383274373228
 20
307.8391251846222
 30
0.0
 10
-176.3285427072693
 20
307.8851705584665
 30
0.0
 10
-176.3177177206669
 20
307.9261172385616
 30
0.0
  0
SPLINE
  5
F7
330
1F
100
AcDbEntity
  8
0
  6
Continuous
 62
     7
370
    25
100
AcDbSpline
210
0.0
220
0.0
230
1.0
 70
     8
 71
     3
 72
    10
 73
     6
 74
     0
 42
0.000000001
 43
0.00000001
 40
0.0
 40
0.0
 40
0.0
 40
0.0
 40
0.5
 40
0.5
 40
1.0
 40
1.0
 40
1.0
 40
1.0
 10
-175.3344547034899
 20
307.7882540841915
 30
0.0
 10
-175.3546472426209
 20
307.7123196517815
 30
0.0
 10
-175.3719485444732
 20
307.6119685442981
 30
0.0
 10
-175.3958489543452
 20
307.4075406527283
 30
0.0
 10
-175.4022699072889
 20
307.3074989196217
 30
0.0
 10
-175.4022667738519
 20
307.2355690923215
 30
0.0
  0
SPLINE
  5
100
330
1F
100
AcDbEntity
  8
0
  6
Continuous
 62
     7
370
    25
100
AcDbSpline
210
0.0
220
0.0
230
1.0
 70
     8
 71
     3
 72
    10
 73
     6
 74
     0
 42
0.000000001
 43
0.00000001
 40
0.0
 40
0.0
 40
0.0
 40
0.0
 40
0.5
 40
0.5
 40
1.0
 40
1.0
 40
1.0
 40
1.0
 10
-159.1574884748799
 20
305.3362080261514
 30
0.0
 10
-159.1372959357489
 20
305.4121985970517
 30
0.0
 10
-159.1199946338965
 20
305.458044215978
 30
0.0
 10
-159.0960942240246
 20
305.4702523171582
 30
0.0
 10
-159.089673271081
 20
305.4359776793315
 30
0.0
 10
-159.0896764045179
 20
305.3640457950515
 30
0.0
  0
SPLINE
  5
102
330
1F
100
AcDbEntity
  8
0
  6
Continuous
 62
     7
370
    25
100
AcDbSpline
210
0.0
220
0.0
230
1.0
 70
     8
 71
     3
 72
    10
 73
     6
 74
     0
 42
0.000000001
 43
0.00000001
 40
0.0
 40
0.0
 40
0.0
 40
0.0
 40
0.5
 40
0.5
 40
1.0
 40
1.0
 40
1.0
 40
1.0
 10
-160.6018609306359
 20
302.6088002747215
 30
0.0
 10
-160.6018626360939
 20
302.6805684380216
 30
0.0
 10
-160.5755740334449
 20
302.7745903168079
 30
0.0
 10
-160.4910258936509
 20
302.9599869571483
 30
0.0
 10
-160.4347658105318
 20
303.0481778921514
 30
0.0
 10
-160.3778581537749
 20
303.1126583734015
 30
0.0
  0
SPLINE
  5
106
330
1F
100
AcDbEntity
  8
0
  6
Continuous
 62
     7
370
    25
100
AcDbSpline
210
0.0
220
0.0
230
1.0
 70
     8
 71
     3
 72
    10
 73
     6
 74
     0
 42
0.000000001
 43
0.00000001
 40
0.0
 40
0.0
 40
0.0
 40
0.0
 40
0.5
 40
0.5
 40
1.0
 40
1.0
 40
1.0
 40
1.0
 10
-162.6752427808009
 20
301.3787998394915
 30
0.0
 10
-162.5897932814989
 20
301.4217655530516
 30
0.0
 10
-162.5090716805219
 20
301.4369681398014
 30
0.0
 10
-162.3906856270089
 20
301.4046959353715
 30
0.0
 10
-162.3553358876348
 20
301.3573633220016
 30
0.0
 10
-162.3553390669359
 20
301.2854334111515
 30
0.0
  0
SPLINE
  5
108
330
1F
100
AcDbEntity
  8
0
  6
Continuous
 62
     7
370
    25
100
AcDbSpline
210
0.0
220
0.0
230
1.0
 70
     8
 71
     3
 72
    10
 73
     6
 74
     0
 42
0.000000001
 43
0.00000001
 40
0.0
 40
0.0
 40
0.0
 40
0.0
 40
0.5
 40
0.5
 40
1.0
 40
1.0
 40
1.0
 40
1.0
 10
-166.0060752625009
 20
300.1441734102916
 30
0.0
 10
-166.0060794359989
 20
300.2159434113914
 30
0.0
 10
-165.9624770028841
 20
300.2881165875648
 30
0.0
 10
-165.8190193459702
 20
300.4022361205949
 30
0.0
 10
-165.7221537211839
 20
300.4425582833417
 30
0.0
 10
-165.6214752108669
 20
300.4577756042715
 30
0.0
  0
SPLINE
  5
10C
330
1F
100
AcDbEntity
  8
0
  6
Continuous
 62
     7
370
    25
100
AcDbSpline
210
0.0
220
0.0
230
1.0
 70
     8
 71
     3
 72
    10
 73
     6
 74
     0
 42
0.000000001
 43
0.00000001
 40
0.0
 40
0.0
 40
0.0
 40
0.0
 40
0.5
 40
0.5
 40
1.0
 40
1.0
 40
1.0
 40
1.0
 10
-168.8704680327499
 20
300.4577753593315
 30
0.0
 10
-168.7698167310739
 20
300.4425639258415
 30
0.0
 10
-168.6729604500378
 20
300.4022537233149
 30
0.0
 10
-168.5294376974359
 20
300.2881059598147
 30
0.0
 10
-168.4858665695299
 20
300.2161018196716
 30
0.0
 10
-168.4858679323039
 20
300.1441733286915
 30
0.0
  0
SPLINE
  5
10E
330
1F
100
AcDbEntity
  8
0
  6
Continuous
 62
     7
370
    25
100
AcDbSpline
210
0.0
220
0.0
230
1.0
 70
     8
 71
     3
 72
    10
 73
     6
 74
     0
 42
0.000000001
 43
0.00000001
 40
0.0
 40
0.0
 40
0.0
 40
0.0
 40
0.5
 40
0.5
 40
1.0
 40
1.0
 40
1.0
 40
1.0
 10
-172.1366040465999
 20
301.2854334776115
 30
0.0
 10
-172.1366082433598
 20
301.3572060953715
 30
0.0
 10
-172.1012336937528
 20
301.404690202408
 30
0.0
 10
-171.9829020694999
 20
301.4369715411883
 30
0.0
 10
-171.9021734722049
 20
301.4217758065515
 30
0.0
 10
-171.8167002142379
 20
301.3788000475216
 30
0.0
  0
SPLINE
  5
112
330
1F
100
AcDbEntity
  8
0
  6
Continuous
 62
     7
370
    25
100
AcDbSpline
210
0.0
220
0.0
230
1.0
 70
     8
 71
     3
 72
    10
 73
     6
 74
     0
 42
0.000000001
 43
0.00000001
 40
0.0
 40
0.0
 40
0.0
 40
0.0
 40
0.5
 40
0.5
 40
1.0
 40
1.0
 40
1.0
 40
1.0
 10
-174.1140853000999
 20
303.1126582349015
 30
0.0
 10
-174.0571923634998
 20
303.0481967483915
 30
0.0
 10
-174.0009384982225
 20
302.9600226385116
 30
0.0
 10
-173.9163527284945
 20
302.7745656545716
 30
0.0
 10
-173.8900835878598
 20
302.6807286821315
 30
0.0
 10
-173.8900823358099
 20
302.6088002258015
 30
0.0
  0
SPLINE
  5
114
330
1F
100
AcDbEntity
  8
0
  6
Continuous
 62
     7
370
    25
100
AcDbSpline
210
0.0
220
0.0
230
1.0
 70
     8
 71
     3
 72
    10
 73
     6
 74
     0
 42
0.000000001
 43
0.00000001
 40
0.0
 40
0.0
 40
0.0
 40
0.0
 40
0.5
 40
0.5
 40
1.0
 40
1.0
 40
1.0
 40
1.0
 10
-175.4022666657279
 20
305.3640458074516
 30
0.0
 10
-175.4022684273459
 20
305.4358202878514
 30
0.0
 10
-175.395843692644
 20
305.4702374811916
 30
0.0
 10
-175.3719551616758
 20
305.4580592430016
 30
0.0
 10
-175.3546533092589
 20
305.4122181169616
 30
0.0
 10
-175.3344543789339
 20
305.3362080752815
 30
0.0
  0
SPLINE
  5
118
330
1F
100
AcDbEntity
  8
0
  6
Continuous
 62
     7
370
    25
100
AcDbSpline
210
0.0
220
0.0
230
1.0
 70
     8
 71
     3
 72
    14
 73
    10
 74
     0
 42
0.000000001
 43
0.00000001
 40
0.0
 40
0.0
 40
0.0
 40
0.0
 40
0.0836128054108129
 40
0.166407578644578
 40
0.2498539888039521
 40
0.4994379366915551
 40
0.7491059718224949
 40
0.8744281729831113
 40
1.0
 40
1.0
 40
1.0
 40
1.0
 10
-173.6811822263504
 20
304.0438283691465
 30
0.0
 10
-173.6808810311309
 20
304.034937262528
 30
0.0
 10
-173.6802815874579
 20
304.0172420361023
 30
0.0
 10
-173.6752790875151
 20
303.9872519354921
 30
0.0
 10
-173.6620407888444
 20
303.9343203839737
 30
0.0
 10
-173.6292665764425
 20
303.852327090369
 30
0.0
 10
-173.5757035706601
 20
303.7674312956274
 30
0.0
 10
-173.5269984158857
 20
303.7082822571818
 30
0.0
 10
-173.5012869084359
 20
303.6842988644043
 30
0.0
 10
-173.4884183639381
 20
303.6722952369324
 30
0.0
  0
SPLINE
  5
119
330
1F
100
AcDbEntity
  8
0
  6
Continuous
 62
     7
370
    25
100
AcDbSpline
210
0.0
220
0.0
230
1.0
 70
     8
 71
     3
 72
    14
 73
    10
 74
     0
 42
0.000000001
 43
0.00000001
 40
0.0
 40
0.0
 40
0.0
 40
0.0
 40
0.0840374038141854
 40
0.1672579561168939
 40
0.2511190745910846
 40
0.5007875054307104
 40
0.7503718488936274
 40
0.8750668037287409
 40
1.0
 40
1.0
 40
1.0
 40
1.0
 10
-161.0035248144316
 20
303.6722952369324
 30
0.0
 10
-160.9949170721288
 20
303.6801500837825
 30
0.0
 10
-160.9777852555924
 20
303.6957834276287
 30
0.0
 10
-160.9526702259096
 20
303.7232872409812
 30
0.0
 10
-160.9127180616564
 20
303.7728067418753
 30
0.0
 10
-160.8625867468235
 20
303.8525139684164
 30
0.0
 10
-160.8278089514125
 20
303.9398556157651
 30
0.0
 10
-160.812808717881
 20
304.0032875669998
 30
0.0
 10
-160.8114439748035
 20
304.0303061730441
 30
0.0
 10
-160.8107609520193
 20
304.0438283691464
 30
0.0
  0
LWPOLYLINE
  5
133
330
1F
100
AcDbEntity
  8
0
  6
Continuous
 62
     7
370
    25
100
AcDbPolyline
 90
        5
 70
   128
 43
0.0
 10
-162.6752429641
 20
311.7456620629
 10
-162.6731138947
 20
311.7224787072
 10
-162.6668085053
 20
311.7050152139
 10
-162.6565691086
 20
311.6939426951
 10
-162.6494333159
 20
311.6907491618
  0
LWPOLYLINE
  5
134
330
1F
100
AcDbEntity
  8
0
  6
Continuous
 62
     7
370
    25
100
AcDbPolyline
 90
        5
 70
   128
 43
0.0
 10
-171.816698792
 20
311.7456604519
 10
-171.8188268628
 20
311.7224747354
 10
-171.825131641
 20
311.7050091594
 10
-171.8353708197
 20
311.6939349655
 10
-171.8425086412
 20
311.6907472413
  0
SPLINE
  5
139
330
1F
100
AcDbEntity
  8
0
  6
Continuous
 62
     7
370
    25
100
AcDbSpline
210
0.0
220
0.0
230
1.0
 70
     8
 71
     3
 72
    10
 73
     6
 74
     0
 42
0.000000001
 43
0.00000001
 40
0.0
 40
0.0
 40
0.0
 40
0.0
 40
0.5
 40
0.5
 40
1.0
 40
1.0
 40
1.0
 40
1.0
 10
-162.4006082527929
 20
311.5223188938715
 30
0.0
 10
-162.4006055245089
 20
311.5573059672714
 30
0.0
 10
-162.4182307485642
 20
311.6022063917913
 30
0.0
 10
-162.4784572744932
 20
311.6835094868116
 30
0.0
 10
-162.5208173331339
 20
311.7193177673815
 30
0.0
 10
-162.5644388779299
 20
311.7401067655015
 30
0.0
  0
SPLINE
  5
13A
330
1F
100
AcDbEntity
  8
0
  6
Continuous
 62
     7
370
    25
100
AcDbSpline
210
0.0
220
0.0
230
1.0
 70
     8
 71
     3
 72
    10
 73
     6
 74
     0
 42
0.000000001
 43
0.00000001
 40
0.0
 40
0.0
 40
0.0
 40
0.0
 40
0.5
 40
0.5
 40
1.0
 40
1.0
 40
1.0
 40
1.0
 10
-171.9275043010589
 20
311.7401066695616
 30
0.0
 10
-171.9711322203389
 20
311.7193158058615
 30
0.0
 10
-172.0134784146179
 20
311.6835152305983
 30
0.0
 10
-172.0737272724429
 20
311.6021908328881
 30
0.0
 10
-172.0913371219449
 20
311.5573946616717
 30
0.0
 10
-172.0913348998839
 20
311.5223189074615
 30
0.0
  0
LWPOLYLINE
  5
13B
330
1F
100
AcDbEntity
  8
0
  6
Continuous
 62
     7
370
    25
100
AcDbPolyline
 90
       21
 70
   128
 43
0.0
 10
-160.1609164677
 20
306.279279769
 10
-160.1749249504
 20
306.075373102
 10
-160.340523671
 20
305.2452122035
 10
-160.6761574373
 20
304.4448229771
 10
-161.1735618319
 20
303.6939136617
 10
-161.8204891078
 20
303.0109741368
 10
-162.6010097687
 20
302.4128206402
 10
-163.4959048053
 20
301.914181696
 10
-164.4831389318
 20
301.52733545
 10
-165.5384031678
 20
301.2618073406
 10
-166.6357134053
 20
301.1241355511
 10
-167.7480502247
 20
301.1177100178
 10
-168.8480242017
 20
301.2426889587
 10
-169.9085503265
 20
301.4959949775
 10
-170.9035149263
 20
301.8713908393
 10
-171.8084186703
 20
302.3596330522
 10
-172.6009798254
 20
302.9486994725
 10
-173.2616829054
 20
303.6240853299
 10
-173.7742592078
 20
304.3691603832
 10
-174.1260874029
 20
305.1655784117
 10
-174.2596481689
 20
305.6772300093
  0
LWPOLYLINE
  5
13C
330
1F
100
AcDbEntity
  8
0
  6
Continuous
 62
     7
370
    25
100
AcDbPolyline
 90
       40
 70
   128
 43
0.0
 10
-164.6776180965
 20
311.1482470937
 10
-163.694300485
 20
310.7753756843
 10
-162.8029692894
 20
310.2882885667
 10
-162.0267095196
 20
309.6996010416
 10
-161.3856258959
 20
309.0245598065
 10
-160.8963221473
 20
308.2806480749
 10
-160.571470984
 20
307.4871327698
 10
-160.4194858804
 20
306.6645655209
 10
-160.4443031708
 20
305.8342503878
 10
-160.6452801005
 20
305.0176920963
 10
-161.0172114726
 20
304.2360390773
 10
-161.5504644599
 20
303.5095357334
 10
-162.2312280902
 20
302.8569981195
 10
-163.0418709429
 20
302.2953266171
 10
-163.9613977941
 20
301.8390682231
 10
-164.9659933812
 20
301.5000397902
 10
-166.0296392063
 20
301.2870219768
 10
-167.1247874013
 20
301.2055318322
 10
-168.223074203
 20
301.2576799086
 10
-169.2960545603
 20
301.442115598
 10
-170.3159388455
 20
301.754062113
 10
-171.2563125913
 20
302.1854402027
 10
-172.0928206117
 20
302.7250774012
 10
-172.8037977884
 20
303.3589973885
 10
-173.3708301859
 20
304.07078197
 10
-173.779231963
 20
304.8419962988
 10
-174.0184257281
 20
305.6526663288
 10
-174.0822164885
 20
306.4817961323
 10
-173.9689520969
 20
307.3079116828
 10
-173.6815660416
 20
308.1096170214
 10
-173.2275014704
 20
308.866148401
 10
-172.6185184172
 20
309.5579120563
 10
-171.8703892233
 20
310.1669916719
 10
-171.0024900417
 20
310.6776124058
 10
-170.0372990054
 20
311.0765494492
 10
-168.9998140553
 20
311.3534705421
 10
-167.9169055065
 20
311.5012035738
 10
-166.8166201217
 20
311.5159223363
 10
-165.7274547144
 20
311.3972456215
 10
-164.6776180965
 20
311.1482470937
  0
LWPOLYLINE
  5
13D
330
1F
100
AcDbEntity
  8
0
  6
Continuous
 62
     7
370
    25
100
AcDbPolyline
 90
       39
 70
   128
 43
0.0
 10
-173.8459715892
 20
306.3654133466
 10
-173.7559561916
 20
305.5455539933
 10
-173.4883653844
 20
304.7480582659
 10
-173.0504983471
 20
303.994679769
 10
-172.4542989512
 20
303.3059687041
 10
-171.7160299619
 20
302.7007113136
 10
-170.8558294328
 20
302.1954174414
 10
-169.8971613919
 20
301.8038701872
 10
-168.8661758043
 20
301.5367499393
 10
-167.7909952693
 20
301.4013430417
 10
-166.7009479091
 20
301.4013430417
 10
-165.6257673741
 20
301.5367499393
 10
-164.5947817865
 20
301.8038701872
 10
-163.6361137456
 20
302.1954174414
 10
-162.7759132165
 20
302.7007113136
 10
-162.0376442272
 20
303.3059687041
 10
-161.4414448312
 20
303.994679769
 10
-161.003577794
 20
304.7480582659
 10
-160.7359869867
 20
305.5455539933
 10
-160.6459715892
 20
306.3654133466
 10
-160.7359869867
 20
307.1852726999
 10
-161.003577794
 20
307.9827684272
 10
-161.4414448312
 20
308.7361469241
 10
-162.0376442272
 20
309.4248579891
 10
-162.7759132165
 20
310.0301153795
 10
-163.6361137456
 20
310.5354092517
 10
-164.5947817865
 20
310.926956506
 10
-165.6257673741
 20
311.1940767539
 10
-166.7009479091
 20
311.3294836514
 10
-167.7909952693
 20
311.3294836514
 10
-168.8661758043
 20
311.1940767539
 10
-169.8971613919
 20
310.926956506
 10
-170.8558294328
 20
310.5354092517
 10
-171.7160299619
 20
310.0301153795
 10
-172.4542989512
 20
309.4248579891
 10
-173.0504983471
 20
308.7361469241
 10
-173.4883653844
 20
307.9827684272
 10
-173.7559561916
 20
307.1852726999
 10
-173.8459715892
 20
306.3654133466
  0
SPLINE
  5
388
330
1F
100
AcDbEntity
  8
0
  6
Continuous
 62
     7
370
    25
100
AcDbSpline
210
0.0
220
0.0
230
1.0
 70
     8
 71
     3
 72
    14
 73
    10
 74
     0
 42
0.000000001
 43
0.00000001
 40
0.0
 40
0.0
 40
0.0
 40
0.0
 40
0.0840719984414643
 40
0.1673308212342414
 40
0.2512331272434199
 40
0.5009822806236619
 40
0.7505458168818919
 40
0.875161001119028
 40
1.0
 40
1.0
 40
1.0
 40
1.0
 10
-174.721933065808
 20
308.1959630555914
 30
0.0
 10
-174.7208571349266
 20
308.2062058998625
 30
0.0
 10
-174.7187156799676
 20
308.226592515804
 30
0.0
 10
-174.715295811863
 20
308.2609850328304
 30
0.0
 10
-174.7095404976468
 20
308.3213693463
 30
0.0
 10
-174.7013920254631
 20
308.4144267403243
 30
0.0
 10
-174.6950178847022
 20
308.5108330970253
 30
0.0
 10
-174.6921705792562
 20
308.578137601629
 30
0.0
 10
-174.6919074562969
 20
308.6055001094043
 30
0.0
 10
-174.6917757767779
 20
308.6191936383514
 30
0.0
  0
SPLINE
  5
38B
330
1F
100
AcDbEntity
  8
0
  6
Continuous
 62
     7
370
    25
100
AcDbSpline
210
0.0
220
0.0
230
1.0
 70
     8
 71
     3
 72
    14
 73
    10
 74
     0
 42
0.000000001
 43
0.00000001
 40
0.0
 40
0.0
 40
0.0
 40
0.0
 40
0.0835486961788737
 40
0.1662851067771992
 40
0.2496801483004474
 40
0.4992432277508594
 40
0.7489919239835348
 40
0.874374865814286
 40
1.0
 40
1.0
 40
1.0
 40
1.0
 10
-159.8001674015918
 20
308.6191936383514
 30
0.0
 10
-159.8001095244246
 20
308.6102280276056
 30
0.0
 10
-159.7999943327893
 20
308.5923839724812
 30
0.0
 10
-159.7990385026678
 20
308.5611131639112
 30
0.0
 10
-159.7965443539542
 20
308.5047557184805
 30
0.0
 10
-159.7905286581147
 20
308.4142181622095
 30
0.0
 10
-159.781846007717
 20
308.3150495386372
 30
0.0
 10
-159.7748838538072
 20
308.2426399606886
 30
0.0
 10
-159.7716357376563
 20
308.2115320290843
 30
0.0
 10
-159.7700101125617
 20
308.1959630555914
 30
0.0
  0
LWPOLYLINE
  5
399
330
1F
100
AcDbEntity
  8
0
  6
Continuous
 62
     7
370
    25
100
AcDbPolyline
 90
        9
 70
   128
 43
0.0
 10
-175.3344518638
 20
307.7882536548
 10
-175.3382177928
 20
307.7632254095
 10
-175.3493749203
 20
307.7403010507
 10
-175.3674944526
 20
307.7203616134
 10
-175.3918800151
 20
307.7041734154
 10
-175.4215944154
 20
307.6923586058
 10
-175.4554956616
 20
307.6853712546
 10
-175.492280852
 20
307.6834799016
 10
-175.5305362341
 20
307.686763609
  0
LWPOLYLINE
  5
3C8
330
1F
100
AcDbEntity
  8
0
  6
Continuous
 62
     7
370
    25
100
AcDbPolyline
 90
        9
 70
   128
 43
0.0
 10
-158.1032274715
 20
304.8461529345
 10
-158.1070258556
 20
304.8209951695
 10
-158.1182750381
 20
304.7976849805
 10
-158.1365427193
 20
304.7771181648
 10
-158.1611268824
 20
304.7600850936
 10
-158.1910827718
 20
304.7472403384
 10
-158.2252591995
 20
304.7390775158
 10
-158.2623427845
 20
304.7359103186
 10
-158.3009084254
 20
304.7378604604
  0
LWPOLYLINE
  5
3CA
330
1F
100
AcDbEntity
  8
0
  6
Continuous
 62
     7
370
    25
100
AcDbPolyline
 90
        9
 70
   128
 43
0.0
 10
-176.3887157069
 20
304.8461529345
 10
-176.3849173228
 20
304.8209951695
 10
-176.3736681402
 20
304.7976849805
 10
-176.3554004591
 20
304.7771181648
 10
-176.330816296
 20
304.7600850936
 10
-176.3008604066
 20
304.7472403384
 10
-176.2666839789
 20
304.7390775158
 10
-176.2296003939
 20
304.7359103186
 10
-176.191034753
 20
304.7378604604
  0
SPLINE
  5
3E8
330
1F
100
AcDbEntity
  8
0
  6
Continuous
 62
     7
370
    25
100
AcDbSpline
210
0.0
220
0.0
230
1.0
 70
     8
 71
     3
 72
    10
 73
     6
 74
     0
 42
0.000000001
 43
0.00000001
 40
0.0
 40
0.0
 40
0.0
 40
0.0
 40
0.5
 40
0.5
 40
1.0
 40
1.0
 40
1.0
 40
1.0
 10
-158.3356379573282
 20
307.4855555294919
 30
0.0
 10
-158.3356350317259
 20
307.520090656919
 30
0.0
 10
-158.3382813625661
 20
307.5706924493494
 30
0.0
 10
-158.3498401283043
 20
307.6744968260499
 30
0.0
 10
-158.3590391922307
 20
307.7269779441627
 30
0.0
 10
-158.3703692012789
 20
307.7654121907041
 30
0.0
  0
SPLINE
  5
3E9
330
1F
100
AcDbEntity
  8
0
  6
Continuous
 62
     7
370
    25
100
AcDbSpline
210
0.0
220
0.0
230
1.0
 70
     8
 71
     3
 72
    10
 73
     6
 74
     0
 42
0.000000001
 43
0.00000001
 40
0.0
 40
0.0
 40
0.0
 40
0.0
 40
0.5
 40
0.5
 40
1.0
 40
1.0
 40
1.0
 40
1.0
 10
-158.9266772627399
 20
307.4069028373415
 30
0.0
 10
-158.926673793435
 20
307.4418879732814
 30
0.0
 10
-158.9293141802544
 20
307.4931236495681
 30
0.0
 10
-158.9408562859216
 20
307.5968624042482
 30
0.0
 10
-158.9500474159429
 20
307.6487861505516
 30
0.0
 10
-158.9614069441069
 20
307.6867628337815
 30
0.0
  0
SPLINE
  5
3EA
330
1F
100
AcDbEntity
  8
0
  6
Continuous
 62
     7
370
    25
100
AcDbSpline
210
0.0
220
0.0
230
1.0
 70
     8
 71
     3
 72
    10
 73
     6
 74
     0
 42
0.000000001
 43
0.00000001
 40
0.0
 40
0.0
 40
0.0
 40
0.0
 40
0.5
 40
0.5
 40
1.0
 40
1.0
 40
1.0
 40
1.0
 10
-176.1563051532499
 20
307.4855558196415
 30
0.0
 10
-176.1563082778939
 20
307.5194759103115
 30
0.0
 10
-176.1537833302355
 20
307.5690043543079
 30
0.0
 10
-176.1423720827555
 20
307.6726737977183
 30
0.0
 10
-176.1331135376299
 20
307.7262751237616
 30
0.0
 10
-176.1215754820369
 20
307.7654156141815
 30
0.0
  0
SPLINE
  5
3EB
330
1F
100
AcDbEntity
  8
0
  6
Continuous
 62
     7
370
    25
100
AcDbSpline
210
0.0
220
0.0
230
1.0
 70
     8
 71
     3
 72
    10
 73
     6
 74
     0
 42
0.000000001
 43
0.00000001
 40
0.0
 40
0.0
 40
0.0
 40
0.0
 40
0.5
 40
0.5
 40
1.0
 40
1.0
 40
1.0
 40
1.0
 10
-175.5305362344139
 20
307.6867627376215
 30
0.0
 10
-175.5418982036119
 20
307.6487814329815
 30
0.0
 10
-175.5510851666121
 20
307.5968710287784
 30
0.0
 10
-175.5626322017363
 20
307.4931024491982
 30
0.0
 10
-175.5652695421389
 20
307.4419767848415
 30
0.0
 10
-175.5652659101829
 20
307.4069028606615
 30
0.0
  0
LWPOLYLINE
  5
40E
330
1F
100
AcDbEntity
  8
0
  6
Continuous
 62
     7
370
    25
100
AcDbPolyline
 90
        3
 70
   128
 43
0.0
 10
-175.4022671285
 20
304.970410337
 10
-175.4001763462
 20
304.9413077903
 10
-175.4006518126
 20
304.9355070135
  0
LWPOLYLINE
  5
40F
330
1F
100
AcDbEntity
  8
0
  6
Continuous
 62
     7
370
    25
100
AcDbPolyline
 90
        3
 70
   128
 43
0.0
 10
-159.0896760499
 20
304.970410337
 10
-159.0917668322
 20
304.9413077903
 10
-159.0912913658
 20
304.9355070138
  0
SPLINE
  5
42C
330
1F
100
AcDbEntity
  8
0
  6
Continuous
 62
     7
370
    25
100
AcDbSpline
210
0.0
220
0.0
230
1.0
 70
     8
 71
     3
 72
    10
 73
     6
 74
     0
 42
0.000000001
 43
0.00000001
 40
0.0
 40
0.0
 40
0.0
 40
0.0
 40
0.5
 40
0.5
 40
1.0
 40
1.0
 40
1.0
 40
1.0
 10
-159.7197407183255
 20
302.6380195230113
 30
0.0
 10
-159.6807170700091
 20
302.6183528395359
 30
0.0
 10
-159.6348936593671
 20
302.6079435490301
 30
0.0
 10
-159.5698206686059
 20
302.6262948195488
 30
0.0
 10
-159.5534234303702
 20
302.6543476492268
 30
0.0
 10
-159.553425802093
 20
302.685417087849
 30
0.0
  0
SPLINE
  5
435
330
1F
100
AcDbEntity
  8
0
  6
Continuous
 62
     7
370
    25
100
AcDbSpline
210
0.0
220
0.0
230
1.0
 70
     8
 71
     3
 72
     9
 73
     5
 74
     0
 42
0.000000001
 43
0.00000001
 40
0.0
 40
0.0
 40
0.0
 40
0.0
 40
0.6647391036857621
 40
0.9999999999999999
 40
0.9999999999999999
 40
0.9999999999999999
 40
0.9999999999999999
 10
-174.9385279172001
 20
302.6854122245003
 30
0.0
 10
-174.9368994830663
 20
302.6686484555262
 30
0.0
 10
-174.93444974884
 20
302.6434298864948
 30
0.0
 10
-174.9144035867789
 20
302.6328293251008
 30
0.0
 10
-174.9076828925186
 20
302.6292753713864
 30
0.0
  0
LWPOLYLINE
  5
472
330
1F
100
AcDbEntity
  8
0
  6
Continuous
 62
     7
370
    25
100
AcDbPolyline
 90
        3
 70
   128
 43
0.0
 10
-174.6942278827
 20
301.7369825406
 10
-174.6917522289
 20
301.7331835573
 10
-174.6860368375
 20
301.7263346048
  0
LWPOLYLINE
  5
475
330
1F
100
AcDbEntity
  8
0
  6
Continuous
 62
     7
370
    25
100
AcDbPolyline
 90
        3
 70
   128
 43
0.0
 10
-159.7980660821
 20
301.7364033695
 10
-159.8001909494
 20
301.7331835573
 10
-159.8058925057
 20
301.7263487391
  0
SPLINE
  5
482
330
1F
100
AcDbEntity
  8
0
  6
Continuous
 62
     7
370
    25
100
AcDbSpline
210
0.0
220
0.0
230
1.0
 70
     8
 71
     3
 72
    10
 73
     6
 74
     0
 42
0.000000001
 43
0.00000001
 40
0.0
 40
0.0
 40
0.0
 40
0.0
 40
0.5
 40
0.5
 40
1.0
 40
1.0
 40
1.0
 40
1.0
 10
-159.8344564324512
 20
302.3831669754599
 30
0.0
 10
-159.8344513270183
 20
302.417699592294
 30
0.0
 10
-159.8209894556661
 20
302.4649203283965
 30
0.0
 10
-159.7773192403164
 20
302.55868631451
 30
0.0
 10
-159.7477565344108
 20
302.6048015352844
 30
0.0
 10
-159.7197421064324
 20
302.6380200498638
 30
0.0
  0
SPLINE
  5
483
330
1F
100
AcDbEntity
  8
0
  6
Continuous
 62
     7
370
    25
100
AcDbSpline
210
0.0
220
0.0
230
1.0
 70
     8
 71
     3
 72
    10
 73
     6
 74
     0
 42
0.000000001
 43
0.00000001
 40
0.0
 40
0.0
 40
0.0
 40
0.0
 40
0.5
 40
0.5
 40
1.0
 40
1.0
 40
1.0
 40
1.0
 10
-160.3260760597449
 20
302.6429653140315
 30
0.0
 10
-160.3260738816909
 20
302.6779486845315
 30
0.0
 10
-160.3121827284852
 20
302.7256672481348
 30
0.0
 10
-160.2682792049282
 20
302.8192894694249
 30
0.0
 10
-160.2389173670149
 20
302.8649076317116
 30
0.0
 10
-160.2113606210089
 20
302.8978208873715
 30
0.0
  0
SPLINE
  5
484
330
1F
100
AcDbEntity
  8
0
  6
Continuous
 62
     7
370
    25
100
AcDbSpline
210
0.0
220
0.0
230
1.0
 70
     8
 71
     3
 72
    10
 73
     6
 74
     0
 42
0.000000001
 43
0.00000001
 40
0.0
 40
0.0
 40
0.0
 40
0.0
 40
0.5
 40
0.5
 40
1.0
 40
1.0
 40
1.0
 40
1.0
 10
-174.6574869698359
 20
302.3831672167815
 30
0.0
 10
-174.6574902827149
 20
302.4170852949915
 30
0.0
 10
-174.6704130978411
 20
302.4633632518482
 30
0.0
 10
-174.7136916647703
 20
302.5570706224382
 30
0.0
 10
-174.7436813980469
 20
302.6041911522116
 30
0.0
 10
-174.7722023750519
 20
302.6380225955215
 30
0.0
  0
SPLINE
  5
485
330
1F
100
AcDbEntity
  8
0
  6
Continuous
 62
     7
370
    25
100
AcDbSpline
210
0.0
220
0.0
230
1.0
 70
     8
 71
     3
 72
    10
 73
     6
 74
     0
 42
0.000000001
 43
0.00000001
 40
0.0
 40
0.0
 40
0.0
 40
0.0
 40
0.5
 40
0.5
 40
1.0
 40
1.0
 40
1.0
 40
1.0
 10
-174.2805825569299
 20
302.8978207913016
 30
0.0
 10
-174.2530228885879
 20
302.8649030646515
 30
0.0
 10
-174.2236690219968
 20
302.8192970552381
 30
0.0
 10
-174.1797501378529
 20
302.7256482699283
 30
0.0
 10
-174.1658700509169
 20
302.6780372111616
 30
0.0
 10
-174.1658671366149
 20
302.6429653334316
 30
0.0
  0
LWPOLYLINE
  5
495
330
1F
100
AcDbEntity
  8
0
  6
Continuous
 62
     7
370
    25
100
AcDbPolyline
 90
        3
 70
   128
 43
0.0
 10
-172.1209439275
 20
300.6240694901
 10
-172.1189451111
 20
300.6253538973
 10
-172.1085774776
 20
300.6341781587
  0
LWPOLYLINE
  5
497
330
1F
100
AcDbEntity
  8
0
  6
Continuous
 62
     7
370
    25
100
AcDbPolyline
 90
        3
 70
   128
 43
0.0
 10
-162.3833614661
 20
300.6341736014
 10
-162.3729980672
 20
300.6253538972
 10
-162.3710182808
 20
300.6240812144
  0
LWPOLYLINE
  5
498
330
1F
100
AcDbEntity
  8
0
  6
Continuous
 62
     7
370
    25
100
AcDbPolyline
 90
        3
 70
   128
 43
0.0
 10
-162.0267633479
 20
300.2530393035
 10
-162.0287621649
 20
300.254323711
 10
-162.0391199562
 20
300.2631373821
  0
SPLINE
  5
4BD
330
1F
100
AcDbEntity
  8
0
  6
Continuous
 62
     7
370
    25
100
AcDbSpline
210
0.0
220
0.0
230
1.0
 70
     8
 71
     3
 72
    10
 73
     6
 74
     0
 42
0.000000001
 43
0.00000001
 40
0.0
 40
0.0
 40
0.0
 40
0.0
 40
0.5
 40
0.5
 40
1.0
 40
1.0
 40
1.0
 40
1.0
 10
-165.4778776811135
 20
299.7325118820604
 30
0.0
 10
-165.4687102361071
 20
299.6977801354151
 30
0.0
 10
-165.4579453788672
 20
299.6696807330735
 30
0.0
 10
-165.4426583740083
 20
299.6629105895123
 30
0.0
 10
-165.438806301002
 20
299.6846332628921
 30
0.0
 10
-165.4388068326832
 20
299.7157036091513
 30
0.0
  0
SPLINE
  5
4BE
330
1F
100
AcDbEntity
  8
0
  6
Continuous
 62
     7
370
    25
100
AcDbSpline
210
0.0
220
0.0
230
1.0
 70
     8
 71
     3
 72
     9
 73
     5
 74
     0
 42
0.000000001
 43
0.00000001
 40
0.0
 40
0.0
 40
0.0
 40
0.0
 40
0.5319634800928261
 40
1.0
 40
1.0
 40
1.0
 40
1.0
 10
-169.0531392425173
 20
299.7156945450798
 30
0.0
 10
-169.0526350651607
 20
299.7001893578865
 30
0.0
 10
-169.0516872983015
 20
299.6710422683331
 30
0.0
 10
-169.0455739206496
 20
299.668650419067
 30
0.0
 10
-169.0427126366485
 20
299.6675309462603
 30
0.0
  0
LWPOLYLINE
  5
4C0
330
1F
100
AcDbEntity
  8
0
  6
Continuous
 62
     7
370
    25
100
AcDbPolyline
 90
        3
 70
   128
 43
0.0
 10
-168.816506527
 20
299.1265973134
 10
-168.8200818357
 20
299.1515374921
 10
-168.8201409685
 20
299.1557868041
  0
LWPOLYLINE
  5
4C1
330
1F
100
AcDbEntity
  8
0
  6
Continuous
 62
     7
370
    25
100
AcDbPolyline
 90
        3
 70
   128
 43
0.0
 10
-165.6741930059
 20
299.1319718919
 10
-165.6718613427
 20
299.1515374921
 10
-165.6718021483
 20
299.1547206647
  0
SPLINE
  5
4C3
330
1F
100
AcDbEntity
  8
0
  6
Continuous
 62
     7
370
    25
100
AcDbSpline
210
0.0
220
0.0
230
1.0
 70
     8
 71
     3
 72
    10
 73
     6
 74
     0
 42
0.000000001
 43
0.00000001
 40
0.0
 40
0.0
 40
0.0
 40
0.0
 40
0.5
 40
0.5
 40
1.0
 40
1.0
 40
1.0
 40
1.0
 10
-168.9098491805489
 20
300.1785780733915
 30
0.0
 10
-168.8595119546069
 20
300.1700117684214
 30
0.0
 10
-168.8088123553759
 20
300.1494313484415
 30
0.0
 10
-168.7351546386519
 20
300.0925382953016
 30
0.0
 10
-168.7128878910589
 20
300.0562271326114
 30
0.0
 10
-168.7128874015669
 20
300.0211563189216
 30
0.0
  0
SPLINE
  5
4C4
330
1F
100
AcDbEntity
  8
0
  6
Continuous
 62
     7
370
    25
100
AcDbSpline
210
0.0
220
0.0
230
1.0
 70
     8
 71
     3
 72
    10
 73
     6
 74
     0
 42
0.000000001
 43
0.00000001
 40
0.0
 40
0.0
 40
0.0
 40
0.0
 40
0.5
 40
0.5
 40
1.0
 40
1.0
 40
1.0
 40
1.0
 10
-165.7790558076909
 20
300.0211563148015
 30
0.0
 10
-165.7790561967639
 20
300.0561391260715
 30
0.0
 10
-165.7567707526821
 20
300.0925484894315
 30
0.0
 10
-165.6831396885653
 20
300.1494281123415
 30
0.0
 10
-165.6324246491549
 20
300.1700133664116
 30
0.0
 10
-165.5820939970559
 20
300.1785781690715
 30
0.0
  0
SPLINE
  5
4C5
330
1F
100
AcDbEntity
  8
0
  6
Continuous
 62
     7
370
    25
100
AcDbSpline
210
0.0
220
0.0
230
1.0
 70
     8
 71
     3
 72
    10
 73
     6
 74
     0
 42
0.000000001
 43
0.00000001
 40
0.0
 40
0.0
 40
0.0
 40
0.0
 40
0.5
 40
0.5
 40
1.0
 40
1.0
 40
1.0
 40
1.0
 10
-165.6748399686711
 20
299.5750932887648
 30
0.0
 10
-165.674835674109
 20
299.6096229670539
 30
0.0
 10
-165.6531513822317
 20
299.6458566279153
 30
0.0
 10
-165.5798336056728
 20
299.703050887468
 30
0.0
 10
-165.5288265621091
 20
299.723979122833
 30
0.0
 10
-165.4778781690675
 20
299.732512995414
 30
0.0
  0
SPLINE
  5
4C6
330
1F
100
AcDbEntity
  8
0
  6
Continuous
 62
     7
370
    25
100
AcDbSpline
210
0.0
220
0.0
230
1.0
 70
     8
 71
     3
 72
    10
 73
     6
 74
     0
 42
0.000000001
 43
0.00000001
 40
0.0
 40
0.0
 40
0.0
 40
0.0
 40
0.5
 40
0.5
 40
1.0
 40
1.0
 40
1.0
 40
1.0
 10
-168.8171035941739
 20
299.5750933399015
 30
0.0
 10
-168.8171051546449
 20
299.6090098946515
 30
0.0
 10
-168.8379057227224
 20
299.6447455528516
 30
0.0
 10
-168.9105221065125
 20
299.7022228935215
 30
0.0
 10
-168.9621925391689
 20
299.7238155617616
 30
0.0
 10
-169.0140653472559
 20
299.7325150280316
 30
0.0
  0
CIRCLE
  5
4C7
330
1F
100
AcDbEntity
  8
0
  6
Continuous
 62
     7
370
    25
100
AcDbCircle
 10
-167.2459715892
 20
390.1324014903
 30
0.0
 40
5.0
  0
CIRCLE
  5
4C8
330
1F
100
AcDbEntity
  8
0
  6
Continuous
 62
     7
370
    25
100
AcDbCircle
 10
-167.2459715892
 20
390.1324014903
 30
0.0
 40
4.499999757840982
  0
SPLINE
  5
4CA
330
1F
100
AcDbEntity
  8
0
  6
Continuous
 62
     7
370
    25
100
AcDbSpline
210
0.0
220
0.0
230
1.0
 70
     8
 71
     3
 72
    33
 73
    29
 74
     0
 42
0.000000001
 43
0.00000001
 40
0.0
 40
0.0
 40
0.0
 40
0.0
 40
0.0125133745383857
 40
0.0249843775939281
 40
0.0374322773732645
 40
0.0498764494010122
 40
0.0623362865923045
 40
0.0935023085849018
 40
0.1246681562023607
 40
0.1557865995114923
 40
0.1869874226944877
 40
0.2492134727567901
 40
0.3114729677488585
 40
0.3738357783026358
 40
0.4364338090502369
 40
0.4991007441469881
 40
0.561728371205459
 40
0.6243264873980837
 40
0.6869150790179336
 40
0.7495022757147773
 40
0.8120706026790564
 40
0.8434181617378612
 40
0.8746913744555208
 40
0.9060112069698928
 40
0.9373344927511869
 40
0.9581986388136841
 40
0.9790567640044551
 40
1.0
 40
1.0
 40
1.0
 40
1.0
 10
-167.2459715891839
 20
395.2324014902918
 30
0.0
 10
-167.3129501388363
 20
395.231651350347
 30
0.0
 10
-167.4466804423667
 20
395.2301536105031
 30
0.0
 10
-167.6467178771784
 20
395.2179736959263
 30
0.0
 10
-167.8457354978124
 20
395.198508702488
 30
0.0
 10
-168.0437251645967
 20
395.1710613052551
 30
0.0
 10
-168.3389492306691
 20
395.1181789981588
 30
0.0
 10
-168.7274241027931
 20
395.0209431176367
 30
0.0
 10
-169.1979395847625
 20
394.8528432727336
 30
0.0
 10
-169.6495240315042
 20
394.6399160805272
 30
0.0
 10
-170.2194443710378
 20
394.2989932714936
 30
0.0
 10
-170.86505052562
 20
393.7717038929135
 30
0.0
 10
-171.5018858116455
 20
393.0011666483932
 30
0.0
 10
-171.9791586786757
 20
392.1182164625745
 30
0.0
 10
-172.2764446344189
 20
391.1542904466122
 30
0.0
 10
-172.379264488355
 20
390.1472526793263
 30
0.0
 10
-172.2822512913936
 20
389.1396144361212
 30
0.0
 10
-171.9902651245432
 20
388.172939657196
 30
0.0
 10
-171.5163490097603
 20
387.2846806121142
 30
0.0
 10
-170.8799452210949
 20
386.5074688743932
 30
0.0
 10
-170.2327754796809
 20
385.9751212302176
 30
0.0
 10
-169.6608751788644
 20
385.6308523922714
 30
0.0
 10
-169.2075795286955
 20
385.4158624761346
 30
0.0
 10
-168.7350121885803
 20
385.2461265227269
 30
0.0
 10
-168.301451468996
 20
385.1368379225972
 30
0.0
 10
-167.9158098661125
 20
385.0729374335789
 30
0.0
 10
-167.5818562318998
 20
385.0387045146783
 30
0.0
 10
-167.3580850085958
 20
385.0345053483632
 30
0.0
 10
-167.2459715891839
 20
385.0324014902919
 30
0.0
  0
SPLINE
  5
4CB
330
1F
100
AcDbEntity
  8
0
  6
Continuous
 62
     7
370
    25
100
AcDbSpline
210
0.0
220
0.0
230
1.0
 70
     8
 71
     3
 72
    33
 73
    29
 74
     0
 42
0.000000001
 43
0.00000001
 40
0.0
 40
0.0
 40
0.0
 40
0.0
 40
0.01250507528946
 40
0.0249679719431805
 40
0.037407920728353
 40
0.0498442588681428
 40
0.0622963404070888
 40
0.0934422456895503
 40
0.1245872488759239
 40
0.1556860245714503
 40
0.1868672818177134
 40
0.2490420531051338
 40
0.3112486322906416
 40
0.3735780997991887
 40
0.4361923099704371
 40
0.4988953263802155
 40
0.5615521983582021
 40
0.6241722254881447
 40
0.6867860061515146
 40
0.7493991497646729
 40
0.8119937384109087
 40
0.843353904664799
 40
0.8746397712961219
 40
0.9059724394442452
 40
0.9373084737105315
 40
0.9581812415146034
 40
0.9790480015665652
 40
1.0
 40
1.0
 40
1.0
 40
1.0
 10
-167.2459715891839
 20
385.0324014902919
 30
0.0
 10
-167.1790374821925
 20
385.0331506835998
 30
0.0
 10
-167.0453950316896
 20
385.0346465432455
 30
0.0
 10
-166.8454874209226
 20
385.0468109604515
 30
0.0
 10
-166.6465958842315
 20
385.0662511094619
 30
0.0
 10
-166.4487285529294
 20
385.0936634970002
 30
0.0
 10
-166.1536861339596
 20
385.1464773860116
 30
0.0
 10
-165.7654487467451
 20
385.2435865937165
 30
0.0
 10
-165.2952015904191
 20
385.4114754599474
 30
0.0
 10
-164.8438482411864
 20
385.6241415829716
 30
0.0
 10
-164.2742197222032
 20
385.9646145565645
 30
0.0
 10
-163.6288934486796
 20
386.4911886856305
 30
0.0
 10
-162.9920576217575
 20
387.2607525658427
 30
0.0
 10
-162.5143035640459
 20
388.1429954223752
 30
0.0
 10
-162.2162308087715
 20
389.1067770871168
 30
0.0
 10
-162.1126545315047
 20
390.1141825812917
 30
0.0
 10
-162.2091062545126
 20
391.1223566321133
 30
0.0
 10
-162.5007111119989
 20
392.089587321609
 30
0.0
 10
-162.9744216438295
 20
392.978412319721
 30
0.0
 10
-163.6108092164224
 20
393.7561812186622
 30
0.0
 10
-164.2580997521914
 20
394.288933103492
 30
0.0
 10
-164.8301577279582
 20
394.6334705672372
 30
0.0
 10
-165.2835979413659
 20
394.8486290708869
 30
0.0
 10
-165.7563332554937
 20
395.0185008667186
 30
0.0
 10
-166.1900604045887
 20
395.1278787538787
 30
0.0
 10
-166.5758558955251
 20
395.1918320550153
 30
0.0
 10
-166.9099469274845
 20
395.2260932968626
 30
0.0
 10
-167.1338112691382
 20
395.2302959037841
 30
0.0
 10
-167.2459715891839
 20
395.2324014902917
 30
0.0
  0
LWPOLYLINE
  5
4CD
330
1F
100
AcDbEntity
  8
0
  6
Continuous
 62
     8
370
    25
100
AcDbPolyline
 90
       28
 70
   128
 43
0.0
 10
-155.2459715904
 20
318.8473636228
 10
-155.3334651
 20
319.9388790464
 10
-155.5946697801
 20
321.0146026925
 10
-156.025776677
 20
322.0587212634
 10
-156.6204992813
 20
323.0560091592
 10
-157.3701651985
 20
323.9919236766
 10
-158.2638426111
 20
324.8528170745
 10
-159.2884996903
 20
325.6261355886
 10
-160.4291946284
 20
326.3006024936
 10
-161.6692935247
 20
326.8663825432
 10
-162.9907129447
 20
327.3152253903
 10
-164.3741836177
 20
327.6405858955
 10
-165.7995314261
 20
327.8377195699
 10
-167.2459715892
 20
327.9037517608
 10
-168.6924117522
 20
327.8377195699
 10
-170.1177595606
 20
327.6405858955
 10
-171.5012302337
 20
327.3152253903
 10
-172.8226496537
 20
326.8663825432
 10
-174.06274855
 20
326.3006024936
 10
-175.2034434881
 20
325.6261355886
 10
-176.2281005672
 20
324.8528170745
 10
-177.1217779799
 20
323.9919236766
 10
-177.871443897
 20
323.0560091592
 10
-178.4661665014
 20
322.0587212634
 10
-178.8972733983
 20
321.0146026925
 10
-179.1584780784
 20
319.9388790464
 10
-179.2459715892
 20
318.8472367981
 10
-179.245971579
 20
318.8468634121
  0
SPLINE
  5
4E2
330
1F
100
AcDbEntity
  8
0
  6
Continuous
 62
     8
370
    25
100
AcDbSpline
210
0.0
220
0.0
230
1.0
 70
     8
 71
     3
 72
     9
 73
     5
 74
     0
 42
0.000000001
 43
0.00000001
 40
0.0
 40
0.0
 40
0.0
 40
0.0
 40
0.2687603953871156
 40
1.0
 40
1.0
 40
1.0
 40
1.0
 10
-168.8229264115757
 20
312.6810831617914
 30
0.0
 10
-168.8299461685987
 20
312.6830759824393
 30
0.0
 10
-168.856065184434
 20
312.6904908422254
 30
0.0
 10
-168.887131939571
 20
312.6864289770133
 30
0.0
 10
-168.9098491813139
 20
312.6834587803015
 30
0.0
  0
SPLINE
  5
4E4
330
1F
100
AcDbEntity
  8
0
  6
Continuous
 62
     8
370
    25
100
AcDbSpline
210
0.0
220
0.0
230
1.0
 70
     8
 71
     3
 72
     9
 73
     5
 74
     0
 42
0.000000001
 43
0.00000001
 40
0.0
 40
0.0
 40
0.0
 40
0.0
 40
0.9031153867322151
 40
1.0
 40
1.0
 40
1.0
 40
1.0
 10
-165.5820939964779
 20
312.6834595550015
 30
0.0
 10
-165.6118288057469
 20
312.6876215883531
 30
0.0
 10
-165.6447535124962
 20
312.6922301172442
 30
0.0
 10
-165.6694032857912
 20
312.6822213226183
 30
0.0
 10
-165.671791469544
 20
312.6812516244216
 30
0.0
  0
LWPOLYLINE
  5
4F8
330
1F
100
AcDbEntity
  8
0
  6
Continuous
 62
     8
370
    25
100
AcDbPolyline
 90
       28
 70
   128
 43
0.0
 10
-162.5341172065
 20
302.456774642
 10
-162.1511317029
 20
302.7255592302
 10
-161.4168490843
 20
303.3744090828
 10
-160.8260988074
 20
304.1019618244
 10
-160.3934271048
 20
304.8903026918
 10
-160.1294877897
 20
305.7200201166
 10
-160.0407799239
 20
306.570683702
 10
-160.1294877897
 20
307.4213472875
 10
-160.3934271048
 20
308.2510647122
 10
-160.8260988074
 20
309.0394055797
 10
-161.4168490843
 20
309.7669583213
 10
-162.1511317029
 20
310.4158081739
 10
-163.0108661884
 20
310.9699783008
 10
-163.9748830244
 20
311.4158231942
 10
-165.0194449169
 20
311.7423646733
 10
-166.1188312855
 20
311.941562203
 10
-167.2459715892
 20
312.0085108791
 10
-168.3731118928
 20
311.941562203
 10
-169.4724982615
 20
311.7423646733
 10
-170.517060154
 20
311.4158231942
 10
-171.48107699
 20
310.9699783008
 10
-172.3408114754
 20
310.4158081739
 10
-173.0750940941
 20
309.7669583213
 10
-173.6658443709
 20
309.0394055797
 10
-174.0985160736
 20
308.2510647122
 10
-174.3624553887
 20
307.4213472875
 10
-174.4511632544
 20
306.570683702
 10
-174.4511632544
 20
306.570683702
  0
LWPOLYLINE
  5
4FD
330
1F
100
AcDbEntity
  8
0
  6
Continuous
 62
     8
370
    25
100
AcDbPolyline
 90
       15
 70
   128
 43
0.0
 10
-174.2596481689
 20
305.6772300093
 10
-174.3085043128
 20
305.9937289604
 10
-174.3170182279
 20
306.8332202145
 10
-174.1514195073
 20
307.6633811129
 10
-173.8157857411
 20
308.4637703394
 10
-173.3183813465
 20
309.2146796548
 10
-172.6714540705
 20
309.8976191796
 10
-171.8909334097
 20
310.4957726762
 10
-170.9960383731
 20
310.9944116204
 10
-170.0088042465
 20
311.3812578664
 10
-168.9535400106
 20
311.6467859759
 10
-167.8562297731
 20
311.7844577654
 10
-166.7438929537
 20
311.7908832987
 10
-165.6439189767
 20
311.6659043578
 10
-164.5833928518
 20
311.412598339
  0
LWPOLYLINE
  5
4FF
330
1F
100
AcDbEntity
  8
0
  6
Continuous
 62
     8
370
    25
100
AcDbPolyline
 90
        6
 70
   128
 43
0.0
 10
-159.9491713775
 20
309.815244699
 10
-159.9267915352
 20
309.7936440753
 10
-159.9052717376
 20
309.7779159476
 10
-159.8854389786
 20
309.768664739
 10
-159.86805542
 20
309.7662459682
 10
-159.8611404741
 20
309.7674424435
  0
LWPOLYLINE
  5
503
330
1F
100
AcDbEntity
  8
0
  6
Continuous
 62
     8
370
    25
100
AcDbPolyline
 90
        6
 70
   128
 43
0.0
 10
-174.0511519831
 20
309.5554465656
 10
-174.0735318255
 20
309.5338459419
 10
-174.095051623
 20
309.5181178142
 10
-174.114884382
 20
309.5088666056
 10
-174.1322679407
 20
309.5064478348
 10
-174.1391828868
 20
309.5076443102
  0
LWPOLYLINE
  5
509
330
1F
100
AcDbEntity
  8
0
  6
Continuous
 62
     8
370
    25
100
AcDbPolyline
 90
        9
 70
   128
 43
0.0
 10
-159.0879879022
 20
306.8250181959
 10
-159.0858767546
 20
306.8167714506
 10
-159.0746248734
 20
306.7934479342
 10
-159.0563528099
 20
306.7728594761
 10
-159.0317627492
 20
306.7557972792
 10
-159.0017996735
 20
306.7429170342
 10
-158.967615047
 20
306.7347137215
 10
-158.9305225658
 20
306.73150259
 10
-158.8919476732
 20
306.7334070417
  0
LWPOLYLINE
  5
50C
330
1F
100
AcDbEntity
  8
0
  6
Continuous
 62
     8
370
    25
100
AcDbPolyline
 90
        9
 70
   128
 43
0.0
 10
-175.4038970117
 20
306.8253081124
 10
-175.4060664238
 20
306.8167714506
 10
-175.417318305
 20
306.7934479342
 10
-175.4355903685
 20
306.7728594761
 10
-175.4601804292
 20
306.7557972792
 10
-175.4901435049
 20
306.7429170342
 10
-175.5243281313
 20
306.7347137215
 10
-175.5614206125
 20
306.73150259
 10
-175.5999955052
 20
306.7334070417
  0
SPLINE
  5
521
330
1F
100
AcDbEntity
  8
0
  6
Continuous
 62
     8
370
    25
100
AcDbSpline
210
0.0
220
0.0
230
1.0
 70
     8
 71
     3
 72
    10
 73
     6
 74
     0
 42
0.000000001
 43
0.00000001
 40
0.0
 40
0.0
 40
0.0
 40
0.0
 40
0.1986057044318427
 40
0.599302852216094
 40
1.0
 40
1.0
 40
1.0
 40
1.0
 10
-174.9076828925187
 20
302.6292753713864
 30
0.0
 10
-174.9021885290058
 20
302.6247272643222
 30
0.0
 10
-174.885609006611
 20
302.6110031190686
 30
0.0
 10
-174.8368629719774
 20
302.6116780115115
 30
0.0
 10
-174.7937559073189
 20
302.6292416896237
 30
0.0
 10
-174.7722023749896
 20
302.6380235286799
 30
0.0
  0
SPLINE
  5
532
330
1F
100
AcDbEntity
  8
0
  6
Continuous
 62
     8
370
    25
100
AcDbSpline
210
0.0
220
0.0
230
1.0
 70
     8
 71
     3
 72
    10
 73
     6
 74
     0
 42
0.000000001
 43
0.00000001
 40
0.0
 40
0.0
 40
0.0
 40
0.0
 40
0.4488656953676599
 40
0.9013839863323029
 40
1.0
 40
1.0
 40
1.0
 40
1.0
 10
-162.5644388784239
 20
301.1219309584116
 30
0.0
 10
-162.5404862099607
 20
301.131103621351
 30
0.0
 10
-162.4923859608094
 20
301.1495235887734
 30
0.0
 10
-162.4462588296465
 20
301.1489375119075
 30
0.0
 10
-162.4328348580712
 20
301.1361879816658
 30
0.0
 10
-162.430432869022
 20
301.1339066723042
 30
0.0
  0
SPLINE
  5
533
330
1F
100
AcDbEntity
  8
0
  6
Continuous
 62
     8
370
    25
100
AcDbSpline
210
0.0
220
0.0
230
1.0
 70
     8
 71
     3
 72
    10
 73
     6
 74
     0
 42
0.000000001
 43
0.00000001
 40
0.0
 40
0.0
 40
0.0
 40
0.0
 40
0.2953015372373671
 40
0.6484634710732556
 40
1.0
 40
1.0
 40
1.0
 40
1.0
 10
-172.0606358683943
 20
301.1321651634448
 30
0.0
 10
-172.0520614520482
 20
301.1377803631707
 30
0.0
 10
-172.0332325768643
 20
301.1501109860967
 30
0.0
 10
-171.9845120282757
 20
301.1449934952561
 30
0.0
 10
-171.9464776339528
 20
301.1296061238721
 30
0.0
 10
-171.9275043004399
 20
301.1219301838616
 30
0.0
  0
SPLINE
  5
538
330
1F
100
AcDbEntity
  8
0
  6
Continuous
 62
     8
370
    25
100
AcDbSpline
210
0.0
220
0.0
230
1.0
 70
     8
 71
     3
 72
    10
 73
     6
 74
     0
 42
0.000000001
 43
0.00000001
 40
0.0
 40
0.0
 40
0.0
 40
0.0
 40
0.0566801773089958
 40
0.5283400886542295
 40
1.0
 40
1.0
 40
1.0
 40
1.0
 10
-169.0427126366485
 20
299.6675309462603
 30
0.0
 10
-169.0423821424103
 20
299.6670548719132
 30
0.0
 10
-169.0393014647653
 20
299.6626171800296
 30
0.0
 10
-169.0291305338783
 20
299.682009584177
 30
0.0
 10
-169.0190870761644
 20
299.7156805022618
 30
0.0
 10
-169.0140653473075
 20
299.7325159613043
 30
0.0
  0
LINE
  5
53E
330
1F
100
AcDbEntity
  8
0
  6
Continuous
 62
     7
370
    25
100
AcDbLine
 10
-179.2459715892
 20
327.4324014903
 30
0.0
 11
-179.2459715882
 21
305.7749602205
 31
0.0
  0
LINE
  5
53F
330
1F
100
AcDbEntity
  8
0
  6
Continuous
 62
     7
370
    25
100
AcDbLine
 10
-155.2459715902
 20
305.7749602205
 30
0.0
 11
-155.2459715892
 21
327.4324014903
 31
0.0
  0
LINE
  5
540
330
1F
100
AcDbEntity
  8
0
  6
Continuous
 62
     7
370
    25
100
AcDbLine
 10
-178.245971589
 20
306.048479091
 30
0.0
 11
-178.245971589
 21
305.7749602202
 31
0.0
  0
LINE
  5
541
330
1F
100
AcDbEntity
  8
0
  6
Continuous
 62
     7
370
    25
100
AcDbLine
 10
-144.7459715892
 20
223.0324014903
 30
0.0
 11
-144.7459715892
 21
373.0324014903
 31
0.0
  0
LINE
  5
542
330
1F
100
AcDbEntity
  8
0
  6
Continuous
 62
     7
370
    25
100
AcDbLine
 10
-189.7459715892
 20
373.0324014903
 30
0.0
 11
-189.7459715892
 21
223.0324014903
 31
0.0
  0
LINE
  5
543
330
1F
100
AcDbEntity
  8
0
  6
Continuous
 62
     7
370
    25
100
AcDbLine
 10
-141.9959715892
 20
218.0324014903
 30
0.0
 11
-141.9959715892
 21
221.5324014903
 31
0.0
  0
LINE
  5
544
330
1F
100
AcDbEntity
  8
0
  6
Continuous
 62
     7
370
    25
100
AcDbLine
 10
-192.4959715892
 20
221.5324014903
 30
0.0
 11
-192.4959715892
 21
218.0324014903
 31
0.0
  0
LINE
  5
545
330
1F
100
AcDbEntity
  8
0
  6
Continuous
 62
     7
370
    25
100
AcDbLine
 10
-176.4959715892
 20
306.6934428609
 30
0.0
 11
-176.4959715892
 21
305.906172026
 31
0.0
  0
LINE
  5
546
330
1F
100
AcDbEntity
  8
0
  6
Continuous
 62
     7
370
    25
100
AcDbLine
 10
-157.9959715892
 20
305.906172026
 30
0.0
 11
-157.9959715892
 21
306.6934428609
 31
0.0
  0
LINE
  5
547
330
1F
100
AcDbEntity
  8
0
  6
Continuous
 62
     7
370
    25
100
AcDbLine
 10
-168.7967401498
 20
312.5754929349
 30
0.0
 11
-168.6925239838
 21
312.1294299523
 31
0.0
  0
LINE
  5
548
330
1F
100
AcDbEntity
  8
0
  6
Continuous
 62
     7
370
    25
100
AcDbLine
 10
-165.7994191951
 20
312.1294299523
 30
0.0
 11
-165.6952030291
 21
312.5754929349
 31
0.0
  0
LINE
  5
549
330
1F
100
AcDbEntity
  8
0
  6
Continuous
 62
     7
370
    25
100
AcDbLine
 10
-168.8111660592
 20
312.9267743928
 30
0.0
 11
-168.8111660591
 21
312.7018092343
 31
0.0
  0
LINE
  5
54A
330
1F
100
AcDbEntity
  8
0
  6
Continuous
 62
     7
370
    25
100
AcDbLine
 10
-165.6807771192
 20
312.7018092344
 30
0.0
 11
-165.6807771192
 21
312.9138823146
 31
0.0
  0
LINE
  5
54B
330
1F
100
AcDbEntity
  8
0
  6
Continuous
 62
     7
370
    25
100
AcDbLine
 10
-172.0557008788
 20
311.0310659656
 30
0.0
 11
-172.0557008788
 21
311.4247013832
 31
0.0
  0
LINE
  5
54C
330
1F
100
AcDbEntity
  8
0
  6
Continuous
 62
     7
370
    25
100
AcDbLine
 10
-162.4362422995
 20
311.4247012897
 30
0.0
 11
-162.4362422995
 21
311.0310659657
 31
0.0
  0
LINE
  5
54D
330
1F
100
AcDbEntity
  8
0
  6
Continuous
 62
     7
370
    25
100
AcDbLine
 10
-171.9579204367
 20
302.4568362696
 30
0.0
 11
-171.8818364698
 21
302.4068756329
 31
0.0
  0
LINE
  5
54E
330
1F
100
AcDbEntity
  8
0
  6
Continuous
 62
     7
370
    25
100
AcDbLine
 10
-162.6101067086
 20
302.4068756329
 30
0.0
 11
-162.5340227417
 21
302.4568362696
 31
0.0
  0
LINE
  5
54F
330
1F
100
AcDbEntity
  8
0
  6
Continuous
 62
     7
370
    25
100
AcDbLine
 10
-160.3527227262
 20
309.5076552724
 30
0.0
 11
-159.8611029085
 21
309.7674534058
 31
0.0
  0
LINE
  5
550
330
1F
100
AcDbEntity
  8
0
  6
Continuous
 62
     7
370
    25
100
AcDbLine
 10
-174.6308402705
 20
309.7674534052
 30
0.0
 11
-174.1392204528
 21
309.5076552718
 31
0.0
  0
LINE
  5
551
330
1F
100
AcDbEntity
  8
0
  6
Continuous
 62
     7
370
    25
100
AcDbLine
 10
-174.7422388449
 20
310.3290799278
 30
0.0
 11
-174.742238845
 21
309.9354445102
 31
0.0
  0
LINE
  5
552
330
1F
100
AcDbEntity
  8
0
  6
Continuous
 62
     7
370
    25
100
AcDbLine
 10
-159.7497043334
 20
309.9354445103
 30
0.0
 11
-159.7497043334
 21
310.1968301305
 31
0.0
  0
LINE
  5
553
330
1F
100
AcDbEntity
  8
0
  6
Continuous
 62
     7
370
    25
100
AcDbLine
 10
-174.7459715892
 20
307.7431373074
 30
0.0
 11
-174.7459715892
 21
307.2182900842
 31
0.0
  0
LINE
  5
554
330
1F
100
AcDbEntity
  8
0
  6
Continuous
 62
     7
370
    25
100
AcDbLine
 10
-159.7459715892
 20
307.2182900842
 30
0.0
 11
-159.7459715892
 21
307.7431373074
 31
0.0
  0
LINE
  5
555
330
1F
100
AcDbEntity
  8
0
  6
Continuous
 62
     7
370
    25
100
AcDbLine
 10
-175.4056452632
 20
306.8259929811
 30
0.0
 11
-175.4031768394
 21
306.8644839337
 31
0.0
  0
LINE
  5
556
330
1F
100
AcDbEntity
  8
0
  6
Continuous
 62
     7
370
    25
100
AcDbLine
 10
-175.4090866729
 20
306.9096100331
 30
0.0
 11
-175.4090866729
 21
307.3032454507
 31
0.0
  0
LINE
  5
557
330
1F
100
AcDbEntity
  8
0
  6
Continuous
 62
     7
370
    25
100
AcDbLine
 10
-159.0828565054
 20
307.3032453325
 30
0.0
 11
-159.0828565054
 21
306.9096100333
 31
0.0
  0
LINE
  5
558
330
1F
100
AcDbEntity
  8
0
  6
Continuous
 62
     7
370
    25
100
AcDbLine
 10
-158.9175361126
 20
304.7494871371
 30
0.0
 11
-158.3264968648
 21
304.6708341982
 31
0.0
  0
LINE
  5
559
330
1F
100
AcDbEntity
  8
0
  6
Continuous
 62
     7
370
    25
100
AcDbLine
 10
-176.1654463132
 20
304.6708341967
 30
0.0
 11
-175.5744070654
 21
304.7494871357
 31
0.0
  0
LINE
  5
55A
330
1F
100
AcDbEntity
  8
0
  6
Continuous
 62
     7
370
    25
100
AcDbLine
 10
-159.0828565054
 20
305.2963694367
 30
0.0
 11
-159.0828565054
 21
304.9027340192
 31
0.0
  0
LINE
  5
55B
330
1F
100
AcDbEntity
  8
0
  6
Continuous
 62
     7
370
    25
100
AcDbLine
 10
-175.4090866729
 20
305.0055999214
 30
0.0
 11
-175.409086673
 21
305.2963693186
 31
0.0
  0
LINE
  5
55C
330
1F
100
AcDbEntity
  8
0
  6
Continuous
 62
     7
370
    25
100
AcDbLine
 10
-159.8384710012
 20
307.187129268
 30
0.0
 11
-159.0828565054
 21
307.187129268
 31
0.0
  0
LINE
  5
55D
330
1F
100
AcDbEntity
  8
0
  6
Continuous
 62
     7
370
    25
100
AcDbLine
 10
-175.4090866729
 20
307.187129268
 30
0.0
 11
-174.6534721772
 21
307.187129268
 31
0.0
  0
LINE
  5
55E
330
1F
100
AcDbEntity
  8
0
  6
Continuous
 62
     7
370
    25
100
AcDbLine
 10
-159.7497043334
 20
301.8768995421
 30
0.0
 11
-159.7497043334
 21
302.2705349596
 31
0.0
  0
LINE
  5
55F
330
1F
100
AcDbEntity
  8
0
  6
Continuous
 62
     7
370
    25
100
AcDbLine
 10
-174.742238845
 20
302.2705350227
 30
0.0
 11
-174.742238845
 21
301.8768995422
 31
0.0
  0
LINE
  5
560
330
1F
100
AcDbEntity
  8
0
  6
Continuous
 62
     7
370
    25
100
AcDbLine
 10
-162.3710241933
 20
300.6240848612
 30
0.0
 11
-162.0267882909
 21
300.2530546749
 31
0.0
  0
LINE
  5
561
330
1F
100
AcDbEntity
  8
0
  6
Continuous
 62
     7
370
    25
100
AcDbLine
 10
-172.4651548859
 20
300.2530546743
 30
0.0
 11
-172.1209189836
 21
300.6240848606
 31
0.0
  0
LINE
  5
562
330
1F
100
AcDbEntity
  8
0
  6
Continuous
 62
     7
370
    25
100
AcDbLine
 10
-162.4362422995
 20
301.1749135043
 30
0.0
 11
-162.4362422995
 21
300.7812780867
 31
0.0
  0
LINE
  5
563
330
1F
100
AcDbEntity
  8
0
  6
Continuous
 62
     7
370
    25
100
AcDbLine
 10
-172.0557008789
 20
300.7812780868
 30
0.0
 11
-172.0557008788
 21
301.1749134108
 31
0.0
  0
LINE
  5
564
330
1F
100
AcDbEntity
  8
0
  6
Continuous
 62
     7
370
    25
100
AcDbLine
 10
-166.2623500604
 20
298.9163187023
 30
0.0
 11
-165.8285245131
 21
298.9627707608
 31
0.0
  0
LINE
  5
565
330
1F
100
AcDbEntity
  8
0
  6
Continuous
 62
     7
370
    25
100
AcDbLine
 10
-144.7459715892
 20
374.6324014903
 30
0.0
 11
-144.7459715892
 21
403.1324014903
 31
0.0
  0
LINE
  5
566
330
1F
100
AcDbEntity
  8
0
  6
Continuous
 62
     7
370
    25
100
AcDbLine
 10
-189.7459715892
 20
403.1324014903
 30
0.0
 11
-189.7459715892
 21
374.6324014903
 31
0.0
  0
LINE
  5
567
330
1F
100
AcDbEntity
  8
0
  6
Continuous
 62
     7
370
    25
100
AcDbLine
 10
-144.7459716103
 20
373.0324014903
 30
0.0
 11
-189.7459715829
 21
373.0324014903
 31
0.0
  0
LINE
  5
568
330
1F
100
AcDbEntity
  8
0
  6
Continuous
 62
     7
370
    25
100
AcDbLine
 10
-141.9959715934
 20
218.0324014903
 30
0.0
 11
-192.4959715887
 21
218.0324014903
 31
0.0
  0
LINE
  5
569
330
1F
100
AcDbEntity
  8
0
  6
Continuous
 62
     7
370
    25
100
AcDbLine
 10
-190.9959715892
 20
223.0324014903
 30
0.0
 11
-143.4959715892
 21
223.0324014903
 31
0.0
  0
LINE
  5
56A
330
1F
100
AcDbEntity
  8
0
  6
Continuous
 62
     7
370
    25
100
AcDbLine
 10
-168.6201422467
 20
312.5258850859
 30
0.0
 11
-168.5159260807
 21
312.0798221033
 31
0.0
  0
LINE
  5
56B
330
1F
100
AcDbEntity
  8
0
  6
Continuous
 62
     7
370
    25
100
AcDbLine
 10
-165.9760170977
 20
312.0798221033
 30
0.0
 11
-165.8718009316
 21
312.5258850859
 31
0.0
  0
LINE
  5
56C
330
1F
100
AcDbEntity
  8
0
  6
Continuous
 62
     7
370
    25
100
AcDbLine
 10
-158.0255594676
 20
307.2513668931
 30
0.0
 11
-157.9959715892
 21
306.6934428611
 31
0.0
  0
LINE
  5
56D
330
1F
100
AcDbEntity
  8
0
  6
Continuous
 62
     7
370
    25
100
AcDbLine
 10
-176.3887157069
 20
306.9661911181
 30
0.0
 11
-176.3887162164
 21
307.3598265946
 31
0.0
  0
LINE
  5
56E
330
1F
100
AcDbEntity
  8
0
  6
Continuous
 62
     7
370
    25
100
AcDbLine
 10
-158.1032271018
 20
307.3598265784
 30
0.0
 11
-158.1032274715
 21
306.9661911181
 31
0.0
  0
LINE
  5
56F
330
1F
100
AcDbEntity
  8
0
  6
Continuous
 62
     7
370
    25
100
AcDbLine
 10
-159.0896764045
 20
305.3640457951
 30
0.0
 11
-159.0896760499
 21
304.970410337
 31
0.0
  0
LINE
  5
570
330
1F
100
AcDbEntity
  8
0
  6
Continuous
 62
     7
370
    25
100
AcDbLine
 10
-160.6018605537
 20
302.2151646479
 30
0.0
 11
-160.6018609306
 21
302.6088002747
 31
0.0
  0
LINE
  5
571
330
1F
100
AcDbEntity
  8
0
  6
Continuous
 62
     7
370
    25
100
AcDbLine
 10
-162.3553390669
 20
301.2854334112
 30
0.0
 11
-162.3553388543
 21
300.8917977757
 31
0.0
  0
LINE
  5
572
330
1F
100
AcDbEntity
  8
0
  6
Continuous
 62
     7
370
    25
100
AcDbLine
 10
-166.0060751922
 20
299.7505376436
 30
0.0
 11
-166.0060752625
 21
300.1441734103
 31
0.0
  0
LINE
  5
573
330
1F
100
AcDbEntity
  8
0
  6
Continuous
 62
     7
370
    25
100
AcDbLine
 10
-168.4858679323
 20
300.1441733287
 30
0.0
 11
-168.4858679862
 21
299.7505376436
 31
0.0
  0
LINE
  5
574
330
1F
100
AcDbEntity
  8
0
  6
Continuous
 62
     7
370
    25
100
AcDbLine
 10
-172.1366043241
 20
300.8917977757
 30
0.0
 11
-172.1366040466
 21
301.2854334776
 31
0.0
  0
LINE
  5
575
330
1F
100
AcDbEntity
  8
0
  6
Continuous
 62
     7
370
    25
100
AcDbLine
 10
-173.8900823358
 20
302.6088002258
 30
0.0
 11
-173.8900826247
 21
302.2151646479
 31
0.0
  0
LINE
  5
576
330
1F
100
AcDbEntity
  8
0
  6
Continuous
 62
     7
370
    25
100
AcDbLine
 10
-175.4022671285
 20
304.970410337
 30
0.0
 11
-175.4022666657
 21
305.3640458075
 31
0.0
  0
LINE
  5
577
330
1F
100
AcDbEntity
  8
0
  6
Continuous
 62
     7
370
    25
100
AcDbLine
 10
-172.2551651177
 20
310.9108950589
 30
0.0
 11
-172.59940102
 21
311.2819252452
 31
0.0
  0
LINE
  5
578
330
1F
100
AcDbEntity
  8
0
  6
Continuous
 62
     7
370
    25
100
AcDbLine
 10
-172.0913347088
 20
311.1286835909
 30
0.0
 11
-172.4355706111
 21
311.4997137773
 31
0.0
  0
LINE
  5
579
330
1F
100
AcDbEntity
  8
0
  6
Continuous
 62
     7
370
    25
100
AcDbLine
 10
-162.0563725672
 20
311.4997137772
 30
0.0
 11
-162.4006084696
 21
311.128683591
 31
0.0
  0
LINE
  5
57A
330
1F
100
AcDbEntity
  8
0
  6
Continuous
 62
     7
370
    25
100
AcDbLine
 10
-161.8925421584
 20
311.2819252452
 30
0.0
 11
-162.2367780607
 21
310.9108950589
 31
0.0
  0
LINE
  5
57B
330
1F
100
AcDbEntity
  8
0
  6
Continuous
 62
     7
370
    25
100
AcDbLine
 10
-160.4407911952
 20
309.5554465656
 30
0.0
 11
-159.9491713775
 21
309.815244699
 31
0.0
  0
LINE
  5
57C
330
1F
100
AcDbEntity
  8
0
  6
Continuous
 62
     7
370
    25
100
AcDbLine
 10
-174.5427718009
 20
309.815244699
 30
0.0
 11
-174.0511519831
 21
309.5554465656
 31
0.0
  0
LINE
  5
57D
330
1F
100
AcDbEntity
  8
0
  6
Continuous
 62
     7
370
    25
100
AcDbLine
 10
-162.4006084696
 20
311.128683591
 30
0.0
 11
-162.4006082528
 21
311.5223188939
 31
0.0
  0
LINE
  5
57E
330
1F
100
AcDbEntity
  8
0
  6
Continuous
 62
     7
370
    25
100
AcDbLine
 10
-172.0913348999
 20
311.5223189075
 30
0.0
 11
-172.0913347088
 21
311.1286835909
 31
0.0
  0
LINE
  5
57F
330
1F
100
AcDbEntity
  8
0
  6
Continuous
 62
     7
370
    25
100
AcDbLine
 10
-162.4362351797
 20
311.0309929449
 30
0.0
 11
-162.4367780418
 21
311.0420412513
 31
0.0
  0
LINE
  5
580
330
1F
100
AcDbEntity
  8
0
  6
Continuous
 62
     7
370
    25
100
AcDbLine
 10
-172.0557079986
 20
311.0309929449
 30
0.0
 11
-172.0551651295
 21
311.0420549952
 31
0.0
  0
LINE
  5
581
330
1F
100
AcDbEntity
  8
0
  6
Continuous
 62
     7
370
    25
100
AcDbLine
 10
-173.8270049427
 20
306.7427681367
 30
0.0
 11
-173.8270049427
 21
306.316088071
 31
0.0
  0
LINE
  5
582
330
1F
100
AcDbEntity
  8
0
  6
Continuous
 62
     7
370
    25
100
AcDbLine
 10
-173.6097361983
 20
306.1274106759
 30
0.0
 11
-173.6097361983
 21
305.3727010957
 31
0.0
  0
LINE
  5
583
330
1F
100
AcDbEntity
  8
0
  6
Continuous
 62
     7
370
    25
100
AcDbLine
 10
-172.7413427678
 20
304.6894958042
 30
0.0
 11
-172.7413427678
 21
303.934786224
 31
0.0
  0
LINE
  5
584
330
1F
100
AcDbEntity
  8
0
  6
Continuous
 62
     7
370
    25
100
AcDbLine
 10
-171.1985512899
 20
303.0440699933
 30
0.0
 11
-171.1985512899
 21
302.7043822915
 31
0.0
  0
LINE
  5
585
330
1F
100
AcDbEntity
  8
0
  6
Continuous
 62
     7
370
    25
100
AcDbLine
 10
-170.103475564
 20
302.5559790851
 30
0.0
 11
-170.103475564
 21
302.2034174069
 31
0.0
  0
LINE
  5
586
330
1F
100
AcDbEntity
  8
0
  6
Continuous
 62
     7
370
    25
100
AcDbLine
 10
-168.8845518772
 20
301.9099613689
 30
0.0
 11
-168.8845518772
 21
301.8683126687
 31
0.0
  0
LINE
  5
587
330
1F
100
AcDbEntity
  8
0
  6
Continuous
 62
     7
370
    25
100
AcDbLine
 10
-167.6969956026
 20
302.0542701115
 30
0.0
 11
-167.6969956026
 21
301.7240039262
 31
0.0
  0
LINE
  5
588
330
1F
100
AcDbEntity
  8
0
  6
Continuous
 62
     7
370
    25
100
AcDbLine
 10
-166.7949475758
 20
302.0542701115
 30
0.0
 11
-166.7949475758
 21
301.7240039262
 31
0.0
  0
LINE
  5
589
330
1F
100
AcDbEntity
  8
0
  6
Continuous
 62
     7
370
    25
100
AcDbLine
 10
-165.6073913012
 20
301.9099613689
 30
0.0
 11
-165.6073913012
 21
301.8683126687
 31
0.0
  0
LINE
  5
58A
330
1F
100
AcDbEntity
  8
0
  6
Continuous
 62
     7
370
    25
100
AcDbLine
 10
-164.3884676143
 20
302.5559790851
 30
0.0
 11
-164.3884676143
 21
302.2034174069
 31
0.0
  0
LINE
  5
58B
330
1F
100
AcDbEntity
  8
0
  6
Continuous
 62
     7
370
    25
100
AcDbLine
 10
-163.2933918884
 20
303.0440699933
 30
0.0
 11
-163.2933918884
 21
302.7043822915
 31
0.0
  0
LINE
  5
58C
330
1F
100
AcDbEntity
  8
0
  6
Continuous
 62
     7
370
    25
100
AcDbLine
 10
-161.7506004106
 20
304.6894958042
 30
0.0
 11
-161.7506004106
 21
303.934786224
 31
0.0
  0
LINE
  5
58D
330
1F
100
AcDbEntity
  8
0
  6
Continuous
 62
     7
370
    25
100
AcDbLine
 10
-160.8822069801
 20
306.1274106759
 30
0.0
 11
-160.8822069801
 21
305.3727010957
 31
0.0
  0
LINE
  5
58E
330
1F
100
AcDbEntity
  8
0
  6
Continuous
 62
     7
370
    25
100
AcDbLine
 10
-160.6649382357
 20
306.7427681367
 30
0.0
 11
-160.6649382357
 21
306.316088071
 31
0.0
  0
LINE
  5
58F
330
1F
100
AcDbEntity
  8
0
  6
Continuous
 62
     7
370
    25
100
AcDbLine
 10
-159.7491714618
 20
309.9463178912
 30
0.0
 11
-159.7497118228
 21
309.9353675107
 31
0.0
  0
LINE
  5
590
330
1F
100
AcDbEntity
  8
0
  6
Continuous
 62
     7
370
    25
100
AcDbLine
 10
-159.8611404741
 20
309.7674424435
 30
0.0
 11
-159.8556964351
 21
309.7696446605
 31
0.0
  0
LINE
  5
591
330
1F
100
AcDbEntity
  8
0
  6
Continuous
 62
     7
370
    25
100
AcDbLine
 10
-174.7427713523
 20
309.9461368184
 30
0.0
 11
-174.7422313556
 21
309.9353675107
 31
0.0
  0
LINE
  5
592
330
1F
100
AcDbEntity
  8
0
  6
Continuous
 62
     7
370
    25
100
AcDbLine
 10
-174.6361565254
 20
309.769597055
 30
0.0
 11
-174.630803975
 21
309.7674428134
 31
0.0
  0
LINE
  5
593
330
1F
100
AcDbEntity
  8
0
  6
Continuous
 62
     7
370
    25
100
AcDbLine
 10
-160.3473362351
 20
309.5098359473
 30
0.0
 11
-160.3527590214
 21
309.50764468
 31
0.0
  0
LINE
  5
594
330
1F
100
AcDbEntity
  8
0
  6
Continuous
 62
     7
370
    25
100
AcDbLine
 10
-174.1391828868
 20
309.5076443102
 30
0.0
 11
-174.1446175732
 21
309.5098415729
 31
0.0
  0
LINE
  5
595
330
1F
100
AcDbEntity
  8
0
  6
Continuous
 62
     7
370
    25
100
AcDbLine
 10
-169.7346467238
 20
307.0707976512
 30
0.0
 11
-170.0233218584
 21
306.6934428611
 31
0.0
  0
LINE
  5
596
330
1F
100
AcDbEntity
  8
0
  6
Continuous
 62
     7
370
    25
100
AcDbLine
 10
-170.0233218584
 20
306.6934428611
 30
0.0
 11
-169.7346467238
 21
306.316088071
 31
0.0
  0
LINE
  5
597
330
1F
100
AcDbEntity
  8
0
  6
Continuous
 62
     7
370
    25
100
AcDbLine
 10
-169.7346467238
 20
306.316088071
 30
0.0
 11
-169.1572964546
 21
306.316088071
 31
0.0
  0
LINE
  5
598
330
1F
100
AcDbEntity
  8
0
  6
Continuous
 62
     7
370
    25
100
AcDbLine
 10
-169.1572964546
 20
306.316088071
 30
0.0
 11
-168.86862132
 21
306.6934428611
 31
0.0
  0
LINE
  5
599
330
1F
100
AcDbEntity
  8
0
  6
Continuous
 62
     7
370
    25
100
AcDbLine
 10
-168.86862132
 20
306.6934428611
 30
0.0
 11
-169.1572964546
 21
307.0707976512
 31
0.0
  0
LINE
  5
59A
330
1F
100
AcDbEntity
  8
0
  6
Continuous
 62
     7
370
    25
100
AcDbLine
 10
-169.1572964546
 20
307.0707976512
 30
0.0
 11
-169.7346467238
 21
307.0707976512
 31
0.0
  0
LINE
  5
59B
330
1F
100
AcDbEntity
  8
0
  6
Continuous
 62
     7
370
    25
100
AcDbLine
 10
-169.7346467238
 20
310.8939810391
 30
0.0
 11
-170.0233218584
 21
310.516626249
 31
0.0
  0
LINE
  5
59C
330
1F
100
AcDbEntity
  8
0
  6
Continuous
 62
     7
370
    25
100
AcDbLine
 10
-170.0233218584
 20
310.516626249
 30
0.0
 11
-169.7346467238
 21
310.1392714589
 31
0.0
  0
LINE
  5
59D
330
1F
100
AcDbEntity
  8
0
  6
Continuous
 62
     7
370
    25
100
AcDbLine
 10
-169.7346467238
 20
310.1392714589
 30
0.0
 11
-169.1572964546
 21
310.1392714589
 31
0.0
  0
LINE
  5
59E
330
1F
100
AcDbEntity
  8
0
  6
Continuous
 62
     7
370
    25
100
AcDbLine
 10
-169.1572964546
 20
310.1392714589
 30
0.0
 11
-168.86862132
 21
310.516626249
 31
0.0
  0
LINE
  5
59F
330
1F
100
AcDbEntity
  8
0
  6
Continuous
 62
     7
370
    25
100
AcDbLine
 10
-168.86862132
 20
310.516626249
 30
0.0
 11
-169.1572964546
 21
310.8939810391
 31
0.0
  0
LINE
  5
5A0
330
1F
100
AcDbEntity
  8
0
  6
Continuous
 62
     7
370
    25
100
AcDbLine
 10
-169.1572964546
 20
310.8939810391
 30
0.0
 11
-169.7346467238
 21
310.8939810391
 31
0.0
  0
LINE
  5
5A1
330
1F
100
AcDbEntity
  8
0
  6
Continuous
 62
     7
370
    25
100
AcDbLine
 10
-167.5346467238
 20
310.8939810391
 30
0.0
 11
-167.8233218584
 21
310.516626249
 31
0.0
  0
LINE
  5
5A2
330
1F
100
AcDbEntity
  8
0
  6
Continuous
 62
     7
370
    25
100
AcDbLine
 10
-167.8233218584
 20
310.516626249
 30
0.0
 11
-167.5346467238
 21
310.1392714589
 31
0.0
  0
LINE
  5
5A3
330
1F
100
AcDbEntity
  8
0
  6
Continuous
 62
     7
370
    25
100
AcDbLine
 10
-167.5346467238
 20
310.1392714589
 30
0.0
 11
-166.9572964546
 21
310.1392714589
 31
0.0
  0
LINE
  5
5A4
330
1F
100
AcDbEntity
  8
0
  6
Continuous
 62
     7
370
    25
100
AcDbLine
 10
-166.9572964546
 20
310.1392714589
 30
0.0
 11
-166.66862132
 21
310.516626249
 31
0.0
  0
LINE
  5
5A5
330
1F
100
AcDbEntity
  8
0
  6
Continuous
 62
     7
370
    25
100
AcDbLine
 10
-166.66862132
 20
310.516626249
 30
0.0
 11
-166.9572964546
 21
310.8939810391
 31
0.0
  0
LINE
  5
5A6
330
1F
100
AcDbEntity
  8
0
  6
Continuous
 62
     7
370
    25
100
AcDbLine
 10
-166.9572964546
 20
310.8939810391
 30
0.0
 11
-167.5346467238
 21
310.8939810391
 31
0.0
  0
LINE
  5
5A7
330
1F
100
AcDbEntity
  8
0
  6
Continuous
 62
     7
370
    25
100
AcDbLine
 10
-165.3346467238
 20
310.8939810391
 30
0.0
 11
-165.6233218584
 21
310.516626249
 31
0.0
  0
LINE
  5
5A8
330
1F
100
AcDbEntity
  8
0
  6
Continuous
 62
     7
370
    25
100
AcDbLine
 10
-165.6233218584
 20
310.516626249
 30
0.0
 11
-165.3346467238
 21
310.1392714589
 31
0.0
  0
LINE
  5
5A9
330
1F
100
AcDbEntity
  8
0
  6
Continuous
 62
     7
370
    25
100
AcDbLine
 10
-165.3346467238
 20
310.1392714589
 30
0.0
 11
-164.7572964546
 21
310.1392714589
 31
0.0
  0
LINE
  5
5AA
330
1F
100
AcDbEntity
  8
0
  6
Continuous
 62
     7
370
    25
100
AcDbLine
 10
-164.7572964546
 20
310.1392714589
 30
0.0
 11
-164.46862132
 21
310.516626249
 31
0.0
  0
LINE
  5
5AB
330
1F
100
AcDbEntity
  8
0
  6
Continuous
 62
     7
370
    25
100
AcDbLine
 10
-164.46862132
 20
310.516626249
 30
0.0
 11
-164.7572964546
 21
310.8939810391
 31
0.0
  0
LINE
  5
5AC
330
1F
100
AcDbEntity
  8
0
  6
Continuous
 62
     7
370
    25
100
AcDbLine
 10
-164.7572964546
 20
310.8939810391
 30
0.0
 11
-165.3346467238
 21
310.8939810391
 31
0.0
  0
LINE
  5
5AD
330
1F
100
AcDbEntity
  8
0
  6
Continuous
 62
     7
370
    25
100
AcDbLine
 10
-164.2346467238
 20
309.4560661674
 30
0.0
 11
-164.5233218584
 21
309.0787113773
 31
0.0
  0
LINE
  5
5AE
330
1F
100
AcDbEntity
  8
0
  6
Continuous
 62
     7
370
    25
100
AcDbLine
 10
-164.5233218584
 20
309.0787113773
 30
0.0
 11
-164.2346467238
 21
308.7013565872
 31
0.0
  0
LINE
  5
5AF
330
1F
100
AcDbEntity
  8
0
  6
Continuous
 62
     7
370
    25
100
AcDbLine
 10
-164.2346467238
 20
308.7013565872
 30
0.0
 11
-163.6572964546
 21
308.7013565872
 31
0.0
  0
LINE
  5
5B0
330
1F
100
AcDbEntity
  8
0
  6
Continuous
 62
     7
370
    25
100
AcDbLine
 10
-163.6572964546
 20
308.7013565872
 30
0.0
 11
-163.36862132
 21
309.0787113773
 31
0.0
  0
LINE
  5
5B1
330
1F
100
AcDbEntity
  8
0
  6
Continuous
 62
     7
370
    25
100
AcDbLine
 10
-163.36862132
 20
309.0787113773
 30
0.0
 11
-163.6572964546
 21
309.4560661674
 31
0.0
  0
LINE
  5
5B2
330
1F
100
AcDbEntity
  8
0
  6
Continuous
 62
     7
370
    25
100
AcDbLine
 10
-163.6572964546
 20
309.4560661674
 30
0.0
 11
-164.2346467238
 21
309.4560661674
 31
0.0
  0
LINE
  5
5B3
330
1F
100
AcDbEntity
  8
0
  6
Continuous
 62
     7
370
    25
100
AcDbLine
 10
-163.1346467238
 20
308.0181512957
 30
0.0
 11
-163.4233218584
 21
307.6407965056
 31
0.0
  0
LINE
  5
5B4
330
1F
100
AcDbEntity
  8
0
  6
Continuous
 62
     7
370
    25
100
AcDbLine
 10
-163.4233218584
 20
307.6407965056
 30
0.0
 11
-163.1346467238
 21
307.2634417155
 31
0.0
  0
LINE
  5
5B5
330
1F
100
AcDbEntity
  8
0
  6
Continuous
 62
     7
370
    25
100
AcDbLine
 10
-163.1346467238
 20
307.2634417155
 30
0.0
 11
-162.5572964546
 21
307.2634417155
 31
0.0
  0
LINE
  5
5B6
330
1F
100
AcDbEntity
  8
0
  6
Continuous
 62
     7
370
    25
100
AcDbLine
 10
-162.5572964546
 20
307.2634417155
 30
0.0
 11
-162.26862132
 21
307.6407965056
 31
0.0
  0
LINE
  5
5B7
330
1F
100
AcDbEntity
  8
0
  6
Continuous
 62
     7
370
    25
100
AcDbLine
 10
-162.26862132
 20
307.6407965056
 30
0.0
 11
-162.5572964546
 21
308.0181512957
 31
0.0
  0
LINE
  5
5B8
330
1F
100
AcDbEntity
  8
0
  6
Continuous
 62
     7
370
    25
100
AcDbLine
 10
-162.5572964546
 20
308.0181512957
 30
0.0
 11
-163.1346467238
 21
308.0181512957
 31
0.0
  0
LINE
  5
5B9
330
1F
100
AcDbEntity
  8
0
  6
Continuous
 62
     7
370
    25
100
AcDbLine
 10
-162.0346467238
 20
306.580236424
 30
0.0
 11
-162.3233218584
 21
306.2028816339
 31
0.0
  0
LINE
  5
5BA
330
1F
100
AcDbEntity
  8
0
  6
Continuous
 62
     7
370
    25
100
AcDbLine
 10
-162.3233218584
 20
306.2028816339
 30
0.0
 11
-162.0346467238
 21
305.8255268438
 31
0.0
  0
LINE
  5
5BB
330
1F
100
AcDbEntity
  8
0
  6
Continuous
 62
     7
370
    25
100
AcDbLine
 10
-162.0346467238
 20
305.8255268438
 30
0.0
 11
-161.4572964546
 21
305.8255268438
 31
0.0
  0
LINE
  5
5BC
330
1F
100
AcDbEntity
  8
0
  6
Continuous
 62
     7
370
    25
100
AcDbLine
 10
-161.4572964546
 20
305.8255268438
 30
0.0
 11
-161.16862132
 21
306.2028816339
 31
0.0
  0
LINE
  5
5BD
330
1F
100
AcDbEntity
  8
0
  6
Continuous
 62
     7
370
    25
100
AcDbLine
 10
-161.16862132
 20
306.2028816339
 30
0.0
 11
-161.4572964546
 21
306.580236424
 31
0.0
  0
LINE
  5
5BE
330
1F
100
AcDbEntity
  8
0
  6
Continuous
 62
     7
370
    25
100
AcDbLine
 10
-161.4572964546
 20
306.580236424
 30
0.0
 11
-162.0346467238
 21
306.580236424
 31
0.0
  0
LINE
  5
5BF
330
1F
100
AcDbEntity
  8
0
  6
Continuous
 62
     7
370
    25
100
AcDbLine
 10
-163.1346467238
 20
305.1423215523
 30
0.0
 11
-163.4233218584
 21
304.7649667622
 31
0.0
  0
LINE
  5
5C0
330
1F
100
AcDbEntity
  8
0
  6
Continuous
 62
     7
370
    25
100
AcDbLine
 10
-163.4233218584
 20
304.7649667622
 30
0.0
 11
-163.1346467238
 21
304.3876119721
 31
0.0
  0
LINE
  5
5C1
330
1F
100
AcDbEntity
  8
0
  6
Continuous
 62
     7
370
    25
100
AcDbLine
 10
-163.1346467238
 20
304.3876119721
 30
0.0
 11
-162.5572964546
 21
304.3876119721
 31
0.0
  0
LINE
  5
5C2
330
1F
100
AcDbEntity
  8
0
  6
Continuous
 62
     7
370
    25
100
AcDbLine
 10
-162.5572964546
 20
304.3876119721
 30
0.0
 11
-162.26862132
 21
304.7649667622
 31
0.0
  0
LINE
  5
5C3
330
1F
100
AcDbEntity
  8
0
  6
Continuous
 62
     7
370
    25
100
AcDbLine
 10
-162.26862132
 20
304.7649667622
 30
0.0
 11
-162.5572964546
 21
305.1423215523
 31
0.0
  0
LINE
  5
5C4
330
1F
100
AcDbEntity
  8
0
  6
Continuous
 62
     7
370
    25
100
AcDbLine
 10
-162.5572964546
 20
305.1423215523
 30
0.0
 11
-163.1346467238
 21
305.1423215523
 31
0.0
  0
LINE
  5
5C5
330
1F
100
AcDbEntity
  8
0
  6
Continuous
 62
     7
370
    25
100
AcDbLine
 10
-164.2346467238
 20
303.7044066806
 30
0.0
 11
-164.5233218584
 21
303.3270518905
 31
0.0
  0
LINE
  5
5C6
330
1F
100
AcDbEntity
  8
0
  6
Continuous
 62
     7
370
    25
100
AcDbLine
 10
-164.5233218584
 20
303.3270518905
 30
0.0
 11
-164.2346467238
 21
302.9496971004
 31
0.0
  0
LINE
  5
5C7
330
1F
100
AcDbEntity
  8
0
  6
Continuous
 62
     7
370
    25
100
AcDbLine
 10
-164.2346467238
 20
302.9496971004
 30
0.0
 11
-163.6572964546
 21
302.9496971004
 31
0.0
  0
LINE
  5
5C8
330
1F
100
AcDbEntity
  8
0
  6
Continuous
 62
     7
370
    25
100
AcDbLine
 10
-163.6572964546
 20
302.9496971004
 30
0.0
 11
-163.36862132
 21
303.3270518905
 31
0.0
  0
LINE
  5
5C9
330
1F
100
AcDbEntity
  8
0
  6
Continuous
 62
     7
370
    25
100
AcDbLine
 10
-163.36862132
 20
303.3270518905
 30
0.0
 11
-163.6572964546
 21
303.7044066806
 31
0.0
  0
LINE
  5
5CA
330
1F
100
AcDbEntity
  8
0
  6
Continuous
 62
     7
370
    25
100
AcDbLine
 10
-163.6572964546
 20
303.7044066806
 30
0.0
 11
-164.2346467238
 21
303.7044066806
 31
0.0
  0
LINE
  5
5CB
330
1F
100
AcDbEntity
  8
0
  6
Continuous
 62
     7
370
    25
100
AcDbLine
 10
-171.9346467238
 20
308.0181512957
 30
0.0
 11
-172.2233218584
 21
307.6407965056
 31
0.0
  0
LINE
  5
5CC
330
1F
100
AcDbEntity
  8
0
  6
Continuous
 62
     7
370
    25
100
AcDbLine
 10
-172.2233218584
 20
307.6407965056
 30
0.0
 11
-171.9346467238
 21
307.2634417155
 31
0.0
  0
LINE
  5
5CD
330
1F
100
AcDbEntity
  8
0
  6
Continuous
 62
     7
370
    25
100
AcDbLine
 10
-171.9346467238
 20
307.2634417155
 30
0.0
 11
-171.3572964546
 21
307.2634417155
 31
0.0
  0
LINE
  5
5CE
330
1F
100
AcDbEntity
  8
0
  6
Continuous
 62
     7
370
    25
100
AcDbLine
 10
-171.3572964546
 20
307.2634417155
 30
0.0
 11
-171.06862132
 21
307.6407965056
 31
0.0
  0
LINE
  5
5CF
330
1F
100
AcDbEntity
  8
0
  6
Continuous
 62
     7
370
    25
100
AcDbLine
 10
-171.06862132
 20
307.6407965056
 30
0.0
 11
-171.3572964546
 21
308.0181512957
 31
0.0
  0
LINE
  5
5D0
330
1F
100
AcDbEntity
  8
0
  6
Continuous
 62
     7
370
    25
100
AcDbLine
 10
-171.3572964546
 20
308.0181512957
 30
0.0
 11
-171.9346467238
 21
308.0181512957
 31
0.0
  0
LINE
  5
5D1
330
1F
100
AcDbEntity
  8
0
  6
Continuous
 62
     7
370
    25
100
AcDbLine
 10
-170.8346467238
 20
309.4560661674
 30
0.0
 11
-171.1233218584
 21
309.0787113773
 31
0.0
  0
LINE
  5
5D2
330
1F
100
AcDbEntity
  8
0
  6
Continuous
 62
     7
370
    25
100
AcDbLine
 10
-171.1233218584
 20
309.0787113773
 30
0.0
 11
-170.8346467238
 21
308.7013565872
 31
0.0
  0
LINE
  5
5D3
330
1F
100
AcDbEntity
  8
0
  6
Continuous
 62
     7
370
    25
100
AcDbLine
 10
-170.8346467238
 20
308.7013565872
 30
0.0
 11
-170.2572964546
 21
308.7013565872
 31
0.0
  0
LINE
  5
5D4
330
1F
100
AcDbEntity
  8
0
  6
Continuous
 62
     7
370
    25
100
AcDbLine
 10
-170.2572964546
 20
308.7013565872
 30
0.0
 11
-169.96862132
 21
309.0787113773
 31
0.0
  0
LINE
  5
5D5
330
1F
100
AcDbEntity
  8
0
  6
Continuous
 62
     7
370
    25
100
AcDbLine
 10
-169.96862132
 20
309.0787113773
 30
0.0
 11
-170.2572964546
 21
309.4560661674
 31
0.0
  0
LINE
  5
5D6
330
1F
100
AcDbEntity
  8
0
  6
Continuous
 62
     7
370
    25
100
AcDbLine
 10
-170.2572964546
 20
309.4560661674
 30
0.0
 11
-170.8346467238
 21
309.4560661674
 31
0.0
  0
LINE
  5
5D7
330
1F
100
AcDbEntity
  8
0
  6
Continuous
 62
     7
370
    25
100
AcDbLine
 10
-168.6346467238
 20
309.4560661674
 30
0.0
 11
-168.9233218584
 21
309.0787113773
 31
0.0
  0
LINE
  5
5D8
330
1F
100
AcDbEntity
  8
0
  6
Continuous
 62
     7
370
    25
100
AcDbLine
 10
-168.9233218584
 20
309.0787113773
 30
0.0
 11
-168.6346467238
 21
308.7013565872
 31
0.0
  0
LINE
  5
5D9
330
1F
100
AcDbEntity
  8
0
  6
Continuous
 62
     7
370
    25
100
AcDbLine
 10
-168.6346467238
 20
308.7013565872
 30
0.0
 11
-168.0572964546
 21
308.7013565872
 31
0.0
  0
LINE
  5
5DA
330
1F
100
AcDbEntity
  8
0
  6
Continuous
 62
     7
370
    25
100
AcDbLine
 10
-168.0572964546
 20
308.7013565872
 30
0.0
 11
-167.76862132
 21
309.0787113773
 31
0.0
  0
LINE
  5
5DB
330
1F
100
AcDbEntity
  8
0
  6
Continuous
 62
     7
370
    25
100
AcDbLine
 10
-167.76862132
 20
309.0787113773
 30
0.0
 11
-168.0572964546
 21
309.4560661674
 31
0.0
  0
LINE
  5
5DC
330
1F
100
AcDbEntity
  8
0
  6
Continuous
 62
     7
370
    25
100
AcDbLine
 10
-168.0572964546
 20
309.4560661674
 30
0.0
 11
-168.6346467238
 21
309.4560661674
 31
0.0
  0
LINE
  5
5DD
330
1F
100
AcDbEntity
  8
0
  6
Continuous
 62
     7
370
    25
100
AcDbLine
 10
-166.4346467238
 20
309.4560661674
 30
0.0
 11
-166.7233218584
 21
309.0787113773
 31
0.0
  0
LINE
  5
5DE
330
1F
100
AcDbEntity
  8
0
  6
Continuous
 62
     7
370
    25
100
AcDbLine
 10
-166.7233218584
 20
309.0787113773
 30
0.0
 11
-166.4346467238
 21
308.7013565872
 31
0.0
  0
LINE
  5
5DF
330
1F
100
AcDbEntity
  8
0
  6
Continuous
 62
     7
370
    25
100
AcDbLine
 10
-166.4346467238
 20
308.7013565872
 30
0.0
 11
-165.8572964546
 21
308.7013565872
 31
0.0
  0
LINE
  5
5E0
330
1F
100
AcDbEntity
  8
0
  6
Continuous
 62
     7
370
    25
100
AcDbLine
 10
-165.8572964546
 20
308.7013565872
 30
0.0
 11
-165.56862132
 21
309.0787113773
 31
0.0
  0
LINE
  5
5E1
330
1F
100
AcDbEntity
  8
0
  6
Continuous
 62
     7
370
    25
100
AcDbLine
 10
-165.56862132
 20
309.0787113773
 30
0.0
 11
-165.8572964546
 21
309.4560661674
 31
0.0
  0
LINE
  5
5E2
330
1F
100
AcDbEntity
  8
0
  6
Continuous
 62
     7
370
    25
100
AcDbLine
 10
-165.8572964546
 20
309.4560661674
 30
0.0
 11
-166.4346467238
 21
309.4560661674
 31
0.0
  0
LINE
  5
5E3
330
1F
100
AcDbEntity
  8
0
  6
Continuous
 62
     7
370
    25
100
AcDbLine
 10
-165.3346467238
 20
308.0181512957
 30
0.0
 11
-165.6233218584
 21
307.6407965056
 31
0.0
  0
LINE
  5
5E4
330
1F
100
AcDbEntity
  8
0
  6
Continuous
 62
     7
370
    25
100
AcDbLine
 10
-165.6233218584
 20
307.6407965056
 30
0.0
 11
-165.3346467238
 21
307.2634417155
 31
0.0
  0
LINE
  5
5E5
330
1F
100
AcDbEntity
  8
0
  6
Continuous
 62
     7
370
    25
100
AcDbLine
 10
-165.3346467238
 20
307.2634417155
 30
0.0
 11
-164.7572964546
 21
307.2634417155
 31
0.0
  0
LINE
  5
5E6
330
1F
100
AcDbEntity
  8
0
  6
Continuous
 62
     7
370
    25
100
AcDbLine
 10
-164.7572964546
 20
307.2634417155
 30
0.0
 11
-164.46862132
 21
307.6407965056
 31
0.0
  0
LINE
  5
5E7
330
1F
100
AcDbEntity
  8
0
  6
Continuous
 62
     7
370
    25
100
AcDbLine
 10
-164.46862132
 20
307.6407965056
 30
0.0
 11
-164.7572964546
 21
308.0181512957
 31
0.0
  0
LINE
  5
5E8
330
1F
100
AcDbEntity
  8
0
  6
Continuous
 62
     7
370
    25
100
AcDbLine
 10
-164.7572964546
 20
308.0181512957
 30
0.0
 11
-165.3346467238
 21
308.0181512957
 31
0.0
  0
LINE
  5
5E9
330
1F
100
AcDbEntity
  8
0
  6
Continuous
 62
     7
370
    25
100
AcDbLine
 10
-164.2346467238
 20
306.580236424
 30
0.0
 11
-164.5233218584
 21
306.2028816339
 31
0.0
  0
LINE
  5
5EA
330
1F
100
AcDbEntity
  8
0
  6
Continuous
 62
     7
370
    25
100
AcDbLine
 10
-164.5233218584
 20
306.2028816339
 30
0.0
 11
-164.2346467238
 21
305.8255268438
 31
0.0
  0
LINE
  5
5EB
330
1F
100
AcDbEntity
  8
0
  6
Continuous
 62
     7
370
    25
100
AcDbLine
 10
-164.2346467238
 20
305.8255268438
 30
0.0
 11
-163.6572964546
 21
305.8255268438
 31
0.0
  0
LINE
  5
5EC
330
1F
100
AcDbEntity
  8
0
  6
Continuous
 62
     7
370
    25
100
AcDbLine
 10
-163.6572964546
 20
305.8255268438
 30
0.0
 11
-163.36862132
 21
306.2028816339
 31
0.0
  0
LINE
  5
5ED
330
1F
100
AcDbEntity
  8
0
  6
Continuous
 62
     7
370
    25
100
AcDbLine
 10
-163.36862132
 20
306.2028816339
 30
0.0
 11
-163.6572964546
 21
306.580236424
 31
0.0
  0
LINE
  5
5EE
330
1F
100
AcDbEntity
  8
0
  6
Continuous
 62
     7
370
    25
100
AcDbLine
 10
-163.6572964546
 20
306.580236424
 30
0.0
 11
-164.2346467238
 21
306.580236424
 31
0.0
  0
LINE
  5
5EF
330
1F
100
AcDbEntity
  8
0
  6
Continuous
 62
     7
370
    25
100
AcDbLine
 10
-165.3346467238
 20
305.1423215523
 30
0.0
 11
-165.6233218584
 21
304.7649667622
 31
0.0
  0
LINE
  5
5F0
330
1F
100
AcDbEntity
  8
0
  6
Continuous
 62
     7
370
    25
100
AcDbLine
 10
-165.6233218584
 20
304.7649667622
 30
0.0
 11
-165.3346467238
 21
304.3876119721
 31
0.0
  0
LINE
  5
5F1
330
1F
100
AcDbEntity
  8
0
  6
Continuous
 62
     7
370
    25
100
AcDbLine
 10
-165.3346467238
 20
304.3876119721
 30
0.0
 11
-164.7572964546
 21
304.3876119721
 31
0.0
  0
LINE
  5
5F2
330
1F
100
AcDbEntity
  8
0
  6
Continuous
 62
     7
370
    25
100
AcDbLine
 10
-164.7572964546
 20
304.3876119721
 30
0.0
 11
-164.46862132
 21
304.7649667622
 31
0.0
  0
LINE
  5
5F3
330
1F
100
AcDbEntity
  8
0
  6
Continuous
 62
     7
370
    25
100
AcDbLine
 10
-164.46862132
 20
304.7649667622
 30
0.0
 11
-164.7572964546
 21
305.1423215523
 31
0.0
  0
LINE
  5
5F4
330
1F
100
AcDbEntity
  8
0
  6
Continuous
 62
     7
370
    25
100
AcDbLine
 10
-164.7572964546
 20
305.1423215523
 30
0.0
 11
-165.3346467238
 21
305.1423215523
 31
0.0
  0
LINE
  5
5F5
330
1F
100
AcDbEntity
  8
0
  6
Continuous
 62
     7
370
    25
100
AcDbLine
 10
-166.4346467238
 20
303.7044066806
 30
0.0
 11
-166.7233218584
 21
303.3270518905
 31
0.0
  0
LINE
  5
5F6
330
1F
100
AcDbEntity
  8
0
  6
Continuous
 62
     7
370
    25
100
AcDbLine
 10
-166.7233218584
 20
303.3270518905
 30
0.0
 11
-166.4346467238
 21
302.9496971004
 31
0.0
  0
LINE
  5
5F7
330
1F
100
AcDbEntity
  8
0
  6
Continuous
 62
     7
370
    25
100
AcDbLine
 10
-166.4346467238
 20
302.9496971004
 30
0.0
 11
-165.8572964546
 21
302.9496971004
 31
0.0
  0
LINE
  5
5F8
330
1F
100
AcDbEntity
  8
0
  6
Continuous
 62
     7
370
    25
100
AcDbLine
 10
-165.8572964546
 20
302.9496971004
 30
0.0
 11
-165.56862132
 21
303.3270518905
 31
0.0
  0
LINE
  5
5F9
330
1F
100
AcDbEntity
  8
0
  6
Continuous
 62
     7
370
    25
100
AcDbLine
 10
-165.56862132
 20
303.3270518905
 30
0.0
 11
-165.8572964546
 21
303.7044066806
 31
0.0
  0
LINE
  5
5FA
330
1F
100
AcDbEntity
  8
0
  6
Continuous
 62
     7
370
    25
100
AcDbLine
 10
-165.8572964546
 20
303.7044066806
 30
0.0
 11
-166.4346467238
 21
303.7044066806
 31
0.0
  0
LINE
  5
5FB
330
1F
100
AcDbEntity
  8
0
  6
Continuous
 62
     7
370
    25
100
AcDbLine
 10
-168.6346467238
 20
303.7044066806
 30
0.0
 11
-168.9233218584
 21
303.3270518905
 31
0.0
  0
LINE
  5
5FC
330
1F
100
AcDbEntity
  8
0
  6
Continuous
 62
     7
370
    25
100
AcDbLine
 10
-168.9233218584
 20
303.3270518905
 30
0.0
 11
-168.6346467238
 21
302.9496971004
 31
0.0
  0
LINE
  5
5FD
330
1F
100
AcDbEntity
  8
0
  6
Continuous
 62
     7
370
    25
100
AcDbLine
 10
-168.6346467238
 20
302.9496971004
 30
0.0
 11
-168.0572964546
 21
302.9496971004
 31
0.0
  0
LINE
  5
5FE
330
1F
100
AcDbEntity
  8
0
  6
Continuous
 62
     7
370
    25
100
AcDbLine
 10
-168.0572964546
 20
302.9496971004
 30
0.0
 11
-167.76862132
 21
303.3270518905
 31
0.0
  0
LINE
  5
5FF
330
1F
100
AcDbEntity
  8
0
  6
Continuous
 62
     7
370
    25
100
AcDbLine
 10
-167.76862132
 20
303.3270518905
 30
0.0
 11
-168.0572964546
 21
303.7044066806
 31
0.0
  0
LINE
  5
600
330
1F
100
AcDbEntity
  8
0
  6
Continuous
 62
     7
370
    25
100
AcDbLine
 10
-168.0572964546
 20
303.7044066806
 30
0.0
 11
-168.6346467238
 21
303.7044066806
 31
0.0
  0
LINE
  5
601
330
1F
100
AcDbEntity
  8
0
  6
Continuous
 62
     7
370
    25
100
AcDbLine
 10
-170.8346467238
 20
303.7044066806
 30
0.0
 11
-171.1233218584
 21
303.3270518905
 31
0.0
  0
LINE
  5
602
330
1F
100
AcDbEntity
  8
0
  6
Continuous
 62
     7
370
    25
100
AcDbLine
 10
-171.1233218584
 20
303.3270518905
 30
0.0
 11
-170.8346467238
 21
302.9496971004
 31
0.0
  0
LINE
  5
603
330
1F
100
AcDbEntity
  8
0
  6
Continuous
 62
     7
370
    25
100
AcDbLine
 10
-170.8346467238
 20
302.9496971004
 30
0.0
 11
-170.2572964546
 21
302.9496971004
 31
0.0
  0
LINE
  5
604
330
1F
100
AcDbEntity
  8
0
  6
Continuous
 62
     7
370
    25
100
AcDbLine
 10
-170.2572964546
 20
302.9496971004
 30
0.0
 11
-169.96862132
 21
303.3270518905
 31
0.0
  0
LINE
  5
605
330
1F
100
AcDbEntity
  8
0
  6
Continuous
 62
     7
370
    25
100
AcDbLine
 10
-169.96862132
 20
303.3270518905
 30
0.0
 11
-170.2572964546
 21
303.7044066806
 31
0.0
  0
LINE
  5
606
330
1F
100
AcDbEntity
  8
0
  6
Continuous
 62
     7
370
    25
100
AcDbLine
 10
-170.2572964546
 20
303.7044066806
 30
0.0
 11
-170.8346467238
 21
303.7044066806
 31
0.0
  0
LINE
  5
607
330
1F
100
AcDbEntity
  8
0
  6
Continuous
 62
     7
370
    25
100
AcDbLine
 10
-171.9346467238
 20
305.1423215523
 30
0.0
 11
-172.2233218584
 21
304.7649667622
 31
0.0
  0
LINE
  5
608
330
1F
100
AcDbEntity
  8
0
  6
Continuous
 62
     7
370
    25
100
AcDbLine
 10
-172.2233218584
 20
304.7649667622
 30
0.0
 11
-171.9346467238
 21
304.3876119721
 31
0.0
  0
LINE
  5
609
330
1F
100
AcDbEntity
  8
0
  6
Continuous
 62
     7
370
    25
100
AcDbLine
 10
-171.9346467238
 20
304.3876119721
 30
0.0
 11
-171.3572964546
 21
304.3876119721
 31
0.0
  0
LINE
  5
60A
330
1F
100
AcDbEntity
  8
0
  6
Continuous
 62
     7
370
    25
100
AcDbLine
 10
-171.3572964546
 20
304.3876119721
 30
0.0
 11
-171.06862132
 21
304.7649667622
 31
0.0
  0
LINE
  5
60B
330
1F
100
AcDbEntity
  8
0
  6
Continuous
 62
     7
370
    25
100
AcDbLine
 10
-171.06862132
 20
304.7649667622
 30
0.0
 11
-171.3572964546
 21
305.1423215523
 31
0.0
  0
LINE
  5
60C
330
1F
100
AcDbEntity
  8
0
  6
Continuous
 62
     7
370
    25
100
AcDbLine
 10
-171.3572964546
 20
305.1423215523
 30
0.0
 11
-171.9346467238
 21
305.1423215523
 31
0.0
  0
LINE
  5
60D
330
1F
100
AcDbEntity
  8
0
  6
Continuous
 62
     7
370
    25
100
AcDbLine
 10
-173.0346467238
 20
306.580236424
 30
0.0
 11
-173.3233218584
 21
306.2028816339
 31
0.0
  0
LINE
  5
60E
330
1F
100
AcDbEntity
  8
0
  6
Continuous
 62
     7
370
    25
100
AcDbLine
 10
-173.3233218584
 20
306.2028816339
 30
0.0
 11
-173.0346467238
 21
305.8255268438
 31
0.0
  0
LINE
  5
60F
330
1F
100
AcDbEntity
  8
0
  6
Continuous
 62
     7
370
    25
100
AcDbLine
 10
-173.0346467238
 20
305.8255268438
 30
0.0
 11
-172.4572964546
 21
305.8255268438
 31
0.0
  0
LINE
  5
610
330
1F
100
AcDbEntity
  8
0
  6
Continuous
 62
     7
370
    25
100
AcDbLine
 10
-172.4572964546
 20
305.8255268438
 30
0.0
 11
-172.16862132
 21
306.2028816339
 31
0.0
  0
LINE
  5
611
330
1F
100
AcDbEntity
  8
0
  6
Continuous
 62
     7
370
    25
100
AcDbLine
 10
-172.16862132
 20
306.2028816339
 30
0.0
 11
-172.4572964546
 21
306.580236424
 31
0.0
  0
LINE
  5
612
330
1F
100
AcDbEntity
  8
0
  6
Continuous
 62
     7
370
    25
100
AcDbLine
 10
-172.4572964546
 20
306.580236424
 30
0.0
 11
-173.0346467238
 21
306.580236424
 31
0.0
  0
LINE
  5
613
330
1F
100
AcDbEntity
  8
0
  6
Continuous
 62
     7
370
    25
100
AcDbLine
 10
-169.7346467238
 20
308.0181512957
 30
0.0
 11
-170.0233218584
 21
307.6407965056
 31
0.0
  0
LINE
  5
614
330
1F
100
AcDbEntity
  8
0
  6
Continuous
 62
     7
370
    25
100
AcDbLine
 10
-170.0233218584
 20
307.6407965056
 30
0.0
 11
-169.7346467238
 21
307.2634417155
 31
0.0
  0
LINE
  5
615
330
1F
100
AcDbEntity
  8
0
  6
Continuous
 62
     7
370
    25
100
AcDbLine
 10
-169.7346467238
 20
307.2634417155
 30
0.0
 11
-169.1572964546
 21
307.2634417155
 31
0.0
  0
LINE
  5
616
330
1F
100
AcDbEntity
  8
0
  6
Continuous
 62
     7
370
    25
100
AcDbLine
 10
-169.1572964546
 20
307.2634417155
 30
0.0
 11
-168.86862132
 21
307.6407965056
 31
0.0
  0
LINE
  5
617
330
1F
100
AcDbEntity
  8
0
  6
Continuous
 62
     7
370
    25
100
AcDbLine
 10
-168.86862132
 20
307.6407965056
 30
0.0
 11
-169.1572964546
 21
308.0181512957
 31
0.0
  0
LINE
  5
618
330
1F
100
AcDbEntity
  8
0
  6
Continuous
 62
     7
370
    25
100
AcDbLine
 10
-169.1572964546
 20
308.0181512957
 30
0.0
 11
-169.7346467238
 21
308.0181512957
 31
0.0
  0
LINE
  5
619
330
1F
100
AcDbEntity
  8
0
  6
Continuous
 62
     7
370
    25
100
AcDbLine
 10
-167.5346467238
 20
308.0181512957
 30
0.0
 11
-167.8233218584
 21
307.6407965056
 31
0.0
  0
LINE
  5
61A
330
1F
100
AcDbEntity
  8
0
  6
Continuous
 62
     7
370
    25
100
AcDbLine
 10
-167.8233218584
 20
307.6407965056
 30
0.0
 11
-167.5346467238
 21
307.2634417155
 31
0.0
  0
LINE
  5
61B
330
1F
100
AcDbEntity
  8
0
  6
Continuous
 62
     7
370
    25
100
AcDbLine
 10
-167.5346467238
 20
307.2634417155
 30
0.0
 11
-166.9572964546
 21
307.2634417155
 31
0.0
  0
LINE
  5
61C
330
1F
100
AcDbEntity
  8
0
  6
Continuous
 62
     7
370
    25
100
AcDbLine
 10
-166.9572964546
 20
307.2634417155
 30
0.0
 11
-166.66862132
 21
307.6407965056
 31
0.0
  0
LINE
  5
61D
330
1F
100
AcDbEntity
  8
0
  6
Continuous
 62
     7
370
    25
100
AcDbLine
 10
-166.66862132
 20
307.6407965056
 30
0.0
 11
-166.9572964546
 21
308.0181512957
 31
0.0
  0
LINE
  5
61E
330
1F
100
AcDbEntity
  8
0
  6
Continuous
 62
     7
370
    25
100
AcDbLine
 10
-166.9572964546
 20
308.0181512957
 30
0.0
 11
-167.5346467238
 21
308.0181512957
 31
0.0
  0
LINE
  5
61F
330
1F
100
AcDbEntity
  8
0
  6
Continuous
 62
     7
370
    25
100
AcDbLine
 10
-166.4346467238
 20
306.580236424
 30
0.0
 11
-166.7233218584
 21
306.2028816339
 31
0.0
  0
LINE
  5
620
330
1F
100
AcDbEntity
  8
0
  6
Continuous
 62
     7
370
    25
100
AcDbLine
 10
-166.7233218584
 20
306.2028816339
 30
0.0
 11
-166.4346467238
 21
305.8255268438
 31
0.0
  0
LINE
  5
621
330
1F
100
AcDbEntity
  8
0
  6
Continuous
 62
     7
370
    25
100
AcDbLine
 10
-166.4346467238
 20
305.8255268438
 30
0.0
 11
-165.8572964546
 21
305.8255268438
 31
0.0
  0
LINE
  5
622
330
1F
100
AcDbEntity
  8
0
  6
Continuous
 62
     7
370
    25
100
AcDbLine
 10
-165.8572964546
 20
305.8255268438
 30
0.0
 11
-165.56862132
 21
306.2028816339
 31
0.0
  0
LINE
  5
623
330
1F
100
AcDbEntity
  8
0
  6
Continuous
 62
     7
370
    25
100
AcDbLine
 10
-165.56862132
 20
306.2028816339
 30
0.0
 11
-165.8572964546
 21
306.580236424
 31
0.0
  0
LINE
  5
624
330
1F
100
AcDbEntity
  8
0
  6
Continuous
 62
     7
370
    25
100
AcDbLine
 10
-165.8572964546
 20
306.580236424
 30
0.0
 11
-166.4346467238
 21
306.580236424
 31
0.0
  0
LINE
  5
625
330
1F
100
AcDbEntity
  8
0
  6
Continuous
 62
     7
370
    25
100
AcDbLine
 10
-167.5346467238
 20
305.1423215523
 30
0.0
 11
-167.8233218584
 21
304.7649667622
 31
0.0
  0
LINE
  5
626
330
1F
100
AcDbEntity
  8
0
  6
Continuous
 62
     7
370
    25
100
AcDbLine
 10
-167.8233218584
 20
304.7649667622
 30
0.0
 11
-167.5346467238
 21
304.3876119721
 31
0.0
  0
LINE
  5
627
330
1F
100
AcDbEntity
  8
0
  6
Continuous
 62
     7
370
    25
100
AcDbLine
 10
-167.5346467238
 20
304.3876119721
 30
0.0
 11
-166.9572964546
 21
304.3876119721
 31
0.0
  0
LINE
  5
628
330
1F
100
AcDbEntity
  8
0
  6
Continuous
 62
     7
370
    25
100
AcDbLine
 10
-166.9572964546
 20
304.3876119721
 30
0.0
 11
-166.66862132
 21
304.7649667622
 31
0.0
  0
LINE
  5
629
330
1F
100
AcDbEntity
  8
0
  6
Continuous
 62
     7
370
    25
100
AcDbLine
 10
-166.66862132
 20
304.7649667622
 30
0.0
 11
-166.9572964546
 21
305.1423215523
 31
0.0
  0
LINE
  5
62A
330
1F
100
AcDbEntity
  8
0
  6
Continuous
 62
     7
370
    25
100
AcDbLine
 10
-166.9572964546
 20
305.1423215523
 30
0.0
 11
-167.5346467238
 21
305.1423215523
 31
0.0
  0
LINE
  5
62B
330
1F
100
AcDbEntity
  8
0
  6
Continuous
 62
     7
370
    25
100
AcDbLine
 10
-169.7346467238
 20
305.1423215523
 30
0.0
 11
-170.0233218584
 21
304.7649667622
 31
0.0
  0
LINE
  5
62C
330
1F
100
AcDbEntity
  8
0
  6
Continuous
 62
     7
370
    25
100
AcDbLine
 10
-170.0233218584
 20
304.7649667622
 30
0.0
 11
-169.7346467238
 21
304.3876119721
 31
0.0
  0
LINE
  5
62D
330
1F
100
AcDbEntity
  8
0
  6
Continuous
 62
     7
370
    25
100
AcDbLine
 10
-169.7346467238
 20
304.3876119721
 30
0.0
 11
-169.1572964546
 21
304.3876119721
 31
0.0
  0
LINE
  5
62E
330
1F
100
AcDbEntity
  8
0
  6
Continuous
 62
     7
370
    25
100
AcDbLine
 10
-169.1572964546
 20
304.3876119721
 30
0.0
 11
-168.86862132
 21
304.7649667622
 31
0.0
  0
LINE
  5
62F
330
1F
100
AcDbEntity
  8
0
  6
Continuous
 62
     7
370
    25
100
AcDbLine
 10
-168.86862132
 20
304.7649667622
 30
0.0
 11
-169.1572964546
 21
305.1423215523
 31
0.0
  0
LINE
  5
630
330
1F
100
AcDbEntity
  8
0
  6
Continuous
 62
     7
370
    25
100
AcDbLine
 10
-169.1572964546
 20
305.1423215523
 30
0.0
 11
-169.7346467238
 21
305.1423215523
 31
0.0
  0
LINE
  5
631
330
1F
100
AcDbEntity
  8
0
  6
Continuous
 62
     7
370
    25
100
AcDbLine
 10
-170.8346467238
 20
306.580236424
 30
0.0
 11
-171.1233218584
 21
306.2028816339
 31
0.0
  0
LINE
  5
632
330
1F
100
AcDbEntity
  8
0
  6
Continuous
 62
     7
370
    25
100
AcDbLine
 10
-171.1233218584
 20
306.2028816339
 30
0.0
 11
-170.8346467238
 21
305.8255268438
 31
0.0
  0
LINE
  5
633
330
1F
100
AcDbEntity
  8
0
  6
Continuous
 62
     7
370
    25
100
AcDbLine
 10
-170.8346467238
 20
305.8255268438
 30
0.0
 11
-170.2572964546
 21
305.8255268438
 31
0.0
  0
LINE
  5
634
330
1F
100
AcDbEntity
  8
0
  6
Continuous
 62
     7
370
    25
100
AcDbLine
 10
-170.2572964546
 20
305.8255268438
 30
0.0
 11
-169.96862132
 21
306.2028816339
 31
0.0
  0
LINE
  5
635
330
1F
100
AcDbEntity
  8
0
  6
Continuous
 62
     7
370
    25
100
AcDbLine
 10
-169.96862132
 20
306.2028816339
 30
0.0
 11
-170.2572964546
 21
306.580236424
 31
0.0
  0
LINE
  5
636
330
1F
100
AcDbEntity
  8
0
  6
Continuous
 62
     7
370
    25
100
AcDbLine
 10
-170.2572964546
 20
306.580236424
 30
0.0
 11
-170.8346467238
 21
306.580236424
 31
0.0
  0
LINE
  5
637
330
1F
100
AcDbEntity
  8
0
  6
Continuous
 62
     7
370
    25
100
AcDbLine
 10
-168.6346467238
 20
306.580236424
 30
0.0
 11
-168.9233218584
 21
306.2028816339
 31
0.0
  0
LINE
  5
638
330
1F
100
AcDbEntity
  8
0
  6
Continuous
 62
     7
370
    25
100
AcDbLine
 10
-168.9233218584
 20
306.2028816339
 30
0.0
 11
-168.6346467238
 21
305.8255268438
 31
0.0
  0
LINE
  5
639
330
1F
100
AcDbEntity
  8
0
  6
Continuous
 62
     7
370
    25
100
AcDbLine
 10
-168.6346467238
 20
305.8255268438
 30
0.0
 11
-168.0572964546
 21
305.8255268438
 31
0.0
  0
LINE
  5
63A
330
1F
100
AcDbEntity
  8
0
  6
Continuous
 62
     7
370
    25
100
AcDbLine
 10
-168.0572964546
 20
305.8255268438
 30
0.0
 11
-167.76862132
 21
306.2028816339
 31
0.0
  0
LINE
  5
63B
330
1F
100
AcDbEntity
  8
0
  6
Continuous
 62
     7
370
    25
100
AcDbLine
 10
-167.76862132
 20
306.2028816339
 30
0.0
 11
-168.0572964546
 21
306.580236424
 31
0.0
  0
LINE
  5
63C
330
1F
100
AcDbEntity
  8
0
  6
Continuous
 62
     7
370
    25
100
AcDbLine
 10
-168.0572964546
 20
306.580236424
 30
0.0
 11
-168.6346467238
 21
306.580236424
 31
0.0
  0
LINE
  5
63D
330
1F
100
AcDbEntity
  8
0
  6
Continuous
 62
     7
370
    25
100
AcDbLine
 10
-173.0346467238
 20
307.5653255476
 30
0.0
 11
-173.3233218584
 21
307.1879707575
 31
0.0
  0
LINE
  5
63E
330
1F
100
AcDbEntity
  8
0
  6
Continuous
 62
     7
370
    25
100
AcDbLine
 10
-173.3233218584
 20
307.1879707575
 30
0.0
 11
-173.0346467238
 21
306.8106159674
 31
0.0
  0
LINE
  5
63F
330
1F
100
AcDbEntity
  8
0
  6
Continuous
 62
     7
370
    25
100
AcDbLine
 10
-173.0346467238
 20
306.8106159674
 30
0.0
 11
-172.4572964546
 21
306.8106159674
 31
0.0
  0
LINE
  5
640
330
1F
100
AcDbEntity
  8
0
  6
Continuous
 62
     7
370
    25
100
AcDbLine
 10
-172.4572964546
 20
306.8106159674
 30
0.0
 11
-172.16862132
 21
307.1879707575
 31
0.0
  0
LINE
  5
641
330
1F
100
AcDbEntity
  8
0
  6
Continuous
 62
     7
370
    25
100
AcDbLine
 10
-172.16862132
 20
307.1879707575
 30
0.0
 11
-172.4572964546
 21
307.5653255476
 31
0.0
  0
LINE
  5
642
330
1F
100
AcDbEntity
  8
0
  6
Continuous
 62
     7
370
    25
100
AcDbLine
 10
-172.4572964546
 20
307.5653255476
 30
0.0
 11
-173.0346467238
 21
307.5653255476
 31
0.0
  0
LINE
  5
643
330
1F
100
AcDbEntity
  8
0
  6
Continuous
 62
     7
370
    25
100
AcDbLine
 10
-171.9346467238
 20
309.0032404193
 30
0.0
 11
-172.2233218584
 21
308.6258856292
 31
0.0
  0
LINE
  5
644
330
1F
100
AcDbEntity
  8
0
  6
Continuous
 62
     7
370
    25
100
AcDbLine
 10
-172.2233218584
 20
308.6258856292
 30
0.0
 11
-171.9346467238
 21
308.2485308391
 31
0.0
  0
LINE
  5
645
330
1F
100
AcDbEntity
  8
0
  6
Continuous
 62
     7
370
    25
100
AcDbLine
 10
-171.9346467238
 20
308.2485308391
 30
0.0
 11
-171.3572964546
 21
308.2485308391
 31
0.0
  0
LINE
  5
646
330
1F
100
AcDbEntity
  8
0
  6
Continuous
 62
     7
370
    25
100
AcDbLine
 10
-171.3572964546
 20
308.2485308391
 30
0.0
 11
-171.06862132
 21
308.6258856292
 31
0.0
  0
LINE
  5
647
330
1F
100
AcDbEntity
  8
0
  6
Continuous
 62
     7
370
    25
100
AcDbLine
 10
-171.06862132
 20
308.6258856292
 30
0.0
 11
-171.3572964546
 21
309.0032404193
 31
0.0
  0
LINE
  5
648
330
1F
100
AcDbEntity
  8
0
  6
Continuous
 62
     7
370
    25
100
AcDbLine
 10
-171.3572964546
 20
309.0032404193
 30
0.0
 11
-171.9346467238
 21
309.0032404193
 31
0.0
  0
LINE
  5
649
330
1F
100
AcDbEntity
  8
0
  6
Continuous
 62
     7
370
    25
100
AcDbLine
 10
-170.8346467238
 20
310.441155291
 30
0.0
 11
-171.1233218584
 21
310.0638005009
 31
0.0
  0
LINE
  5
64A
330
1F
100
AcDbEntity
  8
0
  6
Continuous
 62
     7
370
    25
100
AcDbLine
 10
-171.1233218584
 20
310.0638005009
 30
0.0
 11
-170.8346467238
 21
309.6864457108
 31
0.0
  0
LINE
  5
64B
330
1F
100
AcDbEntity
  8
0
  6
Continuous
 62
     7
370
    25
100
AcDbLine
 10
-170.8346467238
 20
309.6864457108
 30
0.0
 11
-170.2572964546
 21
309.6864457108
 31
0.0
  0
LINE
  5
64C
330
1F
100
AcDbEntity
  8
0
  6
Continuous
 62
     7
370
    25
100
AcDbLine
 10
-170.2572964546
 20
309.6864457108
 30
0.0
 11
-169.96862132
 21
310.0638005009
 31
0.0
  0
LINE
  5
64D
330
1F
100
AcDbEntity
  8
0
  6
Continuous
 62
     7
370
    25
100
AcDbLine
 10
-169.96862132
 20
310.0638005009
 30
0.0
 11
-170.2572964546
 21
310.441155291
 31
0.0
  0
LINE
  5
64E
330
1F
100
AcDbEntity
  8
0
  6
Continuous
 62
     7
370
    25
100
AcDbLine
 10
-170.2572964546
 20
310.441155291
 30
0.0
 11
-170.8346467238
 21
310.441155291
 31
0.0
  0
LINE
  5
64F
330
1F
100
AcDbEntity
  8
0
  6
Continuous
 62
     7
370
    25
100
AcDbLine
 10
-168.6346467238
 20
310.441155291
 30
0.0
 11
-168.9233218584
 21
310.0638005009
 31
0.0
  0
LINE
  5
650
330
1F
100
AcDbEntity
  8
0
  6
Continuous
 62
     7
370
    25
100
AcDbLine
 10
-168.9233218584
 20
310.0638005009
 30
0.0
 11
-168.6346467238
 21
309.6864457108
 31
0.0
  0
LINE
  5
651
330
1F
100
AcDbEntity
  8
0
  6
Continuous
 62
     7
370
    25
100
AcDbLine
 10
-168.6346467238
 20
309.6864457108
 30
0.0
 11
-168.0572964546
 21
309.6864457108
 31
0.0
  0
LINE
  5
652
330
1F
100
AcDbEntity
  8
0
  6
Continuous
 62
     7
370
    25
100
AcDbLine
 10
-168.0572964546
 20
309.6864457108
 30
0.0
 11
-167.76862132
 21
310.0638005009
 31
0.0
  0
LINE
  5
653
330
1F
100
AcDbEntity
  8
0
  6
Continuous
 62
     7
370
    25
100
AcDbLine
 10
-167.76862132
 20
310.0638005009
 30
0.0
 11
-168.0572964546
 21
310.441155291
 31
0.0
  0
LINE
  5
654
330
1F
100
AcDbEntity
  8
0
  6
Continuous
 62
     7
370
    25
100
AcDbLine
 10
-168.0572964546
 20
310.441155291
 30
0.0
 11
-168.6346467238
 21
310.441155291
 31
0.0
  0
LINE
  5
655
330
1F
100
AcDbEntity
  8
0
  6
Continuous
 62
     7
370
    25
100
AcDbLine
 10
-166.4346467238
 20
310.441155291
 30
0.0
 11
-166.7233218584
 21
310.0638005009
 31
0.0
  0
LINE
  5
656
330
1F
100
AcDbEntity
  8
0
  6
Continuous
 62
     7
370
    25
100
AcDbLine
 10
-166.7233218584
 20
310.0638005009
 30
0.0
 11
-166.4346467238
 21
309.6864457108
 31
0.0
  0
LINE
  5
657
330
1F
100
AcDbEntity
  8
0
  6
Continuous
 62
     7
370
    25
100
AcDbLine
 10
-166.4346467238
 20
309.6864457108
 30
0.0
 11
-165.8572964546
 21
309.6864457108
 31
0.0
  0
LINE
  5
658
330
1F
100
AcDbEntity
  8
0
  6
Continuous
 62
     7
370
    25
100
AcDbLine
 10
-165.8572964546
 20
309.6864457108
 30
0.0
 11
-165.56862132
 21
310.0638005009
 31
0.0
  0
LINE
  5
659
330
1F
100
AcDbEntity
  8
0
  6
Continuous
 62
     7
370
    25
100
AcDbLine
 10
-165.56862132
 20
310.0638005009
 30
0.0
 11
-165.8572964546
 21
310.441155291
 31
0.0
  0
LINE
  5
65A
330
1F
100
AcDbEntity
  8
0
  6
Continuous
 62
     7
370
    25
100
AcDbLine
 10
-165.8572964546
 20
310.441155291
 30
0.0
 11
-166.4346467238
 21
310.441155291
 31
0.0
  0
LINE
  5
65B
330
1F
100
AcDbEntity
  8
0
  6
Continuous
 62
     7
370
    25
100
AcDbLine
 10
-164.2346467238
 20
310.441155291
 30
0.0
 11
-164.5233218584
 21
310.0638005009
 31
0.0
  0
LINE
  5
65C
330
1F
100
AcDbEntity
  8
0
  6
Continuous
 62
     7
370
    25
100
AcDbLine
 10
-164.5233218584
 20
310.0638005009
 30
0.0
 11
-164.2346467238
 21
309.6864457108
 31
0.0
  0
LINE
  5
65D
330
1F
100
AcDbEntity
  8
0
  6
Continuous
 62
     7
370
    25
100
AcDbLine
 10
-164.2346467238
 20
309.6864457108
 30
0.0
 11
-163.6572964546
 21
309.6864457108
 31
0.0
  0
LINE
  5
65E
330
1F
100
AcDbEntity
  8
0
  6
Continuous
 62
     7
370
    25
100
AcDbLine
 10
-163.6572964546
 20
309.6864457108
 30
0.0
 11
-163.36862132
 21
310.0638005009
 31
0.0
  0
LINE
  5
65F
330
1F
100
AcDbEntity
  8
0
  6
Continuous
 62
     7
370
    25
100
AcDbLine
 10
-163.36862132
 20
310.0638005009
 30
0.0
 11
-163.6572964546
 21
310.441155291
 31
0.0
  0
LINE
  5
660
330
1F
100
AcDbEntity
  8
0
  6
Continuous
 62
     7
370
    25
100
AcDbLine
 10
-163.6572964546
 20
310.441155291
 30
0.0
 11
-164.2346467238
 21
310.441155291
 31
0.0
  0
LINE
  5
661
330
1F
100
AcDbEntity
  8
0
  6
Continuous
 62
     7
370
    25
100
AcDbLine
 10
-163.1346467238
 20
309.0032404193
 30
0.0
 11
-163.4233218584
 21
308.6258856292
 31
0.0
  0
LINE
  5
662
330
1F
100
AcDbEntity
  8
0
  6
Continuous
 62
     7
370
    25
100
AcDbLine
 10
-163.4233218584
 20
308.6258856292
 30
0.0
 11
-163.1346467238
 21
308.2485308391
 31
0.0
  0
LINE
  5
663
330
1F
100
AcDbEntity
  8
0
  6
Continuous
 62
     7
370
    25
100
AcDbLine
 10
-163.1346467238
 20
308.2485308391
 30
0.0
 11
-162.5572964546
 21
308.2485308391
 31
0.0
  0
LINE
  5
664
330
1F
100
AcDbEntity
  8
0
  6
Continuous
 62
     7
370
    25
100
AcDbLine
 10
-162.5572964546
 20
308.2485308391
 30
0.0
 11
-162.26862132
 21
308.6258856292
 31
0.0
  0
LINE
  5
665
330
1F
100
AcDbEntity
  8
0
  6
Continuous
 62
     7
370
    25
100
AcDbLine
 10
-162.26862132
 20
308.6258856292
 30
0.0
 11
-162.5572964546
 21
309.0032404193
 31
0.0
  0
LINE
  5
666
330
1F
100
AcDbEntity
  8
0
  6
Continuous
 62
     7
370
    25
100
AcDbLine
 10
-162.5572964546
 20
309.0032404193
 30
0.0
 11
-163.1346467238
 21
309.0032404193
 31
0.0
  0
LINE
  5
667
330
1F
100
AcDbEntity
  8
0
  6
Continuous
 62
     7
370
    25
100
AcDbLine
 10
-162.0346467238
 20
307.5653255476
 30
0.0
 11
-162.3233218584
 21
307.1879707575
 31
0.0
  0
LINE
  5
668
330
1F
100
AcDbEntity
  8
0
  6
Continuous
 62
     7
370
    25
100
AcDbLine
 10
-162.3233218584
 20
307.1879707575
 30
0.0
 11
-162.0346467238
 21
306.8106159674
 31
0.0
  0
LINE
  5
669
330
1F
100
AcDbEntity
  8
0
  6
Continuous
 62
     7
370
    25
100
AcDbLine
 10
-162.0346467238
 20
306.8106159674
 30
0.0
 11
-161.4572964546
 21
306.8106159674
 31
0.0
  0
LINE
  5
66A
330
1F
100
AcDbEntity
  8
0
  6
Continuous
 62
     7
370
    25
100
AcDbLine
 10
-161.4572964546
 20
306.8106159674
 30
0.0
 11
-161.16862132
 21
307.1879707575
 31
0.0
  0
LINE
  5
66B
330
1F
100
AcDbEntity
  8
0
  6
Continuous
 62
     7
370
    25
100
AcDbLine
 10
-161.16862132
 20
307.1879707575
 30
0.0
 11
-161.4572964546
 21
307.5653255476
 31
0.0
  0
LINE
  5
66C
330
1F
100
AcDbEntity
  8
0
  6
Continuous
 62
     7
370
    25
100
AcDbLine
 10
-161.4572964546
 20
307.5653255476
 30
0.0
 11
-162.0346467238
 21
307.5653255476
 31
0.0
  0
LINE
  5
66D
330
1F
100
AcDbEntity
  8
0
  6
Continuous
 62
     7
370
    25
100
AcDbLine
 10
-170.8346467238
 20
307.5653255476
 30
0.0
 11
-171.1233218584
 21
307.1879707575
 31
0.0
  0
LINE
  5
66E
330
1F
100
AcDbEntity
  8
0
  6
Continuous
 62
     7
370
    25
100
AcDbLine
 10
-171.1233218584
 20
307.1879707575
 30
0.0
 11
-170.8346467238
 21
306.8106159674
 31
0.0
  0
LINE
  5
66F
330
1F
100
AcDbEntity
  8
0
  6
Continuous
 62
     7
370
    25
100
AcDbLine
 10
-170.8346467238
 20
306.8106159674
 30
0.0
 11
-170.2572964546
 21
306.8106159674
 31
0.0
  0
LINE
  5
670
330
1F
100
AcDbEntity
  8
0
  6
Continuous
 62
     7
370
    25
100
AcDbLine
 10
-170.2572964546
 20
306.8106159674
 30
0.0
 11
-169.96862132
 21
307.1879707575
 31
0.0
  0
LINE
  5
671
330
1F
100
AcDbEntity
  8
0
  6
Continuous
 62
     7
370
    25
100
AcDbLine
 10
-169.96862132
 20
307.1879707575
 30
0.0
 11
-170.2572964546
 21
307.5653255476
 31
0.0
  0
LINE
  5
672
330
1F
100
AcDbEntity
  8
0
  6
Continuous
 62
     7
370
    25
100
AcDbLine
 10
-170.2572964546
 20
307.5653255476
 30
0.0
 11
-170.8346467238
 21
307.5653255476
 31
0.0
  0
LINE
  5
673
330
1F
100
AcDbEntity
  8
0
  6
Continuous
 62
     7
370
    25
100
AcDbLine
 10
-169.7346467238
 20
309.0032404193
 30
0.0
 11
-170.0233218584
 21
308.6258856292
 31
0.0
  0
LINE
  5
674
330
1F
100
AcDbEntity
  8
0
  6
Continuous
 62
     7
370
    25
100
AcDbLine
 10
-170.0233218584
 20
308.6258856292
 30
0.0
 11
-169.7346467238
 21
308.2485308391
 31
0.0
  0
LINE
  5
675
330
1F
100
AcDbEntity
  8
0
  6
Continuous
 62
     7
370
    25
100
AcDbLine
 10
-169.7346467238
 20
308.2485308391
 30
0.0
 11
-169.1572964546
 21
308.2485308391
 31
0.0
  0
LINE
  5
676
330
1F
100
AcDbEntity
  8
0
  6
Continuous
 62
     7
370
    25
100
AcDbLine
 10
-169.1572964546
 20
308.2485308391
 30
0.0
 11
-168.86862132
 21
308.6258856292
 31
0.0
  0
LINE
  5
677
330
1F
100
AcDbEntity
  8
0
  6
Continuous
 62
     7
370
    25
100
AcDbLine
 10
-168.86862132
 20
308.6258856292
 30
0.0
 11
-169.1572964546
 21
309.0032404193
 31
0.0
  0
LINE
  5
678
330
1F
100
AcDbEntity
  8
0
  6
Continuous
 62
     7
370
    25
100
AcDbLine
 10
-169.1572964546
 20
309.0032404193
 30
0.0
 11
-169.7346467238
 21
309.0032404193
 31
0.0
  0
LINE
  5
679
330
1F
100
AcDbEntity
  8
0
  6
Continuous
 62
     7
370
    25
100
AcDbLine
 10
-165.3346467238
 20
309.0032404193
 30
0.0
 11
-165.6233218584
 21
308.6258856292
 31
0.0
  0
LINE
  5
67A
330
1F
100
AcDbEntity
  8
0
  6
Continuous
 62
     7
370
    25
100
AcDbLine
 10
-165.6233218584
 20
308.6258856292
 30
0.0
 11
-165.3346467238
 21
308.2485308391
 31
0.0
  0
LINE
  5
67B
330
1F
100
AcDbEntity
  8
0
  6
Continuous
 62
     7
370
    25
100
AcDbLine
 10
-165.3346467238
 20
308.2485308391
 30
0.0
 11
-164.7572964546
 21
308.2485308391
 31
0.0
  0
LINE
  5
67C
330
1F
100
AcDbEntity
  8
0
  6
Continuous
 62
     7
370
    25
100
AcDbLine
 10
-164.7572964546
 20
308.2485308391
 30
0.0
 11
-164.46862132
 21
308.6258856292
 31
0.0
  0
LINE
  5
67D
330
1F
100
AcDbEntity
  8
0
  6
Continuous
 62
     7
370
    25
100
AcDbLine
 10
-164.46862132
 20
308.6258856292
 30
0.0
 11
-164.7572964546
 21
309.0032404193
 31
0.0
  0
LINE
  5
67E
330
1F
100
AcDbEntity
  8
0
  6
Continuous
 62
     7
370
    25
100
AcDbLine
 10
-164.7572964546
 20
309.0032404193
 30
0.0
 11
-165.3346467238
 21
309.0032404193
 31
0.0
  0
LINE
  5
67F
330
1F
100
AcDbEntity
  8
0
  6
Continuous
 62
     7
370
    25
100
AcDbLine
 10
-164.5233218584
 20
307.1879707575
 30
0.0
 11
-164.2346467238
 21
306.8106159674
 31
0.0
  0
LINE
  5
680
330
1F
100
AcDbEntity
  8
0
  6
Continuous
 62
     7
370
    25
100
AcDbLine
 10
-164.2346467238
 20
306.8106159674
 30
0.0
 11
-163.6572964546
 21
306.8106159674
 31
0.0
  0
LINE
  5
681
330
1F
100
AcDbEntity
  8
0
  6
Continuous
 62
     7
370
    25
100
AcDbLine
 10
-163.6572964546
 20
306.8106159674
 30
0.0
 11
-163.36862132
 21
307.1879707575
 31
0.0
  0
LINE
  5
682
330
1F
100
AcDbEntity
  8
0
  6
Continuous
 62
     7
370
    25
100
AcDbLine
 10
-163.36862132
 20
307.1879707575
 30
0.0
 11
-163.6572964546
 21
307.5653255476
 31
0.0
  0
LINE
  5
683
330
1F
100
AcDbEntity
  8
0
  6
Continuous
 62
     7
370
    25
100
AcDbLine
 10
-163.6572964546
 20
307.5653255476
 30
0.0
 11
-164.2346467238
 21
307.5653255476
 31
0.0
  0
LINE
  5
684
330
1F
100
AcDbEntity
  8
0
  6
Continuous
 62
     7
370
    25
100
AcDbLine
 10
-164.2346467238
 20
307.5653255476
 30
0.0
 11
-164.5233218584
 21
307.1879707575
 31
0.0
  0
LINE
  5
685
330
1F
100
AcDbEntity
  8
0
  6
Continuous
 62
     7
370
    25
100
AcDbLine
 10
-163.1346467238
 20
306.1274106759
 30
0.0
 11
-163.4233218584
 21
305.7500558858
 31
0.0
  0
LINE
  5
686
330
1F
100
AcDbEntity
  8
0
  6
Continuous
 62
     7
370
    25
100
AcDbLine
 10
-163.4233218584
 20
305.7500558858
 30
0.0
 11
-163.1346467238
 21
305.3727010957
 31
0.0
  0
LINE
  5
687
330
1F
100
AcDbEntity
  8
0
  6
Continuous
 62
     7
370
    25
100
AcDbLine
 10
-163.1346467238
 20
305.3727010957
 30
0.0
 11
-162.5572964546
 21
305.3727010957
 31
0.0
  0
LINE
  5
688
330
1F
100
AcDbEntity
  8
0
  6
Continuous
 62
     7
370
    25
100
AcDbLine
 10
-162.5572964546
 20
305.3727010957
 30
0.0
 11
-162.26862132
 21
305.7500558858
 31
0.0
  0
LINE
  5
689
330
1F
100
AcDbEntity
  8
0
  6
Continuous
 62
     7
370
    25
100
AcDbLine
 10
-162.26862132
 20
305.7500558858
 30
0.0
 11
-162.5572964546
 21
306.1274106759
 31
0.0
  0
LINE
  5
68A
330
1F
100
AcDbEntity
  8
0
  6
Continuous
 62
     7
370
    25
100
AcDbLine
 10
-162.5572964546
 20
306.1274106759
 30
0.0
 11
-163.1346467238
 21
306.1274106759
 31
0.0
  0
LINE
  5
68B
330
1F
100
AcDbEntity
  8
0
  6
Continuous
 62
     7
370
    25
100
AcDbLine
 10
-164.2346467238
 20
304.6894958042
 30
0.0
 11
-164.5233218584
 21
304.3121410141
 31
0.0
  0
LINE
  5
68C
330
1F
100
AcDbEntity
  8
0
  6
Continuous
 62
     7
370
    25
100
AcDbLine
 10
-164.5233218584
 20
304.3121410141
 30
0.0
 11
-164.2346467238
 21
303.934786224
 31
0.0
  0
LINE
  5
68D
330
1F
100
AcDbEntity
  8
0
  6
Continuous
 62
     7
370
    25
100
AcDbLine
 10
-164.2346467238
 20
303.934786224
 30
0.0
 11
-163.6572964546
 21
303.934786224
 31
0.0
  0
LINE
  5
68E
330
1F
100
AcDbEntity
  8
0
  6
Continuous
 62
     7
370
    25
100
AcDbLine
 10
-163.6572964546
 20
303.934786224
 30
0.0
 11
-163.36862132
 21
304.3121410141
 31
0.0
  0
LINE
  5
68F
330
1F
100
AcDbEntity
  8
0
  6
Continuous
 62
     7
370
    25
100
AcDbLine
 10
-163.36862132
 20
304.3121410141
 30
0.0
 11
-163.6572964546
 21
304.6894958042
 31
0.0
  0
LINE
  5
690
330
1F
100
AcDbEntity
  8
0
  6
Continuous
 62
     7
370
    25
100
AcDbLine
 10
-163.6572964546
 20
304.6894958042
 30
0.0
 11
-164.2346467238
 21
304.6894958042
 31
0.0
  0
LINE
  5
691
330
1F
100
AcDbEntity
  8
0
  6
Continuous
 62
     7
370
    25
100
AcDbLine
 10
-165.3346467238
 20
303.2515809325
 30
0.0
 11
-165.6233218584
 21
302.8742261424
 31
0.0
  0
LINE
  5
692
330
1F
100
AcDbEntity
  8
0
  6
Continuous
 62
     7
370
    25
100
AcDbLine
 10
-165.6233218584
 20
302.8742261424
 30
0.0
 11
-165.3346467238
 21
302.4968713523
 31
0.0
  0
LINE
  5
693
330
1F
100
AcDbEntity
  8
0
  6
Continuous
 62
     7
370
    25
100
AcDbLine
 10
-165.3346467238
 20
302.4968713523
 30
0.0
 11
-164.7572964546
 21
302.4968713523
 31
0.0
  0
LINE
  5
694
330
1F
100
AcDbEntity
  8
0
  6
Continuous
 62
     7
370
    25
100
AcDbLine
 10
-164.7572964546
 20
302.4968713523
 30
0.0
 11
-164.46862132
 21
302.8742261424
 31
0.0
  0
LINE
  5
695
330
1F
100
AcDbEntity
  8
0
  6
Continuous
 62
     7
370
    25
100
AcDbLine
 10
-164.46862132
 20
302.8742261424
 30
0.0
 11
-164.7572964546
 21
303.2515809325
 31
0.0
  0
LINE
  5
696
330
1F
100
AcDbEntity
  8
0
  6
Continuous
 62
     7
370
    25
100
AcDbLine
 10
-164.7572964546
 20
303.2515809325
 30
0.0
 11
-165.3346467238
 21
303.2515809325
 31
0.0
  0
LINE
  5
697
330
1F
100
AcDbEntity
  8
0
  6
Continuous
 62
     7
370
    25
100
AcDbLine
 10
-167.5346467238
 20
303.2515809325
 30
0.0
 11
-167.8233218584
 21
302.8742261424
 31
0.0
  0
LINE
  5
698
330
1F
100
AcDbEntity
  8
0
  6
Continuous
 62
     7
370
    25
100
AcDbLine
 10
-167.8233218584
 20
302.8742261424
 30
0.0
 11
-167.5346467238
 21
302.4968713523
 31
0.0
  0
LINE
  5
699
330
1F
100
AcDbEntity
  8
0
  6
Continuous
 62
     7
370
    25
100
AcDbLine
 10
-167.5346467238
 20
302.4968713523
 30
0.0
 11
-166.9572964546
 21
302.4968713523
 31
0.0
  0
LINE
  5
69A
330
1F
100
AcDbEntity
  8
0
  6
Continuous
 62
     7
370
    25
100
AcDbLine
 10
-166.9572964546
 20
302.4968713523
 30
0.0
 11
-166.66862132
 21
302.8742261424
 31
0.0
  0
LINE
  5
69B
330
1F
100
AcDbEntity
  8
0
  6
Continuous
 62
     7
370
    25
100
AcDbLine
 10
-166.66862132
 20
302.8742261424
 30
0.0
 11
-166.9572964546
 21
303.2515809325
 31
0.0
  0
LINE
  5
69C
330
1F
100
AcDbEntity
  8
0
  6
Continuous
 62
     7
370
    25
100
AcDbLine
 10
-166.9572964546
 20
303.2515809325
 30
0.0
 11
-167.5346467238
 21
303.2515809325
 31
0.0
  0
LINE
  5
69D
330
1F
100
AcDbEntity
  8
0
  6
Continuous
 62
     7
370
    25
100
AcDbLine
 10
-169.7346467238
 20
303.2515809325
 30
0.0
 11
-170.0233218584
 21
302.8742261424
 31
0.0
  0
LINE
  5
69E
330
1F
100
AcDbEntity
  8
0
  6
Continuous
 62
     7
370
    25
100
AcDbLine
 10
-170.0233218584
 20
302.8742261424
 30
0.0
 11
-169.7346467238
 21
302.4968713523
 31
0.0
  0
LINE
  5
69F
330
1F
100
AcDbEntity
  8
0
  6
Continuous
 62
     7
370
    25
100
AcDbLine
 10
-169.7346467238
 20
302.4968713523
 30
0.0
 11
-169.1572964546
 21
302.4968713523
 31
0.0
  0
LINE
  5
6A0
330
1F
100
AcDbEntity
  8
0
  6
Continuous
 62
     7
370
    25
100
AcDbLine
 10
-169.1572964546
 20
302.4968713523
 30
0.0
 11
-168.86862132
 21
302.8742261424
 31
0.0
  0
LINE
  5
6A1
330
1F
100
AcDbEntity
  8
0
  6
Continuous
 62
     7
370
    25
100
AcDbLine
 10
-168.86862132
 20
302.8742261424
 30
0.0
 11
-169.1572964546
 21
303.2515809325
 31
0.0
  0
LINE
  5
6A2
330
1F
100
AcDbEntity
  8
0
  6
Continuous
 62
     7
370
    25
100
AcDbLine
 10
-169.1572964546
 20
303.2515809325
 30
0.0
 11
-169.7346467238
 21
303.2515809325
 31
0.0
  0
LINE
  5
6A3
330
1F
100
AcDbEntity
  8
0
  6
Continuous
 62
     7
370
    25
100
AcDbLine
 10
-170.8346467238
 20
304.6894958042
 30
0.0
 11
-171.1233218584
 21
304.3121410141
 31
0.0
  0
LINE
  5
6A4
330
1F
100
AcDbEntity
  8
0
  6
Continuous
 62
     7
370
    25
100
AcDbLine
 10
-171.1233218584
 20
304.3121410141
 30
0.0
 11
-170.8346467238
 21
303.934786224
 31
0.0
  0
LINE
  5
6A5
330
1F
100
AcDbEntity
  8
0
  6
Continuous
 62
     7
370
    25
100
AcDbLine
 10
-170.8346467238
 20
303.934786224
 30
0.0
 11
-170.2572964546
 21
303.934786224
 31
0.0
  0
LINE
  5
6A6
330
1F
100
AcDbEntity
  8
0
  6
Continuous
 62
     7
370
    25
100
AcDbLine
 10
-170.2572964546
 20
303.934786224
 30
0.0
 11
-169.96862132
 21
304.3121410141
 31
0.0
  0
LINE
  5
6A7
330
1F
100
AcDbEntity
  8
0
  6
Continuous
 62
     7
370
    25
100
AcDbLine
 10
-169.96862132
 20
304.3121410141
 30
0.0
 11
-170.2572964546
 21
304.6894958042
 31
0.0
  0
LINE
  5
6A8
330
1F
100
AcDbEntity
  8
0
  6
Continuous
 62
     7
370
    25
100
AcDbLine
 10
-170.2572964546
 20
304.6894958042
 30
0.0
 11
-170.8346467238
 21
304.6894958042
 31
0.0
  0
LINE
  5
6A9
330
1F
100
AcDbEntity
  8
0
  6
Continuous
 62
     7
370
    25
100
AcDbLine
 10
-171.9346467238
 20
306.1274106759
 30
0.0
 11
-172.2233218584
 21
305.7500558858
 31
0.0
  0
LINE
  5
6AA
330
1F
100
AcDbEntity
  8
0
  6
Continuous
 62
     7
370
    25
100
AcDbLine
 10
-172.2233218584
 20
305.7500558858
 30
0.0
 11
-171.9346467238
 21
305.3727010957
 31
0.0
  0
LINE
  5
6AB
330
1F
100
AcDbEntity
  8
0
  6
Continuous
 62
     7
370
    25
100
AcDbLine
 10
-171.9346467238
 20
305.3727010957
 30
0.0
 11
-171.3572964546
 21
305.3727010957
 31
0.0
  0
LINE
  5
6AC
330
1F
100
AcDbEntity
  8
0
  6
Continuous
 62
     7
370
    25
100
AcDbLine
 10
-171.3572964546
 20
305.3727010957
 30
0.0
 11
-171.06862132
 21
305.7500558858
 31
0.0
  0
LINE
  5
6AD
330
1F
100
AcDbEntity
  8
0
  6
Continuous
 62
     7
370
    25
100
AcDbLine
 10
-171.06862132
 20
305.7500558858
 30
0.0
 11
-171.3572964546
 21
306.1274106759
 31
0.0
  0
LINE
  5
6AE
330
1F
100
AcDbEntity
  8
0
  6
Continuous
 62
     7
370
    25
100
AcDbLine
 10
-171.3572964546
 20
306.1274106759
 30
0.0
 11
-171.9346467238
 21
306.1274106759
 31
0.0
  0
LINE
  5
6AF
330
1F
100
AcDbEntity
  8
0
  6
Continuous
 62
     7
370
    25
100
AcDbLine
 10
-168.6346467238
 20
307.5653255476
 30
0.0
 11
-168.9233218584
 21
307.1879707575
 31
0.0
  0
LINE
  5
6B0
330
1F
100
AcDbEntity
  8
0
  6
Continuous
 62
     7
370
    25
100
AcDbLine
 10
-168.9233218584
 20
307.1879707575
 30
0.0
 11
-168.6346467238
 21
306.8106159674
 31
0.0
  0
LINE
  5
6B1
330
1F
100
AcDbEntity
  8
0
  6
Continuous
 62
     7
370
    25
100
AcDbLine
 10
-168.6346467238
 20
306.8106159674
 30
0.0
 11
-168.0572964546
 21
306.8106159674
 31
0.0
  0
LINE
  5
6B2
330
1F
100
AcDbEntity
  8
0
  6
Continuous
 62
     7
370
    25
100
AcDbLine
 10
-168.0572964546
 20
306.8106159674
 30
0.0
 11
-167.76862132
 21
307.1879707575
 31
0.0
  0
LINE
  5
6B3
330
1F
100
AcDbEntity
  8
0
  6
Continuous
 62
     7
370
    25
100
AcDbLine
 10
-167.76862132
 20
307.1879707575
 30
0.0
 11
-168.0572964546
 21
307.5653255476
 31
0.0
  0
LINE
  5
6B4
330
1F
100
AcDbEntity
  8
0
  6
Continuous
 62
     7
370
    25
100
AcDbLine
 10
-168.0572964546
 20
307.5653255476
 30
0.0
 11
-168.6346467238
 21
307.5653255476
 31
0.0
  0
LINE
  5
6B5
330
1F
100
AcDbEntity
  8
0
  6
Continuous
 62
     7
370
    25
100
AcDbLine
 10
-166.4346467238
 20
307.5653255476
 30
0.0
 11
-166.7233218584
 21
307.1879707575
 31
0.0
  0
LINE
  5
6B6
330
1F
100
AcDbEntity
  8
0
  6
Continuous
 62
     7
370
    25
100
AcDbLine
 10
-166.7233218584
 20
307.1879707575
 30
0.0
 11
-166.4346467238
 21
306.8106159674
 31
0.0
  0
LINE
  5
6B7
330
1F
100
AcDbEntity
  8
0
  6
Continuous
 62
     7
370
    25
100
AcDbLine
 10
-166.4346467238
 20
306.8106159674
 30
0.0
 11
-165.8572964546
 21
306.8106159674
 31
0.0
  0
LINE
  5
6B8
330
1F
100
AcDbEntity
  8
0
  6
Continuous
 62
     7
370
    25
100
AcDbLine
 10
-165.8572964546
 20
306.8106159674
 30
0.0
 11
-165.56862132
 21
307.1879707575
 31
0.0
  0
LINE
  5
6B9
330
1F
100
AcDbEntity
  8
0
  6
Continuous
 62
     7
370
    25
100
AcDbLine
 10
-165.56862132
 20
307.1879707575
 30
0.0
 11
-165.8572964546
 21
307.5653255476
 31
0.0
  0
LINE
  5
6BA
330
1F
100
AcDbEntity
  8
0
  6
Continuous
 62
     7
370
    25
100
AcDbLine
 10
-165.8572964546
 20
307.5653255476
 30
0.0
 11
-166.4346467238
 21
307.5653255476
 31
0.0
  0
LINE
  5
6BB
330
1F
100
AcDbEntity
  8
0
  6
Continuous
 62
     7
370
    25
100
AcDbLine
 10
-166.7233218584
 20
304.3121410141
 30
0.0
 11
-166.4346467238
 21
303.934786224
 31
0.0
  0
LINE
  5
6BC
330
1F
100
AcDbEntity
  8
0
  6
Continuous
 62
     7
370
    25
100
AcDbLine
 10
-166.4346467238
 20
303.934786224
 30
0.0
 11
-165.8572964546
 21
303.934786224
 31
0.0
  0
LINE
  5
6BD
330
1F
100
AcDbEntity
  8
0
  6
Continuous
 62
     7
370
    25
100
AcDbLine
 10
-165.8572964546
 20
303.934786224
 30
0.0
 11
-165.56862132
 21
304.3121410141
 31
0.0
  0
LINE
  5
6BE
330
1F
100
AcDbEntity
  8
0
  6
Continuous
 62
     7
370
    25
100
AcDbLine
 10
-165.56862132
 20
304.3121410141
 30
0.0
 11
-165.8572964546
 21
304.6894958042
 31
0.0
  0
LINE
  5
6BF
330
1F
100
AcDbEntity
  8
0
  6
Continuous
 62
     7
370
    25
100
AcDbLine
 10
-165.8572964546
 20
304.6894958042
 30
0.0
 11
-166.4346467238
 21
304.6894958042
 31
0.0
  0
LINE
  5
6C0
330
1F
100
AcDbEntity
  8
0
  6
Continuous
 62
     7
370
    25
100
AcDbLine
 10
-166.4346467238
 20
304.6894958042
 30
0.0
 11
-166.7233218584
 21
304.3121410141
 31
0.0
  0
LINE
  5
6C1
330
1F
100
AcDbEntity
  8
0
  6
Continuous
 62
     7
370
    25
100
AcDbLine
 10
-168.6346467238
 20
304.6894958042
 30
0.0
 11
-168.9233218584
 21
304.3121410141
 31
0.0
  0
LINE
  5
6C2
330
1F
100
AcDbEntity
  8
0
  6
Continuous
 62
     7
370
    25
100
AcDbLine
 10
-168.9233218584
 20
304.3121410141
 30
0.0
 11
-168.6346467238
 21
303.934786224
 31
0.0
  0
LINE
  5
6C3
330
1F
100
AcDbEntity
  8
0
  6
Continuous
 62
     7
370
    25
100
AcDbLine
 10
-168.6346467238
 20
303.934786224
 30
0.0
 11
-168.0572964546
 21
303.934786224
 31
0.0
  0
LINE
  5
6C4
330
1F
100
AcDbEntity
  8
0
  6
Continuous
 62
     7
370
    25
100
AcDbLine
 10
-168.0572964546
 20
303.934786224
 30
0.0
 11
-167.76862132
 21
304.3121410141
 31
0.0
  0
LINE
  5
6C5
330
1F
100
AcDbEntity
  8
0
  6
Continuous
 62
     7
370
    25
100
AcDbLine
 10
-167.76862132
 20
304.3121410141
 30
0.0
 11
-168.0572964546
 21
304.6894958042
 31
0.0
  0
LINE
  5
6C6
330
1F
100
AcDbEntity
  8
0
  6
Continuous
 62
     7
370
    25
100
AcDbLine
 10
-168.0572964546
 20
304.6894958042
 30
0.0
 11
-168.6346467238
 21
304.6894958042
 31
0.0
  0
LINE
  5
6C7
330
1F
100
AcDbEntity
  8
0
  6
Continuous
 62
     7
370
    25
100
AcDbLine
 10
-167.5346467238
 20
306.1274106759
 30
0.0
 11
-167.8233218584
 21
305.7500558858
 31
0.0
  0
LINE
  5
6C8
330
1F
100
AcDbEntity
  8
0
  6
Continuous
 62
     7
370
    25
100
AcDbLine
 10
-167.8233218584
 20
305.7500558858
 30
0.0
 11
-167.5346467238
 21
305.3727010957
 31
0.0
  0
LINE
  5
6C9
330
1F
100
AcDbEntity
  8
0
  6
Continuous
 62
     7
370
    25
100
AcDbLine
 10
-167.5346467238
 20
305.3727010957
 30
0.0
 11
-166.9572964546
 21
305.3727010957
 31
0.0
  0
LINE
  5
6CA
330
1F
100
AcDbEntity
  8
0
  6
Continuous
 62
     7
370
    25
100
AcDbLine
 10
-166.9572964546
 20
305.3727010957
 30
0.0
 11
-166.66862132
 21
305.7500558858
 31
0.0
  0
LINE
  5
6CB
330
1F
100
AcDbEntity
  8
0
  6
Continuous
 62
     7
370
    25
100
AcDbLine
 10
-166.66862132
 20
305.7500558858
 30
0.0
 11
-166.9572964546
 21
306.1274106759
 31
0.0
  0
LINE
  5
6CC
330
1F
100
AcDbEntity
  8
0
  6
Continuous
 62
     7
370
    25
100
AcDbLine
 10
-166.9572964546
 20
306.1274106759
 30
0.0
 11
-167.5346467238
 21
306.1274106759
 31
0.0
  0
LINE
  5
6CD
330
1F
100
AcDbEntity
  8
0
  6
Continuous
 62
     7
370
    25
100
AcDbLine
 10
-173.0346467238
 20
308.5087125229
 30
0.0
 11
-173.3233218584
 21
308.1313577328
 31
0.0
  0
LINE
  5
6CE
330
1F
100
AcDbEntity
  8
0
  6
Continuous
 62
     7
370
    25
100
AcDbLine
 10
-173.3233218584
 20
308.1313577328
 30
0.0
 11
-173.0346467238
 21
307.7540029427
 31
0.0
  0
LINE
  5
6CF
330
1F
100
AcDbEntity
  8
0
  6
Continuous
 62
     7
370
    25
100
AcDbLine
 10
-173.0346467238
 20
307.7540029427
 30
0.0
 11
-172.4572964546
 21
307.7540029427
 31
0.0
  0
LINE
  5
6D0
330
1F
100
AcDbEntity
  8
0
  6
Continuous
 62
     7
370
    25
100
AcDbLine
 10
-172.4572964546
 20
307.7540029427
 30
0.0
 11
-172.16862132
 21
308.1313577328
 31
0.0
  0
LINE
  5
6D1
330
1F
100
AcDbEntity
  8
0
  6
Continuous
 62
     7
370
    25
100
AcDbLine
 10
-172.16862132
 20
308.1313577328
 30
0.0
 11
-172.4572964546
 21
308.5087125229
 31
0.0
  0
LINE
  5
6D2
330
1F
100
AcDbEntity
  8
0
  6
Continuous
 62
     7
370
    25
100
AcDbLine
 10
-172.4572964546
 20
308.5087125229
 30
0.0
 11
-173.0346467238
 21
308.5087125229
 31
0.0
  0
LINE
  5
6D3
330
1F
100
AcDbEntity
  8
0
  6
Continuous
 62
     7
370
    25
100
AcDbLine
 10
-172.0797350662
 20
309.7569685898
 30
0.0
 11
-172.2233218584
 21
309.5692726045
 31
0.0
  0
LINE
  5
6D4
330
1F
100
AcDbEntity
  8
0
  6
Continuous
 62
     7
370
    25
100
AcDbLine
 10
-172.2233218584
 20
309.5692726045
 30
0.0
 11
-171.9346467238
 21
309.1919178144
 31
0.0
  0
LINE
  5
6D5
330
1F
100
AcDbEntity
  8
0
  6
Continuous
 62
     7
370
    25
100
AcDbLine
 10
-171.9346467238
 20
309.1919178144
 30
0.0
 11
-171.3572964546
 21
309.1919178144
 31
0.0
  0
LINE
  5
6D6
330
1F
100
AcDbEntity
  8
0
  6
Continuous
 62
     7
370
    25
100
AcDbLine
 10
-171.3572964546
 20
309.1919178144
 30
0.0
 11
-171.06862132
 21
309.5692726045
 31
0.0
  0
LINE
  5
6D7
330
1F
100
AcDbEntity
  8
0
  6
Continuous
 62
     7
370
    25
100
AcDbLine
 10
-171.06862132
 20
309.5692726045
 30
0.0
 11
-171.3572964546
 21
309.9466273946
 31
0.0
  0
LINE
  5
6D8
330
1F
100
AcDbEntity
  8
0
  6
Continuous
 62
     7
370
    25
100
AcDbLine
 10
-171.3572964546
 20
309.9466273946
 30
0.0
 11
-171.8332913562
 21
309.9466273946
 31
0.0
  0
LINE
  5
6D9
330
1F
100
AcDbEntity
  8
0
  6
Continuous
 62
     7
370
    25
100
AcDbLine
 10
-168.7662153726
 20
311.2125563419
 30
0.0
 11
-168.9233218584
 21
311.0071874762
 31
0.0
  0
LINE
  5
6DA
330
1F
100
AcDbEntity
  8
0
  6
Continuous
 62
     7
370
    25
100
AcDbLine
 10
-168.9233218584
 20
311.0071874762
 30
0.0
 11
-168.6346467238
 21
310.629832686
 31
0.0
  0
LINE
  5
6DB
330
1F
100
AcDbEntity
  8
0
  6
Continuous
 62
     7
370
    25
100
AcDbLine
 10
-168.6346467238
 20
310.629832686
 30
0.0
 11
-168.0572964546
 21
310.629832686
 31
0.0
  0
LINE
  5
6DC
330
1F
100
AcDbEntity
  8
0
  6
Continuous
 62
     7
370
    25
100
AcDbLine
 10
-168.0572964546
 20
310.629832686
 30
0.0
 11
-167.76862132
 21
311.0071874762
 31
0.0
  0
LINE
  5
6DD
330
1F
100
AcDbEntity
  8
0
  6
Continuous
 62
     7
370
    25
100
AcDbLine
 10
-167.76862132
 20
311.0071874762
 30
0.0
 11
-168.0030397158
 21
311.3136181103
 31
0.0
  0
LINE
  5
6DE
330
1F
100
AcDbEntity
  8
0
  6
Continuous
 62
     7
370
    25
100
AcDbLine
 10
-166.4889034625
 20
311.3136181103
 30
0.0
 11
-166.7233218584
 21
311.0071874762
 31
0.0
  0
LINE
  5
6DF
330
1F
100
AcDbEntity
  8
0
  6
Continuous
 62
     7
370
    25
100
AcDbLine
 10
-166.7233218584
 20
311.0071874762
 30
0.0
 11
-166.4346467238
 21
310.629832686
 31
0.0
  0
LINE
  5
6E0
330
1F
100
AcDbEntity
  8
0
  6
Continuous
 62
     7
370
    25
100
AcDbLine
 10
-166.4346467238
 20
310.629832686
 30
0.0
 11
-165.8572964546
 21
310.629832686
 31
0.0
  0
LINE
  5
6E1
330
1F
100
AcDbEntity
  8
0
  6
Continuous
 62
     7
370
    25
100
AcDbLine
 10
-165.8572964546
 20
310.629832686
 30
0.0
 11
-165.56862132
 21
311.0071874762
 31
0.0
  0
LINE
  5
6E2
330
1F
100
AcDbEntity
  8
0
  6
Continuous
 62
     7
370
    25
100
AcDbLine
 10
-165.56862132
 20
311.0071874762
 30
0.0
 11
-165.7257278058
 21
311.2125563419
 31
0.0
  0
LINE
  5
6E3
330
1F
100
AcDbEntity
  8
0
  6
Continuous
 62
     7
370
    25
100
AcDbLine
 10
-163.1346467238
 20
309.9466273946
 30
0.0
 11
-163.4233218584
 21
309.5692726045
 31
0.0
  0
LINE
  5
6E4
330
1F
100
AcDbEntity
  8
0
  6
Continuous
 62
     7
370
    25
100
AcDbLine
 10
-163.4233218584
 20
309.5692726045
 30
0.0
 11
-163.1346467238
 21
309.1919178144
 31
0.0
  0
LINE
  5
6E5
330
1F
100
AcDbEntity
  8
0
  6
Continuous
 62
     7
370
    25
100
AcDbLine
 10
-163.1346467238
 20
309.1919178144
 30
0.0
 11
-162.5572964546
 21
309.1919178144
 31
0.0
  0
LINE
  5
6E6
330
1F
100
AcDbEntity
  8
0
  6
Continuous
 62
     7
370
    25
100
AcDbLine
 10
-162.5572964546
 20
309.1919178144
 30
0.0
 11
-162.26862132
 21
309.5692726045
 31
0.0
  0
LINE
  5
6E7
330
1F
100
AcDbEntity
  8
0
  6
Continuous
 62
     7
370
    25
100
AcDbLine
 10
-162.26862132
 20
309.5692726045
 30
0.0
 11
-162.4122081122
 21
309.7569685898
 31
0.0
  0
LINE
  5
6E8
330
1F
100
AcDbEntity
  8
0
  6
Continuous
 62
     7
370
    25
100
AcDbLine
 10
-162.6586518222
 20
309.9466273946
 30
0.0
 11
-163.1346467238
 21
309.9466273946
 31
0.0
  0
LINE
  5
6E9
330
1F
100
AcDbEntity
  8
0
  6
Continuous
 62
     7
370
    25
100
AcDbLine
 10
-162.0346467238
 20
308.5087125229
 30
0.0
 11
-162.3233218584
 21
308.1313577328
 31
0.0
  0
LINE
  5
6EA
330
1F
100
AcDbEntity
  8
0
  6
Continuous
 62
     7
370
    25
100
AcDbLine
 10
-162.3233218584
 20
308.1313577328
 30
0.0
 11
-162.0346467238
 21
307.7540029427
 31
0.0
  0
LINE
  5
6EB
330
1F
100
AcDbEntity
  8
0
  6
Continuous
 62
     7
370
    25
100
AcDbLine
 10
-162.0346467238
 20
307.7540029427
 30
0.0
 11
-161.4572964546
 21
307.7540029427
 31
0.0
  0
LINE
  5
6EC
330
1F
100
AcDbEntity
  8
0
  6
Continuous
 62
     7
370
    25
100
AcDbLine
 10
-161.4572964546
 20
307.7540029427
 30
0.0
 11
-161.16862132
 21
308.1313577328
 31
0.0
  0
LINE
  5
6ED
330
1F
100
AcDbEntity
  8
0
  6
Continuous
 62
     7
370
    25
100
AcDbLine
 10
-161.16862132
 20
308.1313577328
 30
0.0
 11
-161.4572964546
 21
308.5087125229
 31
0.0
  0
LINE
  5
6EE
330
1F
100
AcDbEntity
  8
0
  6
Continuous
 62
     7
370
    25
100
AcDbLine
 10
-161.4572964546
 20
308.5087125229
 30
0.0
 11
-162.0346467238
 21
308.5087125229
 31
0.0
  0
LINE
  5
6EF
330
1F
100
AcDbEntity
  8
0
  6
Continuous
 62
     7
370
    25
100
AcDbLine
 10
-162.0346467238
 20
305.6328827795
 30
0.0
 11
-162.3233218584
 21
305.2555279894
 31
0.0
  0
LINE
  5
6F0
330
1F
100
AcDbEntity
  8
0
  6
Continuous
 62
     7
370
    25
100
AcDbLine
 10
-162.3233218584
 20
305.2555279894
 30
0.0
 11
-162.0346467238
 21
304.8781731993
 31
0.0
  0
LINE
  5
6F1
330
1F
100
AcDbEntity
  8
0
  6
Continuous
 62
     7
370
    25
100
AcDbLine
 10
-162.0346467238
 20
304.8781731993
 30
0.0
 11
-161.4572964546
 21
304.8781731993
 31
0.0
  0
LINE
  5
6F2
330
1F
100
AcDbEntity
  8
0
  6
Continuous
 62
     7
370
    25
100
AcDbLine
 10
-161.4572964546
 20
304.8781731993
 30
0.0
 11
-161.16862132
 21
305.2555279894
 31
0.0
  0
LINE
  5
6F3
330
1F
100
AcDbEntity
  8
0
  6
Continuous
 62
     7
370
    25
100
AcDbLine
 10
-161.16862132
 20
305.2555279894
 30
0.0
 11
-161.4572964546
 21
305.6328827795
 31
0.0
  0
LINE
  5
6F4
330
1F
100
AcDbEntity
  8
0
  6
Continuous
 62
     7
370
    25
100
AcDbLine
 10
-162.0346467238
 20
305.6328827795
 30
0.0
 11
-161.4572964546
 21
305.6328827795
 31
0.0
  0
LINE
  5
6F5
330
1F
100
AcDbEntity
  8
0
  6
Continuous
 62
     7
370
    25
100
AcDbLine
 10
-163.1346467238
 20
304.1949679078
 30
0.0
 11
-163.4233218584
 21
303.8176131177
 31
0.0
  0
LINE
  5
6F6
330
1F
100
AcDbEntity
  8
0
  6
Continuous
 62
     7
370
    25
100
AcDbLine
 10
-163.4233218584
 20
303.8176131177
 30
0.0
 11
-163.1346467238
 21
303.4402583276
 31
0.0
  0
LINE
  5
6F7
330
1F
100
AcDbEntity
  8
0
  6
Continuous
 62
     7
370
    25
100
AcDbLine
 10
-163.1346467238
 20
303.4402583276
 30
0.0
 11
-162.5572964546
 21
303.4402583276
 31
0.0
  0
LINE
  5
6F8
330
1F
100
AcDbEntity
  8
0
  6
Continuous
 62
     7
370
    25
100
AcDbLine
 10
-162.5572964546
 20
303.4402583276
 30
0.0
 11
-162.26862132
 21
303.8176131177
 31
0.0
  0
LINE
  5
6F9
330
1F
100
AcDbEntity
  8
0
  6
Continuous
 62
     7
370
    25
100
AcDbLine
 10
-162.26862132
 20
303.8176131177
 30
0.0
 11
-162.5572964546
 21
304.1949679078
 31
0.0
  0
LINE
  5
6FA
330
1F
100
AcDbEntity
  8
0
  6
Continuous
 62
     7
370
    25
100
AcDbLine
 10
-162.5572964546
 20
304.1949679078
 30
0.0
 11
-163.1346467238
 21
304.1949679078
 31
0.0
  0
LINE
  5
6FB
330
1F
100
AcDbEntity
  8
0
  6
Continuous
 62
     7
370
    25
100
AcDbLine
 10
-166.4346467238
 20
302.7570530361
 30
0.0
 11
-166.7233218584
 21
302.379698246
 31
0.0
  0
LINE
  5
6FC
330
1F
100
AcDbEntity
  8
0
  6
Continuous
 62
     7
370
    25
100
AcDbLine
 10
-166.7233218584
 20
302.379698246
 30
0.0
 11
-166.4346467238
 21
302.0023434559
 31
0.0
  0
LINE
  5
6FD
330
1F
100
AcDbEntity
  8
0
  6
Continuous
 62
     7
370
    25
100
AcDbLine
 10
-166.4346467238
 20
302.0023434559
 30
0.0
 11
-165.8572964546
 21
302.0023434559
 31
0.0
  0
LINE
  5
6FE
330
1F
100
AcDbEntity
  8
0
  6
Continuous
 62
     7
370
    25
100
AcDbLine
 10
-165.8572964546
 20
302.0023434559
 30
0.0
 11
-165.56862132
 21
302.379698246
 31
0.0
  0
LINE
  5
6FF
330
1F
100
AcDbEntity
  8
0
  6
Continuous
 62
     7
370
    25
100
AcDbLine
 10
-165.56862132
 20
302.379698246
 30
0.0
 11
-165.8572964546
 21
302.7570530361
 31
0.0
  0
LINE
  5
700
330
1F
100
AcDbEntity
  8
0
  6
Continuous
 62
     7
370
    25
100
AcDbLine
 10
-165.8572964546
 20
302.7570530361
 30
0.0
 11
-166.4346467238
 21
302.7570530361
 31
0.0
  0
LINE
  5
701
330
1F
100
AcDbEntity
  8
0
  6
Continuous
 62
     7
370
    25
100
AcDbLine
 10
-168.6346467238
 20
302.7570530361
 30
0.0
 11
-168.9233218584
 21
302.379698246
 31
0.0
  0
LINE
  5
702
330
1F
100
AcDbEntity
  8
0
  6
Continuous
 62
     7
370
    25
100
AcDbLine
 10
-168.9233218584
 20
302.379698246
 30
0.0
 11
-168.6346467238
 21
302.0023434559
 31
0.0
  0
LINE
  5
703
330
1F
100
AcDbEntity
  8
0
  6
Continuous
 62
     7
370
    25
100
AcDbLine
 10
-168.6346467238
 20
302.0023434559
 30
0.0
 11
-168.0572964546
 21
302.0023434559
 31
0.0
  0
LINE
  5
704
330
1F
100
AcDbEntity
  8
0
  6
Continuous
 62
     7
370
    25
100
AcDbLine
 10
-168.0572964546
 20
302.0023434559
 30
0.0
 11
-167.76862132
 21
302.379698246
 31
0.0
  0
LINE
  5
705
330
1F
100
AcDbEntity
  8
0
  6
Continuous
 62
     7
370
    25
100
AcDbLine
 10
-167.76862132
 20
302.379698246
 30
0.0
 11
-168.0572964546
 21
302.7570530361
 31
0.0
  0
LINE
  5
706
330
1F
100
AcDbEntity
  8
0
  6
Continuous
 62
     7
370
    25
100
AcDbLine
 10
-168.0572964546
 20
302.7570530361
 30
0.0
 11
-168.6346467238
 21
302.7570530361
 31
0.0
  0
LINE
  5
707
330
1F
100
AcDbEntity
  8
0
  6
Continuous
 62
     7
370
    25
100
AcDbLine
 10
-171.9346467238
 20
304.1949679078
 30
0.0
 11
-172.2233218584
 21
303.8176131177
 31
0.0
  0
LINE
  5
708
330
1F
100
AcDbEntity
  8
0
  6
Continuous
 62
     7
370
    25
100
AcDbLine
 10
-172.2233218584
 20
303.8176131177
 30
0.0
 11
-171.9346467238
 21
303.4402583276
 31
0.0
  0
LINE
  5
709
330
1F
100
AcDbEntity
  8
0
  6
Continuous
 62
     7
370
    25
100
AcDbLine
 10
-171.9346467238
 20
303.4402583276
 30
0.0
 11
-171.3572964546
 21
303.4402583276
 31
0.0
  0
LINE
  5
70A
330
1F
100
AcDbEntity
  8
0
  6
Continuous
 62
     7
370
    25
100
AcDbLine
 10
-171.3572964546
 20
303.4402583276
 30
0.0
 11
-171.06862132
 21
303.8176131177
 31
0.0
  0
LINE
  5
70B
330
1F
100
AcDbEntity
  8
0
  6
Continuous
 62
     7
370
    25
100
AcDbLine
 10
-171.06862132
 20
303.8176131177
 30
0.0
 11
-171.3572964546
 21
304.1949679078
 31
0.0
  0
LINE
  5
70C
330
1F
100
AcDbEntity
  8
0
  6
Continuous
 62
     7
370
    25
100
AcDbLine
 10
-171.3572964546
 20
304.1949679078
 30
0.0
 11
-171.9346467238
 21
304.1949679078
 31
0.0
  0
LINE
  5
70D
330
1F
100
AcDbEntity
  8
0
  6
Continuous
 62
     7
370
    25
100
AcDbLine
 10
-173.0346467238
 20
305.6328827795
 30
0.0
 11
-173.3233218584
 21
305.2555279894
 31
0.0
  0
LINE
  5
70E
330
1F
100
AcDbEntity
  8
0
  6
Continuous
 62
     7
370
    25
100
AcDbLine
 10
-173.3233218584
 20
305.2555279894
 30
0.0
 11
-173.0346467238
 21
304.8781731993
 31
0.0
  0
LINE
  5
70F
330
1F
100
AcDbEntity
  8
0
  6
Continuous
 62
     7
370
    25
100
AcDbLine
 10
-173.0346467238
 20
304.8781731993
 30
0.0
 11
-172.4572964546
 21
304.8781731993
 31
0.0
  0
LINE
  5
710
330
1F
100
AcDbEntity
  8
0
  6
Continuous
 62
     7
370
    25
100
AcDbLine
 10
-172.4572964546
 20
304.8781731993
 30
0.0
 11
-172.16862132
 21
305.2555279894
 31
0.0
  0
LINE
  5
711
330
1F
100
AcDbEntity
  8
0
  6
Continuous
 62
     7
370
    25
100
AcDbLine
 10
-172.16862132
 20
305.2555279894
 30
0.0
 11
-172.4572964546
 21
305.6328827795
 31
0.0
  0
LINE
  5
712
330
1F
100
AcDbEntity
  8
0
  6
Continuous
 62
     7
370
    25
100
AcDbLine
 10
-172.4572964546
 20
305.6328827795
 30
0.0
 11
-173.0346467238
 21
305.6328827795
 31
0.0
  0
LINE
  5
713
330
1F
100
AcDbEntity
  8
0
  6
Continuous
 62
     7
370
    25
100
AcDbLine
 10
-170.8346467238
 20
308.5087125229
 30
0.0
 11
-171.1233218584
 21
308.1313577328
 31
0.0
  0
LINE
  5
714
330
1F
100
AcDbEntity
  8
0
  6
Continuous
 62
     7
370
    25
100
AcDbLine
 10
-171.1233218584
 20
308.1313577328
 30
0.0
 11
-170.8346467238
 21
307.7540029427
 31
0.0
  0
LINE
  5
715
330
1F
100
AcDbEntity
  8
0
  6
Continuous
 62
     7
370
    25
100
AcDbLine
 10
-170.8346467238
 20
307.7540029427
 30
0.0
 11
-170.2572964546
 21
307.7540029427
 31
0.0
  0
LINE
  5
716
330
1F
100
AcDbEntity
  8
0
  6
Continuous
 62
     7
370
    25
100
AcDbLine
 10
-170.2572964546
 20
307.7540029427
 30
0.0
 11
-169.96862132
 21
308.1313577328
 31
0.0
  0
LINE
  5
717
330
1F
100
AcDbEntity
  8
0
  6
Continuous
 62
     7
370
    25
100
AcDbLine
 10
-169.96862132
 20
308.1313577328
 30
0.0
 11
-170.2572964546
 21
308.5087125229
 31
0.0
  0
LINE
  5
718
330
1F
100
AcDbEntity
  8
0
  6
Continuous
 62
     7
370
    25
100
AcDbLine
 10
-170.2572964546
 20
308.5087125229
 30
0.0
 11
-170.8346467238
 21
308.5087125229
 31
0.0
  0
LINE
  5
719
330
1F
100
AcDbEntity
  8
0
  6
Continuous
 62
     7
370
    25
100
AcDbLine
 10
-169.7346467238
 20
309.9466273946
 30
0.0
 11
-170.0233218584
 21
309.5692726045
 31
0.0
  0
LINE
  5
71A
330
1F
100
AcDbEntity
  8
0
  6
Continuous
 62
     7
370
    25
100
AcDbLine
 10
-170.0233218584
 20
309.5692726045
 30
0.0
 11
-169.7346467238
 21
309.1919178144
 31
0.0
  0
LINE
  5
71B
330
1F
100
AcDbEntity
  8
0
  6
Continuous
 62
     7
370
    25
100
AcDbLine
 10
-169.7346467238
 20
309.1919178144
 30
0.0
 11
-169.1572964546
 21
309.1919178144
 31
0.0
  0
LINE
  5
71C
330
1F
100
AcDbEntity
  8
0
  6
Continuous
 62
     7
370
    25
100
AcDbLine
 10
-169.1572964546
 20
309.1919178144
 30
0.0
 11
-168.86862132
 21
309.5692726045
 31
0.0
  0
LINE
  5
71D
330
1F
100
AcDbEntity
  8
0
  6
Continuous
 62
     7
370
    25
100
AcDbLine
 10
-168.86862132
 20
309.5692726045
 30
0.0
 11
-169.1572964546
 21
309.9466273946
 31
0.0
  0
LINE
  5
71E
330
1F
100
AcDbEntity
  8
0
  6
Continuous
 62
     7
370
    25
100
AcDbLine
 10
-169.1572964546
 20
309.9466273946
 30
0.0
 11
-169.7346467238
 21
309.9466273946
 31
0.0
  0
LINE
  5
71F
330
1F
100
AcDbEntity
  8
0
  6
Continuous
 62
     7
370
    25
100
AcDbLine
 10
-167.5346467238
 20
309.9466273946
 30
0.0
 11
-167.8233218584
 21
309.5692726045
 31
0.0
  0
LINE
  5
720
330
1F
100
AcDbEntity
  8
0
  6
Continuous
 62
     7
370
    25
100
AcDbLine
 10
-167.8233218584
 20
309.5692726045
 30
0.0
 11
-167.5346467238
 21
309.1919178144
 31
0.0
  0
LINE
  5
721
330
1F
100
AcDbEntity
  8
0
  6
Continuous
 62
     7
370
    25
100
AcDbLine
 10
-167.5346467238
 20
309.1919178144
 30
0.0
 11
-166.9572964546
 21
309.1919178144
 31
0.0
  0
LINE
  5
722
330
1F
100
AcDbEntity
  8
0
  6
Continuous
 62
     7
370
    25
100
AcDbLine
 10
-166.9572964546
 20
309.1919178144
 30
0.0
 11
-166.66862132
 21
309.5692726045
 31
0.0
  0
LINE
  5
723
330
1F
100
AcDbEntity
  8
0
  6
Continuous
 62
     7
370
    25
100
AcDbLine
 10
-166.66862132
 20
309.5692726045
 30
0.0
 11
-166.9572964546
 21
309.9466273946
 31
0.0
  0
LINE
  5
724
330
1F
100
AcDbEntity
  8
0
  6
Continuous
 62
     7
370
    25
100
AcDbLine
 10
-166.9572964546
 20
309.9466273946
 30
0.0
 11
-167.5346467238
 21
309.9466273946
 31
0.0
  0
LINE
  5
725
330
1F
100
AcDbEntity
  8
0
  6
Continuous
 62
     7
370
    25
100
AcDbLine
 10
-165.3346467238
 20
309.9466273946
 30
0.0
 11
-165.6233218584
 21
309.5692726045
 31
0.0
  0
LINE
  5
726
330
1F
100
AcDbEntity
  8
0
  6
Continuous
 62
     7
370
    25
100
AcDbLine
 10
-165.6233218584
 20
309.5692726045
 30
0.0
 11
-165.3346467238
 21
309.1919178144
 31
0.0
  0
LINE
  5
727
330
1F
100
AcDbEntity
  8
0
  6
Continuous
 62
     7
370
    25
100
AcDbLine
 10
-165.3346467238
 20
309.1919178144
 30
0.0
 11
-164.7572964546
 21
309.1919178144
 31
0.0
  0
LINE
  5
728
330
1F
100
AcDbEntity
  8
0
  6
Continuous
 62
     7
370
    25
100
AcDbLine
 10
-164.7572964546
 20
309.1919178144
 30
0.0
 11
-164.46862132
 21
309.5692726045
 31
0.0
  0
LINE
  5
729
330
1F
100
AcDbEntity
  8
0
  6
Continuous
 62
     7
370
    25
100
AcDbLine
 10
-164.46862132
 20
309.5692726045
 30
0.0
 11
-164.7572964546
 21
309.9466273946
 31
0.0
  0
LINE
  5
72A
330
1F
100
AcDbEntity
  8
0
  6
Continuous
 62
     7
370
    25
100
AcDbLine
 10
-164.7572964546
 20
309.9466273946
 30
0.0
 11
-165.3346467238
 21
309.9466273946
 31
0.0
  0
LINE
  5
72B
330
1F
100
AcDbEntity
  8
0
  6
Continuous
 62
     7
370
    25
100
AcDbLine
 10
-164.2346467238
 20
308.5087125229
 30
0.0
 11
-164.5233218584
 21
308.1313577328
 31
0.0
  0
LINE
  5
72C
330
1F
100
AcDbEntity
  8
0
  6
Continuous
 62
     7
370
    25
100
AcDbLine
 10
-164.5233218584
 20
308.1313577328
 30
0.0
 11
-164.2346467238
 21
307.7540029427
 31
0.0
  0
LINE
  5
72D
330
1F
100
AcDbEntity
  8
0
  6
Continuous
 62
     7
370
    25
100
AcDbLine
 10
-164.2346467238
 20
307.7540029427
 30
0.0
 11
-163.6572964546
 21
307.7540029427
 31
0.0
  0
LINE
  5
72E
330
1F
100
AcDbEntity
  8
0
  6
Continuous
 62
     7
370
    25
100
AcDbLine
 10
-163.6572964546
 20
307.7540029427
 30
0.0
 11
-163.36862132
 21
308.1313577328
 31
0.0
  0
LINE
  5
72F
330
1F
100
AcDbEntity
  8
0
  6
Continuous
 62
     7
370
    25
100
AcDbLine
 10
-163.36862132
 20
308.1313577328
 30
0.0
 11
-163.6572964546
 21
308.5087125229
 31
0.0
  0
LINE
  5
730
330
1F
100
AcDbEntity
  8
0
  6
Continuous
 62
     7
370
    25
100
AcDbLine
 10
-163.6572964546
 20
308.5087125229
 30
0.0
 11
-164.2346467238
 21
308.5087125229
 31
0.0
  0
LINE
  5
731
330
1F
100
AcDbEntity
  8
0
  6
Continuous
 62
     7
370
    25
100
AcDbLine
 10
-163.1346467238
 20
307.0707976512
 30
0.0
 11
-163.4233218584
 21
306.6934428611
 31
0.0
  0
LINE
  5
732
330
1F
100
AcDbEntity
  8
0
  6
Continuous
 62
     7
370
    25
100
AcDbLine
 10
-163.4233218584
 20
306.6934428611
 30
0.0
 11
-163.1346467238
 21
306.316088071
 31
0.0
  0
LINE
  5
733
330
1F
100
AcDbEntity
  8
0
  6
Continuous
 62
     7
370
    25
100
AcDbLine
 10
-163.1346467238
 20
306.316088071
 30
0.0
 11
-162.5572964546
 21
306.316088071
 31
0.0
  0
LINE
  5
734
330
1F
100
AcDbEntity
  8
0
  6
Continuous
 62
     7
370
    25
100
AcDbLine
 10
-162.5572964546
 20
306.316088071
 30
0.0
 11
-162.26862132
 21
306.6934428611
 31
0.0
  0
LINE
  5
735
330
1F
100
AcDbEntity
  8
0
  6
Continuous
 62
     7
370
    25
100
AcDbLine
 10
-162.26862132
 20
306.6934428611
 30
0.0
 11
-162.5572964546
 21
307.0707976512
 31
0.0
  0
LINE
  5
736
330
1F
100
AcDbEntity
  8
0
  6
Continuous
 62
     7
370
    25
100
AcDbLine
 10
-162.5572964546
 20
307.0707976512
 30
0.0
 11
-163.1346467238
 21
307.0707976512
 31
0.0
  0
LINE
  5
737
330
1F
100
AcDbEntity
  8
0
  6
Continuous
 62
     7
370
    25
100
AcDbLine
 10
-164.2346467238
 20
305.6328827795
 30
0.0
 11
-164.5233218584
 21
305.2555279894
 31
0.0
  0
LINE
  5
738
330
1F
100
AcDbEntity
  8
0
  6
Continuous
 62
     7
370
    25
100
AcDbLine
 10
-164.5233218584
 20
305.2555279894
 30
0.0
 11
-164.2346467238
 21
304.8781731993
 31
0.0
  0
LINE
  5
739
330
1F
100
AcDbEntity
  8
0
  6
Continuous
 62
     7
370
    25
100
AcDbLine
 10
-164.2346467238
 20
304.8781731993
 30
0.0
 11
-163.6572964546
 21
304.8781731993
 31
0.0
  0
LINE
  5
73A
330
1F
100
AcDbEntity
  8
0
  6
Continuous
 62
     7
370
    25
100
AcDbLine
 10
-163.6572964546
 20
304.8781731993
 30
0.0
 11
-163.36862132
 21
305.2555279894
 31
0.0
  0
LINE
  5
73B
330
1F
100
AcDbEntity
  8
0
  6
Continuous
 62
     7
370
    25
100
AcDbLine
 10
-163.36862132
 20
305.2555279894
 30
0.0
 11
-163.6572964546
 21
305.6328827795
 31
0.0
  0
LINE
  5
73C
330
1F
100
AcDbEntity
  8
0
  6
Continuous
 62
     7
370
    25
100
AcDbLine
 10
-163.6572964546
 20
305.6328827795
 30
0.0
 11
-164.2346467238
 21
305.6328827795
 31
0.0
  0
LINE
  5
73D
330
1F
100
AcDbEntity
  8
0
  6
Continuous
 62
     7
370
    25
100
AcDbLine
 10
-165.3346467238
 20
304.1949679078
 30
0.0
 11
-165.6233218584
 21
303.8176131177
 31
0.0
  0
LINE
  5
73E
330
1F
100
AcDbEntity
  8
0
  6
Continuous
 62
     7
370
    25
100
AcDbLine
 10
-165.6233218584
 20
303.8176131177
 30
0.0
 11
-165.3346467238
 21
303.4402583276
 31
0.0
  0
LINE
  5
73F
330
1F
100
AcDbEntity
  8
0
  6
Continuous
 62
     7
370
    25
100
AcDbLine
 10
-165.3346467238
 20
303.4402583276
 30
0.0
 11
-164.7572964546
 21
303.4402583276
 31
0.0
  0
LINE
  5
740
330
1F
100
AcDbEntity
  8
0
  6
Continuous
 62
     7
370
    25
100
AcDbLine
 10
-164.7572964546
 20
303.4402583276
 30
0.0
 11
-164.46862132
 21
303.8176131177
 31
0.0
  0
LINE
  5
741
330
1F
100
AcDbEntity
  8
0
  6
Continuous
 62
     7
370
    25
100
AcDbLine
 10
-164.46862132
 20
303.8176131177
 30
0.0
 11
-164.7572964546
 21
304.1949679078
 31
0.0
  0
LINE
  5
742
330
1F
100
AcDbEntity
  8
0
  6
Continuous
 62
     7
370
    25
100
AcDbLine
 10
-164.7572964546
 20
304.1949679078
 30
0.0
 11
-165.3346467238
 21
304.1949679078
 31
0.0
  0
LINE
  5
743
330
1F
100
AcDbEntity
  8
0
  6
Continuous
 62
     7
370
    25
100
AcDbLine
 10
-167.5346467238
 20
304.1949679078
 30
0.0
 11
-167.8233218584
 21
303.8176131177
 31
0.0
  0
LINE
  5
744
330
1F
100
AcDbEntity
  8
0
  6
Continuous
 62
     7
370
    25
100
AcDbLine
 10
-167.8233218584
 20
303.8176131177
 30
0.0
 11
-167.5346467238
 21
303.4402583276
 31
0.0
  0
LINE
  5
745
330
1F
100
AcDbEntity
  8
0
  6
Continuous
 62
     7
370
    25
100
AcDbLine
 10
-167.5346467238
 20
303.4402583276
 30
0.0
 11
-166.9572964546
 21
303.4402583276
 31
0.0
  0
LINE
  5
746
330
1F
100
AcDbEntity
  8
0
  6
Continuous
 62
     7
370
    25
100
AcDbLine
 10
-166.9572964546
 20
303.4402583276
 30
0.0
 11
-166.66862132
 21
303.8176131177
 31
0.0
  0
LINE
  5
747
330
1F
100
AcDbEntity
  8
0
  6
Continuous
 62
     7
370
    25
100
AcDbLine
 10
-166.66862132
 20
303.8176131177
 30
0.0
 11
-166.9572964546
 21
304.1949679078
 31
0.0
  0
LINE
  5
748
330
1F
100
AcDbEntity
  8
0
  6
Continuous
 62
     7
370
    25
100
AcDbLine
 10
-166.9572964546
 20
304.1949679078
 30
0.0
 11
-167.5346467238
 21
304.1949679078
 31
0.0
  0
LINE
  5
749
330
1F
100
AcDbEntity
  8
0
  6
Continuous
 62
     7
370
    25
100
AcDbLine
 10
-169.7346467238
 20
304.1949679078
 30
0.0
 11
-170.0233218584
 21
303.8176131177
 31
0.0
  0
LINE
  5
74A
330
1F
100
AcDbEntity
  8
0
  6
Continuous
 62
     7
370
    25
100
AcDbLine
 10
-170.0233218584
 20
303.8176131177
 30
0.0
 11
-169.7346467238
 21
303.4402583276
 31
0.0
  0
LINE
  5
74B
330
1F
100
AcDbEntity
  8
0
  6
Continuous
 62
     7
370
    25
100
AcDbLine
 10
-169.7346467238
 20
303.4402583276
 30
0.0
 11
-169.1572964546
 21
303.4402583276
 31
0.0
  0
LINE
  5
74C
330
1F
100
AcDbEntity
  8
0
  6
Continuous
 62
     7
370
    25
100
AcDbLine
 10
-169.1572964546
 20
303.4402583276
 30
0.0
 11
-168.86862132
 21
303.8176131177
 31
0.0
  0
LINE
  5
74D
330
1F
100
AcDbEntity
  8
0
  6
Continuous
 62
     7
370
    25
100
AcDbLine
 10
-168.86862132
 20
303.8176131177
 30
0.0
 11
-169.1572964546
 21
304.1949679078
 31
0.0
  0
LINE
  5
74E
330
1F
100
AcDbEntity
  8
0
  6
Continuous
 62
     7
370
    25
100
AcDbLine
 10
-169.1572964546
 20
304.1949679078
 30
0.0
 11
-169.7346467238
 21
304.1949679078
 31
0.0
  0
LINE
  5
74F
330
1F
100
AcDbEntity
  8
0
  6
Continuous
 62
     7
370
    25
100
AcDbLine
 10
-170.8346467238
 20
305.6328827795
 30
0.0
 11
-171.1233218584
 21
305.2555279894
 31
0.0
  0
LINE
  5
750
330
1F
100
AcDbEntity
  8
0
  6
Continuous
 62
     7
370
    25
100
AcDbLine
 10
-171.1233218584
 20
305.2555279894
 30
0.0
 11
-170.8346467238
 21
304.8781731993
 31
0.0
  0
LINE
  5
751
330
1F
100
AcDbEntity
  8
0
  6
Continuous
 62
     7
370
    25
100
AcDbLine
 10
-170.8346467238
 20
304.8781731993
 30
0.0
 11
-170.2572964546
 21
304.8781731993
 31
0.0
  0
LINE
  5
752
330
1F
100
AcDbEntity
  8
0
  6
Continuous
 62
     7
370
    25
100
AcDbLine
 10
-170.2572964546
 20
304.8781731993
 30
0.0
 11
-169.96862132
 21
305.2555279894
 31
0.0
  0
LINE
  5
753
330
1F
100
AcDbEntity
  8
0
  6
Continuous
 62
     7
370
    25
100
AcDbLine
 10
-169.96862132
 20
305.2555279894
 30
0.0
 11
-170.2572964546
 21
305.6328827795
 31
0.0
  0
LINE
  5
754
330
1F
100
AcDbEntity
  8
0
  6
Continuous
 62
     7
370
    25
100
AcDbLine
 10
-170.2572964546
 20
305.6328827795
 30
0.0
 11
-170.8346467238
 21
305.6328827795
 31
0.0
  0
LINE
  5
755
330
1F
100
AcDbEntity
  8
0
  6
Continuous
 62
     7
370
    25
100
AcDbLine
 10
-171.9346467238
 20
307.0707976512
 30
0.0
 11
-172.2233218584
 21
306.6934428611
 31
0.0
  0
LINE
  5
756
330
1F
100
AcDbEntity
  8
0
  6
Continuous
 62
     7
370
    25
100
AcDbLine
 10
-172.2233218584
 20
306.6934428611
 30
0.0
 11
-171.9346467238
 21
306.316088071
 31
0.0
  0
LINE
  5
757
330
1F
100
AcDbEntity
  8
0
  6
Continuous
 62
     7
370
    25
100
AcDbLine
 10
-171.9346467238
 20
306.316088071
 30
0.0
 11
-171.3572964546
 21
306.316088071
 31
0.0
  0
LINE
  5
758
330
1F
100
AcDbEntity
  8
0
  6
Continuous
 62
     7
370
    25
100
AcDbLine
 10
-171.3572964546
 20
306.316088071
 30
0.0
 11
-171.06862132
 21
306.6934428611
 31
0.0
  0
LINE
  5
759
330
1F
100
AcDbEntity
  8
0
  6
Continuous
 62
     7
370
    25
100
AcDbLine
 10
-171.06862132
 20
306.6934428611
 30
0.0
 11
-171.3572964546
 21
307.0707976512
 31
0.0
  0
LINE
  5
75A
330
1F
100
AcDbEntity
  8
0
  6
Continuous
 62
     7
370
    25
100
AcDbLine
 10
-171.3572964546
 20
307.0707976512
 30
0.0
 11
-171.9346467238
 21
307.0707976512
 31
0.0
  0
LINE
  5
75B
330
1F
100
AcDbEntity
  8
0
  6
Continuous
 62
     7
370
    25
100
AcDbLine
 10
-168.6346467238
 20
308.5087125229
 30
0.0
 11
-168.9233218584
 21
308.1313577328
 31
0.0
  0
LINE
  5
75C
330
1F
100
AcDbEntity
  8
0
  6
Continuous
 62
     7
370
    25
100
AcDbLine
 10
-168.9233218584
 20
308.1313577328
 30
0.0
 11
-168.6346467238
 21
307.7540029427
 31
0.0
  0
LINE
  5
75D
330
1F
100
AcDbEntity
  8
0
  6
Continuous
 62
     7
370
    25
100
AcDbLine
 10
-168.6346467238
 20
307.7540029427
 30
0.0
 11
-168.0572964546
 21
307.7540029427
 31
0.0
  0
LINE
  5
75E
330
1F
100
AcDbEntity
  8
0
  6
Continuous
 62
     7
370
    25
100
AcDbLine
 10
-168.0572964546
 20
307.7540029427
 30
0.0
 11
-167.76862132
 21
308.1313577328
 31
0.0
  0
LINE
  5
75F
330
1F
100
AcDbEntity
  8
0
  6
Continuous
 62
     7
370
    25
100
AcDbLine
 10
-167.76862132
 20
308.1313577328
 30
0.0
 11
-168.0572964546
 21
308.5087125229
 31
0.0
  0
LINE
  5
760
330
1F
100
AcDbEntity
  8
0
  6
Continuous
 62
     7
370
    25
100
AcDbLine
 10
-168.0572964546
 20
308.5087125229
 30
0.0
 11
-168.6346467238
 21
308.5087125229
 31
0.0
  0
LINE
  5
761
330
1F
100
AcDbEntity
  8
0
  6
Continuous
 62
     7
370
    25
100
AcDbLine
 10
-166.4346467238
 20
308.5087125229
 30
0.0
 11
-166.7233218584
 21
308.1313577328
 31
0.0
  0
LINE
  5
762
330
1F
100
AcDbEntity
  8
0
  6
Continuous
 62
     7
370
    25
100
AcDbLine
 10
-166.7233218584
 20
308.1313577328
 30
0.0
 11
-166.4346467238
 21
307.7540029427
 31
0.0
  0
LINE
  5
763
330
1F
100
AcDbEntity
  8
0
  6
Continuous
 62
     7
370
    25
100
AcDbLine
 10
-166.4346467238
 20
307.7540029427
 30
0.0
 11
-165.8572964546
 21
307.7540029427
 31
0.0
  0
LINE
  5
764
330
1F
100
AcDbEntity
  8
0
  6
Continuous
 62
     7
370
    25
100
AcDbLine
 10
-165.8572964546
 20
307.7540029427
 30
0.0
 11
-165.56862132
 21
308.1313577328
 31
0.0
  0
LINE
  5
765
330
1F
100
AcDbEntity
  8
0
  6
Continuous
 62
     7
370
    25
100
AcDbLine
 10
-165.56862132
 20
308.1313577328
 30
0.0
 11
-165.8572964546
 21
308.5087125229
 31
0.0
  0
LINE
  5
766
330
1F
100
AcDbEntity
  8
0
  6
Continuous
 62
     7
370
    25
100
AcDbLine
 10
-165.8572964546
 20
308.5087125229
 30
0.0
 11
-166.4346467238
 21
308.5087125229
 31
0.0
  0
LINE
  5
767
330
1F
100
AcDbEntity
  8
0
  6
Continuous
 62
     7
370
    25
100
AcDbLine
 10
-165.3346467238
 20
307.0707976512
 30
0.0
 11
-165.6233218584
 21
306.6934428611
 31
0.0
  0
LINE
  5
768
330
1F
100
AcDbEntity
  8
0
  6
Continuous
 62
     7
370
    25
100
AcDbLine
 10
-165.6233218584
 20
306.6934428611
 30
0.0
 11
-165.3346467238
 21
306.316088071
 31
0.0
  0
LINE
  5
769
330
1F
100
AcDbEntity
  8
0
  6
Continuous
 62
     7
370
    25
100
AcDbLine
 10
-165.3346467238
 20
306.316088071
 30
0.0
 11
-164.7572964546
 21
306.316088071
 31
0.0
  0
LINE
  5
76A
330
1F
100
AcDbEntity
  8
0
  6
Continuous
 62
     7
370
    25
100
AcDbLine
 10
-164.7572964546
 20
306.316088071
 30
0.0
 11
-164.46862132
 21
306.6934428611
 31
0.0
  0
LINE
  5
76B
330
1F
100
AcDbEntity
  8
0
  6
Continuous
 62
     7
370
    25
100
AcDbLine
 10
-164.46862132
 20
306.6934428611
 30
0.0
 11
-164.7572964546
 21
307.0707976512
 31
0.0
  0
LINE
  5
76C
330
1F
100
AcDbEntity
  8
0
  6
Continuous
 62
     7
370
    25
100
AcDbLine
 10
-164.7572964546
 20
307.0707976512
 30
0.0
 11
-165.3346467238
 21
307.0707976512
 31
0.0
  0
LINE
  5
76D
330
1F
100
AcDbEntity
  8
0
  6
Continuous
 62
     7
370
    25
100
AcDbLine
 10
-166.4346467238
 20
305.6328827795
 30
0.0
 11
-166.7233218584
 21
305.2555279894
 31
0.0
  0
LINE
  5
76E
330
1F
100
AcDbEntity
  8
0
  6
Continuous
 62
     7
370
    25
100
AcDbLine
 10
-166.7233218584
 20
305.2555279894
 30
0.0
 11
-166.4346467238
 21
304.8781731993
 31
0.0
  0
LINE
  5
76F
330
1F
100
AcDbEntity
  8
0
  6
Continuous
 62
     7
370
    25
100
AcDbLine
 10
-166.4346467238
 20
304.8781731993
 30
0.0
 11
-165.8572964546
 21
304.8781731993
 31
0.0
  0
LINE
  5
770
330
1F
100
AcDbEntity
  8
0
  6
Continuous
 62
     7
370
    25
100
AcDbLine
 10
-165.8572964546
 20
304.8781731993
 30
0.0
 11
-165.56862132
 21
305.2555279894
 31
0.0
  0
LINE
  5
771
330
1F
100
AcDbEntity
  8
0
  6
Continuous
 62
     7
370
    25
100
AcDbLine
 10
-165.56862132
 20
305.2555279894
 30
0.0
 11
-165.8572964546
 21
305.6328827795
 31
0.0
  0
LINE
  5
772
330
1F
100
AcDbEntity
  8
0
  6
Continuous
 62
     7
370
    25
100
AcDbLine
 10
-165.8572964546
 20
305.6328827795
 30
0.0
 11
-166.4346467238
 21
305.6328827795
 31
0.0
  0
LINE
  5
773
330
1F
100
AcDbEntity
  8
0
  6
Continuous
 62
     7
370
    25
100
AcDbLine
 10
-168.6346467238
 20
305.6328827795
 30
0.0
 11
-168.9233218584
 21
305.2555279894
 31
0.0
  0
LINE
  5
774
330
1F
100
AcDbEntity
  8
0
  6
Continuous
 62
     7
370
    25
100
AcDbLine
 10
-168.9233218584
 20
305.2555279894
 30
0.0
 11
-168.6346467238
 21
304.8781731993
 31
0.0
  0
LINE
  5
775
330
1F
100
AcDbEntity
  8
0
  6
Continuous
 62
     7
370
    25
100
AcDbLine
 10
-168.6346467238
 20
304.8781731993
 30
0.0
 11
-168.0572964546
 21
304.8781731993
 31
0.0
  0
LINE
  5
776
330
1F
100
AcDbEntity
  8
0
  6
Continuous
 62
     7
370
    25
100
AcDbLine
 10
-168.0572964546
 20
304.8781731993
 30
0.0
 11
-167.76862132
 21
305.2555279894
 31
0.0
  0
LINE
  5
777
330
1F
100
AcDbEntity
  8
0
  6
Continuous
 62
     7
370
    25
100
AcDbLine
 10
-167.76862132
 20
305.2555279894
 30
0.0
 11
-168.0572964546
 21
305.6328827795
 31
0.0
  0
LINE
  5
778
330
1F
100
AcDbEntity
  8
0
  6
Continuous
 62
     7
370
    25
100
AcDbLine
 10
-168.0572964546
 20
305.6328827795
 30
0.0
 11
-168.6346467238
 21
305.6328827795
 31
0.0
  0
LINE
  5
779
330
1F
100
AcDbEntity
  8
0
  6
Continuous
 62
     7
370
    25
100
AcDbLine
 10
-173.5572964546
 20
307.2634417155
 30
0.0
 11
-173.26862132
 21
307.6407965056
 31
0.0
  0
LINE
  5
77A
330
1F
100
AcDbEntity
  8
0
  6
Continuous
 62
     7
370
    25
100
AcDbLine
 10
-173.0346467238
 20
308.7013565872
 30
0.0
 11
-172.4572964546
 21
308.7013565872
 31
0.0
  0
LINE
  5
77B
330
1F
100
AcDbEntity
  8
0
  6
Continuous
 62
     7
370
    25
100
AcDbLine
 10
-172.4572964546
 20
308.7013565872
 30
0.0
 11
-172.16862132
 21
309.0787113773
 31
0.0
  0
LINE
  5
77C
330
1F
100
AcDbEntity
  8
0
  6
Continuous
 62
     7
370
    25
100
AcDbLine
 10
-172.16862132
 20
309.0787113773
 30
0.0
 11
-172.442297587
 21
309.4364597176
 31
0.0
  0
LINE
  5
77D
330
1F
100
AcDbEntity
  8
0
  6
Continuous
 62
     7
370
    25
100
AcDbLine
 10
-170.6566687537
 20
310.629832686
 30
0.0
 11
-170.2572964546
 21
310.629832686
 31
0.0
  0
LINE
  5
77E
330
1F
100
AcDbEntity
  8
0
  6
Continuous
 62
     7
370
    25
100
AcDbLine
 10
-170.2572964546
 20
310.629832686
 30
0.0
 11
-170.0775628331
 21
310.8647796381
 31
0.0
  0
LINE
  5
77F
330
1F
100
AcDbEntity
  8
0
  6
Continuous
 62
     7
370
    25
100
AcDbLine
 10
-167.6957224378
 20
311.3349180049
 30
0.0
 11
-167.5346467238
 21
311.1243605825
 31
0.0
  0
LINE
  5
780
330
1F
100
AcDbEntity
  8
0
  6
Continuous
 62
     7
370
    25
100
AcDbLine
 10
-167.5346467238
 20
311.1243605825
 30
0.0
 11
-166.9572964546
 21
311.1243605825
 31
0.0
  0
LINE
  5
781
330
1F
100
AcDbEntity
  8
0
  6
Continuous
 62
     7
370
    25
100
AcDbLine
 10
-166.9572964546
 20
311.1243605825
 30
0.0
 11
-166.7962207406
 21
311.3349180049
 31
0.0
  0
LINE
  5
782
330
1F
100
AcDbEntity
  8
0
  6
Continuous
 62
     7
370
    25
100
AcDbLine
 10
-164.4143803452
 20
310.8647796381
 30
0.0
 11
-164.2346467238
 21
310.629832686
 31
0.0
  0
LINE
  5
783
330
1F
100
AcDbEntity
  8
0
  6
Continuous
 62
     7
370
    25
100
AcDbLine
 10
-164.2346467238
 20
310.629832686
 30
0.0
 11
-163.8352744247
 21
310.629832686
 31
0.0
  0
LINE
  5
784
330
1F
100
AcDbEntity
  8
0
  6
Continuous
 62
     7
370
    25
100
AcDbLine
 10
-163.6572964546
 20
310.629832686
 30
0.0
 11
-163.5224422105
 21
310.8061135252
 31
0.0
  0
LINE
  5
785
330
1F
100
AcDbEntity
  8
0
  6
Continuous
 62
     7
370
    25
100
AcDbLine
 10
-162.3233218584
 20
309.0787113773
 30
0.0
 11
-162.0346467238
 21
308.7013565872
 31
0.0
  0
LINE
  5
786
330
1F
100
AcDbEntity
  8
0
  6
Continuous
 62
     7
370
    25
100
AcDbLine
 10
-162.0346467238
 20
308.7013565872
 30
0.0
 11
-161.4572964546
 21
308.7013565872
 31
0.0
  0
LINE
  5
787
330
1F
100
AcDbEntity
  8
0
  6
Continuous
 62
     7
370
    25
100
AcDbLine
 10
-160.7124854009
 20
307.0707976512
 30
0.0
 11
-160.9346467238
 21
307.0707976512
 31
0.0
  0
LINE
  5
788
330
1F
100
AcDbEntity
  8
0
  6
Continuous
 62
     7
370
    25
100
AcDbLine
 10
-160.9346467238
 20
307.0707976512
 30
0.0
 11
-161.2233218584
 21
306.6934428611
 31
0.0
  0
LINE
  5
789
330
1F
100
AcDbEntity
  8
0
  6
Continuous
 62
     7
370
    25
100
AcDbLine
 10
-161.2233218584
 20
306.6934428611
 30
0.0
 11
-160.9346467238
 21
306.316088071
 31
0.0
  0
LINE
  5
78A
330
1F
100
AcDbEntity
  8
0
  6
Continuous
 62
     7
370
    25
100
AcDbLine
 10
-160.9346467238
 20
306.316088071
 30
0.0
 11
-160.6649382357
 21
306.316088071
 31
0.0
  0
LINE
  5
78B
330
1F
100
AcDbEntity
  8
0
  6
Continuous
 62
     7
370
    25
100
AcDbLine
 10
-160.6887236909
 20
306.1274106759
 30
0.0
 11
-160.9346467238
 21
306.1274106759
 31
0.0
  0
LINE
  5
78C
330
1F
100
AcDbEntity
  8
0
  6
Continuous
 62
     7
370
    25
100
AcDbLine
 10
-160.9346467238
 20
306.1274106759
 30
0.0
 11
-161.2233218584
 21
305.7500558858
 31
0.0
  0
LINE
  5
78D
330
1F
100
AcDbEntity
  8
0
  6
Continuous
 62
     7
370
    25
100
AcDbLine
 10
-161.2233218584
 20
305.7500558858
 30
0.0
 11
-160.9346467238
 21
305.3727010957
 31
0.0
  0
LINE
  5
78E
330
1F
100
AcDbEntity
  8
0
  6
Continuous
 62
     7
370
    25
100
AcDbLine
 10
-160.8822069801
 20
305.3727010957
 30
0.0
 11
-160.9346467238
 21
305.3727010957
 31
0.0
  0
LINE
  5
78F
330
1F
100
AcDbEntity
  8
0
  6
Continuous
 62
     7
370
    25
100
AcDbLine
 10
-161.3166618456
 20
304.5056588989
 30
0.0
 11
-161.4572964546
 21
304.6894958042
 31
0.0
  0
LINE
  5
790
330
1F
100
AcDbEntity
  8
0
  6
Continuous
 62
     7
370
    25
100
AcDbLine
 10
-161.4572964546
 20
304.6894958042
 30
0.0
 11
-162.0346467238
 21
304.6894958042
 31
0.0
  0
LINE
  5
791
330
1F
100
AcDbEntity
  8
0
  6
Continuous
 62
     7
370
    25
100
AcDbLine
 10
-162.0346467238
 20
304.6894958042
 30
0.0
 11
-162.3233218584
 21
304.3121410141
 31
0.0
  0
LINE
  5
792
330
1F
100
AcDbEntity
  8
0
  6
Continuous
 62
     7
370
    25
100
AcDbLine
 10
-162.3233218584
 20
304.3121410141
 30
0.0
 11
-162.0346467238
 21
303.934786224
 31
0.0
  0
LINE
  5
793
330
1F
100
AcDbEntity
  8
0
  6
Continuous
 62
     7
370
    25
100
AcDbLine
 10
-162.0346467238
 20
303.934786224
 30
0.0
 11
-161.7506004106
 21
303.934786224
 31
0.0
  0
LINE
  5
794
330
1F
100
AcDbEntity
  8
0
  6
Continuous
 62
     7
370
    25
100
AcDbLine
 10
-162.5265412935
 20
303.2113779293
 30
0.0
 11
-162.5572964546
 21
303.2515809325
 31
0.0
  0
LINE
  5
795
330
1F
100
AcDbEntity
  8
0
  6
Continuous
 62
     7
370
    25
100
AcDbLine
 10
-162.5572964546
 20
303.2515809325
 30
0.0
 11
-163.1346467238
 21
303.2515809325
 31
0.0
  0
LINE
  5
796
330
1F
100
AcDbEntity
  8
0
  6
Continuous
 62
     7
370
    25
100
AcDbLine
 10
-163.1346467238
 20
303.2515809325
 30
0.0
 11
-163.4233218584
 21
302.8742261424
 31
0.0
  0
LINE
  5
797
330
1F
100
AcDbEntity
  8
0
  6
Continuous
 62
     7
370
    25
100
AcDbLine
 10
-163.4233218584
 20
302.8742261424
 30
0.0
 11
-163.2933918884
 21
302.7043822915
 31
0.0
  0
LINE
  5
798
330
1F
100
AcDbEntity
  8
0
  6
Continuous
 62
     7
370
    25
100
AcDbLine
 10
-163.5224422105
 20
302.580772197
 30
0.0
 11
-163.6572964546
 21
302.7570530361
 31
0.0
  0
LINE
  5
799
330
1F
100
AcDbEntity
  8
0
  6
Continuous
 62
     7
370
    25
100
AcDbLine
 10
-163.6572964546
 20
302.7570530361
 30
0.0
 11
-164.2346467238
 21
302.7570530361
 31
0.0
  0
LINE
  5
79A
330
1F
100
AcDbEntity
  8
0
  6
Continuous
 62
     7
370
    25
100
AcDbLine
 10
-164.2346467238
 20
302.7570530361
 30
0.0
 11
-164.5233218584
 21
302.379698246
 31
0.0
  0
LINE
  5
79B
330
1F
100
AcDbEntity
  8
0
  6
Continuous
 62
     7
370
    25
100
AcDbLine
 10
-164.5233218584
 20
302.379698246
 30
0.0
 11
-164.3884676143
 21
302.2034174069
 31
0.0
  0
LINE
  5
79C
330
1F
100
AcDbEntity
  8
0
  6
Continuous
 62
     7
370
    25
100
AcDbLine
 10
-164.6424026951
 20
302.1163032222
 30
0.0
 11
-164.7572964546
 21
302.266491809
 31
0.0
  0
LINE
  5
79D
330
1F
100
AcDbEntity
  8
0
  6
Continuous
 62
     7
370
    25
100
AcDbLine
 10
-164.7572964546
 20
302.266491809
 30
0.0
 11
-165.3346467238
 21
302.266491809
 31
0.0
  0
LINE
  5
79E
330
1F
100
AcDbEntity
  8
0
  6
Continuous
 62
     7
370
    25
100
AcDbLine
 10
-165.3346467238
 20
302.266491809
 30
0.0
 11
-165.6233218584
 21
301.8891370188
 31
0.0
  0
LINE
  5
79F
330
1F
100
AcDbEntity
  8
0
  6
Continuous
 62
     7
370
    25
100
AcDbLine
 10
-165.6073913012
 20
301.8683126687
 30
0.0
 11
-165.6233218584
 21
301.8891370188
 31
0.0
  0
LINE
  5
7A0
330
1F
100
AcDbEntity
  8
0
  6
Continuous
 62
     7
370
    25
100
AcDbLine
 10
-166.7949475758
 20
301.7240039262
 30
0.0
 11
-166.66862132
 21
301.8891370188
 31
0.0
  0
LINE
  5
7A1
330
1F
100
AcDbEntity
  8
0
  6
Continuous
 62
     7
370
    25
100
AcDbLine
 10
-166.66862132
 20
301.8891370188
 30
0.0
 11
-166.9572964546
 21
302.266491809
 31
0.0
  0
LINE
  5
7A2
330
1F
100
AcDbEntity
  8
0
  6
Continuous
 62
     7
370
    25
100
AcDbLine
 10
-166.9572964546
 20
302.266491809
 30
0.0
 11
-167.5346467238
 21
302.266491809
 31
0.0
  0
LINE
  5
7A3
330
1F
100
AcDbEntity
  8
0
  6
Continuous
 62
     7
370
    25
100
AcDbLine
 10
-167.5346467238
 20
302.266491809
 30
0.0
 11
-167.8233218584
 21
301.8891370188
 31
0.0
  0
LINE
  5
7A4
330
1F
100
AcDbEntity
  8
0
  6
Continuous
 62
     7
370
    25
100
AcDbLine
 10
-167.6969956026
 20
301.7240039262
 30
0.0
 11
-167.8233218584
 21
301.8891370188
 31
0.0
  0
LINE
  5
7A5
330
1F
100
AcDbEntity
  8
0
  6
Continuous
 62
     7
370
    25
100
AcDbLine
 10
-168.8845518772
 20
301.8683126687
 30
0.0
 11
-168.86862132
 21
301.8891370188
 31
0.0
  0
LINE
  5
7A6
330
1F
100
AcDbEntity
  8
0
  6
Continuous
 62
     7
370
    25
100
AcDbLine
 10
-168.86862132
 20
301.8891370188
 30
0.0
 11
-169.1572964546
 21
302.266491809
 31
0.0
  0
LINE
  5
7A7
330
1F
100
AcDbEntity
  8
0
  6
Continuous
 62
     7
370
    25
100
AcDbLine
 10
-169.1572964546
 20
302.266491809
 30
0.0
 11
-169.7346467238
 21
302.266491809
 31
0.0
  0
LINE
  5
7A8
330
1F
100
AcDbEntity
  8
0
  6
Continuous
 62
     7
370
    25
100
AcDbLine
 10
-169.7346467238
 20
302.266491809
 30
0.0
 11
-169.8495404833
 21
302.1163032222
 31
0.0
  0
LINE
  5
7A9
330
1F
100
AcDbEntity
  8
0
  6
Continuous
 62
     7
370
    25
100
AcDbLine
 10
-170.103475564
 20
302.2034174069
 30
0.0
 11
-169.96862132
 21
302.379698246
 31
0.0
  0
LINE
  5
7AA
330
1F
100
AcDbEntity
  8
0
  6
Continuous
 62
     7
370
    25
100
AcDbLine
 10
-169.96862132
 20
302.379698246
 30
0.0
 11
-170.2572964546
 21
302.7570530361
 31
0.0
  0
LINE
  5
7AB
330
1F
100
AcDbEntity
  8
0
  6
Continuous
 62
     7
370
    25
100
AcDbLine
 10
-170.2572964546
 20
302.7570530361
 30
0.0
 11
-170.8346467238
 21
302.7570530361
 31
0.0
  0
LINE
  5
7AC
330
1F
100
AcDbEntity
  8
0
  6
Continuous
 62
     7
370
    25
100
AcDbLine
 10
-170.8346467238
 20
302.7570530361
 30
0.0
 11
-170.9695009678
 21
302.580772197
 31
0.0
  0
LINE
  5
7AD
330
1F
100
AcDbEntity
  8
0
  6
Continuous
 62
     7
370
    25
100
AcDbLine
 10
-171.1985512899
 20
302.7043822915
 30
0.0
 11
-171.06862132
 21
302.8742261424
 31
0.0
  0
LINE
  5
7AE
330
1F
100
AcDbEntity
  8
0
  6
Continuous
 62
     7
370
    25
100
AcDbLine
 10
-171.06862132
 20
302.8742261424
 30
0.0
 11
-171.3572964546
 21
303.2515809325
 31
0.0
  0
LINE
  5
7AF
330
1F
100
AcDbEntity
  8
0
  6
Continuous
 62
     7
370
    25
100
AcDbLine
 10
-171.3572964546
 20
303.2515809325
 30
0.0
 11
-171.9346467238
 21
303.2515809325
 31
0.0
  0
LINE
  5
7B0
330
1F
100
AcDbEntity
  8
0
  6
Continuous
 62
     7
370
    25
100
AcDbLine
 10
-171.9346467238
 20
303.2515809325
 30
0.0
 11
-171.9654018849
 21
303.2113779293
 31
0.0
  0
LINE
  5
7B1
330
1F
100
AcDbEntity
  8
0
  6
Continuous
 62
     7
370
    25
100
AcDbLine
 10
-172.7413427678
 20
303.934786224
 30
0.0
 11
-172.4572964546
 21
303.934786224
 31
0.0
  0
LINE
  5
7B2
330
1F
100
AcDbEntity
  8
0
  6
Continuous
 62
     7
370
    25
100
AcDbLine
 10
-172.4572964546
 20
303.934786224
 30
0.0
 11
-172.16862132
 21
304.3121410141
 31
0.0
  0
LINE
  5
7B3
330
1F
100
AcDbEntity
  8
0
  6
Continuous
 62
     7
370
    25
100
AcDbLine
 10
-172.16862132
 20
304.3121410141
 30
0.0
 11
-172.4572964546
 21
304.6894958042
 31
0.0
  0
LINE
  5
7B4
330
1F
100
AcDbEntity
  8
0
  6
Continuous
 62
     7
370
    25
100
AcDbLine
 10
-172.4572964546
 20
304.6894958042
 30
0.0
 11
-173.0346467238
 21
304.6894958042
 31
0.0
  0
LINE
  5
7B5
330
1F
100
AcDbEntity
  8
0
  6
Continuous
 62
     7
370
    25
100
AcDbLine
 10
-173.0346467238
 20
304.6894958042
 30
0.0
 11
-173.1752813328
 21
304.5056588989
 31
0.0
  0
LINE
  5
7B6
330
1F
100
AcDbEntity
  8
0
  6
Continuous
 62
     7
370
    25
100
AcDbLine
 10
-173.6097361983
 20
305.3727010957
 30
0.0
 11
-173.5572964546
 21
305.3727010957
 31
0.0
  0
LINE
  5
7B7
330
1F
100
AcDbEntity
  8
0
  6
Continuous
 62
     7
370
    25
100
AcDbLine
 10
-173.5572964546
 20
305.3727010957
 30
0.0
 11
-173.26862132
 21
305.7500558858
 31
0.0
  0
LINE
  5
7B8
330
1F
100
AcDbEntity
  8
0
  6
Continuous
 62
     7
370
    25
100
AcDbLine
 10
-173.26862132
 20
305.7500558858
 30
0.0
 11
-173.5572964546
 21
306.1274106759
 31
0.0
  0
LINE
  5
7B9
330
1F
100
AcDbEntity
  8
0
  6
Continuous
 62
     7
370
    25
100
AcDbLine
 10
-173.5572964546
 20
306.1274106759
 30
0.0
 11
-173.8032194875
 21
306.1274106759
 31
0.0
  0
LINE
  5
7BA
330
1F
100
AcDbEntity
  8
0
  6
Continuous
 62
     7
370
    25
100
AcDbLine
 10
-173.8270049427
 20
306.316088071
 30
0.0
 11
-173.5572964546
 21
306.316088071
 31
0.0
  0
LINE
  5
7BB
330
1F
100
AcDbEntity
  8
0
  6
Continuous
 62
     7
370
    25
100
AcDbLine
 10
-173.5572964546
 20
306.316088071
 30
0.0
 11
-173.26862132
 21
306.6934428611
 31
0.0
  0
LINE
  5
7BC
330
1F
100
AcDbEntity
  8
0
  6
Continuous
 62
     7
370
    25
100
AcDbLine
 10
-173.26862132
 20
306.6934428611
 30
0.0
 11
-173.5572964546
 21
307.0707976512
 31
0.0
  0
LINE
  5
7BD
330
1F
100
AcDbEntity
  8
0
  6
Continuous
 62
     7
370
    25
100
AcDbLine
 10
-173.5572964546
 20
307.0707976512
 30
0.0
 11
-173.7794577775
 21
307.0707976512
 31
0.0
  0
LINE
  5
7BE
330
1F
100
AcDbEntity
  8
0
  6
Continuous
 62
     7
370
    25
100
AcDbLine
 10
-174.6917757768
 20
309.2435751647
 30
0.0
 11
-174.6917757768
 21
308.6191936384
 31
0.0
  0
LINE
  5
7BF
330
1F
100
AcDbEntity
  8
0
  6
Continuous
 62
     7
370
    25
100
AcDbLine
 10
-159.8001674016
 20
309.2435751647
 30
0.0
 11
-159.8001674016
 21
308.6191936384
 31
0.0
  0
LINE
  5
7C0
330
1F
100
AcDbEntity
  8
0
  6
Continuous
 62
     7
370
    25
100
AcDbLine
 10
-166.9572964546
 20
311.1243605825
 30
0.0
 11
-166.9572964546
 21
311.3417297144
 31
0.0
  0
LINE
  5
7C1
330
1F
100
AcDbEntity
  8
0
  6
Continuous
 62
     7
370
    25
100
AcDbLine
 10
-167.5346467238
 20
311.1243605825
 30
0.0
 11
-167.5346467238
 21
311.3417297144
 31
0.0
  0
LINE
  5
7C2
330
1F
100
AcDbEntity
  8
0
  6
Continuous
 62
     7
370
    25
100
AcDbLine
 10
-164.2346467238
 20
310.629832686
 30
0.0
 11
-164.2346467238
 21
310.7978094466
 31
0.0
  0
LINE
  5
7C3
330
1F
100
AcDbEntity
  8
0
  6
Continuous
 62
     7
370
    25
100
AcDbLine
 10
-168.0572964546
 20
310.629832686
 30
0.0
 11
-168.0572964546
 21
311.3087180014
 31
0.0
  0
LINE
  5
7C4
330
1F
100
AcDbEntity
  8
0
  6
Continuous
 62
     7
370
    25
100
AcDbLine
 10
-166.4346467238
 20
310.629832686
 30
0.0
 11
-166.4346467238
 21
311.3087180014
 31
0.0
  0
LINE
  5
7C5
330
1F
100
AcDbEntity
  8
0
  6
Continuous
 62
     7
370
    25
100
AcDbLine
 10
-168.6346467238
 20
310.629832686
 30
0.0
 11
-168.6346467238
 21
311.2349912363
 31
0.0
  0
LINE
  5
7C6
330
1F
100
AcDbEntity
  8
0
  6
Continuous
 62
     7
370
    25
100
AcDbLine
 10
-170.2572964546
 20
310.629832686
 30
0.0
 11
-170.2572964546
 21
310.7978094466
 31
0.0
  0
LINE
  5
7C7
330
1F
100
AcDbEntity
  8
0
  6
Continuous
 62
     7
370
    25
100
AcDbLine
 10
-165.8572964546
 20
310.629832686
 30
0.0
 11
-165.8572964546
 21
311.2349912363
 31
0.0
  0
LINE
  5
7C8
330
1F
100
AcDbEntity
  8
0
  6
Continuous
 62
     7
370
    25
100
AcDbLine
 10
-158.3703676962
 20
307.7654155214
 30
0.0
 11
-158.9614069441
 21
307.6867628338
 31
0.0
  0
LINE
  5
7C9
330
1F
100
AcDbEntity
  8
0
  6
Continuous
 62
     7
370
    25
100
AcDbLine
 10
-175.5305362344
 20
307.6867627376
 30
0.0
 11
-176.121575482
 21
307.7654156142
 31
0.0
  0
LINE
  5
7CA
330
1F
100
AcDbEntity
  8
0
  6
Continuous
 62
     7
370
    25
100
AcDbLine
 10
-164.7572964546
 20
310.1392714589
 30
0.0
 11
-164.7572964546
 21
310.8939810391
 31
0.0
  0
LINE
  5
7CB
330
1F
100
AcDbEntity
  8
0
  6
Continuous
 62
     7
370
    25
100
AcDbLine
 10
-167.5346467238
 20
310.1392714589
 30
0.0
 11
-167.5346467238
 21
310.8939810391
 31
0.0
  0
LINE
  5
7CC
330
1F
100
AcDbEntity
  8
0
  6
Continuous
 62
     7
370
    25
100
AcDbLine
 10
-166.9572964546
 20
310.1392714589
 30
0.0
 11
-166.9572964546
 21
310.8939810391
 31
0.0
  0
LINE
  5
7CD
330
1F
100
AcDbEntity
  8
0
  6
Continuous
 62
     7
370
    25
100
AcDbLine
 10
-169.1572964546
 20
310.1392714589
 30
0.0
 11
-169.1572964546
 21
310.8939810391
 31
0.0
  0
LINE
  5
7CE
330
1F
100
AcDbEntity
  8
0
  6
Continuous
 62
     7
370
    25
100
AcDbLine
 10
-169.7346467238
 20
310.1392714589
 30
0.0
 11
-169.7346467238
 21
310.8939810391
 31
0.0
  0
LINE
  5
7CF
330
1F
100
AcDbEntity
  8
0
  6
Continuous
 62
     7
370
    25
100
AcDbLine
 10
-165.3346467238
 20
310.1392714589
 30
0.0
 11
-165.3346467238
 21
310.8939810391
 31
0.0
  0
LINE
  5
7D0
330
1F
100
AcDbEntity
  8
0
  6
Continuous
 62
     7
370
    25
100
AcDbLine
 10
-164.2346467238
 20
309.6864457108
 30
0.0
 11
-164.2346467238
 21
310.441155291
 31
0.0
  0
LINE
  5
7D1
330
1F
100
AcDbEntity
  8
0
  6
Continuous
 62
     7
370
    25
100
AcDbLine
 10
-163.6572964546
 20
309.6864457108
 30
0.0
 11
-163.6572964546
 21
310.441155291
 31
0.0
  0
LINE
  5
7D2
330
1F
100
AcDbEntity
  8
0
  6
Continuous
 62
     7
370
    25
100
AcDbLine
 10
-170.8346467238
 20
309.6864457108
 30
0.0
 11
-170.8346467238
 21
310.441155291
 31
0.0
  0
LINE
  5
7D3
330
1F
100
AcDbEntity
  8
0
  6
Continuous
 62
     7
370
    25
100
AcDbLine
 10
-170.2572964546
 20
309.6864457108
 30
0.0
 11
-170.2572964546
 21
310.441155291
 31
0.0
  0
LINE
  5
7D4
330
1F
100
AcDbEntity
  8
0
  6
Continuous
 62
     7
370
    25
100
AcDbLine
 10
-168.0572964546
 20
309.6864457108
 30
0.0
 11
-168.0572964546
 21
310.441155291
 31
0.0
  0
LINE
  5
7D5
330
1F
100
AcDbEntity
  8
0
  6
Continuous
 62
     7
370
    25
100
AcDbLine
 10
-168.6346467238
 20
309.6864457108
 30
0.0
 11
-168.6346467238
 21
310.441155291
 31
0.0
  0
LINE
  5
7D6
330
1F
100
AcDbEntity
  8
0
  6
Continuous
 62
     7
370
    25
100
AcDbLine
 10
-165.8572964546
 20
309.6864457108
 30
0.0
 11
-165.8572964546
 21
310.441155291
 31
0.0
  0
LINE
  5
7D7
330
1F
100
AcDbEntity
  8
0
  6
Continuous
 62
     7
370
    25
100
AcDbLine
 10
-166.4346467238
 20
309.6864457108
 30
0.0
 11
-166.4346467238
 21
310.441155291
 31
0.0
  0
LINE
  5
7D8
330
1F
100
AcDbEntity
  8
0
  6
Continuous
 62
     7
370
    25
100
AcDbLine
 10
-163.1346467238
 20
309.1919178144
 30
0.0
 11
-163.1346467238
 21
309.9466273946
 31
0.0
  0
LINE
  5
7D9
330
1F
100
AcDbEntity
  8
0
  6
Continuous
 62
     7
370
    25
100
AcDbLine
 10
-171.3572964546
 20
309.1919178144
 30
0.0
 11
-171.3572964546
 21
309.9466273946
 31
0.0
  0
LINE
  5
7DA
330
1F
100
AcDbEntity
  8
0
  6
Continuous
 62
     7
370
    25
100
AcDbLine
 10
-171.9346467238
 20
309.1919178144
 30
0.0
 11
-171.9346467238
 21
309.8710637575
 31
0.0
  0
LINE
  5
7DB
330
1F
100
AcDbEntity
  8
0
  6
Continuous
 62
     7
370
    25
100
AcDbLine
 10
-169.1572964546
 20
309.1919178144
 30
0.0
 11
-169.1572964546
 21
309.9466273946
 31
0.0
  0
LINE
  5
7DC
330
1F
100
AcDbEntity
  8
0
  6
Continuous
 62
     7
370
    25
100
AcDbLine
 10
-165.3346467238
 20
309.1919178144
 30
0.0
 11
-165.3346467238
 21
309.9466273946
 31
0.0
  0
LINE
  5
7DD
330
1F
100
AcDbEntity
  8
0
  6
Continuous
 62
     7
370
    25
100
AcDbLine
 10
-162.5572964546
 20
309.1919178144
 30
0.0
 11
-162.5572964546
 21
309.8710637575
 31
0.0
  0
LINE
  5
7DE
330
1F
100
AcDbEntity
  8
0
  6
Continuous
 62
     7
370
    25
100
AcDbLine
 10
-164.7572964546
 20
309.1919178144
 30
0.0
 11
-164.7572964546
 21
309.9466273946
 31
0.0
  0
LINE
  5
7DF
330
1F
100
AcDbEntity
  8
0
  6
Continuous
 62
     7
370
    25
100
AcDbLine
 10
-167.5346467238
 20
309.1919178144
 30
0.0
 11
-167.5346467238
 21
309.9466273946
 31
0.0
  0
LINE
  5
7E0
330
1F
100
AcDbEntity
  8
0
  6
Continuous
 62
     7
370
    25
100
AcDbLine
 10
-166.9572964546
 20
309.1919178144
 30
0.0
 11
-166.9572964546
 21
309.9466273946
 31
0.0
  0
LINE
  5
7E1
330
1F
100
AcDbEntity
  8
0
  6
Continuous
 62
     7
370
    25
100
AcDbLine
 10
-169.7346467238
 20
309.1919178144
 30
0.0
 11
-169.7346467238
 21
309.9466273946
 31
0.0
  0
LINE
  5
7E2
330
1F
100
AcDbEntity
  8
0
  6
Continuous
 62
     7
370
    25
100
AcDbLine
 10
-168.6346467238
 20
308.7013565872
 30
0.0
 11
-168.6346467238
 21
309.4560661674
 31
0.0
  0
LINE
  5
7E3
330
1F
100
AcDbEntity
  8
0
  6
Continuous
 62
     7
370
    25
100
AcDbLine
 10
-168.0572964546
 20
308.7013565872
 30
0.0
 11
-168.0572964546
 21
309.4560661674
 31
0.0
  0
LINE
  5
7E4
330
1F
100
AcDbEntity
  8
0
  6
Continuous
 62
     7
370
    25
100
AcDbLine
 10
-163.6572964546
 20
308.7013565872
 30
0.0
 11
-163.6572964546
 21
309.4560661674
 31
0.0
  0
LINE
  5
7E5
330
1F
100
AcDbEntity
  8
0
  6
Continuous
 62
     7
370
    25
100
AcDbLine
 10
-164.2346467238
 20
308.7013565872
 30
0.0
 11
-164.2346467238
 21
309.4560661674
 31
0.0
  0
LINE
  5
7E6
330
1F
100
AcDbEntity
  8
0
  6
Continuous
 62
     7
370
    25
100
AcDbLine
 10
-165.8572964546
 20
308.7013565872
 30
0.0
 11
-165.8572964546
 21
309.4560661674
 31
0.0
  0
LINE
  5
7E7
330
1F
100
AcDbEntity
  8
0
  6
Continuous
 62
     7
370
    25
100
AcDbLine
 10
-166.4346467238
 20
308.7013565872
 30
0.0
 11
-166.4346467238
 21
309.4560661674
 31
0.0
  0
LINE
  5
7E8
330
1F
100
AcDbEntity
  8
0
  6
Continuous
 62
     7
370
    25
100
AcDbLine
 10
-162.0346467238
 20
308.7013565872
 30
0.0
 11
-162.0346467238
 21
309.4219492381
 31
0.0
  0
LINE
  5
7E9
330
1F
100
AcDbEntity
  8
0
  6
Continuous
 62
     7
370
    25
100
AcDbLine
 10
-172.4572964546
 20
308.7013565872
 30
0.0
 11
-172.4572964546
 21
309.4219492381
 31
0.0
  0
LINE
  5
7EA
330
1F
100
AcDbEntity
  8
0
  6
Continuous
 62
     7
370
    25
100
AcDbLine
 10
-170.8346467238
 20
308.7013565872
 30
0.0
 11
-170.8346467238
 21
309.4560661674
 31
0.0
  0
LINE
  5
7EB
330
1F
100
AcDbEntity
  8
0
  6
Continuous
 62
     7
370
    25
100
AcDbLine
 10
-170.2572964546
 20
308.7013565872
 30
0.0
 11
-170.2572964546
 21
309.4560661674
 31
0.0
  0
LINE
  5
7EC
330
1F
100
AcDbEntity
  8
0
  6
Continuous
 62
     7
370
    25
100
AcDbLine
 10
-175.5999955052
 20
306.7334070417
 30
0.0
 11
-176.191034753
 21
306.8120599806
 31
0.0
  0
LINE
  5
7ED
330
1F
100
AcDbEntity
  8
0
  6
Continuous
 62
     7
370
    25
100
AcDbLine
 10
-175.5652658697
 20
307.0132676165
 30
0.0
 11
-176.1563051174
 21
307.0919205556
 31
0.0
  0
LINE
  5
7EE
330
1F
100
AcDbEntity
  8
0
  6
Continuous
 62
     7
370
    25
100
AcDbLine
 10
-158.3356380609
 20
307.0919205554
 30
0.0
 11
-158.9266773087
 21
307.0132676166
 31
0.0
  0
LINE
  5
7EF
330
1F
100
AcDbEntity
  8
0
  6
Continuous
 62
     7
370
    25
100
AcDbLine
 10
-158.3009084254
 20
306.8120599806
 30
0.0
 11
-158.8919476732
 21
306.7334070417
 31
0.0
  0
LINE
  5
7F0
330
1F
100
AcDbEntity
  8
0
  6
Continuous
 62
     7
370
    25
100
AcDbLine
 10
-158.8919476732
 20
304.8165133993
 30
0.0
 11
-158.3009084254
 21
304.7378604604
 31
0.0
  0
LINE
  5
7F1
330
1F
100
AcDbEntity
  8
0
  6
Continuous
 62
     7
370
    25
100
AcDbLine
 10
-176.191034753
 20
304.7378604604
 30
0.0
 11
-175.5999955052
 21
304.8165133993
 31
0.0
  0
LINE
  5
7F2
330
1F
100
AcDbEntity
  8
0
  6
Continuous
 62
     7
370
    25
100
AcDbLine
 10
-158.335638035
 20
307.4855558621
 30
0.0
 11
-158.3356380609
 21
307.0919205554
 31
0.0
  0
LINE
  5
7F3
330
1F
100
AcDbEntity
  8
0
  6
Continuous
 62
     7
370
    25
100
AcDbLine
 10
-176.1563051174
 20
307.0919205556
 30
0.0
 11
-176.1563051532
 21
307.4855558196
 31
0.0
  0
LINE
  5
7F4
330
1F
100
AcDbEntity
  8
0
  6
Continuous
 62
     7
370
    25
100
AcDbLine
 10
-159.0896760499
 20
306.8419337156
 30
0.0
 11
-159.0879879022
 21
306.8250181959
 31
0.0
  0
LINE
  5
7F5
330
1F
100
AcDbEntity
  8
0
  6
Continuous
 62
     7
370
    25
100
AcDbLine
 10
-175.4022671285
 20
306.8419337156
 30
0.0
 11
-175.4038970117
 21
306.8253081124
 31
0.0
  0
LINE
  5
7F6
330
1F
100
AcDbEntity
  8
0
  6
Continuous
 62
     7
370
    25
100
AcDbLine
 10
-158.335638035
 20
307.4855558621
 30
0.0
 11
-158.9266772627
 21
307.4069028373
 31
0.0
  0
LINE
  5
7F7
330
1F
100
AcDbEntity
  8
0
  6
Continuous
 62
     7
370
    25
100
AcDbLine
 10
-158.9266773087
 20
307.0132676166
 30
0.0
 11
-158.9266772627
 21
307.4069028373
 31
0.0
  0
LINE
  5
7F8
330
1F
100
AcDbEntity
  8
0
  6
Continuous
 62
     7
370
    25
100
AcDbLine
 10
-175.5652659102
 20
307.4069028607
 30
0.0
 11
-176.1563051532
 21
307.4855558196
 31
0.0
  0
LINE
  5
7F9
330
1F
100
AcDbEntity
  8
0
  6
Continuous
 62
     7
370
    25
100
AcDbLine
 10
-175.5652659102
 20
307.4069028607
 30
0.0
 11
-175.5652658697
 21
307.0132676165
 31
0.0
  0
LINE
  5
7FA
330
1F
100
AcDbEntity
  8
0
  6
Continuous
 62
     7
370
    25
100
AcDbLine
 10
-159.0841230991
 20
307.3000610309
 30
0.0
 11
-159.0828834044
 21
307.3031799383
 31
0.0
  0
LINE
  5
7FB
330
1F
100
AcDbEntity
  8
0
  6
Continuous
 62
     7
370
    25
100
AcDbLine
 10
-162.5572964546
 20
308.2485308391
 30
0.0
 11
-162.5572964546
 21
309.0032404193
 31
0.0
  0
LINE
  5
7FC
330
1F
100
AcDbEntity
  8
0
  6
Continuous
 62
     7
370
    25
100
AcDbLine
 10
-165.3346467238
 20
308.2485308391
 30
0.0
 11
-165.3346467238
 21
309.0032404193
 31
0.0
  0
LINE
  5
7FD
330
1F
100
AcDbEntity
  8
0
  6
Continuous
 62
     7
370
    25
100
AcDbLine
 10
-163.1346467238
 20
308.2485308391
 30
0.0
 11
-163.1346467238
 21
309.0032404193
 31
0.0
  0
LINE
  5
7FE
330
1F
100
AcDbEntity
  8
0
  6
Continuous
 62
     7
370
    25
100
AcDbLine
 10
-164.7572964546
 20
308.2485308391
 30
0.0
 11
-164.7572964546
 21
309.0032404193
 31
0.0
  0
LINE
  5
7FF
330
1F
100
AcDbEntity
  8
0
  6
Continuous
 62
     7
370
    25
100
AcDbLine
 10
-169.1572964546
 20
308.2485308391
 30
0.0
 11
-169.1572964546
 21
309.0032404193
 31
0.0
  0
LINE
  5
800
330
1F
100
AcDbEntity
  8
0
  6
Continuous
 62
     7
370
    25
100
AcDbLine
 10
-169.7346467238
 20
308.2485308391
 30
0.0
 11
-169.7346467238
 21
309.0032404193
 31
0.0
  0
LINE
  5
801
330
1F
100
AcDbEntity
  8
0
  6
Continuous
 62
     7
370
    25
100
AcDbLine
 10
-171.3572964546
 20
308.2485308391
 30
0.0
 11
-171.3572964546
 21
309.0032404193
 31
0.0
  0
LINE
  5
802
330
1F
100
AcDbEntity
  8
0
  6
Continuous
 62
     7
370
    25
100
AcDbLine
 10
-171.9346467238
 20
308.2485308391
 30
0.0
 11
-171.9346467238
 21
309.0032404193
 31
0.0
  0
LINE
  5
803
330
1F
100
AcDbEntity
  8
0
  6
Continuous
 62
     7
370
    25
100
AcDbLine
 10
-161.4572964546
 20
307.7540029427
 30
0.0
 11
-161.4572964546
 21
308.5087125229
 31
0.0
  0
LINE
  5
804
330
1F
100
AcDbEntity
  8
0
  6
Continuous
 62
     7
370
    25
100
AcDbLine
 10
-168.6346467238
 20
307.7540029427
 30
0.0
 11
-168.6346467238
 21
308.5087125229
 31
0.0
  0
LINE
  5
805
330
1F
100
AcDbEntity
  8
0
  6
Continuous
 62
     7
370
    25
100
AcDbLine
 10
-170.8346467238
 20
307.7540029427
 30
0.0
 11
-170.8346467238
 21
308.5087125229
 31
0.0
  0
LINE
  5
806
330
1F
100
AcDbEntity
  8
0
  6
Continuous
 62
     7
370
    25
100
AcDbLine
 10
-166.4346467238
 20
307.7540029427
 30
0.0
 11
-166.4346467238
 21
308.5087125229
 31
0.0
  0
LINE
  5
807
330
1F
100
AcDbEntity
  8
0
  6
Continuous
 62
     7
370
    25
100
AcDbLine
 10
-168.0572964546
 20
307.7540029427
 30
0.0
 11
-168.0572964546
 21
308.5087125229
 31
0.0
  0
LINE
  5
808
330
1F
100
AcDbEntity
  8
0
  6
Continuous
 62
     7
370
    25
100
AcDbLine
 10
-163.6572964546
 20
307.7540029427
 30
0.0
 11
-163.6572964546
 21
308.5087125229
 31
0.0
  0
LINE
  5
809
330
1F
100
AcDbEntity
  8
0
  6
Continuous
 62
     7
370
    25
100
AcDbLine
 10
-162.0346467238
 20
307.7540029427
 30
0.0
 11
-162.0346467238
 21
308.5087125229
 31
0.0
  0
LINE
  5
80A
330
1F
100
AcDbEntity
  8
0
  6
Continuous
 62
     7
370
    25
100
AcDbLine
 10
-164.2346467238
 20
307.7540029427
 30
0.0
 11
-164.2346467238
 21
308.5087125229
 31
0.0
  0
LINE
  5
80B
330
1F
100
AcDbEntity
  8
0
  6
Continuous
 62
     7
370
    25
100
AcDbLine
 10
-165.8572964546
 20
307.7540029427
 30
0.0
 11
-165.8572964546
 21
308.5087125229
 31
0.0
  0
LINE
  5
80C
330
1F
100
AcDbEntity
  8
0
  6
Continuous
 62
     7
370
    25
100
AcDbLine
 10
-170.2572964546
 20
307.7540029427
 30
0.0
 11
-170.2572964546
 21
308.5087125229
 31
0.0
  0
LINE
  5
80D
330
1F
100
AcDbEntity
  8
0
  6
Continuous
 62
     7
370
    25
100
AcDbLine
 10
-172.4572964546
 20
307.7540029427
 30
0.0
 11
-172.4572964546
 21
308.5087125229
 31
0.0
  0
LINE
  5
80E
330
1F
100
AcDbEntity
  8
0
  6
Continuous
 62
     7
370
    25
100
AcDbLine
 10
-173.0346467238
 20
307.7540029427
 30
0.0
 11
-173.0346467238
 21
308.5087125229
 31
0.0
  0
LINE
  5
80F
330
1F
100
AcDbEntity
  8
0
  6
Continuous
 62
     7
370
    25
100
AcDbLine
 10
-164.7572964546
 20
307.2634417155
 30
0.0
 11
-164.7572964546
 21
308.0181512957
 31
0.0
  0
LINE
  5
810
330
1F
100
AcDbEntity
  8
0
  6
Continuous
 62
     7
370
    25
100
AcDbLine
 10
-167.5346467238
 20
307.2634417155
 30
0.0
 11
-167.5346467238
 21
308.0181512957
 31
0.0
  0
LINE
  5
811
330
1F
100
AcDbEntity
  8
0
  6
Continuous
 62
     7
370
    25
100
AcDbLine
 10
-166.9572964546
 20
307.2634417155
 30
0.0
 11
-166.9572964546
 21
308.0181512957
 31
0.0
  0
LINE
  5
812
330
1F
100
AcDbEntity
  8
0
  6
Continuous
 62
     7
370
    25
100
AcDbLine
 10
-169.1572964546
 20
307.2634417155
 30
0.0
 11
-169.1572964546
 21
308.0181512957
 31
0.0
  0
LINE
  5
813
330
1F
100
AcDbEntity
  8
0
  6
Continuous
 62
     7
370
    25
100
AcDbLine
 10
-165.3346467238
 20
307.2634417155
 30
0.0
 11
-165.3346467238
 21
308.0181512957
 31
0.0
  0
LINE
  5
814
330
1F
100
AcDbEntity
  8
0
  6
Continuous
 62
     7
370
    25
100
AcDbLine
 10
-162.5572964546
 20
307.2634417155
 30
0.0
 11
-162.5572964546
 21
308.0181512957
 31
0.0
  0
LINE
  5
815
330
1F
100
AcDbEntity
  8
0
  6
Continuous
 62
     7
370
    25
100
AcDbLine
 10
-163.1346467238
 20
307.2634417155
 30
0.0
 11
-163.1346467238
 21
308.0181512957
 31
0.0
  0
LINE
  5
816
330
1F
100
AcDbEntity
  8
0
  6
Continuous
 62
     7
370
    25
100
AcDbLine
 10
-171.3572964546
 20
307.2634417155
 30
0.0
 11
-171.3572964546
 21
308.0181512957
 31
0.0
  0
LINE
  5
817
330
1F
100
AcDbEntity
  8
0
  6
Continuous
 62
     7
370
    25
100
AcDbLine
 10
-169.7346467238
 20
307.2634417155
 30
0.0
 11
-169.7346467238
 21
308.0181512957
 31
0.0
  0
LINE
  5
818
330
1F
100
AcDbEntity
  8
0
  6
Continuous
 62
     7
370
    25
100
AcDbLine
 10
-171.9346467238
 20
307.2634417155
 30
0.0
 11
-171.9346467238
 21
308.0181512957
 31
0.0
  0
LINE
  5
819
330
1F
100
AcDbEntity
  8
0
  6
Continuous
 62
     7
370
    25
100
AcDbLine
 10
-168.0572964546
 20
306.8106159674
 30
0.0
 11
-168.0572964546
 21
307.5653255476
 31
0.0
  0
LINE
  5
81A
330
1F
100
AcDbEntity
  8
0
  6
Continuous
 62
     7
370
    25
100
AcDbLine
 10
-161.4572964546
 20
306.8106159674
 30
0.0
 11
-161.4572964546
 21
307.5653255476
 31
0.0
  0
LINE
  5
81B
330
1F
100
AcDbEntity
  8
0
  6
Continuous
 62
     7
370
    25
100
AcDbLine
 10
-168.6346467238
 20
306.8106159674
 30
0.0
 11
-168.6346467238
 21
307.5653255476
 31
0.0
  0
LINE
  5
81C
330
1F
100
AcDbEntity
  8
0
  6
Continuous
 62
     7
370
    25
100
AcDbLine
 10
-163.6572964546
 20
306.8106159674
 30
0.0
 11
-163.6572964546
 21
307.5653255476
 31
0.0
  0
LINE
  5
81D
330
1F
100
AcDbEntity
  8
0
  6
Continuous
 62
     7
370
    25
100
AcDbLine
 10
-165.8572964546
 20
306.8106159674
 30
0.0
 11
-165.8572964546
 21
307.5653255476
 31
0.0
  0
LINE
  5
81E
330
1F
100
AcDbEntity
  8
0
  6
Continuous
 62
     7
370
    25
100
AcDbLine
 10
-166.4346467238
 20
306.8106159674
 30
0.0
 11
-166.4346467238
 21
307.5653255476
 31
0.0
  0
LINE
  5
81F
330
1F
100
AcDbEntity
  8
0
  6
Continuous
 62
     7
370
    25
100
AcDbLine
 10
-164.2346467238
 20
306.8106159674
 30
0.0
 11
-164.2346467238
 21
307.5653255476
 31
0.0
  0
LINE
  5
820
330
1F
100
AcDbEntity
  8
0
  6
Continuous
 62
     7
370
    25
100
AcDbLine
 10
-162.0346467238
 20
306.8106159674
 30
0.0
 11
-162.0346467238
 21
307.5653255476
 31
0.0
  0
LINE
  5
821
330
1F
100
AcDbEntity
  8
0
  6
Continuous
 62
     7
370
    25
100
AcDbLine
 10
-170.8346467238
 20
306.8106159674
 30
0.0
 11
-170.8346467238
 21
307.5653255476
 31
0.0
  0
LINE
  5
822
330
1F
100
AcDbEntity
  8
0
  6
Continuous
 62
     7
370
    25
100
AcDbLine
 10
-170.2572964546
 20
306.8106159674
 30
0.0
 11
-170.2572964546
 21
307.5653255476
 31
0.0
  0
LINE
  5
823
330
1F
100
AcDbEntity
  8
0
  6
Continuous
 62
     7
370
    25
100
AcDbLine
 10
-172.4572964546
 20
306.8106159674
 30
0.0
 11
-172.4572964546
 21
307.5653255476
 31
0.0
  0
LINE
  5
824
330
1F
100
AcDbEntity
  8
0
  6
Continuous
 62
     7
370
    25
100
AcDbLine
 10
-173.0346467238
 20
306.8106159674
 30
0.0
 11
-173.0346467238
 21
307.5653255476
 31
0.0
  0
LINE
  5
825
330
1F
100
AcDbEntity
  8
0
  6
Continuous
 62
     7
370
    25
100
AcDbLine
 10
-169.1572964546
 20
306.316088071
 30
0.0
 11
-169.1572964546
 21
307.0707976512
 31
0.0
  0
LINE
  5
826
330
1F
100
AcDbEntity
  8
0
  6
Continuous
 62
     7
370
    25
100
AcDbLine
 10
-164.7572964546
 20
306.316088071
 30
0.0
 11
-164.7572964546
 21
307.0707976512
 31
0.0
  0
LINE
  5
827
330
1F
100
AcDbEntity
  8
0
  6
Continuous
 62
     7
370
    25
100
AcDbLine
 10
-160.9346467238
 20
306.316088071
 30
0.0
 11
-160.9346467238
 21
307.0707976512
 31
0.0
  0
LINE
  5
828
330
1F
100
AcDbEntity
  8
0
  6
Continuous
 62
     7
370
    25
100
AcDbLine
 10
-165.3346467238
 20
306.316088071
 30
0.0
 11
-165.3346467238
 21
307.0707976512
 31
0.0
  0
LINE
  5
829
330
1F
100
AcDbEntity
  8
0
  6
Continuous
 62
     7
370
    25
100
AcDbLine
 10
-162.5572964546
 20
306.316088071
 30
0.0
 11
-162.5572964546
 21
307.0707976512
 31
0.0
  0
LINE
  5
82A
330
1F
100
AcDbEntity
  8
0
  6
Continuous
 62
     7
370
    25
100
AcDbLine
 10
-163.1346467238
 20
306.316088071
 30
0.0
 11
-163.1346467238
 21
307.0707976512
 31
0.0
  0
LINE
  5
82B
330
1F
100
AcDbEntity
  8
0
  6
Continuous
 62
     7
370
    25
100
AcDbLine
 10
-169.7346467238
 20
306.316088071
 30
0.0
 11
-169.7346467238
 21
307.0707976512
 31
0.0
  0
LINE
  5
82C
330
1F
100
AcDbEntity
  8
0
  6
Continuous
 62
     7
370
    25
100
AcDbLine
 10
-171.3572964546
 20
306.316088071
 30
0.0
 11
-171.3572964546
 21
307.0707976512
 31
0.0
  0
LINE
  5
82D
330
1F
100
AcDbEntity
  8
0
  6
Continuous
 62
     7
370
    25
100
AcDbLine
 10
-171.9346467238
 20
306.316088071
 30
0.0
 11
-171.9346467238
 21
307.0707976512
 31
0.0
  0
LINE
  5
82E
330
1F
100
AcDbEntity
  8
0
  6
Continuous
 62
     7
370
    25
100
AcDbLine
 10
-173.5572964546
 20
306.316088071
 30
0.0
 11
-173.5572964546
 21
307.0707976512
 31
0.0
  0
LINE
  5
82F
330
1F
100
AcDbEntity
  8
0
  6
Continuous
 62
     7
370
    25
100
AcDbLine
 10
-161.4572964546
 20
305.8255268438
 30
0.0
 11
-161.4572964546
 21
306.580236424
 31
0.0
  0
LINE
  5
830
330
1F
100
AcDbEntity
  8
0
  6
Continuous
 62
     7
370
    25
100
AcDbLine
 10
-163.6572964546
 20
305.8255268438
 30
0.0
 11
-163.6572964546
 21
306.580236424
 31
0.0
  0
LINE
  5
831
330
1F
100
AcDbEntity
  8
0
  6
Continuous
 62
     7
370
    25
100
AcDbLine
 10
-162.0346467238
 20
305.8255268438
 30
0.0
 11
-162.0346467238
 21
306.580236424
 31
0.0
  0
LINE
  5
832
330
1F
100
AcDbEntity
  8
0
  6
Continuous
 62
     7
370
    25
100
AcDbLine
 10
-164.2346467238
 20
305.8255268438
 30
0.0
 11
-164.2346467238
 21
306.580236424
 31
0.0
  0
LINE
  5
833
330
1F
100
AcDbEntity
  8
0
  6
Continuous
 62
     7
370
    25
100
AcDbLine
 10
-165.8572964546
 20
305.8255268438
 30
0.0
 11
-165.8572964546
 21
306.580236424
 31
0.0
  0
LINE
  5
834
330
1F
100
AcDbEntity
  8
0
  6
Continuous
 62
     7
370
    25
100
AcDbLine
 10
-166.4346467238
 20
305.8255268438
 30
0.0
 11
-166.4346467238
 21
306.580236424
 31
0.0
  0
LINE
  5
835
330
1F
100
AcDbEntity
  8
0
  6
Continuous
 62
     7
370
    25
100
AcDbLine
 10
-172.4572964546
 20
305.8255268438
 30
0.0
 11
-172.4572964546
 21
306.580236424
 31
0.0
  0
LINE
  5
836
330
1F
100
AcDbEntity
  8
0
  6
Continuous
 62
     7
370
    25
100
AcDbLine
 10
-173.0346467238
 20
305.8255268438
 30
0.0
 11
-173.0346467238
 21
306.580236424
 31
0.0
  0
LINE
  5
837
330
1F
100
AcDbEntity
  8
0
  6
Continuous
 62
     7
370
    25
100
AcDbLine
 10
-168.0572964546
 20
305.8255268438
 30
0.0
 11
-168.0572964546
 21
306.580236424
 31
0.0
  0
LINE
  5
838
330
1F
100
AcDbEntity
  8
0
  6
Continuous
 62
     7
370
    25
100
AcDbLine
 10
-170.2572964546
 20
305.8255268438
 30
0.0
 11
-170.2572964546
 21
306.580236424
 31
0.0
  0
LINE
  5
839
330
1F
100
AcDbEntity
  8
0
  6
Continuous
 62
     7
370
    25
100
AcDbLine
 10
-170.8346467238
 20
305.8255268438
 30
0.0
 11
-170.8346467238
 21
306.580236424
 31
0.0
  0
LINE
  5
83A
330
1F
100
AcDbEntity
  8
0
  6
Continuous
 62
     7
370
    25
100
AcDbLine
 10
-168.6346467238
 20
305.8255268438
 30
0.0
 11
-168.6346467238
 21
306.580236424
 31
0.0
  0
LINE
  5
83B
330
1F
100
AcDbEntity
  8
0
  6
Continuous
 62
     7
370
    25
100
AcDbLine
 10
-159.7197408038
 20
302.6380225028
 30
0.0
 11
-160.211360621
 21
302.8978208874
 31
0.0
  0
LINE
  5
83C
330
1F
100
AcDbEntity
  8
0
  6
Continuous
 62
     7
370
    25
100
AcDbLine
 10
-174.2805825569
 20
302.8978207913
 30
0.0
 11
-174.7722023751
 21
302.6380225955
 31
0.0
  0
LINE
  5
83D
330
1F
100
AcDbEntity
  8
0
  6
Continuous
 62
     7
370
    25
100
AcDbLine
 10
-160.9346467238
 20
305.3727010957
 30
0.0
 11
-160.9346467238
 21
306.1274106759
 31
0.0
  0
LINE
  5
83E
330
1F
100
AcDbEntity
  8
0
  6
Continuous
 62
     7
370
    25
100
AcDbLine
 10
-162.5572964546
 20
305.3727010957
 30
0.0
 11
-162.5572964546
 21
306.1274106759
 31
0.0
  0
LINE
  5
83F
330
1F
100
AcDbEntity
  8
0
  6
Continuous
 62
     7
370
    25
100
AcDbLine
 10
-163.1346467238
 20
305.3727010957
 30
0.0
 11
-163.1346467238
 21
306.1274106759
 31
0.0
  0
LINE
  5
840
330
1F
100
AcDbEntity
  8
0
  6
Continuous
 62
     7
370
    25
100
AcDbLine
 10
-171.3572964546
 20
305.3727010957
 30
0.0
 11
-171.3572964546
 21
306.1274106759
 31
0.0
  0
LINE
  5
841
330
1F
100
AcDbEntity
  8
0
  6
Continuous
 62
     7
370
    25
100
AcDbLine
 10
-166.9572964546
 20
305.3727010957
 30
0.0
 11
-166.9572964546
 21
306.1274106759
 31
0.0
  0
LINE
  5
842
330
1F
100
AcDbEntity
  8
0
  6
Continuous
 62
     7
370
    25
100
AcDbLine
 10
-171.9346467238
 20
305.3727010957
 30
0.0
 11
-171.9346467238
 21
306.1274106759
 31
0.0
  0
LINE
  5
843
330
1F
100
AcDbEntity
  8
0
  6
Continuous
 62
     7
370
    25
100
AcDbLine
 10
-173.5572964546
 20
305.3727010957
 30
0.0
 11
-173.5572964546
 21
306.1274106759
 31
0.0
  0
LINE
  5
844
330
1F
100
AcDbEntity
  8
0
  6
Continuous
 62
     7
370
    25
100
AcDbLine
 10
-167.5346467238
 20
305.3727010957
 30
0.0
 11
-167.5346467238
 21
306.1274106759
 31
0.0
  0
LINE
  5
845
330
1F
100
AcDbEntity
  8
0
  6
Continuous
 62
     7
370
    25
100
AcDbLine
 10
-161.4572964546
 20
304.8781731993
 30
0.0
 11
-161.4572964546
 21
305.6328827795
 31
0.0
  0
LINE
  5
846
330
1F
100
AcDbEntity
  8
0
  6
Continuous
 62
     7
370
    25
100
AcDbLine
 10
-162.0346467238
 20
304.8781731993
 30
0.0
 11
-162.0346467238
 21
305.6328827795
 31
0.0
  0
LINE
  5
847
330
1F
100
AcDbEntity
  8
0
  6
Continuous
 62
     7
370
    25
100
AcDbLine
 10
-170.8346467238
 20
304.8781731993
 30
0.0
 11
-170.8346467238
 21
305.6328827795
 31
0.0
  0
LINE
  5
848
330
1F
100
AcDbEntity
  8
0
  6
Continuous
 62
     7
370
    25
100
AcDbLine
 10
-168.6346467238
 20
304.8781731993
 30
0.0
 11
-168.6346467238
 21
305.6328827795
 31
0.0
  0
LINE
  5
849
330
1F
100
AcDbEntity
  8
0
  6
Continuous
 62
     7
370
    25
100
AcDbLine
 10
-164.2346467238
 20
304.8781731993
 30
0.0
 11
-164.2346467238
 21
305.6328827795
 31
0.0
  0
LINE
  5
84A
330
1F
100
AcDbEntity
  8
0
  6
Continuous
 62
     7
370
    25
100
AcDbLine
 10
-168.0572964546
 20
304.8781731993
 30
0.0
 11
-168.0572964546
 21
305.6328827795
 31
0.0
  0
LINE
  5
84B
330
1F
100
AcDbEntity
  8
0
  6
Continuous
 62
     7
370
    25
100
AcDbLine
 10
-172.4572964546
 20
304.8781731993
 30
0.0
 11
-172.4572964546
 21
305.6328827795
 31
0.0
  0
LINE
  5
84C
330
1F
100
AcDbEntity
  8
0
  6
Continuous
 62
     7
370
    25
100
AcDbLine
 10
-166.4346467238
 20
304.8781731993
 30
0.0
 11
-166.4346467238
 21
305.6328827795
 31
0.0
  0
LINE
  5
84D
330
1F
100
AcDbEntity
  8
0
  6
Continuous
 62
     7
370
    25
100
AcDbLine
 10
-163.6572964546
 20
304.8781731993
 30
0.0
 11
-163.6572964546
 21
305.6328827795
 31
0.0
  0
LINE
  5
84E
330
1F
100
AcDbEntity
  8
0
  6
Continuous
 62
     7
370
    25
100
AcDbLine
 10
-165.8572964546
 20
304.8781731993
 30
0.0
 11
-165.8572964546
 21
305.6328827795
 31
0.0
  0
LINE
  5
84F
330
1F
100
AcDbEntity
  8
0
  6
Continuous
 62
     7
370
    25
100
AcDbLine
 10
-170.2572964546
 20
304.8781731993
 30
0.0
 11
-170.2572964546
 21
305.6328827795
 31
0.0
  0
LINE
  5
850
330
1F
100
AcDbEntity
  8
0
  6
Continuous
 62
     7
370
    25
100
AcDbLine
 10
-173.0346467238
 20
304.8781731993
 30
0.0
 11
-173.0346467238
 21
305.6328827795
 31
0.0
  0
LINE
  5
851
330
1F
100
AcDbEntity
  8
0
  6
Continuous
 62
     7
370
    25
100
AcDbLine
 10
-163.1346467238
 20
304.3876119721
 30
0.0
 11
-163.1346467238
 21
305.1423215523
 31
0.0
  0
LINE
  5
852
330
1F
100
AcDbEntity
  8
0
  6
Continuous
 62
     7
370
    25
100
AcDbLine
 10
-162.5572964546
 20
304.3876119721
 30
0.0
 11
-162.5572964546
 21
305.1423215523
 31
0.0
  0
LINE
  5
853
330
1F
100
AcDbEntity
  8
0
  6
Continuous
 62
     7
370
    25
100
AcDbLine
 10
-169.7346467238
 20
304.3876119721
 30
0.0
 11
-169.7346467238
 21
305.1423215523
 31
0.0
  0
LINE
  5
854
330
1F
100
AcDbEntity
  8
0
  6
Continuous
 62
     7
370
    25
100
AcDbLine
 10
-167.5346467238
 20
304.3876119721
 30
0.0
 11
-167.5346467238
 21
305.1423215523
 31
0.0
  0
LINE
  5
855
330
1F
100
AcDbEntity
  8
0
  6
Continuous
 62
     7
370
    25
100
AcDbLine
 10
-166.9572964546
 20
304.3876119721
 30
0.0
 11
-166.9572964546
 21
305.1423215523
 31
0.0
  0
LINE
  5
856
330
1F
100
AcDbEntity
  8
0
  6
Continuous
 62
     7
370
    25
100
AcDbLine
 10
-169.1572964546
 20
304.3876119721
 30
0.0
 11
-169.1572964546
 21
305.1423215523
 31
0.0
  0
LINE
  5
857
330
1F
100
AcDbEntity
  8
0
  6
Continuous
 62
     7
370
    25
100
AcDbLine
 10
-171.9346467238
 20
304.3876119721
 30
0.0
 11
-171.9346467238
 21
305.1423215523
 31
0.0
  0
LINE
  5
858
330
1F
100
AcDbEntity
  8
0
  6
Continuous
 62
     7
370
    25
100
AcDbLine
 10
-171.3572964546
 20
304.3876119721
 30
0.0
 11
-171.3572964546
 21
305.1423215523
 31
0.0
  0
LINE
  5
859
330
1F
100
AcDbEntity
  8
0
  6
Continuous
 62
     7
370
    25
100
AcDbLine
 10
-164.7572964546
 20
304.3876119721
 30
0.0
 11
-164.7572964546
 21
305.1423215523
 31
0.0
  0
LINE
  5
85A
330
1F
100
AcDbEntity
  8
0
  6
Continuous
 62
     7
370
    25
100
AcDbLine
 10
-165.3346467238
 20
304.3876119721
 30
0.0
 11
-165.3346467238
 21
305.1423215523
 31
0.0
  0
LINE
  5
85B
330
1F
100
AcDbEntity
  8
0
  6
Continuous
 62
     7
370
    25
100
AcDbLine
 10
-159.8344560902
 20
301.9895319268
 30
0.0
 11
-160.326075908
 21
302.2493300603
 31
0.0
  0
LINE
  5
85C
330
1F
100
AcDbEntity
  8
0
  6
Continuous
 62
     7
370
    25
100
AcDbLine
 10
-159.9491713775
 20
301.734675742
 30
0.0
 11
-160.4407911952
 21
301.9944738754
 31
0.0
  0
LINE
  5
85D
330
1F
100
AcDbEntity
  8
0
  6
Continuous
 62
     7
370
    25
100
AcDbLine
 10
-174.0511519831
 20
301.9944738754
 30
0.0
 11
-174.5427718009
 21
301.734675742
 31
0.0
  0
LINE
  5
85E
330
1F
100
AcDbEntity
  8
0
  6
Continuous
 62
     7
370
    25
100
AcDbLine
 10
-174.1658672704
 20
302.2493300601
 30
0.0
 11
-174.6574870882
 21
301.9895319269
 31
0.0
  0
LINE
  5
85F
330
1F
100
AcDbEntity
  8
0
  6
Continuous
 62
     7
370
    25
100
AcDbLine
 10
-168.0572964546
 20
303.934786224
 30
0.0
 11
-168.0572964546
 21
304.6894958042
 31
0.0
  0
LINE
  5
860
330
1F
100
AcDbEntity
  8
0
  6
Continuous
 62
     7
370
    25
100
AcDbLine
 10
-164.2346467238
 20
303.934786224
 30
0.0
 11
-164.2346467238
 21
304.6894958042
 31
0.0
  0
LINE
  5
861
330
1F
100
AcDbEntity
  8
0
  6
Continuous
 62
     7
370
    25
100
AcDbLine
 10
-162.0346467238
 20
303.934786224
 30
0.0
 11
-162.0346467238
 21
304.6894958042
 31
0.0
  0
LINE
  5
862
330
1F
100
AcDbEntity
  8
0
  6
Continuous
 62
     7
370
    25
100
AcDbLine
 10
-163.6572964546
 20
303.934786224
 30
0.0
 11
-163.6572964546
 21
304.6894958042
 31
0.0
  0
LINE
  5
863
330
1F
100
AcDbEntity
  8
0
  6
Continuous
 62
     7
370
    25
100
AcDbLine
 10
-166.4346467238
 20
303.934786224
 30
0.0
 11
-166.4346467238
 21
304.6894958042
 31
0.0
  0
LINE
  5
864
330
1F
100
AcDbEntity
  8
0
  6
Continuous
 62
     7
370
    25
100
AcDbLine
 10
-172.4572964546
 20
303.934786224
 30
0.0
 11
-172.4572964546
 21
304.6894958042
 31
0.0
  0
LINE
  5
865
330
1F
100
AcDbEntity
  8
0
  6
Continuous
 62
     7
370
    25
100
AcDbLine
 10
-170.8346467238
 20
303.934786224
 30
0.0
 11
-170.8346467238
 21
304.6894958042
 31
0.0
  0
LINE
  5
866
330
1F
100
AcDbEntity
  8
0
  6
Continuous
 62
     7
370
    25
100
AcDbLine
 10
-168.6346467238
 20
303.934786224
 30
0.0
 11
-168.6346467238
 21
304.6894958042
 31
0.0
  0
LINE
  5
867
330
1F
100
AcDbEntity
  8
0
  6
Continuous
 62
     7
370
    25
100
AcDbLine
 10
-170.2572964546
 20
303.934786224
 30
0.0
 11
-170.2572964546
 21
304.6894958042
 31
0.0
  0
LINE
  5
868
330
1F
100
AcDbEntity
  8
0
  6
Continuous
 62
     7
370
    25
100
AcDbLine
 10
-165.8572964546
 20
303.934786224
 30
0.0
 11
-165.8572964546
 21
304.6894958042
 31
0.0
  0
LINE
  5
869
330
1F
100
AcDbEntity
  8
0
  6
Continuous
 62
     7
370
    25
100
AcDbLine
 10
-162.2367780607
 20
300.639025382
 30
0.0
 11
-161.8925421584
 21
300.2679951957
 31
0.0
  0
LINE
  5
86A
330
1F
100
AcDbEntity
  8
0
  6
Continuous
 62
     7
370
    25
100
AcDbLine
 10
-172.59940102
 20
300.2679951957
 30
0.0
 11
-172.2551651177
 21
300.639025382
 31
0.0
  0
LINE
  5
86B
330
1F
100
AcDbEntity
  8
0
  6
Continuous
 62
     7
370
    25
100
AcDbLine
 10
-174.1658671366
 20
302.6429653334
 30
0.0
 11
-174.1658672704
 21
302.2493300601
 31
0.0
  0
LINE
  5
86C
330
1F
100
AcDbEntity
  8
0
  6
Continuous
 62
     7
370
    25
100
AcDbLine
 10
-160.326075908
 20
302.2493300603
 30
0.0
 11
-160.3260760597
 21
302.642965314
 31
0.0
  0
LINE
  5
86D
330
1F
100
AcDbEntity
  8
0
  6
Continuous
 62
     7
370
    25
100
AcDbLine
 10
-174.6574870882
 20
301.9895319269
 30
0.0
 11
-174.6574869698
 21
302.3831672168
 31
0.0
  0
LINE
  5
86E
330
1F
100
AcDbEntity
  8
0
  6
Continuous
 62
     7
370
    25
100
AcDbLine
 10
-174.1658671366
 20
302.6429653334
 30
0.0
 11
-174.6574869698
 21
302.3831672168
 31
0.0
  0
LINE
  5
86F
330
1F
100
AcDbEntity
  8
0
  6
Continuous
 62
     7
370
    25
100
AcDbLine
 10
-159.8344561758
 20
302.3831672521
 30
0.0
 11
-160.3260760597
 21
302.642965314
 31
0.0
  0
LINE
  5
870
330
1F
100
AcDbEntity
  8
0
  6
Continuous
 62
     7
370
    25
100
AcDbLine
 10
-159.8344561758
 20
302.3831672521
 30
0.0
 11
-159.8344560902
 21
301.9895319268
 31
0.0
  0
LINE
  5
871
330
1F
100
AcDbEntity
  8
0
  6
Continuous
 62
     7
370
    25
100
AcDbLine
 10
-174.7427717851
 20
301.8658275224
 30
0.0
 11
-174.7422313556
 21
301.8769765418
 31
0.0
  0
LINE
  5
872
330
1F
100
AcDbEntity
  8
0
  6
Continuous
 62
     7
370
    25
100
AcDbLine
 10
-159.7491713996
 20
301.865816513
 30
0.0
 11
-159.7497118228
 21
301.8769765419
 31
0.0
  0
LINE
  5
873
330
1F
100
AcDbEntity
  8
0
  6
Continuous
 62
     7
370
    25
100
AcDbLine
 10
-165.3346467238
 20
303.4402583276
 30
0.0
 11
-165.3346467238
 21
304.1949679078
 31
0.0
  0
LINE
  5
874
330
1F
100
AcDbEntity
  8
0
  6
Continuous
 62
     7
370
    25
100
AcDbLine
 10
-164.7572964546
 20
303.4402583276
 30
0.0
 11
-164.7572964546
 21
304.1949679078
 31
0.0
  0
LINE
  5
875
330
1F
100
AcDbEntity
  8
0
  6
Continuous
 62
     7
370
    25
100
AcDbLine
 10
-169.1572964546
 20
303.4402583276
 30
0.0
 11
-169.1572964546
 21
304.1949679078
 31
0.0
  0
LINE
  5
876
330
1F
100
AcDbEntity
  8
0
  6
Continuous
 62
     7
370
    25
100
AcDbLine
 10
-169.7346467238
 20
303.4402583276
 30
0.0
 11
-169.7346467238
 21
304.1949679078
 31
0.0
  0
LINE
  5
877
330
1F
100
AcDbEntity
  8
0
  6
Continuous
 62
     7
370
    25
100
AcDbLine
 10
-171.9346467238
 20
303.4402583276
 30
0.0
 11
-171.9346467238
 21
304.1949679078
 31
0.0
  0
LINE
  5
878
330
1F
100
AcDbEntity
  8
0
  6
Continuous
 62
     7
370
    25
100
AcDbLine
 10
-163.1346467238
 20
303.4402583276
 30
0.0
 11
-163.1346467238
 21
304.1949679078
 31
0.0
  0
LINE
  5
879
330
1F
100
AcDbEntity
  8
0
  6
Continuous
 62
     7
370
    25
100
AcDbLine
 10
-167.5346467238
 20
303.4402583276
 30
0.0
 11
-167.5346467238
 21
304.1949679078
 31
0.0
  0
LINE
  5
87A
330
1F
100
AcDbEntity
  8
0
  6
Continuous
 62
     7
370
    25
100
AcDbLine
 10
-171.3572964546
 20
303.4402583276
 30
0.0
 11
-171.3572964546
 21
304.1949679078
 31
0.0
  0
LINE
  5
87B
330
1F
100
AcDbEntity
  8
0
  6
Continuous
 62
     7
370
    25
100
AcDbLine
 10
-162.5572964546
 20
303.4402583276
 30
0.0
 11
-162.5572964546
 21
304.1949679078
 31
0.0
  0
LINE
  5
87C
330
1F
100
AcDbEntity
  8
0
  6
Continuous
 62
     7
370
    25
100
AcDbLine
 10
-166.9572964546
 20
303.4402583276
 30
0.0
 11
-166.9572964546
 21
304.1949679078
 31
0.0
  0
LINE
  5
87D
330
1F
100
AcDbEntity
  8
0
  6
Continuous
 62
     7
370
    25
100
AcDbLine
 10
-165.8572964546
 20
302.9496971004
 30
0.0
 11
-165.8572964546
 21
303.7044066806
 31
0.0
  0
LINE
  5
87E
330
1F
100
AcDbEntity
  8
0
  6
Continuous
 62
     7
370
    25
100
AcDbLine
 10
-164.2346467238
 20
302.9496971004
 30
0.0
 11
-164.2346467238
 21
303.7044066806
 31
0.0
  0
LINE
  5
87F
330
1F
100
AcDbEntity
  8
0
  6
Continuous
 62
     7
370
    25
100
AcDbLine
 10
-168.6346467238
 20
302.9496971004
 30
0.0
 11
-168.6346467238
 21
303.7044066806
 31
0.0
  0
LINE
  5
880
330
1F
100
AcDbEntity
  8
0
  6
Continuous
 62
     7
370
    25
100
AcDbLine
 10
-166.4346467238
 20
302.9496971004
 30
0.0
 11
-166.4346467238
 21
303.7044066806
 31
0.0
  0
LINE
  5
881
330
1F
100
AcDbEntity
  8
0
  6
Continuous
 62
     7
370
    25
100
AcDbLine
 10
-168.0572964546
 20
302.9496971004
 30
0.0
 11
-168.0572964546
 21
303.7044066806
 31
0.0
  0
LINE
  5
882
330
1F
100
AcDbEntity
  8
0
  6
Continuous
 62
     7
370
    25
100
AcDbLine
 10
-163.6572964546
 20
302.9496971004
 30
0.0
 11
-163.6572964546
 21
303.7044066806
 31
0.0
  0
LINE
  5
883
330
1F
100
AcDbEntity
  8
0
  6
Continuous
 62
     7
370
    25
100
AcDbLine
 10
-170.8346467238
 20
302.9496971004
 30
0.0
 11
-170.8346467238
 21
303.7044066806
 31
0.0
  0
LINE
  5
884
330
1F
100
AcDbEntity
  8
0
  6
Continuous
 62
     7
370
    25
100
AcDbLine
 10
-170.2572964546
 20
302.9496971004
 30
0.0
 11
-170.2572964546
 21
303.7044066806
 31
0.0
  0
LINE
  5
885
330
1F
100
AcDbEntity
  8
0
  6
Continuous
 62
     7
370
    25
100
AcDbLine
 10
-164.7572964546
 20
302.4968713523
 30
0.0
 11
-164.7572964546
 21
303.2515809325
 31
0.0
  0
LINE
  5
886
330
1F
100
AcDbEntity
  8
0
  6
Continuous
 62
     7
370
    25
100
AcDbLine
 10
-167.5346467238
 20
302.4968713523
 30
0.0
 11
-167.5346467238
 21
303.2515809325
 31
0.0
  0
LINE
  5
887
330
1F
100
AcDbEntity
  8
0
  6
Continuous
 62
     7
370
    25
100
AcDbLine
 10
-166.9572964546
 20
302.4968713523
 30
0.0
 11
-166.9572964546
 21
303.2515809325
 31
0.0
  0
LINE
  5
888
330
1F
100
AcDbEntity
  8
0
  6
Continuous
 62
     7
370
    25
100
AcDbLine
 10
-165.3346467238
 20
302.4968713523
 30
0.0
 11
-165.3346467238
 21
303.2515809325
 31
0.0
  0
LINE
  5
889
330
1F
100
AcDbEntity
  8
0
  6
Continuous
 62
     7
370
    25
100
AcDbLine
 10
-169.1572964546
 20
302.4968713523
 30
0.0
 11
-169.1572964546
 21
303.2515809325
 31
0.0
  0
LINE
  5
88A
330
1F
100
AcDbEntity
  8
0
  6
Continuous
 62
     7
370
    25
100
AcDbLine
 10
-169.7346467238
 20
302.4968713523
 30
0.0
 11
-169.7346467238
 21
303.2515809325
 31
0.0
  0
LINE
  5
88B
330
1F
100
AcDbEntity
  8
0
  6
Continuous
 62
     7
370
    25
100
AcDbLine
 10
-172.0557079986
 20
300.7813511077
 30
0.0
 11
-172.0551651583
 21
300.7703334557
 31
0.0
  0
LINE
  5
88C
330
1F
100
AcDbEntity
  8
0
  6
Continuous
 62
     7
370
    25
100
AcDbLine
 10
-162.4362351797
 20
300.7813511077
 30
0.0
 11
-162.4367780287
 21
300.7701517653
 31
0.0
  0
LINE
  5
88D
330
1F
100
AcDbEntity
  8
0
  6
Continuous
 62
     7
370
    25
100
AcDbLine
 10
-168.6346467238
 20
302.0023434559
 30
0.0
 11
-168.6346467238
 21
302.7570530361
 31
0.0
  0
LINE
  5
88E
330
1F
100
AcDbEntity
  8
0
  6
Continuous
 62
     7
370
    25
100
AcDbLine
 10
-168.0572964546
 20
302.0023434559
 30
0.0
 11
-168.0572964546
 21
302.7570530361
 31
0.0
  0
LINE
  5
88F
330
1F
100
AcDbEntity
  8
0
  6
Continuous
 62
     7
370
    25
100
AcDbLine
 10
-166.4346467238
 20
302.0023434559
 30
0.0
 11
-166.4346467238
 21
302.7570530361
 31
0.0
  0
LINE
  5
890
330
1F
100
AcDbEntity
  8
0
  6
Continuous
 62
     7
370
    25
100
AcDbLine
 10
-165.8572964546
 20
302.0023434559
 30
0.0
 11
-165.8572964546
 21
302.7570530361
 31
0.0
  0
LINE
  5
891
330
1F
100
AcDbEntity
  8
0
  6
Continuous
 62
     7
370
    25
100
AcDbLine
 10
-165.477877832
 20
299.7325149358
 30
0.0
 11
-165.5820939971
 21
300.1785781691
 31
0.0
  0
LINE
  5
892
330
1F
100
AcDbEntity
  8
0
  6
Continuous
 62
     7
370
    25
100
AcDbLine
 10
-168.9098491805
 20
300.1785780734
 30
0.0
 11
-169.0140653473
 21
299.732515028
 31
0.0
  0
LINE
  5
893
330
1F
100
AcDbEntity
  8
0
  6
Continuous
 62
     7
370
    25
100
AcDbLine
 10
-165.674839381
 20
299.1814579494
 30
0.0
 11
-165.7790555471
 21
299.6275209321
 31
0.0
  0
LINE
  5
894
330
1F
100
AcDbEntity
  8
0
  6
Continuous
 62
     7
370
    25
100
AcDbLine
 10
-165.8718009316
 20
299.0240353551
 30
0.0
 11
-165.9760170977
 21
299.4700983377
 31
0.0
  0
LINE
  5
895
330
1F
100
AcDbEntity
  8
0
  6
Continuous
 62
     7
370
    25
100
AcDbLine
 10
-168.5159260807
 20
299.4700983377
 30
0.0
 11
-168.6201422467
 21
299.0240353551
 31
0.0
  0
LINE
  5
896
330
1F
100
AcDbEntity
  8
0
  6
Continuous
 62
     7
370
    25
100
AcDbLine
 10
-168.7128876313
 20
299.627520932
 30
0.0
 11
-168.8171037973
 21
299.1814579495
 31
0.0
  0
LINE
  5
897
330
1F
100
AcDbEntity
  8
0
  6
Continuous
 62
     7
370
    25
100
AcDbLine
 10
-168.7128874016
 20
300.0211563189
 30
0.0
 11
-168.7128876313
 21
299.627520932
 31
0.0
  0
LINE
  5
898
330
1F
100
AcDbEntity
  8
0
  6
Continuous
 62
     7
370
    25
100
AcDbLine
 10
-165.7790555471
 20
299.6275209321
 30
0.0
 11
-165.7790558077
 21
300.0211563148
 31
0.0
  0
LINE
  5
899
330
1F
100
AcDbEntity
  8
0
  6
Continuous
 62
     7
370
    25
100
AcDbLine
 10
-168.8171037973
 20
299.1814579495
 30
0.0
 11
-168.8171035942
 21
299.5750933399
 31
0.0
  0
LINE
  5
89A
330
1F
100
AcDbEntity
  8
0
  6
Continuous
 62
     7
370
    25
100
AcDbLine
 10
-168.7128874016
 20
300.0211563189
 30
0.0
 11
-168.8171035942
 21
299.5750933399
 31
0.0
  0
LINE
  5
89B
330
1F
100
AcDbEntity
  8
0
  6
Continuous
 62
     7
370
    25
100
AcDbLine
 10
-165.674839528
 20
299.5750933474
 30
0.0
 11
-165.7790558077
 21
300.0211563148
 31
0.0
  0
LINE
  5
89C
330
1F
100
AcDbEntity
  8
0
  6
Continuous
 62
     7
370
    25
100
AcDbLine
 10
-165.674839528
 20
299.5750933474
 30
0.0
 11
-165.674839381
 21
299.1814579494
 31
0.0
  0
LINE
  5
89D
330
1F
100
AcDbEntity
  8
0
  6
Continuous
 62
     7
370
    25
100
AcDbLine
 10
-144.7459716076
 20
374.6324014903
 30
0.0
 11
-189.7459715891
 21
374.6324014903
 31
0.0
  0
LINE
  5
89E
330
1F
100
AcDbEntity
  8
0
  6
Continuous
 62
     7
370
    25
100
AcDbLine
 10
-189.2459715071
 20
403.6324014903
 30
0.0
 11
-145.2459716713
 21
403.6324014903
 31
0.0
  0
LINE
  5
89F
330
1F
100
AcDbEntity
  8
0
  6
Continuous
 62
     8
370
    25
100
AcDbLine
 10
-186.4946211782
 20
373.2350666763
 30
0.0
 11
-147.9973220002
 21
373.2350666763
 31
0.0
  0
LINE
  5
8A0
330
1F
100
AcDbEntity
  8
0
  6
Continuous
 62
     8
370
    25
100
AcDbLine
 10
-192.4959715887
 20
221.5324014903
 30
0.0
 11
-141.9959715934
 21
221.5324014903
 31
0.0
  0
LINE
  5
8A1
330
1F
100
AcDbEntity
  8
0
  6
Continuous
 62
     8
370
    25
100
AcDbLine
 10
-159.7879161242
 20
310.0357445595
 30
0.0
 11
-159.7879158886
 21
310.2589023726
 31
0.0
  0
LINE
  5
8A2
330
1F
100
AcDbEntity
  8
0
  6
Continuous
 62
     8
370
    25
100
AcDbLine
 10
-161.7742342233
 20
311.7170323159
 30
0.0
 11
-161.7742343257
 21
311.5348379356
 31
0.0
  0
LINE
  5
8A3
330
1F
100
AcDbEntity
  8
0
  6
Continuous
 62
     8
370
    25
100
AcDbLine
 10
-165.8414325193
 20
312.8062886014
 30
0.0
 11
-165.8414324873
 21
312.9673248976
 31
0.0
  0
LINE
  5
8A4
330
1F
100
AcDbEntity
  8
0
  6
Continuous
 62
     8
370
    25
100
AcDbLine
 10
-168.6505106823
 20
312.9673248986
 30
0.0
 11
-168.650510659
 21
312.8062886014
 31
0.0
  0
LINE
  5
8A5
330
1F
100
AcDbEntity
  8
0
  6
Continuous
 62
     8
370
    25
100
AcDbLine
 10
-172.7177088527
 20
311.5348379356
 30
0.0
 11
-172.7177089938
 21
311.7170322949
 31
0.0
  0
LINE
  5
8A6
330
1F
100
AcDbEntity
  8
0
  6
Continuous
 62
     8
370
    25
100
AcDbLine
 10
-174.7040272252
 20
310.2589024366
 30
0.0
 11
-174.7040270542
 21
310.0357445595
 31
0.0
  0
LINE
  5
8A7
330
1F
100
AcDbEntity
  8
0
  6
Continuous
 62
     8
370
    25
100
AcDbLine
 10
-168.9667428408
 20
312.9269732212
 30
0.0
 11
-168.9098491813
 21
312.6834587803
 31
0.0
  0
LINE
  5
8A8
330
1F
100
AcDbEntity
  8
0
  6
Continuous
 62
     8
370
    25
100
AcDbLine
 10
-165.5820939978
 20
312.6834586848
 30
0.0
 11
-165.525200339
 21
312.9269732214
 31
0.0
  0
LINE
  5
8A9
330
1F
100
AcDbEntity
  8
0
  6
Continuous
 62
     8
370
    25
100
AcDbLine
 10
-162.3276528367
 20
311.9953233444
 30
0.0
 11
-162.5644388779
 21
311.7401067655
 31
0.0
  0
LINE
  5
8AA
330
1F
100
AcDbEntity
  8
0
  6
Continuous
 62
     8
370
    25
100
AcDbLine
 10
-171.9275043011
 20
311.7401066696
 30
0.0
 11
-172.1642903196
 21
311.9953233547
 31
0.0
  0
LINE
  5
8AB
330
1F
100
AcDbEntity
  8
0
  6
Continuous
 62
     8
370
    25
100
AcDbLine
 10
-162.0563724541
 20
311.864251737
 30
0.0
 11
-162.0563725672
 21
311.4997137772
 31
0.0
  0
LINE
  5
8AC
330
1F
100
AcDbEntity
  8
0
  6
Continuous
 62
     8
370
    25
100
AcDbLine
 10
-172.4355706111
 20
311.4997137773
 30
0.0
 11
-172.4355707676
 21
311.8642517153
 31
0.0
  0
LINE
  5
8AD
330
1F
100
AcDbEntity
  8
0
  6
Continuous
 62
     8
370
    25
100
AcDbLine
 10
-162.0748095361
 20
311.8734769434
 30
0.0
 11
-162.4006082528
 21
311.5223188939
 31
0.0
  0
LINE
  5
8AE
330
1F
100
AcDbEntity
  8
0
  6
Continuous
 62
     8
370
    25
100
AcDbLine
 10
-172.0913348999
 20
311.5223189075
 30
0.0
 11
-172.4171336859
 21
311.8734769216
 31
0.0
  0
LINE
  5
8AF
330
1F
100
AcDbEntity
  8
0
  6
Continuous
 62
     8
370
    25
100
AcDbLine
 10
-174.7722023746
 20
310.2240139453
 30
0.0
 11
-174.742238845
 21
310.2081796333
 31
0.0
  0
LINE
  5
8B0
330
1F
100
AcDbEntity
  8
0
  6
Continuous
 62
     8
370
    25
100
AcDbLine
 10
-159.285035458
 20
308.1959630556
 30
0.0
 11
-159.7700101126
 21
308.1959630556
 31
0.0
  0
LINE
  5
8B1
330
1F
100
AcDbEntity
  8
0
  6
Continuous
 62
     8
370
    25
100
AcDbLine
 10
-159.4591790509
 20
308.6191936384
 30
0.0
 11
-159.8001674016
 21
308.6191936384
 31
0.0
  0
LINE
  5
8B2
330
1F
100
AcDbEntity
  8
0
  6
Continuous
 62
     8
370
    25
100
AcDbLine
 10
-174.7219330658
 20
308.1959630556
 30
0.0
 11
-175.2069077204
 21
308.1959630556
 31
0.0
  0
LINE
  5
8B3
330
1F
100
AcDbEntity
  8
0
  6
Continuous
 62
     8
370
    25
100
AcDbLine
 10
-174.6917757768
 20
308.6191936384
 30
0.0
 11
-175.0327641274
 21
308.6191936384
 31
0.0
  0
LINE
  5
8B4
330
1F
100
AcDbEntity
  8
0
  6
Continuous
 62
     8
370
    25
100
AcDbLine
 10
-159.7459715892
 20
307.2903115593
 30
0.0
 11
-159.0828565054
 21
307.2903115593
 31
0.0
  0
LINE
  5
8B5
330
1F
100
AcDbEntity
  8
0
  6
Continuous
 62
     8
370
    25
100
AcDbLine
 10
-175.4090866729
 20
307.2903115593
 30
0.0
 11
-174.7459715892
 21
307.2903115593
 31
0.0
  0
LINE
  5
8B6
330
1F
100
AcDbEntity
  8
0
  6
Continuous
 62
     8
370
    25
100
AcDbLine
 10
-172.0557008788
 20
300.9837550777
 30
0.0
 11
-171.9275043004
 21
301.1219301839
 31
0.0
  0
LINE
  5
8B7
330
1F
100
AcDbEntity
  8
0
  6
Continuous
 62
     8
370
    25
100
AcDbLine
 10
-162.5644388773
 20
301.1219300886
 30
0.0
 11
-162.4362422995
 21
300.9837550523
 31
0.0
  0
LINE
  5
8B8
330
1F
100
AcDbEntity
  8
0
  6
Continuous
 62
     8
370
    25
100
AcDbLine
 10
-173.4052602629
 20
303.7350554525
 30
0.0
 11
-173.4884183639
 21
303.672295237
 31
0.0
  0
LINE
  5
8B9
330
1F
100
AcDbEntity
  8
0
  6
Continuous
 62
     8
370
    25
100
AcDbLine
 10
-161.0035248145
 20
303.672295237
 30
0.0
 11
-161.0791037234
 21
303.7293353636
 31
0.0
  0
LINE
  5
8BA
330
1F
100
AcDbEntity
  8
0
  6
Continuous
 62
     8
370
    25
100
AcDbLine
 10
-168.8201409685
 20
299.1557868041
 30
0.0
 11
-168.8171037973
 21
299.1814579495
 31
0.0
  0
LINE
  5
8BB
330
1F
100
AcDbEntity
  8
0
  6
Continuous
 62
     8
370
    25
100
AcDbLine
 10
-165.6718021483
 20
299.1547206647
 30
0.0
 11
-165.674839381
 21
299.1814579494
 31
0.0
  0
LINE
  5
8BC
330
1F
100
AcDbEntity
  8
0
  6
Continuous
 62
     8
370
    25
100
AcDbLine
 10
-189.7459715829
 20
403.1324014903
 30
0.0
 11
-144.7459716103
 21
403.1324014903
 31
0.0
  0
ARC
  5
8BD
330
1F
100
AcDbEntity
  8
0
  6
Continuous
 62
     7
370
    25
100
AcDbCircle
 10
-186.294638937
 20
373.2324014903
 30
0.0
 40
0.1999999999992643
100
AcDbArc
 50
179.2364578532
 51
270.0000000001
  0
ARC
  5
8BE
330
1F
100
AcDbEntity
  8
0
  6
Continuous
 62
     7
370
    25
100
AcDbCircle
 10
-148.1973042414
 20
373.2324014903
 30
0.0
 40
0.2000000000017042
100
AcDbArc
 50
270.0000000006
 51
0.7635421461
  0
ARC
  5
8BF
330
1F
100
AcDbEntity
  8
0
  6
Continuous
 62
     7
370
    25
100
AcDbCircle
 10
-143.4959715892
 20
221.5324014903
 30
0.0
 40
1.499999999999261
100
AcDbArc
 50
360.0
 51
90.0
  0
ARC
  5
8C0
330
1F
100
AcDbEntity
  8
0
  6
Continuous
 62
     7
370
    25
100
AcDbCircle
 10
-190.9959715892
 20
221.5324014903
 30
0.0
 40
1.500000000001506
100
AcDbArc
 50
90.0000000001
 51
179.9999999999
  0
ARC
  5
8C1
330
1F
100
AcDbEntity
  8
0
  6
Continuous
 62
     7
370
    25
100
AcDbCircle
 10
-145.2459715892
 20
403.1324014903
 30
0.0
 40
0.5000000000021617
100
AcDbArc
 50
0.0000000002
 51
90.000004702
  0
ARC
  5
8C2
330
1F
100
AcDbEntity
  8
0
  6
Continuous
 62
     7
370
    25
100
AcDbCircle
 10
-189.2459715892
 20
403.1324014903
 30
0.0
 40
0.4999999999955679
100
AcDbArc
 50
89.9999952972
 51
180.0000000005
  0
ARC
  5
8C3
330
1F
100
AcDbEntity
  8
0
  6
Continuous
 62
     7
370
    25
100
AcDbCircle
 10
-167.2459715892
 20
327.4324014903
 30
0.0
 40
12.0
100
AcDbArc
 50
0.0
 51
180.0
  0
ARC
  5
8C4
330
1F
100
AcDbEntity
  8
0
  6
Continuous
 62
     7
370
    25
100
AcDbCircle
 10
-167.4919422438
 20
312.8431967473
 30
0.0
 40
1.650922336743597
100
AcDbArc
 50
348.9186432069
 51
358.7189844533
  0
ARC
  5
8C5
330
1F
100
AcDbEntity
  8
0
  6
Continuous
 62
     7
370
    25
100
AcDbCircle
 10
-167.2459715892
 20
300.648631652
 30
0.0
 40
11.95648335121502
100
AcDbArc
 50
83.4003544129
 51
96.5996455871
  0
ARC
  5
8C6
330
1F
100
AcDbEntity
  8
0
  6
Continuous
 62
     7
370
    25
100
AcDbCircle
 10
-167.0000009346
 20
312.8431967473
 30
0.0
 40
1.650922336675564
100
AcDbArc
 50
181.2810155467
 51
191.0813567935
  0
ARC
  5
8C7
330
1F
100
AcDbEntity
  8
0
  6
Continuous
 62
     7
370
    25
100
AcDbCircle
 10
-167.2459715892
 20
300.6665544287
 30
0.0
 40
12.22071502744727
100
AcDbArc
 50
83.4003544129
 51
96.5996455871
  0
ARC
  5
8C8
330
1F
100
AcDbEntity
  8
0
  6
Continuous
 62
     7
370
    25
100
AcDbCircle
 10
-168.7030030109
 20
312.6568388173
 30
0.0
 40
0.1171388320000537
100
AcDbArc
 50
157.463643068
 51
180.024013818
  0
ARC
  5
8C9
330
1F
100
AcDbEntity
  8
0
  6
Continuous
 62
     7
370
    25
100
AcDbCircle
 10
-168.7289454489
 20
312.6322106842
 30
0.0
 40
0.0883907747459837
100
AcDbArc
 50
193.6016901015
 51
219.8740692385
  0
ARC
  5
8CA
330
1F
100
AcDbEntity
  8
0
  6
Continuous
 62
     7
370
    25
100
AcDbCircle
 10
-165.7889278474
 20
312.6568425338
 30
0.0
 40
0.1171260283037594
100
AcDbArc
 50
359.8696542105
 51
22.5369875817
  0
ARC
  5
8CB
330
1F
100
AcDbEntity
  8
0
  6
Continuous
 62
     7
370
    25
100
AcDbCircle
 10
-165.7630032428
 20
312.6322146148
 30
0.0
 40
0.0883974773706254
100
AcDbArc
 50
320.1300776292
 51
346.3495614575
  0
ARC
  5
8CC
330
1F
100
AcDbEntity
  8
0
  6
Continuous
 62
     7
370
    25
100
AcDbCircle
 10
-167.2459715892
 20
300.9878319088
 30
0.0
 40
11.16445390003479
100
AcDbArc
 50
83.4684788314
 51
96.5315211686
  0
ARC
  5
8CD
330
1F
100
AcDbEntity
  8
0
  6
Continuous
 62
     7
370
    25
100
AcDbCircle
 10
-165.8546824163
 20
304.0626957958
 30
0.0
 40
8.513692781470246
100
AcDbArc
 50
44.5540205248
 51
61.3615702487
  0
ARC
  5
8CE
330
1F
100
AcDbEntity
  8
0
  6
Continuous
 62
     7
370
    25
100
AcDbCircle
 10
-168.6372607615
 20
304.0626957951
 30
0.0
 40
8.513692782322272
100
AcDbArc
 50
118.6384297521
 51
135.4459794743
  0
ARC
  5
8CF
330
1F
100
AcDbEntity
  8
0
  6
Continuous
 62
     7
370
    25
100
AcDbCircle
 10
-171.1917715074
 20
305.9074305819
 30
0.0
 40
5.304200152409485
100
AcDbArc
 50
180.0100176221
 51
191.5417836736
  0
ARC
  5
8D0
330
1F
100
AcDbEntity
  8
0
  6
Continuous
 62
     7
370
    25
100
AcDbCircle
 10
-170.264480049
 20
306.8989061701
 30
0.0
 40
6.292873326466385
100
AcDbArc
 50
200.2663155397
 51
222.0335763803
  0
ARC
  5
8D1
330
1F
100
AcDbEntity
  8
0
  6
Continuous
 62
     7
370
    25
100
AcDbCircle
 10
-168.6372607616
 20
307.7496482573
 30
0.0
 40
8.51369278216901
100
AcDbArc
 50
224.5540205255
 51
241.361570248
  0
ARC
  5
8D2
330
1F
100
AcDbEntity
  8
0
  6
Continuous
 62
     7
370
    25
100
AcDbCircle
 10
-167.4410919036
 20
310.7357737052
 30
0.0
 40
11.13736240385837
100
AcDbArc
 50
245.179346902
 51
261.6776439404
  0
ARC
  5
8D3
330
1F
100
AcDbEntity
  8
0
  6
Continuous
 62
     7
370
    25
100
AcDbCircle
 10
-167.0508512746
 20
310.7357737047
 30
0.0
 40
11.13736240328991
100
AcDbArc
 50
278.3223560655
 51
294.8206531012
  0
ARC
  5
8D4
330
1F
100
AcDbEntity
  8
0
  6
Continuous
 62
     7
370
    25
100
AcDbCircle
 10
-165.8546824168
 20
307.7496482574
 30
0.0
 40
8.513692782317516
100
AcDbArc
 50
298.6384297521
 51
315.4459794743
  0
ARC
  5
8D5
330
1F
100
AcDbEntity
  8
0
  6
Continuous
 62
     7
370
    25
100
AcDbCircle
 10
-164.2936551604
 20
306.9389144961
 30
0.0
 40
6.368842585250023
100
AcDbArc
 50
318.097801976
 51
339.6023060039
  0
ARC
  5
8D6
330
1F
100
AcDbEntity
  8
0
  6
Continuous
 62
     7
370
    25
100
AcDbCircle
 10
-163.305942655
 20
305.9080154763
 30
0.0
 40
5.309971500653322
100
AcDbArc
 50
348.4644919816
 51
359.9765353966
  0
ARC
  5
8D7
330
1F
100
AcDbEntity
  8
0
  6
Continuous
 62
     7
370
    25
100
AcDbCircle
 10
-168.6247306599
 20
312.1861470466
 30
0.0
 40
0.0883892493227584
100
AcDbArc
 50
193.5977852721
 51
219.8705040459
  0
ARC
  5
8D8
330
1F
100
AcDbEntity
  8
0
  6
Continuous
 62
     7
370
    25
100
AcDbCircle
 10
-165.8672216462
 20
312.1861528599
 30
0.0
 40
0.0884000299936235
100
AcDbArc
 50
320.1265854194
 51
346.3391225943
  0
ARC
  5
8D9
330
1F
100
AcDbEntity
  8
0
  6
Continuous
 62
     7
370
    25
100
AcDbCircle
 10
-168.5553268458
 20
312.0467167468
 30
0.0
 40
0.0710790481020054
100
AcDbArc
 50
331.075774791
 51
12.2568260086
  0
ARC
  5
8DA
330
1F
100
AcDbEntity
  8
0
  6
Continuous
 62
     7
370
    25
100
AcDbCircle
 10
-170.153351412
 20
306.3758418903
 30
0.0
 40
5.370168422384177
100
AcDbArc
 50
142.5053347412
 51
164.7512181916
  0
ARC
  5
8DB
330
1F
100
AcDbEntity
  8
0
  6
Continuous
 62
     7
370
    25
100
AcDbCircle
 10
-168.4871488033
 20
304.2615960911
 30
0.0
 40
7.593427630137475
100
AcDbArc
 50
118.7250626608
 51
135.3593465657
  0
ARC
  5
8DC
330
1F
100
AcDbEntity
  8
0
  6
Continuous
 62
     7
370
    25
100
AcDbCircle
 10
-167.4337017189
 20
302.8978775787
 30
0.0
 40
9.873901210428254
100
AcDbArc
 50
98.3669005618
 51
116.3528033295
  0
ARC
  5
8DD
330
1F
100
AcDbEntity
  8
0
  6
Continuous
 62
     7
370
    25
100
AcDbCircle
 10
-167.0582314423
 20
302.8978664598
 30
0.0
 40
9.873908802158502
100
AcDbArc
 50
63.6472741511
 51
81.6331676241
  0
ARC
  5
8DE
330
1F
100
AcDbEntity
  8
0
  6
Continuous
 62
     7
370
    25
100
AcDbCircle
 10
-166.0047943753
 20
304.2615960908
 30
0.0
 40
7.593427630582651
100
AcDbArc
 50
44.6406534348
 51
61.2749373387
  0
ARC
  5
8DF
330
1F
100
AcDbEntity
  8
0
  6
Continuous
 62
     7
370
    25
100
AcDbCircle
 10
-164.3933975153
 20
306.3487757449
 30
0.0
 40
5.430178434307842
100
AcDbArc
 50
15.3722162993
 51
37.4420011551
  0
ARC
  5
8E0
330
1F
100
AcDbEntity
  8
0
  6
Continuous
 62
     7
370
    25
100
AcDbCircle
 10
-163.7185922177
 20
305.9061720263
 30
0.0
 40
4.722553845945885
100
AcDbArc
 50
348.5713560537
 51
11.4286439463
  0
ARC
  5
8E1
330
1F
100
AcDbEntity
  8
0
  6
Continuous
 62
     7
370
    25
100
AcDbCircle
 10
-164.480323884
 20
306.8109102352
 30
0.0
 40
5.523340646815428
100
AcDbArc
 50
317.9662724399
 51
344.5144977277
  0
ARC
  5
8E2
330
1F
100
AcDbEntity
  8
0
  6
Continuous
 62
     7
370
    25
100
AcDbCircle
 10
-166.0047943755
 20
307.550747962
 30
0.0
 40
7.593427630847071
100
AcDbArc
 50
298.7250626616
 51
315.3593465649
  0
ARC
  5
8E3
330
1F
100
AcDbEntity
  8
0
  6
Continuous
 62
     7
370
    25
100
AcDbCircle
 10
-167.0582414579
 20
310.2265845251
 30
0.0
 40
9.873901203648192
100
AcDbArc
 50
278.3669005583
 51
296.3528033387
  0
ARC
  5
8E4
330
1F
100
AcDbEntity
  8
0
  6
Continuous
 62
     7
370
    25
100
AcDbCircle
 10
-167.2459715892
 20
310.5799955258
 30
0.0
 40
10.90020647042622
100
AcDbArc
 50
263.4684788314
 51
276.5315211686
  0
ARC
  5
8E5
330
1F
100
AcDbEntity
  8
0
  6
Continuous
 62
     7
370
    25
100
AcDbCircle
 10
-167.4337117388
 20
310.2265956435
 30
0.0
 40
9.87390879464039
100
AcDbArc
 50
243.6472741472
 51
261.6331676337
  0
ARC
  5
8E6
330
1F
100
AcDbEntity
  8
0
  6
Continuous
 62
     7
370
    25
100
AcDbCircle
 10
-168.487148803
 20
307.5507479618
 30
0.0
 40
7.593427630577491
100
AcDbArc
 50
224.6406534348
 51
241.2749373387
  0
ARC
  5
8E7
330
1F
100
AcDbEntity
  8
0
  6
Continuous
 62
     7
370
    25
100
AcDbCircle
 10
-170.0115645005
 20
306.8109458426
 30
0.0
 40
5.523405483962985
100
AcDbArc
 50
195.4857033084
 51
222.0336204827
  0
ARC
  5
8E8
330
1F
100
AcDbEntity
  8
0
  6
Continuous
 62
     7
370
    25
100
AcDbCircle
 10
-170.7733509607
 20
305.9061720263
 30
0.0
 40
4.722553845944554
100
AcDbArc
 50
168.5713560537
 51
191.4286439463
  0
ARC
  5
8E9
330
1F
100
AcDbEntity
  8
0
  6
Continuous
 62
     7
370
    25
100
AcDbCircle
 10
-170.1256516279
 20
309.2728782655
 30
0.0
 40
5.40859119582754
100
AcDbArc
 50
202.8299645088
 51
212.0458367804
  0
ARC
  5
8EA
330
1F
100
AcDbEntity
  8
0
  6
Continuous
 62
     7
370
    25
100
AcDbCircle
 10
-164.3709029795
 20
309.2750344627
 30
0.0
 40
5.413680575561019
100
AcDbArc
 50
327.7112768421
 51
337.1390164646
  0
ARC
  5
8EB
330
1F
100
AcDbEntity
  8
0
  6
Continuous
 62
     7
370
    25
100
AcDbCircle
 10
-167.0537289416
 20
302.6776957732
 30
0.0
 40
10.11340784650404
100
AcDbArc
 50
63.6473441957
 51
81.6329979406
  0
ARC
  5
8EC
330
1F
100
AcDbEntity
  8
0
  6
Continuous
 62
     7
370
    25
100
AcDbCircle
 10
-167.4382195919
 20
302.6776972424
 30
0.0
 40
10.11340484717403
100
AcDbArc
 50
98.3669738906
 51
116.3526303619
  0
ARC
  5
8ED
330
1F
100
AcDbEntity
  8
0
  6
Continuous
 62
     7
370
    25
100
AcDbCircle
 10
-172.7253117307
 20
311.5471555879
 30
0.0
 40
0.2935994580521835
100
AcDbArc
 50
295.3947263411
 51
350.7009855159
  0
ARC
  5
8EE
330
1F
100
AcDbEntity
  8
0
  6
Continuous
 62
     7
370
    25
100
AcDbCircle
 10
-172.3810758284
 20
311.1761254017
 30
0.0
 40
0.2935994581464167
100
AcDbArc
 50
295.3947263452
 51
350.7009854742
  0
ARC
  5
8EF
330
1F
100
AcDbEntity
  8
0
  6
Continuous
 62
     7
370
    25
100
AcDbCircle
 10
-161.7666314476
 20
311.547155588
 30
0.0
 40
0.2935994581441368
100
AcDbArc
 50
189.2990145257
 51
244.6052736552
  0
ARC
  5
8F0
330
1F
100
AcDbEntity
  8
0
  6
Continuous
 62
     7
370
    25
100
AcDbCircle
 10
-162.11086735
 20
311.1761254017
 30
0.0
 40
0.2935994580612285
100
AcDbArc
 50
189.2990144849
 51
244.6052736577
  0
ARC
  5
8F1
330
1F
100
AcDbEntity
  8
0
  6
Continuous
 62
     7
370
    25
100
AcDbCircle
 10
-172.2964637805
 20
311.5777610701
 30
0.0
 40
0.4234262701998655
100
AcDbArc
 50
185.8181228662
 51
224.3205071609
  0
ARC
  5
8F2
330
1F
100
AcDbEntity
  8
0
  6
Continuous
 62
     7
370
    25
100
AcDbCircle
 10
-172.600790637
 20
311.3232813455
 30
0.0
 40
0.241714831902986
100
AcDbArc
 50
46.8796675873
 51
118.9275385344
  0
ARC
  5
8F3
330
1F
100
AcDbEntity
  8
0
  6
Continuous
 62
     7
370
    25
100
AcDbCircle
 10
-161.8911525413
 20
311.3232813458
 30
0.0
 40
0.2417148315585345
100
AcDbArc
 50
61.0724614336
 51
133.1203325047
  0
ARC
  5
8F4
330
1F
100
AcDbEntity
  8
0
  6
Continuous
 62
     7
370
    25
100
AcDbCircle
 10
-162.1954793978
 20
311.5777610701
 30
0.0
 40
0.4234262702034994
100
AcDbArc
 50
315.6794928395
 51
354.1818771338
  0
ARC
  5
8F5
330
1F
100
AcDbEntity
  8
0
  6
Continuous
 62
     7
370
    25
100
AcDbCircle
 10
-160.0838669334
 20
310.0829640909
 30
0.0
 40
0.2996941201224349
100
AcDbArc
 50
296.7079811691
 51
350.9347549087
  0
ARC
  5
8F6
330
1F
100
AcDbEntity
  8
0
  6
Continuous
 62
     7
370
    25
100
AcDbCircle
 10
-165.884764345
 20
303.9713429347
 30
0.0
 40
8.329612938597153
100
AcDbArc
 50
44.5540205261
 51
61.3615702478
  0
ARC
  5
8F7
330
1F
100
AcDbEntity
  8
0
  6
Continuous
 62
     7
370
    25
100
AcDbCircle
 10
-168.6071788339
 20
303.9713429354
 30
0.0
 40
8.32961293772901
100
AcDbArc
 50
118.6384297513
 51
135.4459794748
  0
ARC
  5
8F8
330
1F
100
AcDbEntity
  8
0
  6
Continuous
 62
     7
370
    25
100
AcDbCircle
 10
-174.4080762449
 20
310.0829640909
 30
0.0
 40
0.2996941201223391
100
AcDbArc
 50
189.0652450912
 51
243.2920188309
  0
ARC
  5
8F9
330
1F
100
AcDbEntity
  8
0
  6
Continuous
 62
     7
370
    25
100
AcDbCircle
 10
-165.9747052306
 20
304.0905157777
 30
0.0
 40
7.777510724394463
100
AcDbArc
 50
44.6406534347
 51
61.2749373391
  0
ARC
  5
8FA
330
1F
100
AcDbEntity
  8
0
  6
Continuous
 62
     7
370
    25
100
AcDbCircle
 10
-168.5172379473
 20
304.0905157771
 30
0.0
 40
7.777510725091215
100
AcDbArc
 50
118.7250626617
 51
135.3593465646
  0
ARC
  5
8FB
330
1F
100
AcDbEntity
  8
0
  6
Continuous
 62
     7
370
    25
100
AcDbCircle
 10
-160.5337161279
 20
309.5932131734
 30
0.0
 40
0.0682597520846151
100
AcDbArc
 50
176.6689539309
 51
222.6292785246
  0
ARC
  5
8FC
330
1F
100
AcDbEntity
  8
0
  6
Continuous
 62
     7
370
    25
100
AcDbCircle
 10
-173.9582431764
 20
309.5932162641
 30
0.0
 40
0.0682756712521127
100
AcDbArc
 50
317.433427035
 51
3.3276705165
  0
ARC
  5
8FD
330
1F
100
AcDbEntity
  8
0
  6
Continuous
 62
     7
370
    25
100
AcDbCircle
 10
-170.0482631494
 20
306.6966139943
 30
0.0
 40
3.797853277662471
100
AcDbArc
 50
185.7503997652
 51
188.6196835884
  0
ARC
  5
8FE
330
1F
100
AcDbEntity
  8
0
  6
Continuous
 62
     7
370
    25
100
AcDbCircle
 10
-169.5641196692
 20
306.8574975556
 30
0.0
 40
4.309481828171395
100
AcDbArc
 50
200.1538256976
 51
213.074962258
  0
ARC
  5
8FF
330
1F
100
AcDbEntity
  8
0
  6
Continuous
 62
     7
370
    25
100
AcDbCircle
 10
-168.574831012
 20
307.6260141554
 30
0.0
 40
5.566415709722204
100
AcDbArc
 50
221.5386203563
 51
232.4746740891
  0
ARC
  5
900
330
1F
100
AcDbEntity
  8
0
  6
Continuous
 62
     7
370
    25
100
AcDbCircle
 10
-167.8048144392
 20
308.7189781797
 30
0.0
 40
6.9059983718063
100
AcDbArc
 50
240.566127634
 51
242.7256400258
  0
ARC
  5
901
330
1F
100
AcDbEntity
  8
0
  6
Continuous
 62
     7
370
    25
100
AcDbCircle
 10
-167.4471496652
 20
309.5328595752
 30
0.0
 40
7.79594700985762
100
AcDbArc
 50
250.0785435133
 51
252.0516849629
  0
ARC
  5
902
330
1F
100
AcDbEntity
  8
0
  6
Continuous
 62
     7
370
    25
100
AcDbCircle
 10
-167.2565921415
 20
310.3067226934
 30
0.0
 40
8.594010509996433
100
AcDbArc
 50
259.0805034272
 51
267.0625685436
  0
ARC
  5
903
330
1F
100
AcDbEntity
  8
0
  6
Continuous
 62
     7
370
    25
100
AcDbCircle
 10
-167.235351037
 20
310.3067226947
 30
0.0
 40
8.594010511254321
100
AcDbArc
 50
272.937431457
 51
280.9194965723
  0
ARC
  5
904
330
1F
100
AcDbEntity
  8
0
  6
Continuous
 62
     7
370
    25
100
AcDbCircle
 10
-167.0447935144
 20
309.5328595787
 30
0.0
 40
7.795947013486432
100
AcDbArc
 50
287.9483150376
 51
289.9214564863
  0
ARC
  5
905
330
1F
100
AcDbEntity
  8
0
  6
Continuous
 62
     7
370
    25
100
AcDbCircle
 10
-166.6871287437
 20
308.718978188
 30
0.0
 40
6.905998381218481
100
AcDbArc
 50
297.2743599756
 51
299.4338723645
  0
ARC
  5
906
330
1F
100
AcDbEntity
  8
0
  6
Continuous
 62
     7
370
    25
100
AcDbCircle
 10
-165.9171121667
 20
307.6260141558
 30
0.0
 40
5.566415710221134
100
AcDbArc
 50
307.5253259114
 51
318.4613796432
  0
ARC
  5
907
330
1F
100
AcDbEntity
  8
0
  6
Continuous
 62
     7
370
    25
100
AcDbCircle
 10
-164.9278235083
 20
306.8574975552
 30
0.0
 40
4.3094818272838
100
AcDbArc
 50
326.9250377407
 51
339.8461743037
  0
ARC
  5
908
330
1F
100
AcDbEntity
  8
0
  6
Continuous
 62
     7
370
    25
100
AcDbCircle
 10
-164.4436800245
 20
306.6966139937
 30
0.0
 40
3.797853273137247
100
AcDbArc
 50
351.3803164099
 51
354.2496002365
  0
ARC
  5
909
330
1F
100
AcDbEntity
  8
0
  6
Continuous
 62
     7
370
    25
100
AcDbCircle
 10
-170.4648081015
 20
307.7429201286
 30
0.0
 40
4.28116349321779
100
AcDbArc
 50
173.9254503236
 51
179.9970934462
  0
ARC
  5
90A
330
1F
100
AcDbEntity
  8
0
  6
Continuous
 62
     7
370
    25
100
AcDbCircle
 10
-164.0271350768
 20
307.7429201286
 30
0.0
 40
4.2811634931404
100
AcDbArc
 50
0.0029065537
 51
6.0745496765
  0
ARC
  5
90B
330
1F
100
AcDbEntity
  8
0
  6
Continuous
 62
     7
370
    25
100
AcDbCircle
 10
-170.2791361576
 20
306.1584548436
 30
0.0
 40
6.059407823979957
100
AcDbArc
 50
137.859565643
 51
164.6210966494
  0
ARC
  5
90C
330
1F
100
AcDbEntity
  8
0
  6
Continuous
 62
     7
370
    25
100
AcDbCircle
 10
-159.0718237588
 20
307.7885689896
 30
0.0
 40
0.0856656196521141
100
AcDbArc
 50
180.2106516514
 51
219.7928579907
  0
ARC
  5
90D
330
1F
100
AcDbEntity
  8
0
  6
Continuous
 62
     7
370
    25
100
AcDbCircle
 10
-177.5998077679
 20
307.1289685622
 30
0.0
 40
1.443977997349282
100
AcDbArc
 50
347.3221461687
 51
358.5298062855
  0
ARC
  5
90E
330
1F
100
AcDbEntity
  8
0
  6
Continuous
 62
     7
370
    25
100
AcDbCircle
 10
-177.0087685205
 20
307.0503156233
 30
0.0
 40
1.443977997624728
100
AcDbArc
 50
347.3221461688
 51
358.5298062771
  0
ARC
  5
90F
330
1F
100
AcDbEntity
  8
0
  6
Continuous
 62
     7
370
    25
100
AcDbCircle
 10
-156.8921354098
 20
307.1289685623
 30
0.0
 40
1.443977997957216
100
AcDbArc
 50
181.4701937236
 51
192.6778538297
  0
ARC
  5
910
330
1F
100
AcDbEntity
  8
0
  6
Continuous
 62
     7
370
    25
100
AcDbCircle
 10
-157.4831746579
 20
307.0503156233
 30
0.0
 40
1.443977997604508
100
AcDbArc
 50
181.4701937157
 51
192.6778538305
  0
ARC
  5
911
330
1F
100
AcDbEntity
  8
0
  6
Continuous
 62
     7
370
    25
100
AcDbCircle
 10
-158.2910077243
 20
306.8967496836
 30
0.0
 40
0.2002087314703822
100
AcDbArc
 50
20.2944734828
 51
102.8805398828
  0
ARC
  5
912
330
1F
100
AcDbEntity
  8
0
  6
Continuous
 62
     7
370
    25
100
AcDbCircle
 10
-158.2984721815
 20
307.0127688382
 30
0.0
 40
0.2007236428669173
100
AcDbArc
 50
269.3045666343
 51
346.5822651333
  0
ARC
  5
913
330
1F
100
AcDbEntity
  8
0
  6
Continuous
 62
     7
370
    25
100
AcDbCircle
 10
-176.1934709968
 20
307.0127688382
 30
0.0
 40
0.2007236428669382
100
AcDbArc
 50
193.4177348667
 51
270.6954333657
  0
ARC
  5
914
330
1F
100
AcDbEntity
  8
0
  6
Continuous
 62
     7
370
    25
100
AcDbCircle
 10
-176.2009354538
 20
306.8967496833
 30
0.0
 40
0.2002087318072929
100
AcDbArc
 50
77.1194602169
 51
159.7055264747
  0
ARC
  5
915
330
1F
100
AcDbEntity
  8
0
  6
Continuous
 62
     7
370
    25
100
AcDbCircle
 10
-163.377082307
 20
305.7749602205
 30
0.0
 40
5.181034374343088
100
AcDbArc
 50
348.4529629758
 51
11.5470370242
  0
ARC
  5
916
330
1F
100
AcDbEntity
  8
0
  6
Continuous
 62
     7
370
    25
100
AcDbCircle
 10
-171.1148608709
 20
305.7749602205
 30
0.0
 40
5.181034374860838
100
AcDbArc
 50
168.452962977
 51
191.547037023
  0
ARC
  5
917
330
1F
100
AcDbEntity
  8
0
  6
Continuous
 62
     7
370
    25
100
AcDbCircle
 10
-163.6330799909
 20
305.7749602205
 30
0.0
 40
4.837040000204015
100
AcDbArc
 50
348.5713560547
 51
11.4286439453
  0
ARC
  5
918
330
1F
100
AcDbEntity
  8
0
  6
Continuous
 62
     7
370
    25
100
AcDbCircle
 10
-170.858863188
 20
305.7749602205
 30
0.0
 40
4.837039999681257
100
AcDbArc
 50
168.5713560534
 51
191.4286439466
  0
ARC
  5
919
330
1F
100
AcDbEntity
  8
0
  6
Continuous
 62
     7
370
    25
100
AcDbCircle
 10
-158.2910077246
 20
307.2903851007
 30
0.0
 40
0.2002087318293094
100
AcDbArc
 50
20.2944735396
 51
102.8805397773
  0
ARC
  5
91A
330
1F
100
AcDbEntity
  8
0
  6
Continuous
 62
     7
370
    25
100
AcDbCircle
 10
-176.2009339964
 20
307.2903813623
 30
0.0
 40
0.2002118938430004
100
AcDbArc
 50
77.1201055133
 51
159.7047024199
  0
ARC
  5
91B
330
1F
100
AcDbEntity
  8
0
  6
Continuous
 62
     7
370
    25
100
AcDbCircle
 10
-158.9745466352
 20
306.8643044083
 30
0.0
 40
0.1174034226889205
100
AcDbArc
 50
157.3351292715
 51
179.474977791
  0
ARC
  5
91C
330
1F
100
AcDbEntity
  8
0
  6
Continuous
 62
     7
370
    25
100
AcDbCircle
 10
-175.5173495679
 20
306.8643190499
 30
0.0
 40
0.1173544332589028
100
AcDbArc
 50
0.1440005479
 51
22.6671119906
  0
ARC
  5
91D
330
1F
100
AcDbEntity
  8
0
  6
Continuous
 62
     7
370
    25
100
AcDbCircle
 10
-158.8946875837
 20
305.0169633341
 30
0.0
 40
0.2004686595543073
100
AcDbArc
 50
193.4278562272
 51
270.7831159293
  0
ARC
  5
91E
330
1F
100
AcDbEntity
  8
0
  6
Continuous
 62
     7
370
    25
100
AcDbCircle
 10
-175.5972555946
 20
305.0169633341
 30
0.0
 40
0.2004686595542504
100
AcDbArc
 50
269.2168840707
 51
346.5721437729
  0
ARC
  5
91F
330
1F
100
AcDbEntity
  8
0
  6
Continuous
 62
     7
370
    25
100
AcDbCircle
 10
-175.5164301724
 20
307.258245834
 30
0.0
 40
0.1163937978678663
100
AcDbArc
 50
348.7653386454
 51
22.7091764303
  0
ARC
  5
920
330
1F
100
AcDbEntity
  8
0
  6
Continuous
 62
     7
370
    25
100
AcDbCircle
 10
-158.299991021
 20
304.9640904584
 30
0.0
 40
0.2462606333038646
100
AcDbArc
 50
261.6770062491
 51
301.6603646364
  0
ARC
  5
921
330
1F
100
AcDbEntity
  8
0
  6
Continuous
 62
     7
370
    25
100
AcDbCircle
 10
-176.1919521568
 20
304.96409046
 30
0.0
 40
0.2462606349924542
100
AcDbArc
 50
238.3396354492
 51
278.3229935587
  0
ARC
  5
922
330
1F
100
AcDbEntity
  8
0
  6
Continuous
 62
     7
370
    25
100
AcDbCircle
 10
-160.0945006547
 20
303.1603224835
 30
0.0
 40
0.2873383714204472
100
AcDbArc
 50
189.5484443953
 51
246.0024180591
  0
ARC
  5
923
330
1F
100
AcDbEntity
  8
0
  6
Continuous
 62
     7
370
    25
100
AcDbCircle
 10
-174.3974104632
 20
303.1602971866
 30
0.0
 40
0.2873023107675238
100
AcDbArc
 50
293.9937849047
 51
350.4554336358
  0
ARC
  5
924
330
1F
100
AcDbEntity
  8
0
  6
Continuous
 62
     7
370
    25
100
AcDbCircle
 10
-160.2694870975
 20
302.0321013114
 30
0.0
 40
0.4371088306013168
100
AcDbArc
 50
317.1221007683
 51
354.4111901067
  0
ARC
  5
925
330
1F
100
AcDbEntity
  8
0
  6
Continuous
 62
     7
370
    25
100
AcDbCircle
 10
-160.7611069149
 20
302.2918994446
 30
0.0
 40
0.4371088302678592
100
AcDbArc
 50
317.1221007569
 51
354.411190145
  0
ARC
  5
926
330
1F
100
AcDbEntity
  8
0
  6
Continuous
 62
     7
370
    25
100
AcDbCircle
 10
-174.222456081
 20
302.0321013113
 30
0.0
 40
0.4371088304195628
100
AcDbArc
 50
185.5888098617
 51
222.8778992364
  0
ARC
  5
927
330
1F
100
AcDbEntity
  8
0
  6
Continuous
 62
     7
370
    25
100
AcDbCircle
 10
-173.7308362632
 20
302.2918994447
 30
0.0
 40
0.437108830595497
100
AcDbArc
 50
185.588809893
 51
222.877899232
  0
ARC
  5
928
330
1F
100
AcDbEntity
  8
0
  6
Continuous
 62
     7
370
    25
100
AcDbCircle
 10
-174.0524448098
 20
302.0347255959
 30
0.0
 40
0.2427338679120172
100
AcDbArc
 50
48.0185706358
 51
117.8572867987
  0
ARC
  5
929
330
1F
100
AcDbEntity
  8
0
  6
Continuous
 62
     7
370
    25
100
AcDbCircle
 10
-174.1864838946
 20
302.2623677303
 30
0.0
 40
0.3001363753195593
100
AcDbArc
 50
296.8015314819
 51
350.9514046968
  0
ARC
  5
92A
330
1F
100
AcDbEntity
  8
0
  6
Continuous
 62
     7
370
    25
100
AcDbCircle
 10
-160.3054592838
 20
302.2623677303
 30
0.0
 40
0.3001363753196805
100
AcDbArc
 50
189.0485953032
 51
243.1984685181
  0
ARC
  5
92B
330
1F
100
AcDbEntity
  8
0
  6
Continuous
 62
     7
370
    25
100
AcDbCircle
 10
-160.4394983684
 20
302.0347255954
 30
0.0
 40
0.2427338683793932
100
AcDbArc
 50
62.1427133082
 51
131.9814293227
  0
ARC
  5
92C
330
1F
100
AcDbEntity
  8
0
  6
Continuous
 62
     7
370
    25
100
AcDbCircle
 10
-165.9747052306
 20
307.4594046633
 30
0.0
 40
7.777510724380891
100
AcDbArc
 50
298.7250626609
 51
315.3593465654
  0
ARC
  5
92D
330
1F
100
AcDbEntity
  8
0
  6
Continuous
 62
     7
370
    25
100
AcDbCircle
 10
-161.9350363001
 20
300.9347460258
 30
0.0
 40
0.4224911706006974
100
AcDbArc
 50
185.8344684585
 51
224.4226031579
  0
ARC
  5
92E
330
1F
100
AcDbEntity
  8
0
  6
Continuous
 62
     7
370
    25
100
AcDbCircle
 10
-172.5569068783
 20
300.9347460258
 30
0.0
 40
0.4224911706005444
100
AcDbArc
 50
315.5773968421
 51
354.1655315416
  0
ARC
  5
92F
330
1F
100
AcDbEntity
  8
0
  6
Continuous
 62
     7
370
    25
100
AcDbCircle
 10
-168.5172379478
 20
307.4594046633
 30
0.0
 40
7.777510724397315
100
AcDbArc
 50
224.6406534347
 51
241.274937339
  0
ARC
  5
930
330
1F
100
AcDbEntity
  8
0
  6
Continuous
 62
     7
370
    25
100
AcDbCircle
 10
-165.8847643449
 20
307.5785775061
 30
0.0
 40
8.329612938380526
100
AcDbArc
 50
298.638429752
 51
315.4459794742
  0
ARC
  5
931
330
1F
100
AcDbEntity
  8
0
  6
Continuous
 62
     7
370
    25
100
AcDbCircle
 10
-168.6071788338
 20
307.5785775057
 30
0.0
 40
8.329612937901022
100
AcDbArc
 50
224.5540205253
 51
241.3615702485
  0
ARC
  5
932
330
1F
100
AcDbEntity
  8
0
  6
Continuous
 62
     7
370
    25
100
AcDbCircle
 10
-174.0524441921
 20
302.4283624297
 30
0.0
 40
0.2427327143595136
100
AcDbArc
 50
48.0184300303
 51
117.8575599024
  0
ARC
  5
933
330
1F
100
AcDbEntity
  8
0
  6
Continuous
 62
     7
370
    25
100
AcDbCircle
 10
-160.4394982589
 20
302.4283556995
 30
0.0
 40
0.2427382991908138
100
AcDbArc
 50
62.1433358205
 51
131.980642735
  0
ARC
  5
934
330
1F
100
AcDbEntity
  8
0
  6
Continuous
 62
     7
370
    25
100
AcDbCircle
 10
-161.8272644546
 20
300.2679006727
 30
0.0
 40
0.05389303416139
100
AcDbArc
 50
305.8392455902
 51
10.2667752319
  0
ARC
  5
935
330
1F
100
AcDbEntity
  8
0
  6
Continuous
 62
     7
370
    25
100
AcDbCircle
 10
-172.6646522274
 20
300.2679059637
 30
0.0
 40
0.0539181641664652
100
AcDbArc
 50
169.7437755241
 51
234.0949557901
  0
ARC
  5
936
330
1F
100
AcDbEntity
  8
0
  6
Continuous
 62
     7
370
    25
100
AcDbCircle
 10
-162.2243559057
 20
301.4209657455
 30
0.0
 40
0.4528556416855574
100
AcDbArc
 50
185.3423831425
 51
221.3251499805
  0
ARC
  5
937
330
1F
100
AcDbEntity
  8
0
  6
Continuous
 62
     7
370
    25
100
AcDbCircle
 10
-172.2676655705
 20
301.4209963872
 30
0.0
 40
0.4529351870144978
100
AcDbArc
 50
318.6784058241
 51
354.6544600655
  0
ARC
  5
938
330
1F
100
AcDbEntity
  8
0
  6
Continuous
 62
     7
370
    25
100
AcDbCircle
 10
-167.0537080111
 20
310.1842749975
 30
0.0
 40
10.1133385599405
100
AcDbArc
 50
278.3669399352
 51
296.352717922
  0
ARC
  5
939
330
1F
100
AcDbEntity
  8
0
  6
Continuous
 62
     7
370
    25
100
AcDbCircle
 10
-164.3481887508
 20
300.4949984477
 30
0.0
 40
1.273830424134464
100
AcDbArc
 50
181.6744893343
 51
194.3828898165
  0
ARC
  5
93A
330
1F
100
AcDbEntity
  8
0
  6
Continuous
 62
     7
370
    25
100
AcDbCircle
 10
-170.1435248929
 20
300.4949689964
 30
0.0
 40
1.273600575258304
100
AcDbArc
 50
345.6158623337
 51
358.3266193154
  0
ARC
  5
93B
330
1F
100
AcDbEntity
  8
0
  6
Continuous
 62
     7
370
    25
100
AcDbCircle
 10
-167.4382405225
 20
310.1842735277
 30
0.0
 40
10.11333556000929
100
AcDbArc
 50
243.6473075137
 51
261.6330882277
  0
ARC
  5
93C
330
1F
100
AcDbEntity
  8
0
  6
Continuous
 62
     7
370
    25
100
AcDbCircle
 10
-167.0489436046
 20
310.4877096554
 30
0.0
 40
10.86933480317498
100
AcDbArc
 50
278.3107070971
 51
295.4891910086
  0
ARC
  5
93D
330
1F
100
AcDbEntity
  8
0
  6
Continuous
 62
     7
370
    25
100
AcDbCircle
 10
-167.4430564459
 20
310.4874625851
 30
0.0
 40
10.86908210700013
100
AcDbArc
 50
244.5046332103
 51
261.6894013033
  0
ARC
  5
93E
330
1F
100
AcDbEntity
  8
0
  6
Continuous
 62
     7
370
    25
100
AcDbCircle
 10
-164.3385460791
 20
299.7874365401
 30
0.0
 40
1.667937310445814
100
AcDbArc
 50
181.2676276914
 51
190.9678336632
  0
ARC
  5
93F
330
1F
100
AcDbEntity
  8
0
  6
Continuous
 62
     7
370
    25
100
AcDbCircle
 10
-165.9656875283
 20
299.5540869187
 30
0.0
 40
0.200559344633295
100
AcDbArc
 50
21.4781300884
 51
101.6173843592
  0
ARC
  5
940
330
1F
100
AcDbEntity
  8
0
  6
Continuous
 62
     7
370
    25
100
AcDbCircle
 10
-165.9779386064
 20
299.6744294013
 30
0.0
 40
0.2043400982762168
100
AcDbArc
 50
270.5387878492
 51
346.7287864921
  0
ARC
  5
941
330
1F
100
AcDbEntity
  8
0
  6
Continuous
 62
     7
370
    25
100
AcDbCircle
 10
-168.5262556501
 20
299.5540869189
 30
0.0
 40
0.2005593444969627
100
AcDbArc
 50
78.3826156239
 51
158.521869987
  0
ARC
  5
942
330
1F
100
AcDbEntity
  8
0
  6
Continuous
 62
     7
370
    25
100
AcDbCircle
 10
-170.1533970993
 20
299.7874365401
 30
0.0
 40
1.667937310444503
100
AcDbArc
 50
349.0321663368
 51
358.7323723086
  0
ARC
  5
943
330
1F
100
AcDbEntity
  8
0
  6
Continuous
 62
     7
370
    25
100
AcDbCircle
 10
-168.5140045718
 20
299.6744294015
 30
0.0
 40
0.2043400985274597
100
AcDbArc
 50
193.2712136064
 51
269.4612121055
  0
ARC
  5
944
330
1F
100
AcDbEntity
  8
0
  6
Continuous
 62
     7
370
    25
100
AcDbCircle
 10
-167.2459715892
 20
310.5620885322
 30
0.0
 40
11.16445390001459
100
AcDbArc
 50
263.4684788314
 51
276.5315211686
  0
ARC
  5
945
330
1F
100
AcDbEntity
  8
0
  6
Continuous
 62
     7
370
    25
100
AcDbCircle
 10
-165.8737224405
 20
299.228366419
 30
0.0
 40
0.204340098526649
100
AcDbArc
 50
270.538787894
 51
346.7287863938
  0
ARC
  5
946
330
1F
100
AcDbEntity
  8
0
  6
Continuous
 62
     7
370
    25
100
AcDbCircle
 10
-168.618220738
 20
299.2283664187
 30
0.0
 40
0.2043400982794217
100
AcDbArc
 50
193.2712135086
 51
269.4612121504
  0
ARC
  5
947
330
1F
100
AcDbEntity
  8
0
  6
Continuous
 62
     7
370
    25
100
AcDbCircle
 10
-167.2459715892
 20
310.9012887889
 30
0.0
 40
11.95648335121532
100
AcDbArc
 50
263.4003544129
 51
276.5996455871
  0
ARC
  5
948
330
1F
100
AcDbEntity
  8
0
  6
Continuous
 62
     7
370
    25
100
AcDbCircle
 10
-168.5262560433
 20
299.9477238735
 30
0.0
 40
0.2005581908954435
100
AcDbArc
 50
78.3824174914
 51
158.5222216053
  0
ARC
  5
949
330
1F
100
AcDbEntity
  8
0
  6
Continuous
 62
     7
370
    25
100
AcDbCircle
 10
-165.965689893
 20
299.9477189691
 30
0.0
 40
0.2005625227174096
100
AcDbArc
 50
21.4787958414
 51
101.6165285588
  0
ARC
  5
94A
330
1F
100
AcDbEntity
  8
0
  6
Continuous
 62
     7
370
    25
100
AcDbCircle
 10
-168.7422634727
 20
299.0280689063
 30
0.0
 40
0.1221878200566288
100
AcDbArc
 50
324.1904352787
 51
358.1082610861
  0
ARC
  5
94B
330
1F
100
AcDbEntity
  8
0
  6
Continuous
 62
     7
370
    25
100
AcDbCircle
 10
-165.7495539824
 20
299.0281003305
 30
0.0
 40
0.1223145151609816
100
AcDbArc
 50
181.9045068216
 51
215.7853719784
  0
ARC
  5
94C
330
1F
100
AcDbEntity
  8
0
  6
Continuous
 62
     8
370
    25
100
AcDbCircle
 10
-168.6410563737
 20
312.6160047034
 30
0.0
 40
0.1905186220899848
100
AcDbArc
 50
92.8444107396
 51
153.257498946
  0
ARC
  5
94D
330
1F
100
AcDbEntity
  8
0
  6
Continuous
 62
     8
370
    25
100
AcDbCircle
 10
-168.6621316924
 20
312.7155155173
 30
0.0
 40
0.1942236187589188
100
AcDbArc
 50
226.1103490538
 51
282.4854243284
  0
ARC
  5
94E
330
1F
100
AcDbEntity
  8
0
  6
Continuous
 62
     8
370
    25
100
AcDbCircle
 10
-165.8508868046
 20
312.6160047034
 30
0.0
 40
0.190518622096968
100
AcDbArc
 50
26.7425010565
 51
87.1555892596
  0
ARC
  5
94F
330
1F
100
AcDbEntity
  8
0
  6
Continuous
 62
     8
370
    25
100
AcDbCircle
 10
-165.8298112522
 20
312.7155119986
 30
0.0
 40
0.1942202338083197
100
AcDbArc
 50
257.514283929
 51
313.8920436401
  0
ARC
  5
950
330
1F
100
AcDbEntity
  8
0
  6
Continuous
 62
     8
370
    25
100
AcDbCircle
 10
-171.1860005199
 20
305.9043285759
 30
0.0
 40
5.309971504180022
100
AcDbArc
 50
168.4644919855
 51
179.9765353955
  0
ARC
  5
951
330
1F
100
AcDbEntity
  8
0
  6
Continuous
 62
     8
370
    25
100
AcDbCircle
 10
-163.3001711622
 20
305.9049135221
 30
0.0
 40
5.304199643692318
100
AcDbArc
 50
0.0100170645
 51
11.5417842285
  0
ARC
  5
952
330
1F
100
AcDbEntity
  8
0
  6
Continuous
 62
     8
370
    25
100
AcDbCircle
 10
-168.5579157601
 20
312.269449016
 30
0.0
 40
0.1942202337496402
100
AcDbArc
 50
226.1079562919
 51
282.4857160747
  0
ARC
  5
953
330
1F
100
AcDbEntity
  8
0
  6
Continuous
 62
     8
370
    25
100
AcDbCircle
 10
-165.9340276521
 20
312.2694525352
 30
0.0
 40
0.1942236191937994
100
AcDbArc
 50
257.5145757286
 51
313.8896508037
  0
ARC
  5
954
330
1F
100
AcDbEntity
  8
0
  6
Continuous
 62
     8
370
    25
100
AcDbCircle
 10
-168.3932214064
 20
312.0837040115
 30
0.0
 40
0.1227660633426026
100
AcDbArc
 50
181.8120156991
 51
215.5425522841
  0
ARC
  5
955
330
1F
100
AcDbEntity
  8
0
  6
Continuous
 62
     8
370
    25
100
AcDbCircle
 10
-166.0934578973
 20
312.0824027182
 30
0.0
 40
0.1174691491038069
100
AcDbArc
 50
323.4210277683
 51
358.7411993671
  0
ARC
  5
956
330
1F
100
AcDbEntity
  8
0
  6
Continuous
 62
     8
370
    25
100
AcDbCircle
 10
-165.6964196876
 20
312.6935424132
 30
0.0
 40
0.1147694544383403
100
AcDbArc
 50
318.1307753984
 51
354.959887567
  0
ARC
  5
957
330
1F
100
AcDbEntity
  8
0
  6
Continuous
 62
     8
370
    25
100
AcDbCircle
 10
-168.7953451166
 20
312.6936226626
 30
0.0
 40
0.1149542750348075
100
AcDbArc
 50
185.0725298534
 51
221.8386084563
  0
ARC
  5
958
330
1F
100
AcDbEntity
  8
0
  6
Continuous
 62
     8
370
    25
100
AcDbCircle
 10
-162.652398991
 20
311.7937156608
 30
0.0
 40
0.103009199337018
100
AcDbArc
 50
271.6497958587
 51
328.6390192833
  0
ARC
  5
959
330
1F
100
AcDbEntity
  8
0
  6
Continuous
 62
     8
370
    25
100
AcDbCircle
 10
-171.8395902373
 20
311.7936315899
 30
0.0
 40
0.1029257318087279
100
AcDbArc
 50
211.3339908414
 51
268.3751911797
  0
ARC
  5
95A
330
1F
100
AcDbEntity
  8
0
  6
Continuous
 62
     8
370
    25
100
AcDbCircle
 10
-162.3196522709
 20
310.9654417097
 30
0.0
 40
0.0992142722625259
100
AcDbArc
 50
261.7661469206
 51
326.6476443565
  0
ARC
  5
95B
330
1F
100
AcDbEntity
  8
0
  6
Continuous
 62
     8
370
    25
100
AcDbCircle
 10
-162.3109216135
 20
311.0403722442
 30
0.0
 40
0.1258674943726548
100
AcDbArc
 50
135.4427533763
 51
179.2402338195
  0
ARC
  5
95C
330
1F
100
AcDbEntity
  8
0
  6
Continuous
 62
     8
370
    25
100
AcDbCircle
 10
-172.1810229974
 20
311.0403713697
 30
0.0
 40
0.1258691285407117
100
AcDbArc
 50
0.7664112046
 51
44.5570726876
  0
ARC
  5
95D
330
1F
100
AcDbEntity
  8
0
  6
Continuous
 62
     8
370
    25
100
AcDbCircle
 10
-172.1722600213
 20
310.9654809384
 30
0.0
 40
0.0992616403197264
100
AcDbArc
 50
213.3614682806
 51
278.1931892479
  0
ARC
  5
95E
330
1F
100
AcDbEntity
  8
0
  6
Continuous
 62
     8
370
    25
100
AcDbCircle
 10
-160.5181666742
 20
309.6493580953
 30
0.0
 40
0.1216813056717092
100
AcDbArc
 50
237.2806967657
 51
309.4857529713
  0
ARC
  5
95F
330
1F
100
AcDbEntity
  8
0
  6
Continuous
 62
     8
370
    25
100
AcDbCircle
 10
-173.9737918366
 20
309.6493117336
 30
0.0
 40
0.1216357761138629
100
AcDbArc
 50
230.5059343058
 51
302.7675245655
  0
ARC
  5
960
330
1F
100
AcDbEntity
  8
0
  6
Continuous
 62
     8
370
    25
100
AcDbCircle
 10
-172.179959266
 20
311.434656679
 30
0.0
 40
0.1246553030562287
100
AcDbArc
 50
355.3856611293
 51
44.6872939854
  0
ARC
  5
961
330
1F
100
AcDbEntity
  8
0
  6
Continuous
 62
     8
370
    25
100
AcDbCircle
 10
-162.3119676313
 20
311.4346516353
 30
0.0
 40
0.1246703974741854
100
AcDbArc
 50
135.3163160766
 51
184.6115134679
  0
ARC
  5
962
330
1F
100
AcDbEntity
  8
0
  6
Continuous
 62
     8
370
    25
100
AcDbCircle
 10
-169.3759502888
 20
306.8341116101
 30
0.0
 40
5.082044953484779
100
AcDbArc
 50
182.9712595257
 51
239.4671976238
  0
ARC
  5
963
330
1F
100
AcDbEntity
  8
0
  6
Continuous
 62
     8
370
    25
100
AcDbCircle
 10
-170.2153059447
 20
307.1846638078
 30
0.0
 40
4.530790428711987
100
AcDbArc
 50
149.0010121499
 51
179.574762629
  0
ARC
  5
964
330
1F
100
AcDbEntity
  8
0
  6
Continuous
 62
     8
370
    25
100
AcDbCircle
 10
-167.2459024515
 20
303.0058008435
 30
0.0
 40
9.873040677608788
100
AcDbArc
 50
81.1062918514
 51
99.1800435113
  0
ARC
  5
965
330
1F
100
AcDbEntity
  8
0
  6
Continuous
 62
     8
370
    25
100
AcDbCircle
 10
-164.2855545059
 20
307.1809633907
 30
0.0
 40
4.540170946041604
100
AcDbArc
 50
1.170706153
 51
30.715463809
  0
ARC
  5
966
330
1F
100
AcDbEntity
  8
0
  6
Continuous
 62
     8
370
    25
100
AcDbCircle
 10
-165.6736295987
 20
306.0016396497
 30
0.0
 40
5.519700182165751
100
AcDbArc
 50
2.8831860591
 51
78.6081801116
  0
ARC
  5
967
330
1F
100
AcDbEntity
  8
0
  6
Continuous
 62
     8
370
    25
100
AcDbCircle
 10
-159.8758979931
 20
309.9445193479
 30
0.0
 40
0.126739293418924
100
AcDbArc
 50
0.8131053528
 51
46.0368427445
  0
ARC
  5
968
330
1F
100
AcDbEntity
  8
0
  6
Continuous
 62
     8
370
    25
100
AcDbCircle
 10
-174.6160645558
 20
309.9445316898
 30
0.0
 40
0.1267169630008327
100
AcDbArc
 50
133.9607269296
 51
179.2742127942
  0
ARC
  5
969
330
1F
100
AcDbEntity
  8
0
  6
Continuous
 62
     8
370
    25
100
AcDbCircle
 10
-174.6310821941
 20
309.8729163558
 30
0.0
 40
0.1054739092968432
100
AcDbArc
 50
270.1511349787
 51
326.8532027931
  0
ARC
  5
96A
330
1F
100
AcDbEntity
  8
0
  6
Continuous
 62
     8
370
    25
100
AcDbCircle
 10
-160.3524808014
 20
309.6131182234
 30
0.0
 40
0.1054739103933853
100
AcDbArc
 50
213.1467974695
 51
269.8488645004
  0
ARC
  5
96B
330
1F
100
AcDbEntity
  8
0
  6
Continuous
 62
     8
370
    25
100
AcDbCircle
 10
-164.0781025318
 20
306.2190634914
 30
0.0
 40
5.913496827204633
100
AcDbArc
 50
15.1588208184
 51
38.6805398468
  0
ARC
  5
96C
330
1F
100
AcDbEntity
  8
0
  6
Continuous
 62
     8
370
    25
100
AcDbCircle
 10
-164.3487158691
 20
306.2024610277
 30
0.0
 40
5.58804521317021
100
AcDbArc
 50
15.4038522375
 51
38.732246921
  0
ARC
  5
96D
330
1F
100
AcDbEntity
  8
0
  6
Continuous
 62
     8
370
    25
100
AcDbCircle
 10
-170.199354287
 20
306.2310170953
 30
0.0
 40
5.526363982352072
100
AcDbArc
 50
141.1857133657
 51
164.7269989999
  0
ARC
  5
96E
330
1F
100
AcDbEntity
  8
0
  6
Continuous
 62
     8
370
    25
100
AcDbCircle
 10
-159.0065944307
 20
307.8713097693
 30
0.0
 40
0.1899986324674463
100
AcDbArc
 50
226.3896399692
 51
283.7585352486
  0
ARC
  5
96F
330
1F
100
AcDbEntity
  8
0
  6
Continuous
 62
     8
370
    25
100
AcDbCircle
 10
-158.9136784772
 20
306.8242070905
 30
0.0
 40
0.1895068656988279
100
AcDbArc
 50
93.9331738688
 51
153.236168989
  0
ARC
  5
970
330
1F
100
AcDbEntity
  8
0
  6
Continuous
 62
     8
370
    25
100
AcDbCircle
 10
-175.5782647005
 20
306.8242070912
 30
0.0
 40
0.1895068648413132
100
AcDbArc
 50
26.7638309202
 51
86.0668263042
  0
ARC
  5
971
330
1F
100
AcDbEntity
  8
0
  6
Continuous
 62
     8
370
    25
100
AcDbCircle
 10
-175.5782617173
 20
307.2178466805
 30
0.0
 40
0.1895023225615474
100
AcDbArc
 50
26.7631108481
 51
86.0676482566
  0
ARC
  5
972
330
1F
100
AcDbEntity
  8
0
  6
Continuous
 62
     8
370
    25
100
AcDbCircle
 10
-158.9136736049
 20
307.2178351326
 30
0.0
 40
0.1895143585666148
100
AcDbArc
 50
93.934480703
 51
153.2348691672
  0
ARC
  5
973
330
1F
100
AcDbEntity
  8
0
  6
Continuous
 62
     8
370
    25
100
AcDbCircle
 10
-175.4953604913
 20
304.8180589944
 30
0.0
 40
0.1046464285551813
100
AcDbArc
 50
180.8462715715
 51
220.9399036103
  0
ARC
  5
974
330
1F
100
AcDbEntity
  8
0
  6
Continuous
 62
     8
370
    25
100
AcDbCircle
 10
-159.0138752678
 20
304.824655816
 30
0.0
 40
0.1221991705596446
100
AcDbArc
 50
322.0390766008
 51
356.1794174364
  0
ARC
  5
975
330
1F
100
AcDbEntity
  8
0
  6
Continuous
 62
     8
370
    25
100
AcDbCircle
 10
-158.4055897865
 20
304.7394198969
 30
0.0
 40
0.1046929759017258
100
AcDbArc
 50
319.0726193688
 51
359.1465288496
  0
ARC
  5
976
330
1F
100
AcDbEntity
  8
0
  6
Continuous
 62
     8
370
    25
100
AcDbCircle
 10
-176.0690434091
 20
304.7460212121
 30
0.0
 40
0.1222640006318115
100
AcDbArc
 50
183.8271651214
 51
217.9476467022
  0
ARC
  5
977
330
1F
100
AcDbEntity
  8
0
  6
Continuous
 62
     8
370
    25
100
AcDbCircle
 10
-158.9755130059
 20
305.3413690534
 30
0.0
 40
0.1163937978895257
100
AcDbArc
 50
168.7653386419
 51
202.7091764243
  0
ARC
  5
978
330
1F
100
AcDbEntity
  8
0
  6
Continuous
 62
     8
370
    25
100
AcDbCircle
 10
-175.5164474104
 20
305.3413711081
 30
0.0
 40
0.1164104137937887
100
AcDbArc
 50
337.293108281
 51
11.2320120526
  0
ARC
  5
979
330
1F
100
AcDbEntity
  8
0
  6
Continuous
 62
     8
370
    25
100
AcDbCircle
 10
-159.0059053885
 20
305.3538068529
 30
0.0
 40
0.1526040515112723
100
AcDbArc
 50
186.6221195133
 51
239.0329329131
  0
ARC
  5
97A
330
1F
100
AcDbEntity
  8
0
  6
Continuous
 62
     8
370
    25
100
AcDbCircle
 10
-175.4860866424
 20
305.3538386745
 30
0.0
 40
0.152653795752415
100
AcDbArc
 50
300.9770380103
 51
353.367880315
  0
ARC
  5
97B
330
1F
100
AcDbEntity
  8
0
  6
Continuous
 62
     8
370
    25
100
AcDbCircle
 10
-164.4665782168
 20
306.7235547487
 30
0.0
 40
5.722160113565828
100
AcDbArc
 50
318.0422748091
 51
340.9843754195
  0
ARC
  5
97C
330
1F
100
AcDbEntity
  8
0
  6
Continuous
 62
     8
370
    25
100
AcDbCircle
 10
-170.0337408312
 20
306.7176105379
 30
0.0
 40
5.711957488634494
100
AcDbArc
 50
198.4763319585
 51
221.9695584358
  0
ARC
  5
97D
330
1F
100
AcDbEntity
  8
0
  6
Continuous
 62
     8
370
    25
100
AcDbCircle
 10
-164.3468051699
 20
306.7915116427
 30
0.0
 40
6.217812168653037
100
AcDbArc
 50
318.0872380846
 51
340.2184894022
  0
ARC
  5
97E
330
1F
100
AcDbEntity
  8
0
  6
Continuous
 62
     8
370
    25
100
AcDbCircle
 10
-170.2106605559
 20
306.7522781703
 30
0.0
 40
6.142862119871194
100
AcDbArc
 50
199.5942426806
 51
222.0486862282
  0
ARC
  5
97F
330
1F
100
AcDbEntity
  8
0
  6
Continuous
 62
     8
370
    25
100
AcDbCircle
 10
-174.6201368275
 20
301.8289651291
 30
0.0
 40
0.1219665358256162
100
AcDbArc
 50
237.2951042806
 51
309.3690904779
  0
ARC
  5
980
330
1F
100
AcDbEntity
  8
0
  6
Continuous
 62
     8
370
    25
100
AcDbCircle
 10
-174.5957780169
 20
301.8548902764
 30
0.0
 40
0.1481093633652933
100
AcDbArc
 50
114.6229721342
 51
171.4239901424
  0
ARC
  5
981
330
1F
100
AcDbEntity
  8
0
  6
Continuous
 62
     8
370
    25
100
AcDbCircle
 10
-159.8961651607
 20
301.8548902768
 30
0.0
 40
0.1481093626163685
100
AcDbArc
 50
8.57600977
 51
65.3770280335
  0
ARC
  5
982
330
1F
100
AcDbEntity
  8
0
  6
Continuous
 62
     8
370
    25
100
AcDbCircle
 10
-159.8718109171
 20
301.8289512515
 30
0.0
 40
0.1219529110103563
100
AcDbArc
 50
230.6284322775
 51
302.7192812676
  0
ARC
  5
983
330
1F
100
AcDbEntity
  8
0
  6
Continuous
 62
     8
370
    25
100
AcDbCircle
 10
-161.8096672742
 20
300.3223125442
 30
0.0
 40
0.0990889538577627
100
AcDbArc
 50
213.2413894076
 51
278.0977460172
  0
ARC
  5
984
330
1F
100
AcDbEntity
  8
0
  6
Continuous
 62
     8
370
    25
100
AcDbCircle
 10
-172.6822387132
 20
300.3222654816
 30
0.0
 40
0.0990320521185087
100
AcDbArc
 50
261.8533969835
 51
326.7695886198
  0
ARC
  5
985
330
1F
100
AcDbEntity
  8
0
  6
Continuous
 62
     8
370
    25
100
AcDbCircle
 10
-159.8942642329
 20
302.250846727
 30
0.0
 40
0.1452093649872021
100
AcDbArc
 50
2.5146703106
 51
65.6773107348
  0
ARC
  5
986
330
1F
100
AcDbEntity
  8
0
  6
Continuous
 62
     8
370
    25
100
AcDbCircle
 10
-174.5976713201
 20
302.250841449
 30
0.0
 40
0.1452171504502363
100
AcDbArc
 50
114.3245513137
 51
177.4847939331
  0
ARC
  5
987
330
1F
100
AcDbEntity
  8
0
  6
Continuous
 62
     8
370
    25
100
AcDbCircle
 10
-172.1989182368
 20
300.7613066727
 30
0.0
 40
0.1446061952172172
100
AcDbArc
 50
7.967649091
 51
64.4739474831
  0
ARC
  5
988
330
1F
100
AcDbEntity
  8
0
  6
Continuous
 62
     8
370
    25
100
AcDbCircle
 10
-172.1744848436
 20
300.7533281014
 30
0.0
 40
0.1399086068660533
100
AcDbArc
 50
234.783744767
 51
292.5000931686
  0
ARC
  5
989
330
1F
100
AcDbEntity
  8
0
  6
Continuous
 62
     8
370
    25
100
AcDbCircle
 10
-162.2930249415
 20
300.7613066727
 30
0.0
 40
0.1446061952186996
100
AcDbArc
 50
115.5260525171
 51
172.032350905
  0
ARC
  5
98A
330
1F
100
AcDbEntity
  8
0
  6
Continuous
 62
     8
370
    25
100
AcDbCircle
 10
-162.3181153995
 20
300.759263584
 30
0.0
 40
0.1451653812078323
100
AcDbArc
 50
248.6273810729
 51
304.0771075445
  0
ARC
  5
98B
330
1F
100
AcDbEntity
  8
0
  6
Continuous
 62
     8
370
    25
100
AcDbCircle
 10
-161.9732224327
 20
300.3822979157
 30
0.0
 40
0.139908607462354
100
AcDbArc
 50
247.4999073031
 51
305.2162551565
  0
ARC
  5
98C
330
1F
100
AcDbEntity
  8
0
  6
Continuous
 62
     8
370
    25
100
AcDbCircle
 10
-172.5180636813
 20
300.3882333971
 30
0.0
 40
0.1451653806005651
100
AcDbArc
 50
235.9228923916
 51
291.3726193702
  0
ARC
  5
98D
330
1F
100
AcDbEntity
  8
0
  6
Continuous
 62
     8
370
    25
100
AcDbCircle
 10
-162.2930277058
 20
301.1549444923
 30
0.0
 40
0.1446031246574888
100
AcDbArc
 50
115.525513122
 51
172.0331417245
  0
ARC
  5
98E
330
1F
100
AcDbEntity
  8
0
  6
Continuous
 62
     8
370
    25
100
AcDbCircle
 10
-172.1989213982
 20
301.1549412392
 30
0.0
 40
0.1446087016268144
100
AcDbArc
 50
7.967826251
 51
64.4729118194
  0
ARC
  5
98F
330
1F
100
AcDbEntity
  8
0
  6
Continuous
 62
     8
370
    25
100
AcDbCircle
 10
-165.7878250855
 20
299.5488667898
 30
0.0
 40
0.115989666586233
100
AcDbArc
 50
338.9171963218
 51
13.0682366616
  0
ARC
  5
990
330
1F
100
AcDbEntity
  8
0
  6
Continuous
 62
     8
370
    25
100
AcDbCircle
 10
-168.7040870011
 20
299.5488694934
 30
0.0
 40
0.1160191382812549
100
AcDbArc
 50
166.9365261087
 51
201.0768481973
  0
LWPOLYLINE
  5
A0D
330
23
100
AcDbEntity
 67
     1
  8
0
  6
Continuous
 62
     7
370
    25
100
AcDbPolyline
 90
       15
 70
   128
 43
0.0
 10
167.2459715892
 20
-255.3110726194
 10
168.6924117522
 20
-255.3684735271
 10
170.1177595606
 20
-255.5398392159
 10
171.5012302337
 20
-255.8226707881
 10
172.8226496537
 20
-256.2128439224
 10
174.06274855
 20
-256.7046690161
 10
175.2034434881
 20
-257.2909741517
 10
176.2281005672
 20
-257.9632096801
 10
177.1217779799
 20
-258.7115728936
 10
177.871443897
 20
-259.5251509713
 10
178.4661665014
 20
-260.3920801129
 10
178.8972733983
 20
-261.2997185393
 10
179.1584780784
 20
-262.2348308384
 10
179.2459715892
 20
-263.1837809673
 10
179.245971588
 20
-263.1838912138
  0
LWPOLYLINE
  5
A0E
330
23
100
AcDbEntity
 67
     1
  8
0
  6
Continuous
 62
     7
370
    25
100
AcDbPolyline
 90
       14
 70
   128
 43
0.0
 10
155.2459715994
 20
-263.1834563873
 10
155.3334651
 20
-262.2348308384
 10
155.5946697801
 20
-261.2997185393
 10
156.025776677
 20
-260.3920801129
 10
156.6204992813
 20
-259.5251509713
 10
157.3701651985
 20
-258.7115728936
 10
158.2638426111
 20
-257.9632096801
 10
159.2884996903
 20
-257.2909741517
 10
160.4291946284
 20
-256.7046690161
 10
161.6692935247
 20
-256.2128439224
 10
162.9907129447
 20
-255.8226707881
 10
164.3741836177
 20
-255.5398392159
 10
165.7995314261
 20
-255.3684735271
 10
167.2459715892
 20
-255.3110726194
  0
CIRCLE
  5
A12
330
23
100
AcDbEntity
 67
     1
  8
0
  6
Continuous
 62
     7
370
    25
100
AcDbCircle
 10
167.2459715892
 20
-393.216647278
 30
0.0
 40
21.99999991792993
  0
CIRCLE
  5
A13
330
23
100
AcDbEntity
 67
     1
  8
0
  6
Continuous
 62
     7
370
    25
100
AcDbCircle
 10
167.2459715892
 20
-393.216647278
 30
0.0
 40
22.49999999999989
  0
LWPOLYLINE
  5
A16
330
23
100
AcDbEntity
 67
     1
  8
0
  6
Continuous
 62
     8
370
    25
100
AcDbPolyline
 90
       27
 70
   128
 43
0.0
 10
155.2459715892
 20
-278.2217149527
 10
155.3334651
 20
-277.2727648238
 10
155.5946697801
 20
-276.3376525247
 10
156.025776677
 20
-275.4300140983
 10
156.6204992813
 20
-274.5630849567
 10
157.3701651985
 20
-273.749506879
 10
158.2638426111
 20
-273.0011436655
 10
159.2884996903
 20
-272.3289081371
 10
160.4291946284
 20
-271.7426030015
 10
161.6692935247
 20
-271.2507779078
 10
162.9907129447
 20
-270.8606047735
 10
164.3741836177
 20
-270.5777732013
 10
165.7995314261
 20
-270.4064075125
 10
167.2459715892
 20
-270.3490066048
 10
168.6924117522
 20
-270.4064075125
 10
170.1177595606
 20
-270.5777732013
 10
171.5012302337
 20
-270.8606047735
 10
172.8226496537
 20
-271.2507779078
 10
174.06274855
 20
-271.7426030015
 10
175.2034434881
 20
-272.3289081371
 10
176.2281005672
 20
-273.0011436655
 10
177.1217779799
 20
-273.749506879
 10
177.871443897
 20
-274.5630849567
 10
178.4661665014
 20
-275.4300140983
 10
178.8972733983
 20
-276.3376525247
 10
179.1584780784
 20
-277.2727648238
 10
179.2459715892
 20
-278.2217149527
  0
LINE
  5
A1A
330
23
100
AcDbEntity
 67
     1
  8
0
  6
Continuous
 62
     7
370
    25
100
AcDbLine
 10
179.2459715892
 20
-374.1837809674
 30
0.0
 11
179.2459715882
 21
-263.1837809661
 31
0.0
  0
LINE
  5
A1B
330
23
100
AcDbEntity
 67
     1
  8
0
  6
Continuous
 62
     7
370
    25
100
AcDbLine
 10
155.2459715902
 20
-263.1837809661
 30
0.0
 11
155.2459715892
 21
-374.1837809673
 31
0.0
  0
LINE
  5
A1C
330
23
100
AcDbEntity
 67
     1
  8
0
  6
Continuous
 62
     7
370
    25
100
AcDbLine
 10
162.2459715892
 20
-314.716647278
 30
0.0
 11
162.2459715892
 21
-371.3245878615
 31
0.0
  0
LINE
  5
A1D
330
23
100
AcDbEntity
 67
     1
  8
0
  6
Continuous
 62
     7
370
    25
100
AcDbLine
 10
172.2459715892
 20
-371.3652932697
 30
0.0
 11
172.2459715892
 21
-314.716647278
 31
0.0
  0
LINE
  5
A1E
330
23
100
AcDbEntity
 67
     1
  8
0
  6
Continuous
 62
     7
370
    25
100
AcDbLine
 10
171.745971347
 20
-314.216647278
 30
0.0
 11
162.7459718478
 21
-314.216647278
 31
0.0
  0
LINE
  5
A1F
330
23
100
AcDbEntity
 67
     1
  8
0
  6
Continuous
 62
     8
370
    25
100
AcDbLine
 10
155.2459715892
 20
-301.1837809673
 30
0.0
 11
179.2459715892
 21
-301.1837809673
 31
0.0
  0
LINE
  5
A20
330
23
100
AcDbEntity
 67
     1
  8
0
  6
Continuous
 62
     8
370
    25
100
AcDbLine
 10
172.2459715892
 20
-314.716647278
 30
0.0
 11
162.2459716691
 21
-314.716647278
 31
0.0
  0
ARC
  5
A21
330
23
100
AcDbEntity
 67
     1
  8
0
  6
Continuous
 62
     7
370
    25
100
AcDbCircle
 10
162.7459715892
 20
-314.716647278
 30
0.0
 40
0.4999999999996305
100
AcDbArc
 50
89.9999861253
 51
180.0
  0
ARC
  5
A22
330
23
100
AcDbEntity
 67
     1
  8
0
  6
Continuous
 62
     7
370
    25
100
AcDbCircle
 10
171.7459715892
 20
-314.716647278
 30
0.0
 40
0.5000000000001852
100
AcDbArc
 50
0.0
 51
90.0000138747
  0
ARC
  5
A23
330
23
100
AcDbEntity
 67
     1
  8
0
  6
Continuous
 62
     7
370
    25
100
AcDbCircle
 10
167.2459715892
 20
-393.216647278
 30
0.0
 40
25.25000000000001
100
AcDbArc
 50
118.4037603802
 51
61.6008907051
  0
ARC
  5
A24
330
23
100
AcDbEntity
 67
     1
  8
0
  6
Continuous
 62
     8
370
    25
100
AcDbCircle
 10
167.2459715892
 20
-393.216647278
 30
0.0
 40
23.75
100
AcDbArc
 50
120.4722978292
 51
59.5616592585
  0
VIEWPORT
  5
A27
330
23
100
AcDbEntity
 67
     1
  8
0
100
AcDbViewport
 10
0.0
 20
0.0
 30
0.0
 40
205.6
 41
156.0
 68
     1
 69
     1
 12
-167.2459715892
 22
310.8324014903
 13
0.0
 23
0.0
 14
10.0
 24
10.0
 15
10.0
 25
10.0
 16
0.0
 26
0.0
 36
1.0
 17
0.0
 27
0.0
 37
0.0
 42
50.0
 43
0.0
 44
0.0
 45
189.312
 50
0.0
 51
0.0
 72
   100
 90
   557152
  1

281
     0
 71
     1
 74
     0
110
0.0
120
0.0
130
0.0
111
1.0
121
0.0
131
0.0
112
0.0
122
1.0
132
0.0
 79
     0
146
0.0
  0
ENDSEC
  0
SECTION
  2
OBJECTS
  0
DICTIONARY
  5
C
330
0
100
AcDbDictionary
281
     1
  3
ACAD_GROUP
350
D
  3
ACAD_LAYOUT
350
1A
  3
ACAD_MLINESTYLE
350
17
  3
ACAD_PLOTSETTINGS
350
19
  3
ACAD_PLOTSTYLENAME
350
E
  3
ACAD_SCALELIST
350
47
  0
DICTIONARY
  5
D
102
{ACAD_REACTORS
330
C
102
}
330
C
100
AcDbDictionary
281
     1
  0
DICTIONARY
  5
1A
102
{ACAD_REACTORS
330
C
102
}
330
C
100
AcDbDictionary
281
     1
  3
_Left
350
1E
  3
_Top
350
26
  3
Model
350
22
  0
DICTIONARY
  5
17
102
{ACAD_REACTORS
330
C
102
}
330
C
100
AcDbDictionary
281
     1
  3
Standard
350
18
  0
DICTIONARY
  5
19
102
{ACAD_REACTORS
330
C
102
}
330
C
100
AcDbDictionary
281
     1
  0
ACDBDICTIONARYWDFLT
  5
E
102
{ACAD_REACTORS
330
C
102
}
330
C
100
AcDbDictionary
281
     1
  3
Normal
350
F
100
AcDbDictionaryWithDefault
340
F
  0
DICTIONARY
  5
47
102
{ACAD_REACTORS
330
C
102
}
330
C
100
AcDbDictionary
281
     1
  3
A0
350
48
  3
A1
350
49
  3
A2
350
4A
  3
A3
350
4B
  3
A4
350
4C
  3
A5
350
4D
  3
A6
350
4E
  3
A7
350
4F
  3
A8
350
50
  3
A9
350
51
  3
B0
350
52
  3
B1
350
53
  3
B2
350
54
  3
B3
350
55
  3
B4
350
56
  3
B5
350
57
  3
B6
350
58
  3
B7
350
59
  3
B8
350
5A
  3
B9
350
5B
  3
C0
350
5C
  3
C1
350
5D
  3
C2
350
5E
  3
C3
350
5F
  3
C4
350
60
  3
C5
350
61
  3
C6
350
62
  3
C7
350
63
  3
C8
350
64
  3
C9
350
65
  3
D0
350
66
  3
D1
350
67
  3
D2
350
68
  0
LAYOUT
  5
1E
102
{ACAD_REACTORS
330
1A
102
}
330
1A
100
AcDbPlotSettings
  1

  2
none_device
  4
ISO_A4_(210.00_x_297.00_MM)
  6

 40
7.5
 41
20.0
 42
7.5
 43
20.0
 44
210.0
 45
297.0
 46
0.0
 47
0.0
 48
0.0
 49
0.0
140
0.0
141
0.0
142
1.0
143
0.9521538462
 70
   688
 72
     1
 73
     1
 74
     1
  7

 75
     0
147
1.0502504443
148
-255.3110726194
149
-217.9624014903
100
AcDbLayout
  1
_Left
 70
     1
 71
     1
 10
236.2679956963
 20
210.8212476441
 11
519.057688004
 21
410.7735553364
 12
0.0
 22
0.0
 32
0.0
 14
1.0000000000E+20
 24
1.0000000000E+20
 34
1.0000000000E+20
 15
-1.0000000000E+20
 25
-1.0000000000E+20
 35
-1.0000000000E+20
146
0.0
 13
0.0
 23
0.0
 33
0.0
 16
1.0
 26
0.0
 36
0.0
 17
0.0
 27
1.0
 37
0.0
 76
     0
330
1B
331
A25
  0
LAYOUT
  5
26
102
{ACAD_REACTORS
330
1A
102
}
330
1A
100
AcDbPlotSettings
  1

  2
none_device
  4
ANSI_A_(11.00_x_8.50_Inches)
  6

 40
6.35
 41
19.05
 42
6.35000508
 43
19.05000254
 44
279.4
 45
215.9
 46
325.9540988255
 47
-269.0613607901
 48
0.0
 49
0.0
140
0.0
141
0.0
142
0.0453394397
143
1.0
 70
  1696
 72
     0
 73
     0
 74
     1
  7

 75
     0
147
0.0377155167
148
4889.3976783653
149
-5538.0229978534
100
AcDbLayout
  1
_Top
 70
     1
 71
     2
 10
0.0
 20
0.0
 11
0.0
 21
0.0
 12
0.0
 22
0.0
 32
0.0
 14
-192.4959715892
 24
218.0324014903
 34
0.0
 15
-141.9959715892
 25
403.6324014903
 35
0.0
146
0.0
 13
0.0
 23
0.0
 33
0.0
 16
1.0
 26
0.0
 36
0.0
 17
0.0
 27
1.0
 37
0.0
 76
     0
330
23
331
A27
  0
LAYOUT
  5
22
102
{ACAD_REACTORS
330
1A
102
}
330
1A
100
AcDbPlotSettings
  1

  2
none_device
  4
Letter_(8.50_x_11.00_Inches)
  6

 40
6.35
 41
6.35
 42
6.35000508
 43
6.35000508
 44
215.9
 45
279.4
 46
0.0
 47
0.0
 48
0.0
 49
0.0
140
0.0
141
0.0
142
1.0
143
1.0
 70
  1712
 72
     1
 73
     0
 74
     0
  7

 75
     0
147
1.0
148
0.0
149
0.0
100
AcDbLayout
  1
Model
 70
     1
 71
     0
 10
0.0
 20
0.0
 11
420.0
 21
297.0
 12
0.0
 22
0.0
 32
0.0
 14
-192.4959715892
 24
218.0324014903
 34
0.0
 15
-141.9959715892
 25
403.6324014903
 35
0.0
146
0.0
 13
0.0
 23
0.0
 33
0.0
 16
1.0
 26
0.0
 36
0.0
 17
0.0
 27
1.0
 37
0.0
 76
     0
330
1F
331
29
  0
MLINESTYLE
  5
18
102
{ACAD_REACTORS
330
17
102
}
330
17
100
AcDbMlineStyle
  2
Standard
 70
     0
  3

 62
   256
 51
90.0
 52
90.0
 71
     2
 49
0.5
 62
   256
  6
BYLAYER
 49
-0.5
 62
   256
  6
BYLAYER
  0
ACDBPLACEHOLDER
  5
F
102
{ACAD_REACTORS
330
E
102
}
330
E
  0
SCALE
  5
48
102
{ACAD_REACTORS
330
47
102
}
330
47
100
AcDbScale
 70
     0
300
1:1
140
1.0
141
1.0
290
     1
  0
SCALE
  5
49
102
{ACAD_REACTORS
330
47
102
}
330
47
100
AcDbScale
 70
     0
300
1:2
140
1.0
141
2.0
290
     0
  0
SCALE
  5
4A
102
{ACAD_REACTORS
330
47
102
}
330
47
100
AcDbScale
 70
     0
300
1:4
140
1.0
141
4.0
290
     0
  0
SCALE
  5
4B
102
{ACAD_REACTORS
330
47
102
}
330
47
100
AcDbScale
 70
     0
300
1:5
140
1.0
141
5.0
290
     0
  0
SCALE
  5
4C
102
{ACAD_REACTORS
330
47
102
}
330
47
100
AcDbScale
 70
     0
300
1:8
140
1.0
141
8.0
290
     0
  0
SCALE
  5
4D
102
{ACAD_REACTORS
330
47
102
}
330
47
100
AcDbScale
 70
     0
300
1:10
140
1.0
141
10.0
290
     0
  0
SCALE
  5
4E
102
{ACAD_REACTORS
330
47
102
}
330
47
100
AcDbScale
 70
     0
300
1:16
140
1.0
141
16.0
290
     0
  0
SCALE
  5
4F
102
{ACAD_REACTORS
330
47
102
}
330
47
100
AcDbScale
 70
     0
300
1:20
140
1.0
141
20.0
290
     0
  0
SCALE
  5
50
102
{ACAD_REACTORS
330
47
102
}
330
47
100
AcDbScale
 70
     0
300
1:30
140
1.0
141
30.0
290
     0
  0
SCALE
  5
51
102
{ACAD_REACTORS
330
47
102
}
330
47
100
AcDbScale
 70
     0
300
1:40
140
1.0
141
40.0
290
     0
  0
SCALE
  5
52
102
{ACAD_REACTORS
330
47
102
}
330
47
100
AcDbScale
 70
     0
300
1:50
140
1.0
141
50.0
290
     0
  0
SCALE
  5
53
102
{ACAD_REACTORS
330
47
102
}
330
47
100
AcDbScale
 70
     0
300
1:100
140
1.0
141
100.0
290
     0
  0
SCALE
  5
54
102
{ACAD_REACTORS
330
47
102
}
330
47
100
AcDbScale
 70
     0
300
2:1
140
2.0
141
1.0
290
     0
  0
SCALE
  5
55
102
{ACAD_REACTORS
330
47
102
}
330
47
100
AcDbScale
 70
     0
300
4:1
140
4.0
141
1.0
290
     0
  0
SCALE
  5
56
102
{ACAD_REACTORS
330
47
102
}
330
47
100
AcDbScale
 70
     0
300
8:1
140
8.0
141
1.0
290
     0
  0
SCALE
  5
57
102
{ACAD_REACTORS
330
47
102
}
330
47
100
AcDbScale
 70
     0
300
10:1
140
10.0
141
1.0
290
     0
  0
SCALE
  5
58
102
{ACAD_REACTORS
330
47
102
}
330
47
100
AcDbScale
 70
     0
300
100:1
140
100.0
141
1.0
290
     0
  0
SCALE
  5
59
102
{ACAD_REACTORS
330
47
102
}
330
47
100
AcDbScale
 70
     0
300
1/128" = 1'-0"
140
0.0078125
141
12.0
290
     0
  0
SCALE
  5
5A
102
{ACAD_REACTORS
330
47
102
}
330
47
100
AcDbScale
 70
     0
300
1/64" = 1'-0"
140
0.015625
141
12.0
290
     0
  0
SCALE
  5
5B
102
{ACAD_REACTORS
330
47
102
}
330
47
100
AcDbScale
 70
     0
300
1/32" = 1'-0"
140
0.03125
141
12.0
290
     0
  0
SCALE
  5
5C
102
{ACAD_REACTORS
330
47
102
}
330
47
100
AcDbScale
 70
     0
300
1/16" = 1'-0"
140
0.0625
141
12.0
290
     0
  0
SCALE
  5
5D
102
{ACAD_REACTORS
330
47
102
}
330
47
100
AcDbScale
 70
     0
300
3/32" = 1'-0"
140
0.09375
141
12.0
290
     0
  0
SCALE
  5
5E
102
{ACAD_REACTORS
330
47
102
}
330
47
100
AcDbScale
 70
     0
300
1/8" = 1'-0"
140
0.125
141
12.0
290
     0
  0
SCALE
  5
5F
102
{ACAD_REACTORS
330
47
102
}
330
47
100
AcDbScale
 70
     0
300
3/16" = 1'-0"
140
0.1875
141
12.0
290
     0
  0
SCALE
  5
60
102
{ACAD_REACTORS
330
47
102
}
330
47
100
AcDbScale
 70
     0
300
1/4" = 1'-0"
140
0.25
141
12.0
290
     0
  0
SCALE
  5
61
102
{ACAD_REACTORS
330
47
102
}
330
47
100
AcDbScale
 70
     0
300
3/8" = 1'-0"
140
0.375
141
12.0
290
     0
  0
SCALE
  5
62
102
{ACAD_REACTORS
330
47
102
}
330
47
100
AcDbScale
 70
     0
300
1/2" = 1'-0"
140
0.5
141
12.0
290
     0
  0
SCALE
  5
63
102
{ACAD_REACTORS
330
47
102
}
330
47
100
AcDbScale
 70
     0
300
3/4" = 1'-0"
140
0.75
141
12.0
290
     0
  0
SCALE
  5
64
102
{ACAD_REACTORS
330
47
102
}
330
47
100
AcDbScale
 70
     0
300
1" = 1'-0"
140
1.0
141
12.0
290
     0
  0
SCALE
  5
65
102
{ACAD_REACTORS
330
47
102
}
330
47
100
AcDbScale
 70
     0
300
1-1/2" = 1'-0"
140
1.5
141
12.0
290
     0
  0
SCALE
  5
66
102
{ACAD_REACTORS
330
47
102
}
330
47
100
AcDbScale
 70
     0
300
3" = 1'-0"
140
3.0
141
12.0
290
     0
  0
SCALE
  5
67
102
{ACAD_REACTORS
330
47
102
}
330
47
100
AcDbScale
 70
     0
300
6" = 1'-0"
140
6.0
141
12.0
290
     0
  0
SCALE
  5
68
102
{ACAD_REACTORS
330
47
102
}
330
47
100
AcDbScale
 70
     0
300
1'-0" = 1'-0"
140
12.0
141
12.0
290
     0
  0
ENDSEC
  0
EOF
