  0
SECTION
  2
HEADER
  9
$ACADVER
  1
AC1015
  9
$ACADMAINTVER
 70
     6
  9
$DWGCODEPAGE
  3
ANSI_1252
  9
$INSBASE
 10
0.0
 20
0.0
 30
0.0
  9
$EXTMIN
 10
-600.0
 20
-400.0
 30
0.0
  9
$EXTMAX
 10
600.0
 20
400.0
 30
0.0
  9
$LIMMIN
 10
0.0
 20
0.0
  9
$LIMMAX
 10
420.0
 20
297.0
  9
$ORTHOMODE
 70
     0
  9
$REGENMODE
 70
     1
  9
$FILLMODE
 70
     1
  9
$QTEXTMODE
 70
     0
  9
$MIRRTEXT
 70
     1
  9
$LTSCALE
 40
1.0
  9
$ATTMODE
 70
     1
  9
$TEXTSIZE
 40
3.5
  9
$TRACEWID
 40
1.0
  9
$TEXTSTYLE
  7
Standard
  9
$CLAYER
  8
0
  9
$CELTYPE
  6
ByLayer
  9
$CECOLOR
 62
   256
  9
$CELTSCALE
 40
1.0
  9
$DISPSILH
 70
     0
  9
$DIMSCALE
 40
1.0
  9
$DIMASZ
 40
3.302
  9
$DIMEXO
 40
1.0
  9
$DIMDLI
 40
3.75
  9
$DIMRND
 40
0.0
  9
$DIMDLE
 40
0.0
  9
$DIMEXE
 40
1.0
  9
$DIMTP
 40
0.0
  9
$DIMTM
 40
0.0
  9
$DIMTXT
 40
3.5
  9
$DIMCEN
 40
2.5
  9
$DIMTSZ
 40
0.0
  9
$DIMTOL
 70
     0
  9
$DIMLIM
 70
     0
  9
$DIMTIH
 70
     1
  9
$DIMTOH
 70
     1
  9
$DIMSE1
 70
     0
  9
$DIMSE2
 70
     0
  9
$DIMTAD
 70
     1
  9
$DIMZIN
 70
     1
  9
$DIMBLK
  1

  9
$DIMASO
 70
     1
  9
$DIMSHO
 70
     1
  9
$DIMPOST
  1

  9
$DIMAPOST
  1

  9
$DIMALT
 70
     0
  9
$DIMALTD
 70
     3
  9
$DIMALTF
 40
0.0393700787
  9
$DIMLFAC
 40
1.0
  9
$DIMTOFL
 70
     1
  9
$DIMTVP
 40
0.0
  9
$DIMTIX
 70
     0
  9
$DIMSOXD
 70
     0
  9
$DIMSAH
 70
     0
  9
$DIMBLK1
  1

  9
$DIMBLK2
  1

  9
$DIMSTYLE
  2
ISO-25
  9
$DIMCLRD
 70
     0
  9
$DIMCLRE
 70
     0
  9
$DIMCLRT
 70
     0
  9
$DIMTFAC
 40
1.0
  9
$DIMGAP
 40
1.524
  9
$DIMJUST
 70
     0
  9
$DIMSD1
 70
     0
  9
$DIMSD2
 70
     0
  9
$DIMTOLJ
 70
     0
  9
$DIMTZIN
 70
     1
  9
$DIMALTZ
 70
     0
  9
$DIMALTTZ
 70
     0
  9
$DIMUPT
 70
     0
  9
$DIMDEC
 70
     2
  9
$DIMTDEC
 70
     2
  9
$DIMALTU
 70
     2
  9
$DIMALTTD
 70
     3
  9
$DIMTXSTY
  7
Standard
  9
$DIMAUNIT
 70
     0
  9
$DIMADEC
 70
     2
  9
$DIMALTRND
 40
0.0
  9
$DIMAZIN
 70
     0
  9
$DIMDSEP
 70
    44
  9
$DIMATFIT
 70
     3
  9
$DIMFRAC
 70
     0
  9
$DIMLDRBLK
  1

  9
$DIMLUNIT
 70
     2
  9
$DIMLWD
 70
    -2
  9
$DIMLWE
 70
    -2
  9
$DIMTMOVE
 70
     0
  9
$LUNITS
 70
     2
  9
$LUPREC
 70
     2
  9
$SKETCHINC
 40
1.0
  9
$FILLETRAD
 40
10.0
  9
$AUNITS
 70
     0
  9
$AUPREC
 70
     2
  9
$MENU
  1
.
  9
$ELEVATION
 40
0.0
  9
$PELEVATION
 40
0.0
  9
$THICKNESS
 40
0.0
  9
$LIMCHECK
 70
     0
  9
$CHAMFERA
 40
0.0
  9
$CHAMFERB
 40
0.0
  9
$CHAMFERC
 40
0.0
  9
$CHAMFERD
 40
0.0
  9
$SKPOLY
 70
     0
  9
$TDCREATE
 40
2458821.674809271
  9
$TDUCREATE
 40
2458821.674809271
  9
$TDUPDATE
 40
2458821.674838727
  9
$TDUUPDATE
 40
2458821.674838727
  9
$TDINDWG
 40
0.0000000116
  9
$TDUSRTIMER
 40
0.0000000116
  9
$USRTIMER
 70
     1
  9
$ANGBASE
 50
0.0
  9
$ANGDIR
 70
     0
  9
$PDMODE
 70
     0
  9
$PDSIZE
 40
-1.0
  9
$PLINEWID
 40
0.0
  9
$SPLFRAME
 70
     0
  9
$SPLINETYPE
 70
     6
  9
$SPLINESEGS
 70
     8
  9
$HANDSEED
  5
130
  9
$SURFTAB1
 70
     6
  9
$SURFTAB2
 70
     6
  9
$SURFTYPE
 70
     6
  9
$SURFU
 70
     6
  9
$SURFV
 70
     6
  9
$UCSBASE
  2

  9
$UCSNAME
  2

  9
$UCSORG
 10
0.0
 20
0.0
 30
0.0
  9
$UCSXDIR
 10
1.0
 20
0.0
 30
0.0
  9
$UCSYDIR
 10
0.0
 20
1.0
 30
0.0
  9
$UCSORTHOREF
  2

  9
$UCSORTHOVIEW
 70
     0
  9
$UCSORGTOP
 10
0.0
 20
0.0
 30
0.0
  9
$UCSORGBOTTOM
 10
0.0
 20
0.0
 30
0.0
  9
$UCSORGLEFT
 10
0.0
 20
0.0
 30
0.0
  9
$UCSORGRIGHT
 10
0.0
 20
0.0
 30
0.0
  9
$UCSORGFRONT
 10
0.0
 20
0.0
 30
0.0
  9
$UCSORGBACK
 10
0.0
 20
0.0
 30
0.0
  9
$PUCSBASE
  2

  9
$PUCSNAME
  2

  9
$PUCSORG
 10
0.0
 20
0.0
 30
0.0
  9
$PUCSXDIR
 10
1.0
 20
0.0
 30
0.0
  9
$PUCSYDIR
 10
0.0
 20
1.0
 30
0.0
  9
$PUCSORTHOREF
  2

  9
$PUCSORTHOVIEW
 70
     0
  9
$PUCSORGTOP
 10
0.0
 20
0.0
 30
0.0
  9
$PUCSORGBOTTOM
 10
0.0
 20
0.0
 30
0.0
  9
$PUCSORGLEFT
 10
0.0
 20
0.0
 30
0.0
  9
$PUCSORGRIGHT
 10
0.0
 20
0.0
 30
0.0
  9
$PUCSORGFRONT
 10
0.0
 20
0.0
 30
0.0
  9
$PUCSORGBACK
 10
0.0
 20
0.0
 30
0.0
  9
$USERI1
 70
     0
  9
$USERI2
 70
     0
  9
$USERI3
 70
     0
  9
$USERI4
 70
     0
  9
$USERI5
 70
     0
  9
$USERR1
 40
0.0
  9
$USERR2
 40
0.0
  9
$USERR3
 40
0.0
  9
$USERR4
 40
0.0
  9
$USERR5
 40
0.0
  9
$WORLDVIEW
 70
     1
  9
$SHADEDGE
 70
     3
  9
$SHADEDIF
 70
    70
  9
$TILEMODE
 70
     1
  9
$MAXACTVP
 70
    64
  9
$PINSBASE
 10
0.0
 20
0.0
 30
0.0
  9
$PLIMCHECK
 70
     0
  9
$PEXTMIN
 10
-400.0
 20
0.0
 30
0.0
  9
$PEXTMAX
 10
400.0
 20
25.0
 30
0.0
  9
$PLIMMIN
 10
-462.2568093385
 20
-23.3463035019
  9
$PLIMMAX
 10
462.2568093385
 20
630.3501945525
  9
$UNITMODE
 70
     0
  9
$VISRETAIN
 70
     1
  9
$PLINEGEN
 70
     0
  9
$PSLTSCALE
 70
     1
  9
$TREEDEPTH
 70
  3020
  9
$CMLSTYLE
  2
Standard
  9
$CMLJUST
 70
     0
  9
$CMLSCALE
 40
20.0
  9
$PROXYGRAPHICS
 70
     1
  9
$MEASUREMENT
 70
     1
  9
$CELWEIGHT
370
    -1
  9
$ENDCAPS
280
     0
  9
$JOINSTYLE
280
     0
  9
$LWDISPLAY
290
     1
  9
$INSUNITS
 70
     4
  9
$HYPERLINKBASE
  1

  9
$STYLESHEET
  1

  9
$XEDIT
290
     1
  9
$CEPSNTYPE
380
     0
  9
$PSTYLEMODE
290
     1
  9
$FINGERPRINTGUID
  2
{eb8441a4-6520-4dbd-bd6c-133f5673a2de}
  9
$VERSIONGUID
  2
{FAEB1C32-E019-11D5-929B-00C0DF256EC4}
  9
$EXTNAMES
290
     1
  9
$PSVPSCALE
 40
0.0
  9
$OLESTARTUP
290
     0
  0
ENDSEC
  0
SECTION
  2
CLASSES
  0
CLASS
  1
ACDBDICTIONARYWDFLT
  2
AcDbDictionaryWithDefault
  3
ObjectDBX Classes
 90
        0
280
     0
281
     0
  0
CLASS
  1
VISUALSTYLE
  2
AcDbVisualStyle
  3
ObjectDBX Classes
 90
     4095
280
     0
281
     0
  0
CLASS
  1
MATERIAL
  2
AcDbMaterial
  3
ObjectDBX Classes
 90
     1153
280
     0
281
     0
  0
CLASS
  1
SCALE
  2
AcDbScale
  3
ObjectDBX Classes
 90
     1153
280
     0
281
     0
  0
CLASS
  1
TABLESTYLE
  2
AcDbTableStyle
  3
ObjectDBX Classes
 90
     4095
280
     0
281
     0
  0
CLASS
  1
MLEADERSTYLE
  2
AcDbMLeaderStyle
  3
ACDB_MLEADERSTYLE_CLASS
 90
     4095
280
     0
281
     0
  0
CLASS
  1
SUN
  2
AcDbSun
  3
SCENEOE
 90
     1153
280
     0
281
     0
  0
CLASS
  1
ACDBPLACEHOLDER
  2
AcDbPlaceHolder
  3
ObjectDBX Classes
 90
        0
280
     0
281
     0
  0
CLASS
  1
LAYOUT
  2
AcDbLayout
  3
ObjectDBX Classes
 90
        0
280
     0
281
     0
  0
ENDSEC
  0
SECTION
  2
TABLES
  0
TABLE
  2
VPORT
  5
8
330
0
100
AcDbSymbolTable
 70
     1
  0
VPORT
  5
29
330
8
100
AcDbSymbolTableRecord
100
AcDbViewportTableRecord
  2
*Active
 70
     0
 10
0.0
 20
0.0
 11
1.0
 21
1.0
 12
0.0
 22
0.0
 13
0.0
 23
0.0
 14
10.0
 24
10.0
 15
10.0
 25
10.0
 16
0.0
 26
0.0
 36
1.0
 17
0.0
 27
0.0
 37
0.0
 40
816.0
 41
1.5
 42
50.0
 43
0.0
 44
0.0
 50
0.0
 51
0.0
 71
     0
 72
   100
 73
     1
 74
     3
 75
     0
 76
     0
 77
     0
 78
     0
281
     0
 65
     1
110
0.0
120
0.0
130
0.0
111
1.0
121
0.0
131
0.0
112
0.0
122
1.0
132
0.0
 79
     0
146
0.0
  0
ENDTAB
  0
TABLE
  2
LTYPE
  5
5
330
0
100
AcDbSymbolTable
 70
     6
  0
LTYPE
  5
14
330
5
100
AcDbSymbolTableRecord
100
AcDbLinetypeTableRecord
  2
ByBlock
 70
     0
  3

 72
    65
 73
     0
 40
0.0
  0
LTYPE
  5
15
330
5
100
AcDbSymbolTableRecord
100
AcDbLinetypeTableRecord
  2
ByLayer
 70
     0
  3

 72
    65
 73
     0
 40
0.0
  0
LTYPE
  5
16
330
5
100
AcDbSymbolTableRecord
100
AcDbLinetypeTableRecord
  2
Continuous
 70
     0
  3
Solid line
 72
    65
 73
     0
 40
0.0
  0
LTYPE
  5
6E
330
5
100
AcDbSymbolTableRecord
100
AcDbLinetypeTableRecord
  2
HIDDEN
 70
     0
  3
Hidden __ __ __ __ __ __ __ __ __ __ __ __ __ __
 72
    65
 73
     2
 40
1.905
 49
1.27
 74
     0
 49
-0.635
 74
     0
  0
LTYPE
  5
6F
330
5
100
AcDbSymbolTableRecord
100
AcDbLinetypeTableRecord
  2
PHANTOM
 70
     0
  3
Phantom ______  __  __  ______  __  __  ______
 72
    65
 73
     6
 40
12.7
 49
6.35
 74
     0
 49
-1.27
 74
     0
 49
1.27
 74
     0
 49
-1.27
 74
     0
 49
1.27
 74
     0
 49
-1.27
 74
     0
  0
LTYPE
  5
70
330
5
100
AcDbSymbolTableRecord
100
AcDbLinetypeTableRecord
  2
CENTER
 70
     0
  3
Center ____ _ ____ _ ____ _ ____ _ ____ _ ____
 72
    65
 73
     4
 40
10.16
 49
6.35
 74
     0
 49
-1.27
 74
     0
 49
1.27
 74
     0
 49
-1.27
 74
     0
  0
LTYPE
  5
71
330
5
100
AcDbSymbolTableRecord
100
AcDbLinetypeTableRecord
  2
CENTERX2
 70
     0
  3
Center (2x) ________  __  ________  __  _____
 72
    65
 73
     4
 40
20.32
 49
12.7
 74
     0
 49
-2.54
 74
     0
 49
2.54
 74
     0
 49
-2.54
 74
     0
  0
LTYPE
  5
72
330
5
100
AcDbSymbolTableRecord
100
AcDbLinetypeTableRecord
  2
DOT2
 70
     0
  3
Dot (.5x) ........................................
 72
    65
 73
     2
 40
0.635
 49
0.0
 74
     0
 49
-0.635
 74
     0
  0
ENDTAB
  0
TABLE
  2
LAYER
  5
2
330
0
100
AcDbSymbolTable
 70
     1
  0
LAYER
  5
10
330
2
100
AcDbSymbolTableRecord
100
AcDbLayerTableRecord
  2
0
 70
     0
 62
     7
  6
Continuous
370
    -3
390
F
  0
ENDTAB
  0
TABLE
  2
STYLE
  5
3
330
0
100
AcDbSymbolTable
 70
     1
  0
STYLE
  5
11
330
3
100
AcDbSymbolTableRecord
100
AcDbTextStyleTableRecord
  2
Standard
 70
     0
 40
0.0
 41
1.0
 50
0.0
 71
     0
 42
3.5
  3
txt
  4

  0
ENDTAB
  0
TABLE
  2
VIEW
  5
6
330
0
100
AcDbSymbolTable
 70
     0
  0
ENDTAB
  0
TABLE
  2
UCS
  5
7
330
0
100
AcDbSymbolTable
 70
     0
  0
ENDTAB
  0
TABLE
  2
APPID
  5
9
330
0
100
AcDbSymbolTable
 70
     1
  0
APPID
  5
12
330
9
100
AcDbSymbolTableRecord
100
AcDbRegAppTableRecord
  2
ACAD
 70
     0
  0
ENDTAB
  0
TABLE
  2
DIMSTYLE
  5
A
330
0
100
AcDbSymbolTable
 70
     1
100
AcDbDimStyleTable
  0
DIMSTYLE
105
27
330
A
100
AcDbSymbolTableRecord
100
AcDbDimStyleTableRecord
  2
ISO-25
 70
     0
 41
2.5
 42
0.625
 43
3.75
 44
1.25
 73
     0
 74
     0
 77
     1
 78
     8
140
2.5
141
2.5
143
0.0393700787
147
0.625
171
     3
172
     1
178
     0
271
     2
272
     2
274
     3
278
    44
283
     0
284
     8
340
11
  0
ENDTAB
  0
TABLE
  2
BLOCK_RECORD
  5
1
330
0
100
AcDbSymbolTable
 70
     1
  0
BLOCK_RECORD
  5
1F
330
1
100
AcDbSymbolTableRecord
100
AcDbBlockTableRecord
  2
*Model_Space
340
22
  0
BLOCK_RECORD
  5
1B
330
1
100
AcDbSymbolTableRecord
100
AcDbBlockTableRecord
  2
*Paper_Space
340
1E
  0
BLOCK_RECORD
  5
23
330
1
100
AcDbSymbolTableRecord
100
AcDbBlockTableRecord
  2
*Paper_Space0
340
26
  0
ENDTAB
  0
ENDSEC
  0
SECTION
  2
BLOCKS
  0
BLOCK
  5
20
330
1F
100
AcDbEntity
  8
0
100
AcDbBlockBegin
  2
*Model_Space
 70
     0
 10
0.0
 20
0.0
 30
0.0
  3
*Model_Space
  1

  0
ENDBLK
  5
21
330
1F
100
AcDbEntity
  8
0
100
AcDbBlockEnd
  0
BLOCK
  5
1C
330
1B
100
AcDbEntity
 67
     1
  8
0
100
AcDbBlockBegin
  2
*Paper_Space
 70
     0
 10
0.0
 20
0.0
 30
0.0
  3
*Paper_Space
  1

  0
ENDBLK
  5
1D
330
1B
100
AcDbEntity
 67
     1
  8
0
100
AcDbBlockEnd
  0
BLOCK
  5
24
330
23
100
AcDbEntity
  8
0
100
AcDbBlockBegin
  2
*Paper_Space0
 70
     0
 10
0.0
 20
0.0
 30
0.0
  3
*Paper_Space0
  1

  0
ENDBLK
  5
25
330
23
100
AcDbEntity
  8
0
100
AcDbBlockEnd
  0
ENDSEC
  0
SECTION
  2
ENTITIES
  0
SPLINE
  5
9F
330
1F
100
AcDbEntity
  8
0
  6
Continuous
 62
     7
370
    25
100
AcDbSpline
210
0.0
220
0.0
230
1.0
 70
     8
 71
     3
 72
    14
 73
    10
 74
     0
 42
0.000000001
 43
0.00000001
 40
0.0
 40
0.0
 40
0.0
 40
0.0
 40
0.25
 40
0.25
 40
0.5
 40
0.5
 40
0.75
 40
0.75
 40
1.0
 40
1.0
 40
1.0
 40
1.0
 10
523.9548337148707
 20
338.27723842055
 30
0.0
 10
436.6290324733623
 20
338.3018986251131
 30
0.0
 10
349.3032340326355
 20
338.3346688710283
 30
0.0
 10
174.6516363367932
 20
338.3999296329974
 30
0.0
 10
87.32583603795705
 20
338.4295284632311
 30
0.0
 10
-87.3257847255051
 20
338.4295284736252
 30
0.0
 10
-174.6516003990214
 20
338.3999296459082
 30
0.0
 10
-349.303215688021
 20
338.3346688784009
 30
0.0
 10
-436.6290228394067
 20
338.3018986278335
 30
0.0
 10
-523.9548337149057
 20
338.2772384205498
 30
0.0
  0
SPLINE
  5
A3
330
1F
100
AcDbEntity
  8
0
  6
Continuous
 62
     7
370
    25
100
AcDbSpline
210
0.0
220
0.0
230
1.0
 70
     8
 71
     3
 72
     8
 73
     4
 74
     0
 42
0.000000001
 43
0.00000001
 40
0.0
 40
0.0
 40
0.0
 40
0.0
 40
0.0003842755082081
 40
0.0003842755082081
 40
0.0003842755082081
 40
0.0003842755082081
 10
538.000010792965
 20
-337.9991961254435
 30
0.0
 10
538.0142426372093
 20
-337.8719210206407
 30
0.0
 10
538.028475305238
 20
-337.7446119723958
 30
0.0
 10
538.0427038507731
 20
-337.6173132098953
 30
0.0
  0
LWPOLYLINE
  5
A4
330
1F
100
AcDbEntity
  8
0
  6
Continuous
 62
     7
370
    25
100
AcDbPolyline
 90
        9
 70
   128
 43
0.0
 10
540.0
 20
-337.617305055
 10
539.9626050395
 20
-337.6173066249
 10
539.8518185412
 20
-337.6173081362
 10
539.6717833616
 20
-337.6173095322
 10
539.4292319094
 20
-337.6173107608
 10
539.1332343863
 20
-337.617311776
 10
538.7948596082
 20
-337.6173125399
 10
538.4267610865
 20
-337.6173130239
 10
538.0427038508
 20
-337.6173132099
  0
SPLINE
  5
A5
330
1F
100
AcDbEntity
  8
0
  6
Continuous
 62
     7
370
    25
100
AcDbSpline
210
0.0
220
0.0
230
1.0
 70
     8
 71
     3
 72
     8
 73
     4
 74
     0
 42
0.000000001
 43
0.00000001
 40
0.0000000000000003
 40
0.0000000000000003
 40
0.0000000000000003
 40
0.0000000000000003
 40
0.0003842755082075
 40
0.0003842755082075
 40
0.0003842755082075
 40
0.0003842755082075
 10
-538.0427038507733
 20
-337.6173132098957
 30
0.0
 10
-538.0284753052381
 20
-337.7446119723958
 30
0.0
 10
-538.0142426372095
 20
-337.8719210206406
 30
0.0
 10
-538.0000107929652
 20
-337.9991961254431
 30
0.0
  0
LWPOLYLINE
  5
A7
330
1F
100
AcDbEntity
  8
0
  6
Continuous
 62
     7
370
    25
100
AcDbPolyline
 90
        9
 70
   128
 43
0.0
 10
-538.0427038508
 20
-337.6173132099
 10
-538.4267610865
 20
-337.6173130239
 10
-538.7948596082
 20
-337.6173125399
 10
-539.1332343863
 20
-337.617311776
 10
-539.4292319094
 20
-337.6173107608
 10
-539.6717833616
 20
-337.6173095322
 10
-539.8518185412
 20
-337.6173081362
 10
-539.9626050395
 20
-337.6173066249
 10
-540.0
 20
-337.617305055
  0
LWPOLYLINE
  5
A8
330
1F
100
AcDbEntity
  8
0
  6
Continuous
 62
     7
370
    25
100
AcDbPolyline
 90
        9
 70
   128
 43
0.0
 10
-538.0
 20
-340.0
 10
-538.0000020394
 20
-339.96250507
 10
-538.0000040024
 20
-339.8514261499
 10
-538.0000058153
 20
-339.6709281358
 10
-538.0000074101
 20
-339.4277787884
 10
-538.0000087272
 20
-339.1310949752
 10
-538.0000097169
 20
-338.7920008351
 10
-538.0000103424
 20
-338.4232106792
 10
-538.00001058
 20
-338.0385522685
  0
LWPOLYLINE
  5
A9
330
1F
100
AcDbEntity
  8
0
  6
Continuous
 62
     7
370
    25
100
AcDbPolyline
 90
        8
 70
   128
 43
0.0
 10
-538.00001058
 20
-338.0385522685
 10
-534.0000105802
 20
-338.0385739066
 10
-518.0000105806
 20
-338.0386605693
 10
-454.0000105824
 20
-338.039006703
 10
-198.0000105876
 20
-338.0401974774
 10
169.9999999903
 20
-338.0402872329
 10
170.923275244
 20
-338.0402844567
 10
538.00001058
 20
-338.0385522685
  0
LWPOLYLINE
  5
AA
330
1F
100
AcDbEntity
  8
0
  6
Continuous
 62
     7
370
    25
100
AcDbPolyline
 90
        9
 70
   128
 43
0.0
 10
538.0
 20
-340.0
 10
538.0000020394
 20
-339.96250507
 10
538.0000040024
 20
-339.8514261499
 10
538.0000058153
 20
-339.6709281358
 10
538.0000074101
 20
-339.4277787884
 10
538.0000087272
 20
-339.1310949752
 10
538.0000097169
 20
-338.7920008351
 10
538.0000103424
 20
-338.4232106792
 10
538.00001058
 20
-338.0385522685
  0
LWPOLYLINE
  5
AF
330
1F
100
AcDbEntity
  8
0
  6
Continuous
 62
     7
370
    25
100
AcDbPolyline
 90
        6
 70
   128
 43
0.0
 10
-538.0427178633
 20
338.0000081337
 10
-538.0427344853
 20
334.0000081338
 10
-538.0427996798
 20
318.000008134
 10
-538.0430374273
 20
254.0000081349
 10
-538.0434903825
 20
-1.999991865
 10
-538.0427038508
 20
-337.6173132099
  0
LWPOLYLINE
  5
B0
330
1F
100
AcDbEntity
  8
0
  6
Continuous
 62
     7
370
    25
100
AcDbPolyline
 90
        9
 70
   128
 43
0.0
 10
-538.0427178633
 20
338.0000081337
 10
-538.4267730678
 20
338.0000079482
 10
-538.7948692542
 20
338.0000074655
 10
-539.1332416043
 20
338.0000067035
 10
-539.4292368115
 20
338.000005691
 10
-539.6717862466
 20
338.0000044656
 10
-539.8518198648
 20
338.0000030732
 10
-539.9626053767
 20
338.0000015659
 10
-540.0
 20
338.0
  0
LWPOLYLINE
  5
B1
330
1F
100
AcDbEntity
  8
0
  6
Continuous
 62
     7
370
    25
100
AcDbPolyline
 90
        6
 70
   128
 43
0.0
 10
538.0427038508
 20
-337.6173132099
 10
538.0427205719
 20
-333.61731321
 10
538.0427861821
 20
-317.6173132102
 10
538.0430258953
 20
-253.6173132111
 10
538.0434904958
 20
2.3826867888
 10
538.0427178633
 20
338.0000081337
  0
LWPOLYLINE
  5
B2
330
1F
100
AcDbEntity
  8
0
  6
Continuous
 62
     7
370
    25
100
AcDbPolyline
 90
        9
 70
   128
 43
0.0
 10
540.0
 20
338.0
 10
539.9626053767
 20
338.0000015659
 10
539.8518198648
 20
338.0000030732
 10
539.6717862466
 20
338.0000044656
 10
539.4292368115
 20
338.000005691
 10
539.1332416043
 20
338.0000067035
 10
538.7948692542
 20
338.0000074655
 10
538.4267730678
 20
338.0000079482
 10
538.0427178633
 20
338.0000081337
  0
LWPOLYLINE
  5
B5
330
1F
100
AcDbEntity
  8
0
  6
Continuous
 62
     7
370
    25
100
AcDbPolyline
 90
        3
 70
   128
 43
0.0
 10
538.0427178633
 20
338.0000081337
 10
534.0436302688
 20
338.000024967
 10
531.5176283505
 20
338.0000357508
  0
LWPOLYLINE
  5
B7
330
1F
100
AcDbEntity
  8
0
  6
Continuous
 62
     7
370
    25
100
AcDbPolyline
 90
        3
 70
   128
 43
0.0
 10
-531.5176283505
 20
338.0000357508
 10
-535.5167160813
 20
338.0000187326
 10
-538.0427178633
 20
338.0000081337
  0
SPLINE
  5
B9
330
1F
100
AcDbEntity
  8
0
  6
Continuous
 62
     7
370
    25
100
AcDbSpline
210
0.0
220
0.0
230
1.0
 70
     8
 71
     3
 72
     8
 73
     4
 74
     0
 42
0.000000001
 43
0.00000001
 40
0.0
 40
0.0
 40
0.0
 40
0.0
 40
1.0
 40
1.0
 40
1.0
 40
1.0
 10
531.517628350502
 20
338.0000357508319
 30
0.0
 10
528.9970602903956
 20
338.0924519004611
 30
0.0
 10
526.475949937473
 20
338.1848596081973
 30
0.0
 10
523.9548337148707
 20
338.2772384205512
 30
0.0
  0
SPLINE
  5
BA
330
1F
100
AcDbEntity
  8
0
  6
Continuous
 62
     7
370
    25
100
AcDbSpline
210
0.0
220
0.0
230
1.0
 70
     8
 71
     3
 72
     8
 73
     4
 74
     0
 42
0.000000001
 43
0.00000001
 40
0.0
 40
0.0
 40
0.0
 40
0.0
 40
1.0
 40
1.0
 40
1.0
 40
1.0
 10
-523.9548337149057
 20
338.2772384205501
 30
0.0
 10
-526.4759489394714
 20
338.1848596447662
 30
0.0
 10
-528.9970605793983
 20
338.0924518898655
 30
0.0
 10
-531.5176283505411
 20
338.000035750831
 30
0.0
  0
SPLINE
  5
BB
330
1F
100
AcDbEntity
  8
0
  6
Continuous
 62
     7
370
    25
100
AcDbSpline
210
0.0
220
0.0
230
1.0
 70
     8
 71
     3
 72
    54
 73
    50
 74
     0
 42
0.000000001
 43
0.00000001
 40
0.0
 40
0.0
 40
0.0
 40
0.0
 40
0.0624999999999986
 40
0.0624999999999986
 40
0.1249999999999972
 40
0.1249999999999972
 40
0.156249999999997
 40
0.156249999999997
 40
0.1874999999999968
 40
0.1874999999999968
 40
0.2187499999999966
 40
0.2187499999999966
 40
0.2499999999999963
 40
0.2499999999999963
 40
0.3124999999999964
 40
0.3124999999999964
 40
0.3437499999999965
 40
0.3437499999999965
 40
0.3749999999999966
 40
0.3749999999999966
 40
0.4062499999999966
 40
0.4062499999999966
 40
0.4374999999999966
 40
0.4374999999999966
 40
0.4687499999999967
 40
0.4687499999999967
 40
0.4999999999999967
 40
0.4999999999999967
 40
0.5624999999999967
 40
0.5624999999999967
 40
0.6249999999999968
 40
0.6249999999999968
 40
0.6874999999999968
 40
0.6874999999999968
 40
0.7187499999999971
 40
0.7187499999999971
 40
0.7499999999999973
 40
0.7499999999999973
 40
0.7812499999999977
 40
0.7812499999999977
 40
0.812499999999998
 40
0.812499999999998
 40
0.8749999999999987
 40
0.8749999999999987
 40
0.9374999999999994
 40
0.9374999999999994
 40
0.9687499999999997
 40
0.9687499999999997
 40
1.0
 40
1.0
 40
1.0
 40
1.0
 10
-50.54263883739137
 20
265.8294200712299
 30
0.0
 10
-49.22281237836563
 20
267.9865356950927
 30
0.0
 10
-47.77933277025632
 20
270.035474667633
 30
0.0
 10
-44.65435300932064
 20
273.9251212141838
 30
0.0
 10
-42.97283444957509
 20
275.7658127211038
 30
0.0
 10
-40.26976001470542
 20
278.3686787936631
 30
0.0
 10
-39.33850963011805
 20
279.2098577592951
 30
0.0
 10
-37.41395805409354
 20
280.8379296166538
 30
0.0
 10
-36.42077220397874
 20
281.6243382105764
 30
0.0
 10
-34.39354961838973
 20
283.1247484023422
 30
0.0
 10
-33.35688531994975
 20
283.8410543614376
 30
0.0
 10
-31.23728572405799
 20
285.2056234840692
 30
0.0
 10
-30.15338244882288
 20
285.8544281591402
 30
0.0
 10
-26.83745050984195
 20
287.6936845289058
 30
0.0
 10
-24.55789914900652
 20
288.7683346125717
 30
0.0
 10
-21.03557792277528
 20
290.1539015265541
 30
0.0
 10
-19.84254531617544
 20
290.5783618678914
 30
0.0
 10
-17.43866345144881
 20
291.3461922292188
 30
0.0
 10
-16.22622480338443
 20
291.690335241913
 30
0.0
 10
-13.78087576256345
 20
292.3010951812046
 30
0.0
 10
-12.54796482154523
 20
292.5677103867659
 30
0.0
 10
-10.06200829203138
 20
293.024744204798
 30
0.0
 10
-8.813083499034553
 20
293.2143596230337
 30
0.0
 10
-6.309737926476808
 20
293.5172397607745
 30
0.0
 10
-5.054340237170431
 20
293.6306631249943
 30
0.0
 10
-2.53615877518748
 20
293.782215438047
 30
0.0
 10
-1.271398214154497
 20
293.820296738167
 30
0.0
 10
2.516614066802878
 20
293.8208193123926
 30
0.0
 10
5.033193205596454
 20
293.6708420534952
 30
0.0
 10
10.04859336828407
 20
293.0657152406127
 30
0.0
 10
12.54365965690068
 20
292.6095959448438
 30
0.0
 10
17.44085163509223
 20
291.3874741111444
 30
0.0
 10
19.84208518200436
 20
290.622595018579
 30
0.0
 10
23.37026542524473
 20
289.2359012380605
 30
0.0
 10
24.53050368616942
 20
288.7350726621713
 30
0.0
 10
26.81078747553439
 20
287.6604326814796
 30
0.0
 10
27.93220507288853
 20
287.0860765415595
 30
0.0
 10
30.13769651721221
 20
285.8635019469934
 30
0.0
 10
31.22321146790541
 20
285.214338476273
 30
0.0
 10
33.34868132458251
 20
283.8466781956359
 30
0.0
 10
34.38822366816431
 20
283.1286056657867
 30
0.0
 10
37.43749839289507
 20
280.8719966446086
 30
0.0
 10
39.35028871467767
 20
279.2521987588684
 30
0.0
 10
42.94611039734279
 20
275.7933874747391
 30
0.0
 10
44.62925785504863
 20
273.9542098386666
 30
0.0
 10
46.98109942457112
 20
271.0300851758429
 30
0.0
 10
47.73614405648828
 20
270.0277318327819
 30
0.0
 10
49.18718155938658
 20
267.9665427800412
 30
0.0
 10
49.88276133437346
 20
266.9079194920142
 30
0.0
 10
50.54263883739325
 20
265.8294200712264
 30
0.0
  0
SPLINE
  5
BC
330
1F
100
AcDbEntity
  8
0
  6
Continuous
 62
     7
370
    25
100
AcDbSpline
210
0.0
220
0.0
230
1.0
 70
     8
 71
     3
 72
    16
 73
    12
 74
     0
 42
0.000000001
 43
0.00000001
 40
0.0
 40
0.0
 40
0.0
 40
0.0
 40
0.5000000000000001
 40
0.5000000000000001
 40
0.7500000000000002
 40
0.7500000000000002
 40
0.8750000000000001
 40
0.8750000000000001
 40
0.9375000000000001
 40
0.9375000000000001
 40
1.0
 40
1.0
 40
1.0
 40
1.0
 10
-523.9548337149058
 20
338.2772384205501
 30
0.0
 10
-445.0440471824392
 20
326.2598513213724
 30
0.0
 10
-366.1351835562135
 20
314.2301396699393
 30
0.0
 10
-247.7786460784596
 20
296.1413161443515
 30
0.0
 10
-208.3275935196498
 20
290.1043326105084
 30
0.0
 10
-149.1541176836489
 20
281.0283888267256
 30
0.0
 10
-129.4301307296291
 20
277.9997390980282
 30
0.0
 10
-99.84552715506047
 20
273.4476492025231
 30
0.0
 10
-89.98421952989297
 20
271.9287803595043
 30
0.0
 10
-70.2624570171791
 20
268.8854505242102
 30
0.0
 10
-60.40190237160132
 20
267.3616260459746
 30
0.0
 10
-50.54263883739142
 20
265.8294200712295
 30
0.0
  0
SPLINE
  5
BD
330
1F
100
AcDbEntity
  8
0
  6
Continuous
 62
     7
370
    25
100
AcDbSpline
210
0.0
220
0.0
230
1.0
 70
     8
 71
     3
 72
    16
 73
    12
 74
     0
 42
0.000000001
 43
0.00000001
 40
0.0
 40
0.0
 40
0.0
 40
0.0
 40
0.0625
 40
0.0625
 40
0.125
 40
0.125
 40
0.25
 40
0.25
 40
0.5
 40
0.5
 40
1.0
 40
1.0
 40
1.0
 40
1.0
 10
50.5426388374161
 20
265.8294200712334
 30
0.0
 10
60.40190876136878
 20
267.361627038994
 30
0.0
 10
70.26246087299211
 20
268.88545111963
 30
0.0
 10
89.9842197577189
 20
271.928780394244
 30
0.0
 10
99.84552440513494
 20
273.447648778895
 30
0.0
 10
129.4301226588915
 20
277.9997378572214
 30
0.0
 10
149.1541092453268
 20
281.0283875315906
 30
0.0
 10
208.3275892071524
 20
290.1043319508177
 30
0.0
 10
247.7786394749625
 20
296.1413151342283
 30
0.0
 10
366.1351771191582
 20
314.2301386879208
 30
0.0
 10
445.0440457142569
 20
326.2598510977818
 30
0.0
 10
523.9548337148713
 20
338.2772384205447
 30
0.0
  0
SPLINE
  5
BE
330
1F
100
AcDbEntity
  8
0
  6
Continuous
 62
     7
370
    25
100
AcDbSpline
210
0.0
220
0.0
230
1.0
 70
     8
 71
     3
 72
    16
 73
    12
 74
     0
 42
0.000000001
 43
0.00000001
 40
0.0
 40
0.0
 40
0.0
 40
0.0
 40
0.4999999999999999
 40
0.4999999999999999
 40
0.7499999999999999
 40
0.7499999999999999
 40
0.875
 40
0.875
 40
0.9375
 40
0.9375
 40
1.0
 40
1.0
 40
1.0
 40
1.0
 10
538.0000107929651
 20
-337.9991961254434
 30
0.0
 10
456.6206061787361
 20
-247.8503903944903
 30
0.0
 10
375.2415742476788
 20
-157.7012485623052
 30
0.0
 10
253.1794759211452
 20
-22.47171785289616
 30
0.0
 10
212.4928985327985
 20
22.60550328952075
 30
0.0
 10
151.4704686506171
 20
90.22804040852137
 30
0.0
 10
131.1307980094403
 20
112.7699133455361
 30
0.0
 10
100.6275330169248
 20
146.588351903692
 30
0.0
 10
90.46082715347913
 20
157.8621110079081
 30
0.0
 10
70.13230311051716
 20
180.414038976903
 30
0.0
 10
59.97011822259113
 20
191.6918765260674
 30
0.0
 10
49.81498279387598
 20
202.9760772622309
 30
0.0
  0
SPLINE
  5
BF
330
1F
100
AcDbEntity
  8
0
  6
Continuous
 62
     7
370
    25
100
AcDbSpline
210
0.0
220
0.0
230
1.0
 70
     8
 71
     3
 72
     8
 73
     4
 74
     0
 42
0.000000001
 43
0.00000001
 40
0.0000000000000019
 40
0.0000000000000019
 40
0.0000000000000019
 40
0.0000000000000019
 40
0.0000068385776144
 40
0.0000068385776144
 40
0.0000068385776144
 40
0.0000068385776144
 10
49.8183895760106
 20
202.9820068455452
 30
0.0
 10
49.81725413721561
 20
202.9800302281648
 30
0.0
 10
49.81611854305763
 20
202.9780537001914
 30
0.0
 10
49.8149827938761
 20
202.9760772622271
 30
0.0
  0
SPLINE
  5
C0
330
1F
100
AcDbEntity
  8
0
  6
Continuous
 62
     7
370
    25
100
AcDbSpline
210
0.0
220
0.0
230
1.0
 70
     8
 71
     3
 72
    16
 73
    12
 74
     0
 42
0.000000001
 43
0.00000001
 40
0.0
 40
0.0
 40
0.0
 40
0.0
 40
0.0625
 40
0.0625
 40
0.125
 40
0.125
 40
0.25
 40
0.25
 40
0.5
 40
0.5
 40
1.0
 40
1.0
 40
1.0
 40
1.0
 10
49.81838957601602
 20
202.9820068455502
 30
0.0
 10
60.00511176675153
 20
191.7334271056748
 30
0.0
 10
70.18478176552686
 20
180.4784642544279
 30
0.0
 10
90.53996913605252
 20
157.964793572962
 30
0.0
 10
100.7151196024133
 20
146.7057510746917
 30
0.0
 10
131.2374270130276
 20
112.9257827595751
 30
0.0
 10
151.5814753136316
 20
90.4020481406308
 30
0.0
 10
212.6102080106641
 20
22.82776030785863
 30
0.0
 10
253.2910793480536
 20
-22.22623880004349
 30
0.0
 10
375.3313312073366
 20
-157.3903716019138
 30
0.0
 10
456.6872037689114
 20
-247.5036740848771
 30
0.0
 10
538.0427038507729
 20
-337.6173132098953
 30
0.0
  0
SPLINE
  5
C1
330
1F
100
AcDbEntity
  8
0
  6
Continuous
 62
     7
370
    25
100
AcDbSpline
210
0.0
220
0.0
230
1.0
 70
     8
 71
     3
 72
    16
 73
    12
 74
     0
 42
0.000000001
 43
0.00000001
 40
0.0
 40
0.0
 40
0.0
 40
0.0
 40
0.5
 40
0.5
 40
0.75
 40
0.75
 40
0.875
 40
0.875
 40
0.9375
 40
0.9375
 40
1.0
 40
1.0
 40
1.0
 40
1.0
 10
-538.0427038507736
 20
-337.6173132098956
 30
0.0
 10
-456.6872036295838
 20
-247.5036739305502
 30
0.0
 10
-375.331330928323
 20
-157.3903712928584
 30
0.0
 10
-253.2910788604285
 20
-22.22623825999768
 30
0.0
 10
-212.6102075015755
 20
22.82776087159327
 30
0.0
 10
-151.581475226026
 20
90.40204823761121
 30
0.0
 10
-131.2374271353708
 20
112.9257826239954
 30
0.0
 10
-100.7151204209293
 20
146.7057501689048
 30
0.0
 10
-90.53997025069006
 20
157.9647923395964
 30
0.0
 10
-70.18478377162982
 20
180.4784620361277
 30
0.0
 10
-60.00511608364777
 20
191.7334223388768
 30
0.0
 10
-49.81838957600745
 20
202.9820068455458
 30
0.0
  0
SPLINE
  5
C2
330
1F
100
AcDbEntity
  8
0
  6
Continuous
 62
     7
370
    25
100
AcDbSpline
210
0.0
220
0.0
230
1.0
 70
     8
 71
     3
 72
     8
 73
     4
 74
     0
 42
0.000000001
 43
0.00000001
 40
0.0000000000000001
 40
0.0000000000000001
 40
0.0000000000000001
 40
0.0000000000000001
 40
0.0000068385776187
 40
0.0000068385776187
 40
0.0000068385776187
 40
0.0000068385776187
 10
-49.8149827938785
 20
202.9760772622319
 30
0.0
 10
-49.81611854305952
 20
202.9780537001953
 30
0.0
 10
-49.81725413721653
 20
202.9800302281681
 30
0.0
 10
-49.81838957601103
 20
202.9820068455477
 30
0.0
  0
SPLINE
  5
C3
330
1F
100
AcDbEntity
  8
0
  6
Continuous
 62
     7
370
    25
100
AcDbSpline
210
0.0
220
0.0
230
1.0
 70
     8
 71
     3
 72
    16
 73
    12
 74
     0
 42
0.000000001
 43
0.00000001
 40
0.0
 40
0.0
 40
0.0
 40
0.0
 40
0.0625
 40
0.0625
 40
0.125
 40
0.125
 40
0.25
 40
0.25
 40
0.5
 40
0.5
 40
1.0
 40
1.0
 40
1.0
 40
1.0
 10
-49.81498279387857
 20
202.976077262232
 30
0.0
 10
-59.97011393759748
 20
191.6918812874507
 30
0.0
 10
-70.13230112480417
 20
180.4140411803257
 30
0.0
 10
-90.46082606166168
 20
157.8621122186164
 30
0.0
 10
-100.6275322227717
 20
146.588352784242
 30
0.0
 10
-131.1307979156986
 20
112.7699134492953
 30
0.0
 10
-151.4704687693069
 20
90.22804027696984
 30
0.0
 10
-212.4928990794351
 20
22.60550268381152
 30
0.0
 10
-253.1794764479828
 20
-22.47171843658604
 30
0.0
 10
-375.2415745798218
 20
-157.7012489302373
 30
0.0
 10
-456.6206063295865
 20
-247.8503905615964
 30
0.0
 10
-538.0000107929648
 20
-337.9991961254431
 30
0.0
  0
SPLINE
  5
C4
330
1F
100
AcDbEntity
  8
0
  6
Continuous
 62
     7
370
    25
100
AcDbSpline
210
0.0
220
0.0
230
1.0
 70
     8
 71
     3
 72
    52
 73
    48
 74
     0
 42
0.000000001
 43
0.00000001
 40
0.0
 40
0.0
 40
0.0
 40
0.0
 40
0.0625000000000007
 40
0.0625000000000007
 40
0.1250000000000014
 40
0.1250000000000014
 40
0.1562500000000014
 40
0.1562500000000014
 40
0.1875000000000015
 40
0.1875000000000015
 40
0.2500000000000019
 40
0.2500000000000019
 40
0.3125000000000024
 40
0.3125000000000024
 40
0.3281250000000024
 40
0.3281250000000024
 40
0.3437500000000024
 40
0.3437500000000024
 40
0.3750000000000023
 40
0.3750000000000023
 40
0.4375000000000019
 40
0.4375000000000019
 40
0.5000000000000017
 40
0.5000000000000017
 40
0.5156250000000017
 40
0.5156250000000017
 40
0.5312500000000016
 40
0.5312500000000016
 40
0.5625000000000014
 40
0.5625000000000014
 40
0.6250000000000013
 40
0.6250000000000013
 40
0.6562500000000013
 40
0.6562500000000013
 40
0.6875000000000012
 40
0.6875000000000012
 40
0.7500000000000011
 40
0.7500000000000011
 40
0.812500000000001
 40
0.812500000000001
 40
0.8437500000000008
 40
0.8437500000000008
 40
0.8750000000000006
 40
0.8750000000000006
 40
0.9375000000000003
 40
0.9375000000000003
 40
1.0
 40
1.0
 40
1.0
 40
1.0
 10
49.81498279387529
 20
202.9760772622276
 30
0.0
 10
48.4684991763598
 20
200.8827121870909
 30
0.0
 10
47.00497304934993
 20
198.8962767685677
 30
0.0
 10
43.85302949159254
 20
195.1288658949148
 30
0.0
 10
42.16458233212461
 20
193.3479175990292
 30
0.0
 10
39.46202843010875
 20
190.8316998574707
 30
0.0
 10
38.53278270539835
 20
190.0189016629177
 30
0.0
 10
36.61629192581997
 20
188.446293270915
 30
0.0
 10
35.62751590150538
 20
187.6857462419502
 30
0.0
 10
32.61532797904164
 20
185.5158073773127
 30
0.0
 10
30.53341209413892
 20
184.2064674581784
 30
0.0
 10
26.22576697014047
 20
181.8553495826214
 30
0.0
 10
24.00003514426898
 20
180.8135764342621
 30
0.0
 10
21.12609094163366
 20
179.6821138288824
 30
0.0
 10
20.54669622771127
 20
179.4643904456414
 30
0.0
 10
19.37857790519995
 20
179.046299905738
 30
0.0
 10
18.78882198108418
 20
178.8456163082454
 30
0.0
 10
17.01591048677779
 20
178.2733230952898
 30
0.0
 10
15.8278341972709
 20
177.9308162497393
 30
0.0
 10
12.24562943340477
 20
177.0176267973349
 30
0.0
 10
9.833592958091119
 20
176.5608434407567
 30
0.0
 10
4.962281488730017
 20
175.9477252327664
 30
0.0
 10
2.503010743026935
 20
175.7913633549605
 30
0.0
 10
-0.6016491268869568
 20
175.79035280612
 30
0.0
 10
-1.224579566556177
 20
175.7999605284807
 30
0.0
 10
-2.464786560736905
 20
175.8385971005426
 30
0.0
 10
-3.083113790394735
 20
175.8676078624666
 30
0.0
 10
-4.93283401484347
 20
175.9833501364903
 30
0.0
 10
-6.158970753875653
 20
176.0987632141295
 30
0.0
 10
-9.816693195186447
 20
176.557888474211
 30
0.0
 10
-12.22767000163896
 20
177.0140562646093
 30
0.0
 10
-15.80278637145632
 20
177.9239342440094
 30
0.0
 10
-16.98758068829158
 20
178.2649386014074
 30
0.0
 10
-19.34308648928141
 20
179.0237924586239
 30
0.0
 10
-20.51777158531518
 20
179.4433392932057
 30
0.0
 10
-23.97899507144733
 20
180.8038824452422
 30
0.0
 10
-26.20883784405247
 20
181.8469846714272
 30
0.0
 10
-30.51791906557239
 20
184.1971428781767
 30
0.0
 10
-32.59714875025716
 20
185.5042142236768
 30
0.0
 10
-35.60118426255001
 20
187.6660390490052
 30
0.0
 10
-36.58334006455586
 20
188.4202792020002
 30
0.0
 10
-38.50826558700158
 20
189.9977887674181
 30
0.0
 10
-39.44148579704308
 20
190.8132535553359
 30
0.0
 10
-42.15375255329946
 20
193.3364939467853
 30
0.0
 10
-43.84650710207622
 20
195.1214550195212
 30
0.0
 10
-47.00386979641674
 20
198.8945739021031
 30
0.0
 10
-48.46849942722105
 20
200.8827125771017
 30
0.0
 10
-49.81498279387838
 20
202.976077262232
 30
0.0
  0
SPLINE
  5
C5
330
1F
100
AcDbEntity
  8
0
  6
Continuous
 62
     7
370
    25
100
AcDbSpline
210
0.0
220
0.0
230
1.0
 70
     8
 71
     3
 72
    32
 73
    28
 74
     0
 42
0.000000001
 43
0.00000001
 40
0.0
 40
0.0
 40
0.0
 40
0.0
 40
0.1249999999999993
 40
0.1249999999999993
 40
0.2499999999999985
 40
0.2499999999999985
 40
0.2812499999999989
 40
0.2812499999999989
 40
0.3124999999999992
 40
0.3124999999999992
 40
0.3749999999999999
 40
0.3749999999999999
 40
0.5
 40
0.5
 40
0.5624999999999994
 40
0.5624999999999994
 40
0.5937499999999991
 40
0.5937499999999991
 40
0.6249999999999988
 40
0.6249999999999988
 40
0.7499999999999988
 40
0.7499999999999988
 40
0.8749999999999989
 40
0.8749999999999989
 40
0.9374999999999994
 40
0.9374999999999994
 40
1.0
 40
1.0
 40
1.0
 40
1.0
 10
50.55318435788963
 20
265.8145491448159
 30
0.0
 10
52.00153435135807
 20
263.4371326055346
 30
0.0
 10
53.26593462176883
 20
260.9865301113961
 30
0.0
 10
55.44191552430161
 20
255.9449528397673
 30
0.0
 10
56.35343329829436
 20
253.3539530533924
 30
0.0
 10
57.26847889344265
 20
250.0259431260253
 30
0.0
 10
57.44021755721506
 20
249.3558570944609
 30
0.0
 10
57.76084778030102
 20
248.0065951171916
 30
0.0
 10
57.90999631498248
 20
247.3260531539393
 30
0.0
 10
58.32016816384704
 20
245.2830502530246
 30
0.0
 10
58.54427949232389
 20
243.918993372447
 30
0.0
 10
59.07234751104284
 20
239.8208138124496
 30
0.0
 10
59.232689628119
 20
237.0807093509145
 30
0.0
 10
59.18764091581264
 20
232.9586585142369
 30
0.0
 10
59.12485487638665
 20
231.5826518725773
 30
0.0
 10
58.95768383552535
 20
229.5156016664999
 30
0.0
 10
58.88978376359636
 20
228.8260777630897
 30
0.0
 10
58.72926609030807
 20
227.4460004271534
 30
0.0
 10
58.63660172834099
 20
226.755595036701
 30
0.0
 10
58.11518851240432
 20
223.3283877160135
 30
0.0
 10
57.51068737503247
 20
220.6436821544887
 30
0.0
 10
55.9384879699498
 20
215.3848760806407
 30
0.0
 10
54.97077025018988
 20
212.8107814877427
 30
0.0
 10
53.23925386841
 20
209.0348901334519
 30
0.0
 10
52.61380267327426
 20
207.7882840520908
 30
0.0
 10
51.27993332676493
 20
205.3488009454095
 30
0.0
 10
50.57049456153455
 20
204.1532582934977
 30
0.0
 10
49.81838957600934
 20
202.982006845546
 30
0.0
  0
SPLINE
  5
C6
330
1F
100
AcDbEntity
  8
0
  6
Continuous
 62
     7
370
    25
100
AcDbSpline
210
0.0
220
0.0
230
1.0
 70
     8
 71
     3
 72
    16
 73
    12
 74
     0
 42
0.000000001
 43
0.00000001
 40
0.0
 40
0.0
 40
0.0
 40
0.0
 40
0.5000000000000001
 40
0.5000000000000001
 40
0.7500000000000002
 40
0.7500000000000002
 40
0.8750000000000002
 40
0.8750000000000002
 40
0.9375000000000001
 40
0.9375000000000001
 40
1.0
 40
1.0
 40
1.0
 40
1.0
 10
531.5176283505017
 20
338.0000357508295
 30
0.0
 10
451.3653721398141
 20
325.9126031521272
 30
0.0
 10
371.2112818613949
 20
313.8373572101786
 30
0.0
 10
250.9736477999448
 20
295.7676748619574
 30
0.0
 10
210.8933580954531
 20
289.7516195512007
 30
0.0
 10
150.769893678601
 20
280.7477917604486
 30
0.0
 10
130.7282454182398
 20
277.7498146795054
 30
0.0
 10
100.6643943760501
 20
273.2620542996563
 30
0.0
 10
90.64288260003762
 20
271.7676541305578
 30
0.0
 10
70.59900707915716
 20
268.7845695743786
 30
0.0
 10
60.5767424698485
 20
267.2952125210444
 30
0.0
 10
50.55318435789007
 20
265.8145491448171
 30
0.0
  0
SPLINE
  5
C7
330
1F
100
AcDbEntity
  8
0
  6
Continuous
 62
     7
370
    25
100
AcDbSpline
210
0.0
220
0.0
230
1.0
 70
     8
 71
     3
 72
    16
 73
    12
 74
     0
 42
0.000000001
 43
0.00000001
 40
0.0
 40
0.0
 40
0.0
 40
0.0
 40
0.0625
 40
0.0625
 40
0.1250000000000001
 40
0.1250000000000001
 40
0.2500000000000001
 40
0.2500000000000001
 40
0.5000000000000001
 40
0.5000000000000001
 40
1.0
 40
1.0
 40
1.0
 40
1.0
 10
-50.55318435788961
 20
265.8145491448142
 30
0.0
 10
-60.57674235430081
 20
267.2952125039866
 30
0.0
 10
-70.59900684809273
 20
268.7845695400609
 30
0.0
 10
-90.64288213794084
 20
271.767654061714
 30
0.0
 10
-100.6643937984428
 20
273.2620542135112
 30
0.0
 10
-130.7282444941093
 20
277.749814541402
 30
0.0
 10
-150.7698925234667
 20
280.7477915876289
 30
0.0
 10
-210.8933562473274
 20
289.7516192740974
 30
0.0
 10
-250.9736454898518
 20
295.7676745151514
 30
0.0
 10
-371.2112781654377
 20
313.8373566540153
 30
0.0
 10
-451.3653719587934
 20
325.9126031248283
 30
0.0
 10
-531.5176283505408
 20
338.0000357508354
 30
0.0
  0
SPLINE
  5
C8
330
1F
100
AcDbEntity
  8
0
  6
Continuous
 62
     7
370
    25
100
AcDbSpline
210
0.0
220
0.0
230
1.0
 70
     8
 71
     3
 72
    32
 73
    28
 74
     0
 42
0.000000001
 43
0.00000001
 40
0.0
 40
0.0
 40
0.0
 40
0.0
 40
0.1250000000000018
 40
0.1250000000000018
 40
0.2500000000000036
 40
0.2500000000000036
 40
0.2812500000000032
 40
0.2812500000000032
 40
0.3125000000000027
 40
0.3125000000000027
 40
0.3750000000000017
 40
0.3750000000000017
 40
0.500000000000001
 40
0.500000000000001
 40
0.5625000000000001
 40
0.5625000000000001
 40
0.5937499999999997
 40
0.5937499999999997
 40
0.6249999999999992
 40
0.6249999999999992
 40
0.7499999999999987
 40
0.7499999999999987
 40
0.8749999999999982
 40
0.8749999999999982
 40
0.9374999999999991
 40
0.9374999999999991
 40
1.0
 40
1.0
 40
1.0
 40
1.0
 10
-49.81838957601077
 20
202.9820068455478
 30
0.0
 10
-51.32260341845619
 20
205.3245157703665
 30
0.0
 10
-52.64446180867134
 20
207.7445789968001
 30
0.0
 10
-54.93834952158993
 20
212.7334849319091
 30
0.0
 10
-55.9103452724358
 20
215.3023419209111
 30
0.0
 10
-56.90290570377547
 20
218.6080126653089
 30
0.0
 10
-57.09024617488664
 20
219.2738980124938
 30
0.0
 10
-57.44228025265562
 20
220.6153002380719
 30
0.0
 10
-57.60726333114649
 20
221.2921793593003
 30
0.0
 10
-58.06495792952814
 20
223.3251020121426
 30
0.0
 10
-58.32076785149481
 20
224.6835845764723
 30
0.0
 10
-58.94400971891159
 20
228.7683898869455
 30
0.0
 10
-59.16794642436411
 20
231.5040253056378
 30
0.0
 10
-59.21860763587649
 20
235.6259904453488
 30
0.0
 10
-59.18778942468185
 20
237.0030748446463
 30
0.0
 10
-59.06868549312292
 20
239.0734310621357
 30
0.0
 10
-59.01682682221341
 20
239.7643388016084
 30
0.0
 10
-58.88843268526129
 20
241.147755779682
 30
0.0
 10
-58.81184521859972
 20
241.8401361571543
 30
0.0
 10
-58.3702781888321
 20
245.2785898594375
 30
0.0
 10
-57.82850444031651
 20
247.9767171001007
 30
0.0
 10
-56.3795818608054
 20
253.2709571153525
 30
0.0
 10
-55.47244981118757
 20
255.8670745749463
 30
0.0
 10
-53.83019354837553
 20
259.6826383751192
 30
0.0
 10
-53.23428658304921
 20
260.9436127085478
 30
0.0
 10
-51.95834718887008
 20
263.4138737297116
 30
0.0
 10
-51.27736004184608
 20
264.6258397471241
 30
0.0
 10
-50.55318435788924
 20
265.814549144817
 30
0.0
  0
SPLINE
  5
C9
330
1F
100
AcDbEntity
  8
0
  6
Continuous
 62
     7
370
    25
100
AcDbSpline
210
0.0
220
0.0
230
1.0
 70
     8
 71
     3
 72
     8
 73
     4
 74
     0
 42
0.000000001
 43
0.00000001
 40
0.000000000000008
 40
0.000000000000008
 40
0.000000000000008
 40
0.000000000000008
 40
0.0000182305470753
 40
0.0000182305470753
 40
0.0000182305470753
 40
0.0000182305470753
 10
50.54263883740111
 20
265.829420071232
 30
0.0
 10
50.54615499637234
 20
265.8244637908441
 30
0.0
 10
50.54967017188182
 20
265.8195068126205
 30
0.0
 10
50.5531843578901
 20
265.8145491448162
 30
0.0
  0
SPLINE
  5
CA
330
1F
100
AcDbEntity
  8
0
  6
Continuous
 62
     7
370
    25
100
AcDbSpline
210
0.0
220
0.0
230
1.0
 70
     8
 71
     3
 72
     8
 73
     4
 74
     0
 42
0.000000001
 43
0.00000001
 40
0.0
 40
0.0
 40
0.0
 40
0.0
 40
0.0000182305470798
 40
0.0000182305470798
 40
0.0000182305470798
 40
0.0000182305470798
 10
-50.55318435789681
 20
265.8145491448223
 30
0.0
 10
-50.54967017188793
 20
265.8195068126274
 30
0.0
 10
-50.5461549963639
 20
265.8244637908419
 30
0.0
 10
-50.54263883739213
 20
265.8294200712306
 30
0.0
  0
SPLINE
  5
CB
330
1F
100
AcDbEntity
  8
0
  6
Continuous
 62
     7
370
    25
100
AcDbSpline
210
0.0
220
0.0
230
1.0
 70
     8
 71
     3
 72
    54
 73
    50
 74
     0
 42
0.000000001
 43
0.00000001
 40
0.0
 40
0.0
 40
0.0
 40
0.0
 40
0.0312499999999999
 40
0.0312499999999999
 40
0.0624999999999997
 40
0.0624999999999997
 40
0.1249999999999996
 40
0.1249999999999996
 40
0.1874999999999994
 40
0.1874999999999994
 40
0.2187499999999993
 40
0.2187499999999993
 40
0.2499999999999991
 40
0.2499999999999991
 40
0.2812499999999988
 40
0.2812499999999988
 40
0.3124999999999986
 40
0.3124999999999986
 40
0.3749999999999987
 40
0.3749999999999987
 40
0.4374999999999989
 40
0.4374999999999989
 40
0.4999999999999991
 40
0.4999999999999991
 40
0.5312499999999992
 40
0.5312499999999992
 40
0.5624999999999993
 40
0.5624999999999993
 40
0.5937499999999993
 40
0.5937499999999993
 40
0.6249999999999994
 40
0.6249999999999994
 40
0.6562499999999996
 40
0.6562499999999996
 40
0.6874999999999997
 40
0.6874999999999997
 40
0.7499999999999997
 40
0.7499999999999997
 40
0.78125
 40
0.78125
 40
0.8125000000000003
 40
0.8125000000000003
 40
0.8437500000000007
 40
0.8437500000000007
 40
0.875000000000001
 40
0.875000000000001
 40
0.9375000000000004
 40
0.9375000000000004
 40
1.0
 40
1.0
 40
1.0
 40
1.0
 10
48.87394491039069
 20
264.8144261876041
 30
0.0
 10
48.23561971829372
 20
265.8608146063232
 30
0.0
 10
47.56270936926156
 20
266.887993310175
 30
0.0
 10
46.15887870749369
 20
268.8882480568336
 30
0.0
 10
45.42833967253112
 20
269.8611422105278
 30
0.0
 10
43.15275638538018
 20
272.6999369077199
 30
0.0
 10
41.52407474555356
 20
274.4862625955604
 30
0.0
 10
38.04527499017838
 20
277.8482294635564
 30
0.0
 10
36.19472391629978
 20
279.424243068462
 30
0.0
 10
33.2473813205237
 20
281.6227022299592
 30
0.0
 10
32.24269462061309
 20
282.323057736952
 30
0.0
 10
30.1889142247463
 20
283.6589417055479
 30
0.0
 10
29.14032580205656
 20
284.2939943285468
 30
0.0
 10
27.00989359984528
 20
285.4927926781421
 30
0.0
 10
25.92673888542281
 20
286.0574172199494
 30
0.0
 10
23.72458391493957
 20
287.1171733737343
 30
0.0
 10
22.60422988383293
 20
287.6128445091994
 30
0.0
 10
19.1979933036058
 20
288.9907401049117
 30
0.0
 10
16.87924061875648
 20
289.7598283090262
 30
0.0
 10
12.14618432366831
 20
291.0001586308055
 30
0.0
 10
9.732281818672163
 20
291.4698060794032
 30
0.0
 10
4.875844441005807
 20
292.0945045431745
 30
0.0
 10
2.437877093557765
 20
292.2504205382828
 30
0.0
 10
-1.233722258346419
 20
292.2497884583223
 30
0.0
 10
-2.459911122622938
 20
292.2101886939996
 30
0.0
 10
-4.899730207289126
 20
292.0530410848539
 30
0.0
 10
-6.115556144898
 20
291.935536156393
 30
0.0
 10
-8.53906671148065
 20
291.6227837895154
 30
0.0
 10
-9.747709370035485
 20
291.4273473447959
 30
0.0
 10
-12.15266966060672
 20
290.9586989345989
 30
0.0
 10
-13.34462832233078
 20
290.686403119497
 30
0.0
 10
-15.70770781810358
 20
290.0665280596969
 30
0.0
 10
-16.87882861663493
 20
289.7189483034931
 30
0.0
 10
-19.20017090556279
 20
288.9482307041415
 30
0.0
 10
-20.35193168084962
 20
288.5243612629071
 30
0.0
 10
-23.75291117691733
 20
287.1473412323016
 30
0.0
 10
-25.95419518569266
 20
286.0876228660466
 30
0.0
 10
-29.15657494411731
 20
284.2844537048773
 30
0.0
 10
-30.2038114184756
 20
283.6496170692575
 30
0.0
 10
-32.25199044054464
 20
282.3166416582079
 30
0.0
 10
-33.25392876799671
 20
281.6179463935869
 30
0.0
 10
-35.21344660657874
 20
280.1560614153622
 30
0.0
 10
-36.17349581277294
 20
279.3906943746621
 30
0.0
 10
-38.03457741866205
 20
277.8068507013206
 30
0.0
 10
-38.93531797176847
 20
276.9889779702191
 30
0.0
 10
-41.55013297011799
 20
274.4592444979693
 30
0.0
 10
-43.17714298824081
 20
272.6715665122746
 30
0.0
 10
-46.20070974811149
 20
268.8955309574356
 30
0.0
 10
-47.59729662486561
 20
266.9071995847537
 30
0.0
 10
-48.87394491038886
 20
264.8144261876075
 30
0.0
  0
SPLINE
  5
CF
330
1F
100
AcDbEntity
  8
0
  6
Continuous
 62
     7
370
    25
100
AcDbSpline
210
0.0
220
0.0
230
1.0
 70
     8
 71
     3
 72
    32
 73
    28
 74
     0
 42
0.000000001
 43
0.00000001
 40
0.0
 40
0.0
 40
0.0
 40
0.0
 40
0.0625000000000006
 40
0.0625000000000006
 40
0.1250000000000013
 40
0.1250000000000013
 40
0.2500000000000024
 40
0.2500000000000024
 40
0.3750000000000023
 40
0.3750000000000023
 40
0.4062500000000023
 40
0.4062500000000023
 40
0.4375000000000022
 40
0.4375000000000022
 40
0.5000000000000022
 40
0.5000000000000022
 40
0.6250000000000021
 40
0.6250000000000021
 40
0.6875000000000021
 40
0.6875000000000021
 40
0.7187500000000021
 40
0.7187500000000021
 40
0.7500000000000021
 40
0.7500000000000021
 40
0.875000000000001
 40
0.875000000000001
 40
1.0
 40
1.0
 40
1.0
 40
1.0
 10
-48.88460324649788
 20
264.7969472502219
 30
0.0
 10
-49.585093762789
 20
263.6477288192443
 30
0.0
 10
-50.24379449065776
 20
262.4759969394235
 30
0.0
 10
-51.47793435900767
 20
260.0876775880981
 30
0.0
 10
-52.05429886235785
 20
258.8684929480837
 30
0.0
 10
-53.64257726593024
 20
255.1793544724857
 30
0.0
 10
-54.51974787781068
 20
252.6692137815869
 30
0.0
 10
-55.92044457679928
 20
247.5502152432771
 30
0.0
 10
-56.4439782515524
 20
244.9413595143077
 30
0.0
 10
-56.87031072425059
 20
241.6166217772448
 30
0.0
 10
-56.94422936180816
 20
240.947135760702
 30
0.0
 10
-57.0680873015193
 20
239.6094569216562
 30
0.0
 10
-57.11807624413192
 20
238.9413965703492
 30
0.0
 10
-57.23275051736987
 20
236.9395183003402
 30
0.0
 10
-57.2621868615546
 20
235.6080003231165
 30
0.0
 10
-57.21202410892359
 20
231.6224814431436
 30
0.0
 10
-56.9946145561543
 20
228.9774724449429
 30
0.0
 10
-56.39057701783532
 20
225.028092948959
 30
0.0
 10
-56.14274663672282
 20
223.7146661491532
 30
0.0
 10
-55.69945874287957
 20
221.7491939580888
 30
0.0
 10
-55.53968482968762
 20
221.094769283607
 30
0.0
 10
-55.19880002257582
 20
219.7978781637287
 30
0.0
 10
-55.01740877670701
 20
219.1540943204226
 30
0.0
 10
-54.05644411827926
 20
215.9581704073234
 30
0.0
 10
-53.11563193461041
 20
213.4746813732212
 30
0.0
 10
-50.89575551291495
 20
208.65172171532
 30
0.0
 10
-49.61673226053043
 20
206.3122336382756
 30
0.0
 10
-48.16143402931531
 20
204.0477985881468
 30
0.0
  0
SPLINE
  5
D2
330
1F
100
AcDbEntity
  8
0
  6
Continuous
 62
     7
370
    25
100
AcDbSpline
210
0.0
220
0.0
230
1.0
 70
     8
 71
     3
 72
    32
 73
    28
 74
     0
 42
0.000000001
 43
0.00000001
 40
0.0
 40
0.0
 40
0.0
 40
0.0
 40
0.0625000000000011
 40
0.0625000000000011
 40
0.1250000000000023
 40
0.1250000000000023
 40
0.2500000000000056
 40
0.2500000000000056
 40
0.3750000000000089
 40
0.3750000000000089
 40
0.4062500000000091
 40
0.4062500000000091
 40
0.4375000000000093
 40
0.4375000000000093
 40
0.5000000000000082
 40
0.5000000000000082
 40
0.6250000000000049
 40
0.6250000000000049
 40
0.6875000000000033
 40
0.6875000000000033
 40
0.7187500000000026
 40
0.7187500000000026
 40
0.7500000000000018
 40
0.7500000000000018
 40
0.8750000000000009
 40
0.8750000000000009
 40
1.0
 40
1.0
 40
1.0
 40
1.0
 10
48.16143402931394
 20
204.047798588145
 30
0.0
 10
48.88908313653021
 20
205.1800161001525
 30
0.0
 10
49.57549022131673
 20
206.3357354610727
 30
0.0
 10
50.86613417733829
 20
208.6939990478504
 30
0.0
 10
51.47135801152347
 20
209.899117744022
 30
0.0
 10
53.1470062731121
 20
213.5494017211318
 30
0.0
 10
54.08368218725577
 20
216.0379498947728
 30
0.0
 10
55.60583968575311
 20
221.1221537705753
 30
0.0
 10
56.19132880618749
 20
223.7178071790704
 30
0.0
 10
56.69668589150624
 20
227.0314534317274
 30
0.0
 10
56.78652070866987
 20
227.6989899888986
 30
0.0
 10
56.94218704711236
 20
229.0333413311917
 30
0.0
 10
57.00806502676447
 20
229.7000223891575
 30
0.0
 10
57.17036159361922
 20
231.6986035773014
 30
0.0
 10
57.23148643209719
 20
233.0290435267775
 30
0.0
 10
57.27621331561875
 20
237.0146272137557
 30
0.0
 10
57.12182989836113
 20
239.6640621920809
 30
0.0
 10
56.61197861766998
 20
243.626701789195
 30
0.0
 10
56.39548462381454
 20
244.9456560483976
 30
0.0
 10
55.99911045513713
 20
246.9211238262309
 30
0.0
 10
55.85496039949354
 20
247.5791665516196
 30
0.0
 10
55.54504468246026
 20
248.8838050831128
 30
0.0
 10
55.3790301099079
 20
249.5317245877032
 30
0.0
 10
54.49441671074078
 20
252.7496189780869
 30
0.0
 10
53.6129905396767
 20
255.2548005243395
 30
0.0
 10
51.50855361910047
 20
260.1292380098659
 30
0.0
 10
50.28558425992452
 20
262.4985104196924
 30
0.0
 10
48.88460324649827
 20
264.7969472502209
 30
0.0
  0
SPLINE
  5
D5
330
1F
100
AcDbEntity
  8
0
  6
Continuous
 62
     7
370
    25
100
AcDbSpline
210
0.0
220
0.0
230
1.0
 70
     8
 71
     3
 72
    52
 73
    48
 74
     0
 42
0.000000001
 43
0.00000001
 40
0.0
 40
0.0
 40
0.0
 40
0.0
 40
0.0625000000000005
 40
0.0625000000000005
 40
0.125000000000001
 40
0.125000000000001
 40
0.1562500000000012
 40
0.1562500000000012
 40
0.1875000000000013
 40
0.1875000000000013
 40
0.2500000000000011
 40
0.2500000000000011
 40
0.3125000000000009
 40
0.3125000000000009
 40
0.3437500000000007
 40
0.3437500000000007
 40
0.3750000000000006
 40
0.3750000000000006
 40
0.4375000000000003
 40
0.4375000000000003
 40
0.4687500000000001
 40
0.4687500000000001
 40
0.4843750000000001
 40
0.4843750000000001
 40
0.5
 40
0.5
 40
0.5624999999999997
 40
0.5624999999999997
 40
0.6249999999999996
 40
0.6249999999999996
 40
0.6562499999999994
 40
0.6562499999999994
 40
0.6718749999999994
 40
0.6718749999999994
 40
0.6874999999999994
 40
0.6874999999999994
 40
0.7499999999999993
 40
0.7499999999999993
 40
0.8124999999999994
 40
0.8124999999999994
 40
0.8437499999999996
 40
0.8437499999999996
 40
0.8749999999999997
 40
0.8749999999999997
 40
0.9374999999999999
 40
0.9374999999999999
 40
1.0
 40
1.0
 40
1.0
 40
1.0
 10
-48.15720978840127
 20
204.041226681344
 30
0.0
 10
-46.85588234730339
 20
202.0169766266241
 30
0.0
 10
-45.44029886170987
 20
200.0944371979324
 30
0.0
 10
-42.38853310647069
 20
196.4457351742738
 30
0.0
 10
-40.75233042944664
 20
194.7195907450897
 30
0.0
 10
-38.13057999442875
 20
192.2794347464602
 30
0.0
 10
-37.22848272667726
 20
191.4908053671782
 30
0.0
 10
-35.36774819892564
 20
189.9652097699493
 30
0.0
 10
-34.41833149064725
 20
189.2357822631853
 30
0.0
 10
-31.51439412834438
 20
187.1450511088562
 30
0.0
 10
-29.50439647664211
 20
185.8809305326801
 30
0.0
 10
-25.338688177503
 20
183.6079453783997
 30
0.0
 10
-23.18298585571854
 20
182.5990662109279
 30
0.0
 10
-19.83675654599879
 20
181.2831298517582
 30
0.0
 10
-18.70108943249392
 20
180.8773344460066
 30
0.0
 10
-16.42381909851452
 20
180.1433519174673
 30
0.0
 10
-15.27837023829271
 20
179.8135217706503
 30
0.0
 10
-11.82196053768008
 20
178.9334533341598
 30
0.0
 10
-9.491012631211937
 20
178.4922222497548
 30
0.0
 10
-5.954664980329857
 20
178.0481263984119
 30
0.0
 10
-4.769209071958721
 20
177.9364901920966
 30
0.0
 10
-2.980849130583187
 20
177.8245350683277
 30
0.0
 10
-2.383031876911861
 20
177.7964734304108
 30
0.0
 10
-1.183959323635889
 20
177.7591008697098
 30
0.0
 10
-0.5816872399950282
 20
177.7498074627392
 30
0.0
 10
2.420002119173803
 20
177.7507853388283
 30
0.0
 10
4.797684470559743
 20
177.9020326830327
 30
0.0
 10
9.50734346001358
 20
178.4950792555033
 30
0.0
 10
11.83931590645465
 20
178.936905136215
 30
0.0
 10
15.3025832241996
 20
179.8201773890484
 30
0.0
 10
16.45120736112669
 20
180.1514613684274
 30
0.0
 10
18.16523813604782
 20
180.7049992920605
 30
0.0
 10
18.73540937298974
 20
180.8991066725005
 30
0.0
 10
19.86472937543361
 20
181.3034940610865
 30
0.0
 10
20.4248763023623
 20
181.5140801196803
 30
0.0
 10
23.20332968132894
 20
182.6084439029356
 30
0.0
 10
25.3550539389681
 20
183.6160356902758
 30
0.0
 10
29.5193695085035
 20
185.889946322047
 30
0.0
 10
31.53196346916255
 20
187.1562602457573
 30
0.0
 10
34.44378235093063
 20
189.2548388260048
 30
0.0
 10
35.39960146335329
 20
189.990367714035
 30
0.0
 10
37.25219364016016
 20
191.5112330448651
 30
0.0
 10
38.15044161391403
 20
192.2972777094685
 30
0.0
 10
40.76280103186851
 20
194.730640711926
 30
0.0
 10
42.39483927335711
 20
196.4529037973061
 30
0.0
 10
45.44136573981646
 20
200.0960847128326
 30
0.0
 10
46.85588234724447
 20
202.0169766265331
 30
0.0
 10
48.15720978839829
 20
204.0412266813397
 30
0.0
  0
SPLINE
  5
D7
330
1F
100
AcDbEntity
  8
0
  6
Continuous
 62
     7
370
    25
100
AcDbSpline
210
0.0
220
0.0
230
1.0
 70
     8
 71
     3
 72
     8
 73
     4
 74
     0
 42
0.000000001
 43
0.00000001
 40
0.0
 40
0.0
 40
0.0
 40
0.0
 40
0.0000204722617201
 40
0.0000204722617201
 40
0.0000204722617201
 40
0.0000204722617201
 10
-48.87394491038884
 20
264.8144261876075
 30
0.0
 10
-48.87749872823917
 20
264.8086005146012
 30
0.0
 10
-48.88105150917541
 20
264.8027741984789
 30
0.0
 10
-48.88460324649788
 20
264.7969472502219
 30
0.0
  0
SPLINE
  5
D8
330
1F
100
AcDbEntity
  8
0
  6
Continuous
 62
     7
370
    25
100
AcDbSpline
210
0.0
220
0.0
230
1.0
 70
     8
 71
     3
 72
     8
 73
     4
 74
     0
 42
0.000000001
 43
0.00000001
 40
0.0
 40
0.0
 40
0.0
 40
0.0
 40
0.0000204722617173
 40
0.0000204722617173
 40
0.0000204722617173
 40
0.0000204722617173
 10
48.88460324649827
 20
264.7969472502209
 30
0.0
 10
48.88105150917629
 20
264.8027741984772
 30
0.0
 10
48.87749872824053
 20
264.8086005145987
 30
0.0
 10
48.87394491039069
 20
264.8144261876041
 30
0.0
  0
SPLINE
  5
D9
330
1F
100
AcDbEntity
  8
0
  6
Continuous
 62
     7
370
    25
100
AcDbSpline
210
0.0
220
0.0
230
1.0
 70
     8
 71
     3
 72
     8
 73
     4
 74
     0
 42
0.000000001
 43
0.00000001
 40
0.0
 40
0.0
 40
0.0
 40
0.0
 40
0.0000078124369201
 40
0.0000078124369201
 40
0.0000078124369201
 40
0.0000078124369201
 10
-48.16143402931532
 20
204.0477985881468
 30
0.0
 10
-48.16002609858895
 20
204.0456078566414
 30
0.0
 10
-48.15861801813012
 20
204.0434172208006
 30
0.0
 10
-48.15720978840127
 20
204.041226681344
 30
0.0
  0
SPLINE
  5
DA
330
1F
100
AcDbEntity
  8
0
  6
Continuous
 62
     7
370
    25
100
AcDbSpline
210
0.0
220
0.0
230
1.0
 70
     8
 71
     3
 72
     8
 73
     4
 74
     0
 42
0.000000001
 43
0.00000001
 40
0.0
 40
0.0
 40
0.0
 40
0.0
 40
0.000007812436923
 40
0.000007812436923
 40
0.000007812436923
 40
0.000007812436923
 10
48.15720978839828
 20
204.0412266813397
 30
0.0
 10
48.15861801812767
 20
204.0434172207972
 30
0.0
 10
48.16002609858705
 20
204.0456078566388
 30
0.0
 10
48.16143402931394
 20
204.047798588145
 30
0.0
  0
CIRCLE
  5
DB
330
1F
100
AcDbEntity
  8
0
  6
Continuous
 62
     7
370
    25
100
AcDbCircle
 10
0.0
 20
235.0
 30
0.0
 40
55.25000000000017
  0
CIRCLE
  5
DC
330
1F
100
AcDbEntity
  8
0
  6
Continuous
 62
     7
370
    25
100
AcDbCircle
 10
0.0
 20
235.0
 30
0.0
 40
46.9999999999998
  0
CIRCLE
  5
DD
330
1F
100
AcDbEntity
  8
0
  6
Continuous
 62
     7
370
    25
100
AcDbCircle
 10
0.0
 20
235.0
 30
0.0
 40
45.0
  0
LINE
  5
DE
330
1F
100
AcDbEntity
  8
0
  6
Continuous
 62
     7
370
    25
100
AcDbLine
 10
-542.0
 20
-338.0
 30
0.0
 11
-542.0
 21
338.0
 31
0.0
  0
LINE
  5
DF
330
1F
100
AcDbEntity
  8
0
  6
Continuous
 62
     7
370
    25
100
AcDbLine
 10
538.0
 20
-342.0
 30
0.0
 11
-538.0
 21
-342.0
 31
0.0
  0
LINE
  5
E0
330
1F
100
AcDbEntity
  8
0
  6
Continuous
 62
     7
370
    25
100
AcDbLine
 10
542.0
 20
338.0
 30
0.0
 11
542.0
 21
-338.0
 31
0.0
  0
LINE
  5
E1
330
1F
100
AcDbEntity
  8
0
  6
Continuous
 62
     7
370
    25
100
AcDbLine
 10
-538.0
 20
342.0
 30
0.0
 11
538.0
 21
342.0
 31
0.0
  0
LINE
  5
E2
330
1F
100
AcDbEntity
  8
0
  6
Continuous
 62
     7
370
    25
100
AcDbLine
 10
-595.0
 20
400.0
 30
0.0
 11
-595.0
 21
-400.0
 31
0.0
  0
LINE
  5
E3
330
1F
100
AcDbEntity
  8
0
  6
Continuous
 62
     7
370
    25
100
AcDbLine
 10
600.0
 20
395.0
 30
0.0
 11
-600.0
 21
395.0
 31
0.0
  0
LINE
  5
E4
330
1F
100
AcDbEntity
  8
0
  6
Continuous
 62
     7
370
    25
100
AcDbLine
 10
595.0
 20
-400.0
 30
0.0
 11
595.0
 21
400.0
 31
0.0
  0
LINE
  5
E5
330
1F
100
AcDbEntity
  8
0
  6
Continuous
 62
     7
370
    25
100
AcDbLine
 10
-600.0
 20
-395.0
 30
0.0
 11
600.0
 21
-395.0
 31
0.0
  0
LINE
  5
E6
330
1F
100
AcDbEntity
  8
0
  6
Continuous
 62
     7
370
    25
100
AcDbLine
 10
600.0
 20
395.0
 30
0.0
 11
600.0
 21
-395.0
 31
0.0
  0
LINE
  5
E7
330
1F
100
AcDbEntity
  8
0
  6
Continuous
 62
     7
370
    25
100
AcDbLine
 10
-538.0
 20
-340.0
 30
0.0
 11
538.0
 21
-340.0
 31
0.0
  0
LINE
  5
E8
330
1F
100
AcDbEntity
  8
0
  6
Continuous
 62
     7
370
    25
100
AcDbLine
 10
538.0
 20
-340.0
 30
0.0
 11
538.0
 21
-342.0
 31
0.0
  0
LINE
  5
E9
330
1F
100
AcDbEntity
  8
0
  6
Continuous
 62
     7
370
    25
100
AcDbLine
 10
-538.0
 20
-342.0
 30
0.0
 11
-538.0
 21
-340.0
 31
0.0
  0
LINE
  5
EA
330
1F
100
AcDbEntity
  8
0
  6
Continuous
 62
     7
370
    25
100
AcDbLine
 10
540.0
 20
-338.0
 30
0.0
 11
542.0
 21
-338.0
 31
0.0
  0
LINE
  5
EB
330
1F
100
AcDbEntity
  8
0
  6
Continuous
 62
     7
370
    25
100
AcDbLine
 10
-542.0
 20
-338.0
 30
0.0
 11
-540.0
 21
-338.0
 31
0.0
  0
LINE
  5
EC
330
1F
100
AcDbEntity
  8
0
  6
Continuous
 62
     7
370
    25
100
AcDbLine
 10
540.0
 20
-338.0
 30
0.0
 11
540.0
 21
338.0
 31
0.0
  0
LINE
  5
ED
330
1F
100
AcDbEntity
  8
0
  6
Continuous
 62
     7
370
    25
100
AcDbLine
 10
540.0
 20
338.0
 30
0.0
 11
542.0
 21
338.0
 31
0.0
  0
LINE
  5
EE
330
1F
100
AcDbEntity
  8
0
  6
Continuous
 62
     7
370
    25
100
AcDbLine
 10
-595.0
 20
400.0
 30
0.0
 11
595.0
 21
400.0
 31
0.0
  0
LINE
  5
EF
330
1F
100
AcDbEntity
  8
0
  6
Continuous
 62
     7
370
    25
100
AcDbLine
 10
538.0
 20
340.0
 30
0.0
 11
-538.0
 21
340.0
 31
0.0
  0
LINE
  5
F0
330
1F
100
AcDbEntity
  8
0
  6
Continuous
 62
     7
370
    25
100
AcDbLine
 10
-538.0
 20
342.0
 30
0.0
 11
-538.0
 21
340.0
 31
0.0
  0
LINE
  5
F1
330
1F
100
AcDbEntity
  8
0
  6
Continuous
 62
     7
370
    25
100
AcDbLine
 10
538.0
 20
340.0
 30
0.0
 11
538.0
 21
342.0
 31
0.0
  0
LINE
  5
F2
330
1F
100
AcDbEntity
  8
0
  6
Continuous
 62
     7
370
    25
100
AcDbLine
 10
-542.0
 20
338.0
 30
0.0
 11
-540.0
 21
338.0
 31
0.0
  0
LINE
  5
F3
330
1F
100
AcDbEntity
  8
0
  6
Continuous
 62
     7
370
    25
100
AcDbLine
 10
-540.0
 20
338.0
 30
0.0
 11
-540.0
 21
-338.0
 31
0.0
  0
LINE
  5
F4
330
1F
100
AcDbEntity
  8
0
  6
Continuous
 62
     7
370
    25
100
AcDbLine
 10
595.0
 20
-400.0
 30
0.0
 11
-595.0
 21
-400.0
 31
0.0
  0
LINE
  5
F5
330
1F
100
AcDbEntity
  8
0
  6
Continuous
 62
     7
370
    25
100
AcDbLine
 10
-600.0
 20
-395.0
 30
0.0
 11
-600.0
 21
395.0
 31
0.0
  0
LINE
  5
F6
330
1F
100
AcDbEntity
  8
0
  6
Continuous
 62
     7
370
    25
100
AcDbLine
 10
-523.9543338574
 20
340.0
 30
0.0
 11
-523.9548337149
 21
338.2772384205
 31
0.0
  0
LINE
  5
F7
330
1F
100
AcDbEntity
  8
0
  6
Continuous
 62
     7
370
    25
100
AcDbLine
 10
523.9548337149
 20
338.2772384205
 30
0.0
 11
523.9543338574
 21
340.0
 31
0.0
  0
LINE
  5
F8
330
1F
100
AcDbEntity
  8
0
  6
Continuous
 62
     7
370
    25
100
AcDbLine
 10
-538.000010793
 20
-337.9991961254
 30
0.0
 11
-538.00001058
 21
-338.0385522685
 31
0.0
  0
LINE
  5
F9
330
1F
100
AcDbEntity
  8
0
  6
Continuous
 62
     7
370
    25
100
AcDbLine
 10
538.00001058
 20
-338.0385522685
 30
0.0
 11
538.000010793
 21
-337.9991961254
 31
0.0
  0
LINE
  5
FA
330
1F
100
AcDbEntity
  8
0
  6
Continuous
 62
     7
370
    25
100
AcDbLine
 10
-50.5426388374
 20
265.8294200712
 30
0.0
 11
-48.8739449104
 21
264.8144261876
 31
0.0
  0
LINE
  5
FB
330
1F
100
AcDbEntity
  8
0
  6
Continuous
 62
     7
370
    25
100
AcDbLine
 10
48.8739449104
 20
264.8144261876
 30
0.0
 11
50.5426388374
 21
265.8294200712
 31
0.0
  0
LINE
  5
FC
330
1F
100
AcDbEntity
  8
0
  6
Continuous
 62
     7
370
    25
100
AcDbLine
 10
-48.8846032465
 20
264.7969472502
 30
0.0
 11
-50.5531843579
 21
265.8145491448
 31
0.0
  0
LINE
  5
FD
330
1F
100
AcDbEntity
  8
0
  6
Continuous
 62
     7
370
    25
100
AcDbLine
 10
-49.818389576
 20
202.9820068456
 30
0.0
 11
-48.1614340293
 21
204.0477985881
 31
0.0
  0
LINE
  5
FE
330
1F
100
AcDbEntity
  8
0
  6
Continuous
 62
     7
370
    25
100
AcDbLine
 10
48.1614340293
 20
204.0477985881
 30
0.0
 11
49.818389576
 21
202.9820068455
 31
0.0
  0
LINE
  5
FF
330
1F
100
AcDbEntity
  8
0
  6
Continuous
 62
     7
370
    25
100
AcDbLine
 10
50.5531843579
 20
265.8145491448
 30
0.0
 11
48.8846032465
 21
264.7969472502
 31
0.0
  0
LINE
  5
100
330
1F
100
AcDbEntity
  8
0
  6
Continuous
 62
     7
370
    25
100
AcDbLine
 10
-48.1572097884
 20
204.0412266813
 30
0.0
 11
-49.8149827939
 21
202.9760772622
 31
0.0
  0
LINE
  5
101
330
1F
100
AcDbEntity
  8
0
  6
Continuous
 62
     7
370
    25
100
AcDbLine
 10
49.8149827939
 20
202.9760772622
 30
0.0
 11
48.1572097884
 21
204.0412266813
 31
0.0
  0
ARC
  5
102
330
1F
100
AcDbEntity
  8
0
  6
Continuous
 62
     7
370
    25
100
AcDbCircle
 10
-538.0
 20
-338.0
 30
0.0
 40
3.999999999999943
100
AcDbArc
 50
180.0
 51
270.0
  0
ARC
  5
103
330
1F
100
AcDbEntity
  8
0
  6
Continuous
 62
     7
370
    25
100
AcDbCircle
 10
538.0
 20
-338.0
 30
0.0
 40
4.0
100
AcDbArc
 50
270.0
 51
0.0
  0
ARC
  5
104
330
1F
100
AcDbEntity
  8
0
  6
Continuous
 62
     7
370
    25
100
AcDbCircle
 10
538.0
 20
338.0
 30
0.0
 40
4.0
100
AcDbArc
 50
0.0
 51
90.0
  0
ARC
  5
105
330
1F
100
AcDbEntity
  8
0
  6
Continuous
 62
     7
370
    25
100
AcDbCircle
 10
-538.0
 20
338.0
 30
0.0
 40
3.999999999999886
100
AcDbArc
 50
90.0
 51
180.0
  0
ARC
  5
106
330
1F
100
AcDbEntity
  8
0
  6
Continuous
 62
     7
370
    25
100
AcDbCircle
 10
538.0
 20
-338.0
 30
0.0
 40
1.999999999999886
100
AcDbArc
 50
270.0
 51
0.0
  0
ARC
  5
107
330
1F
100
AcDbEntity
  8
0
  6
Continuous
 62
     7
370
    25
100
AcDbCircle
 10
-538.0
 20
-338.0
 30
0.0
 40
1.999999999999886
100
AcDbArc
 50
180.0
 51
270.0
  0
ARC
  5
108
330
1F
100
AcDbEntity
  8
0
  6
Continuous
 62
     7
370
    25
100
AcDbCircle
 10
538.0
 20
338.0
 30
0.0
 40
1.999999999999886
100
AcDbArc
 50
360.0
 51
90.0
  0
ARC
  5
109
330
1F
100
AcDbEntity
  8
0
  6
Continuous
 62
     7
370
    25
100
AcDbCircle
 10
-538.0
 20
338.0
 30
0.0
 40
2.0
100
AcDbArc
 50
90.0
 51
180.0
  0
ARC
  5
10A
330
1F
100
AcDbEntity
  8
0
  6
Continuous
 62
     7
370
    25
100
AcDbCircle
 10
-595.0
 20
395.0
 30
0.0
 40
5.0
100
AcDbArc
 50
90.0
 51
180.0
  0
ARC
  5
10B
330
1F
100
AcDbEntity
  8
0
  6
Continuous
 62
     7
370
    25
100
AcDbCircle
 10
595.0
 20
395.0
 30
0.0
 40
4.999999999999943
100
AcDbArc
 50
0.0
 51
90.0
  0
ARC
  5
10C
330
1F
100
AcDbEntity
  8
0
  6
Continuous
 62
     7
370
    25
100
AcDbCircle
 10
595.0
 20
-395.0
 30
0.0
 40
5.0
100
AcDbArc
 50
270.0
 51
0.0
  0
ARC
  5
10D
330
1F
100
AcDbEntity
  8
0
  6
Continuous
 62
     7
370
    25
100
AcDbCircle
 10
-595.0
 20
-395.0
 30
0.0
 40
4.999999999999943
100
AcDbArc
 50
180.0
 51
270.0
  0
ARC
  5
10E
330
1F
100
AcDbEntity
  8
0
  6
Continuous
 62
     7
370
    25
100
AcDbCircle
 10
538.4998205372
 20
-312.0314007423
 30
0.0
 40
25.97260492980759
100
AcDbArc
 50
268.8973475416
 51
273.3112511236
  0
ARC
  5
10F
330
1F
100
AcDbEntity
  8
0
  6
Continuous
 62
     7
370
    25
100
AcDbCircle
 10
-538.4998205372
 20
-312.0314007423
 30
0.0
 40
25.97260492980962
100
AcDbArc
 50
266.6887488764
 51
271.1026524584
  0
ARC
  5
110
330
1F
100
AcDbEntity
  8
0
  6
Continuous
 62
     7
370
    25
100
AcDbCircle
 10
538.4998204088
 20
-312.0710113869
 30
0.0
 40
25.97235047710974
100
AcDbArc
 50
268.8973365509
 51
273.3112838839
  0
ARC
  5
111
330
1F
100
AcDbEntity
  8
0
  6
Continuous
 62
     7
370
    25
100
AcDbCircle
 10
-538.4998204088
 20
-312.0710113868
 30
0.0
 40
25.97235047721423
100
AcDbArc
 50
266.6887161161
 51
271.1026634491
  0
ARC
  5
112
330
1F
100
AcDbEntity
  8
0
  6
Continuous
 62
     7
370
    25
100
AcDbCircle
 10
-514.6013966765
 20
338.4997766591
 30
0.0
 40
23.44664810935278
100
AcDbArc
 50
176.331448957
 51
181.2213599074
  0
ARC
  5
113
330
1F
100
AcDbEntity
  8
0
  6
Continuous
 62
     7
370
    25
100
AcDbCircle
 10
514.6013966767
 20
338.4997766591
 30
0.0
 40
23.44664810913569
100
AcDbArc
 50
358.7786400926
 51
3.668551043
  0
ARC
  5
114
330
1F
100
AcDbEntity
  8
0
  6
Continuous
 62
     7
370
    25
100
AcDbCircle
 10
508.0722330732
 20
338.4997929126
 30
0.0
 40
23.45072103214691
100
AcDbArc
 50
358.7788800207
 51
3.6678732239
  0
ARC
  5
115
330
1F
100
AcDbEntity
  8
0
  6
Continuous
 62
     7
370
    25
100
AcDbCircle
 10
-508.0722330748
 20
338.4997929126
 30
0.0
 40
23.45072103059371
100
AcDbArc
 50
176.3321267758
 51
181.2211199794
  0
LINE
  5
125
330
1B
100
AcDbEntity
 67
     1
  8
0
  6
Continuous
 62
     7
370
    25
100
AcDbLine
 10
-395.0
 20
25.0
 30
0.0
 11
395.0
 21
25.0
 31
0.0
  0
LINE
  5
126
330
1B
100
AcDbEntity
 67
     1
  8
0
  6
Continuous
 62
     7
370
    25
100
AcDbLine
 10
395.0
 20
0.0
 30
0.0
 11
395.0
 21
25.0
 31
0.0
  0
LINE
  5
127
330
1B
100
AcDbEntity
 67
     1
  8
0
  6
Continuous
 62
     7
370
    25
100
AcDbLine
 10
400.0
 20
20.0
 30
0.0
 11
-400.0
 21
20.0
 31
0.0
  0
LINE
  5
128
330
1B
100
AcDbEntity
 67
     1
  8
0
  6
Continuous
 62
     7
370
    25
100
AcDbLine
 10
-395.0
 20
25.0
 30
0.0
 11
-395.0
 21
0.0
 31
0.0
  0
LINE
  5
129
330
1B
100
AcDbEntity
 67
     1
  8
0
  6
Continuous
 62
     7
370
    25
100
AcDbLine
 10
-400.0
 20
0.0
 30
0.0
 11
400.0
 21
0.0
 31
0.0
  0
LINE
  5
12A
330
1B
100
AcDbEntity
 67
     1
  8
0
  6
Continuous
 62
     7
370
    25
100
AcDbLine
 10
-400.0
 20
0.0
 30
0.0
 11
-400.0
 21
20.0
 31
0.0
  0
LINE
  5
12B
330
1B
100
AcDbEntity
 67
     1
  8
0
  6
Continuous
 62
     7
370
    25
100
AcDbLine
 10
400.0
 20
20.0
 30
0.0
 11
400.0
 21
0.0
 31
0.0
  0
ARC
  5
12C
330
1B
100
AcDbEntity
 67
     1
  8
0
  6
Continuous
 62
     7
370
    25
100
AcDbCircle
 10
-395.0
 20
20.0
 30
0.0
 40
5.0
100
AcDbArc
 50
90.0
 51
180.0
  0
ARC
  5
12D
330
1B
100
AcDbEntity
 67
     1
  8
0
  6
Continuous
 62
     7
370
    25
100
AcDbCircle
 10
395.0
 20
20.0
 30
0.0
 40
5.0
100
AcDbArc
 50
0.0
 51
90.0
  0
VIEWPORT
  5
12E
330
1B
100
AcDbEntity
 67
     1
  8
0
100
AcDbViewport
 10
0.0
 20
0.0
 30
0.0
 40
205.6
 41
156.0
 68
     1
 69
     1
 12
0.0
 22
0.0
 13
0.0
 23
0.0
 14
10.0
 24
10.0
 15
10.0
 25
10.0
 16
0.0
 26
0.0
 36
1.0
 17
0.0
 27
0.0
 37
0.0
 42
50.0
 43
0.0
 44
0.0
 45
928.7159533074
 50
0.0
 51
0.0
 72
   100
 90
   557152
  1

281
     0
 71
     1
 74
     0
110
0.0
120
0.0
130
0.0
111
1.0
121
0.0
131
0.0
112
0.0
122
1.0
132
0.0
 79
     0
146
0.0
  0
ENDSEC
  0
SECTION
  2
OBJECTS
  0
DICTIONARY
  5
C
330
0
100
AcDbDictionary
281
     1
  3
ACAD_GROUP
350
D
  3
ACAD_LAYOUT
350
1A
  3
ACAD_MLINESTYLE
350
17
  3
ACAD_PLOTSETTINGS
350
19
  3
ACAD_PLOTSTYLENAME
350
E
  3
ACAD_SCALELIST
350
47
  0
DICTIONARY
  5
D
102
{ACAD_REACTORS
330
C
102
}
330
C
100
AcDbDictionary
281
     1
  0
DICTIONARY
  5
1A
102
{ACAD_REACTORS
330
C
102
}
330
C
100
AcDbDictionary
281
     1
  3
_Right
350
1E
  3
Layout2
350
26
  3
Model
350
22
  0
DICTIONARY
  5
17
102
{ACAD_REACTORS
330
C
102
}
330
C
100
AcDbDictionary
281
     1
  3
Standard
350
18
  0
DICTIONARY
  5
19
102
{ACAD_REACTORS
330
C
102
}
330
C
100
AcDbDictionary
281
     1
  0
ACDBDICTIONARYWDFLT
  5
E
102
{ACAD_REACTORS
330
C
102
}
330
C
100
AcDbDictionary
281
     1
  3
Normal
350
F
100
AcDbDictionaryWithDefault
340
F
  0
DICTIONARY
  5
47
102
{ACAD_REACTORS
330
C
102
}
330
C
100
AcDbDictionary
281
     1
  3
A0
350
48
  3
A1
350
49
  3
A2
350
4A
  3
A3
350
4B
  3
A4
350
4C
  3
A5
350
4D
  3
A6
350
4E
  3
A7
350
4F
  3
A8
350
50
  3
A9
350
51
  3
B0
350
52
  3
B1
350
53
  3
B2
350
54
  3
B3
350
55
  3
B4
350
56
  3
B5
350
57
  3
B6
350
58
  3
B7
350
59
  3
B8
350
5A
  3
B9
350
5B
  3
C0
350
5C
  3
C1
350
5D
  3
C2
350
5E
  3
C3
350
5F
  3
C4
350
60
  3
C5
350
61
  3
C6
350
62
  3
C7
350
63
  3
C8
350
64
  3
C9
350
65
  3
D0
350
66
  3
D1
350
67
  3
D2
350
68
  0
LAYOUT
  5
1E
102
{ACAD_REACTORS
330
1A
102
}
330
1A
100
AcDbPlotSettings
  1

  2
none_device
  4
ISO_A4_(210.00_x_297.00_MM)
  6

 40
7.5
 41
20.0
 42
7.5
 43
20.0
 44
210.0
 45
297.0
 46
0.0
 47
0.0
 48
0.0
 49
0.0
140
0.0
141
0.0
142
1.0
143
3.1128404669
 70
   688
 72
     1
 73
     1
 74
     1
  7

 75
     0
147
0.32125
148
400.0
149
0.0
100
AcDbLayout
  1
_Right
 70
     1
 71
     1
 10
-462.2568093385
 20
-23.3463035019
 11
462.2568093385
 21
630.3501945525
 12
0.0
 22
0.0
 32
0.0
 14
-400.0
 24
0.0
 34
0.0
 15
400.0
 25
25.0
 35
0.0
146
0.0
 13
0.0
 23
0.0
 33
0.0
 16
1.0
 26
0.0
 36
0.0
 17
0.0
 27
1.0
 37
0.0
 76
     0
330
1B
331
12E
  0
LAYOUT
  5
26
102
{ACAD_REACTORS
330
1A
102
}
330
1A
100
AcDbPlotSettings
  1

  2
none_device
  4

  6

 40
0.0
 41
0.0
 42
0.0
 43
0.0
 44
0.0
 45
0.0
 46
0.0
 47
0.0
 48
0.0
 49
0.0
140
0.0
141
0.0
142
1.0
143
1.0
 70
   688
 72
     1
 73
     0
 74
     5
  7

 75
    16
147
1.0
148
0.0
149
0.0
100
AcDbLayout
  1
Layout2
 70
     1
 71
     2
 10
0.0
 20
0.0
 11
0.0
 21
0.0
 12
0.0
 22
0.0
 32
0.0
 14
0.0
 24
0.0
 34
0.0
 15
0.0
 25
0.0
 35
0.0
146
0.0
 13
0.0
 23
0.0
 33
0.0
 16
1.0
 26
0.0
 36
0.0
 17
0.0
 27
1.0
 37
0.0
 76
     0
330
23
  0
LAYOUT
  5
22
102
{ACAD_REACTORS
330
1A
102
}
330
1A
100
AcDbPlotSettings
  1

  2
none_device
  4
ANSI_A_(11.00_x_8.50_Inches)
  6

 40
6.35
 41
19.05
 42
6.35000508
 43
19.05000254
 44
279.4
 45
215.9
 46
133.34999746
 47
88.89999873
 48
0.0
 49
0.0
140
0.0
141
0.0
142
0.009075
143
1.0
 70
  1696
 72
     0
 73
     0
 74
     0
  7

 75
     0
147
0.0179189148
148
-1300.4909072572
149
0.0
100
AcDbLayout
  1
Model
 70
     1
 71
     0
 10
0.0
 20
0.0
 11
420.0
 21
297.0
 12
0.0
 22
0.0
 32
0.0
 14
-600.0
 24
-400.0
 34
0.0
 15
600.0
 25
400.0
 35
0.0
146
0.0
 13
0.0
 23
0.0
 33
0.0
 16
1.0
 26
0.0
 36
0.0
 17
0.0
 27
1.0
 37
0.0
 76
     0
330
1F
331
29
  0
MLINESTYLE
  5
18
102
{ACAD_REACTORS
330
17
102
}
330
17
100
AcDbMlineStyle
  2
Standard
 70
     0
  3

 62
   256
 51
90.0
 52
90.0
 71
     2
 49
0.5
 62
   256
  6
BYLAYER
 49
-0.5
 62
   256
  6
BYLAYER
  0
ACDBPLACEHOLDER
  5
F
102
{ACAD_REACTORS
330
E
102
}
330
E
  0
SCALE
  5
48
102
{ACAD_REACTORS
330
47
102
}
330
47
100
AcDbScale
 70
     0
300
1:1
140
1.0
141
1.0
290
     1
  0
SCALE
  5
49
102
{ACAD_REACTORS
330
47
102
}
330
47
100
AcDbScale
 70
     0
300
1:2
140
1.0
141
2.0
290
     0
  0
SCALE
  5
4A
102
{ACAD_REACTORS
330
47
102
}
330
47
100
AcDbScale
 70
     0
300
1:4
140
1.0
141
4.0
290
     0
  0
SCALE
  5
4B
102
{ACAD_REACTORS
330
47
102
}
330
47
100
AcDbScale
 70
     0
300
1:5
140
1.0
141
5.0
290
     0
  0
SCALE
  5
4C
102
{ACAD_REACTORS
330
47
102
}
330
47
100
AcDbScale
 70
     0
300
1:8
140
1.0
141
8.0
290
     0
  0
SCALE
  5
4D
102
{ACAD_REACTORS
330
47
102
}
330
47
100
AcDbScale
 70
     0
300
1:10
140
1.0
141
10.0
290
     0
  0
SCALE
  5
4E
102
{ACAD_REACTORS
330
47
102
}
330
47
100
AcDbScale
 70
     0
300
1:16
140
1.0
141
16.0
290
     0
  0
SCALE
  5
4F
102
{ACAD_REACTORS
330
47
102
}
330
47
100
AcDbScale
 70
     0
300
1:20
140
1.0
141
20.0
290
     0
  0
SCALE
  5
50
102
{ACAD_REACTORS
330
47
102
}
330
47
100
AcDbScale
 70
     0
300
1:30
140
1.0
141
30.0
290
     0
  0
SCALE
  5
51
102
{ACAD_REACTORS
330
47
102
}
330
47
100
AcDbScale
 70
     0
300
1:40
140
1.0
141
40.0
290
     0
  0
SCALE
  5
52
102
{ACAD_REACTORS
330
47
102
}
330
47
100
AcDbScale
 70
     0
300
1:50
140
1.0
141
50.0
290
     0
  0
SCALE
  5
53
102
{ACAD_REACTORS
330
47
102
}
330
47
100
AcDbScale
 70
     0
300
1:100
140
1.0
141
100.0
290
     0
  0
SCALE
  5
54
102
{ACAD_REACTORS
330
47
102
}
330
47
100
AcDbScale
 70
     0
300
2:1
140
2.0
141
1.0
290
     0
  0
SCALE
  5
55
102
{ACAD_REACTORS
330
47
102
}
330
47
100
AcDbScale
 70
     0
300
4:1
140
4.0
141
1.0
290
     0
  0
SCALE
  5
56
102
{ACAD_REACTORS
330
47
102
}
330
47
100
AcDbScale
 70
     0
300
8:1
140
8.0
141
1.0
290
     0
  0
SCALE
  5
57
102
{ACAD_REACTORS
330
47
102
}
330
47
100
AcDbScale
 70
     0
300
10:1
140
10.0
141
1.0
290
     0
  0
SCALE
  5
58
102
{ACAD_REACTORS
330
47
102
}
330
47
100
AcDbScale
 70
     0
300
100:1
140
100.0
141
1.0
290
     0
  0
SCALE
  5
59
102
{ACAD_REACTORS
330
47
102
}
330
47
100
AcDbScale
 70
     0
300
1/128" = 1'-0"
140
0.0078125
141
12.0
290
     0
  0
SCALE
  5
5A
102
{ACAD_REACTORS
330
47
102
}
330
47
100
AcDbScale
 70
     0
300
1/64" = 1'-0"
140
0.015625
141
12.0
290
     0
  0
SCALE
  5
5B
102
{ACAD_REACTORS
330
47
102
}
330
47
100
AcDbScale
 70
     0
300
1/32" = 1'-0"
140
0.03125
141
12.0
290
     0
  0
SCALE
  5
5C
102
{ACAD_REACTORS
330
47
102
}
330
47
100
AcDbScale
 70
     0
300
1/16" = 1'-0"
140
0.0625
141
12.0
290
     0
  0
SCALE
  5
5D
102
{ACAD_REACTORS
330
47
102
}
330
47
100
AcDbScale
 70
     0
300
3/32" = 1'-0"
140
0.09375
141
12.0
290
     0
  0
SCALE
  5
5E
102
{ACAD_REACTORS
330
47
102
}
330
47
100
AcDbScale
 70
     0
300
1/8" = 1'-0"
140
0.125
141
12.0
290
     0
  0
SCALE
  5
5F
102
{ACAD_REACTORS
330
47
102
}
330
47
100
AcDbScale
 70
     0
300
3/16" = 1'-0"
140
0.1875
141
12.0
290
     0
  0
SCALE
  5
60
102
{ACAD_REACTORS
330
47
102
}
330
47
100
AcDbScale
 70
     0
300
1/4" = 1'-0"
140
0.25
141
12.0
290
     0
  0
SCALE
  5
61
102
{ACAD_REACTORS
330
47
102
}
330
47
100
AcDbScale
 70
     0
300
3/8" = 1'-0"
140
0.375
141
12.0
290
     0
  0
SCALE
  5
62
102
{ACAD_REACTORS
330
47
102
}
330
47
100
AcDbScale
 70
     0
300
1/2" = 1'-0"
140
0.5
141
12.0
290
     0
  0
SCALE
  5
63
102
{ACAD_REACTORS
330
47
102
}
330
47
100
AcDbScale
 70
     0
300
3/4" = 1'-0"
140
0.75
141
12.0
290
     0
  0
SCALE
  5
64
102
{ACAD_REACTORS
330
47
102
}
330
47
100
AcDbScale
 70
     0
300
1" = 1'-0"
140
1.0
141
12.0
290
     0
  0
SCALE
  5
65
102
{ACAD_REACTORS
330
47
102
}
330
47
100
AcDbScale
 70
     0
300
1-1/2" = 1'-0"
140
1.5
141
12.0
290
     0
  0
SCALE
  5
66
102
{ACAD_REACTORS
330
47
102
}
330
47
100
AcDbScale
 70
     0
300
3" = 1'-0"
140
3.0
141
12.0
290
     0
  0
SCALE
  5
67
102
{ACAD_REACTORS
330
47
102
}
330
47
100
AcDbScale
 70
     0
300
6" = 1'-0"
140
6.0
141
12.0
290
     0
  0
SCALE
  5
68
102
{ACAD_REACTORS
330
47
102
}
330
47
100
AcDbScale
 70
     0
300
1'-0" = 1'-0"
140
12.0
141
12.0
290
     0
  0
ENDSEC
  0
EOF
