  0
SECTION
  2
HEADER
  9
$ACADVER
  1
AC1015
  9
$ACADMAINTVER
 70
     6
  9
$DWGCODEPAGE
  3
ANSI_1252
  9
$INSBASE
 10
0.0
 20
0.0
 30
0.0
  9
$EXTMIN
 10
-245.0
 20
0.0
 30
0.0
  9
$EXTMAX
 10
245.0
 20
530.0
 30
0.0
  9
$LIMMIN
 10
0.0
 20
0.0
  9
$LIMMAX
 10
420.0
 20
297.0
  9
$ORTHOMODE
 70
     0
  9
$REGENMODE
 70
     1
  9
$FILLMODE
 70
     1
  9
$QTEXTMODE
 70
     0
  9
$MIRRTEXT
 70
     1
  9
$LTSCALE
 40
1.0
  9
$ATTMODE
 70
     1
  9
$TEXTSIZE
 40
3.5
  9
$TRACEWID
 40
1.0
  9
$TEXTSTYLE
  7
Standard
  9
$CLAYER
  8
0
  9
$CELTYPE
  6
ByLayer
  9
$CECOLOR
 62
   256
  9
$CELTSCALE
 40
1.0
  9
$DISPSILH
 70
     0
  9
$DIMSCALE
 40
1.0
  9
$DIMASZ
 40
3.302
  9
$DIMEXO
 40
1.0
  9
$DIMDLI
 40
3.75
  9
$DIMRND
 40
0.0
  9
$DIMDLE
 40
0.0
  9
$DIMEXE
 40
1.0
  9
$DIMTP
 40
0.0
  9
$DIMTM
 40
0.0
  9
$DIMTXT
 40
3.5
  9
$DIMCEN
 40
2.5
  9
$DIMTSZ
 40
0.0
  9
$DIMTOL
 70
     0
  9
$DIMLIM
 70
     0
  9
$DIMTIH
 70
     1
  9
$DIMTOH
 70
     1
  9
$DIMSE1
 70
     0
  9
$DIMSE2
 70
     0
  9
$DIMTAD
 70
     1
  9
$DIMZIN
 70
     1
  9
$DIMBLK
  1

  9
$DIMASO
 70
     1
  9
$DIMSHO
 70
     1
  9
$DIMPOST
  1

  9
$DIMAPOST
  1

  9
$DIMALT
 70
     0
  9
$DIMALTD
 70
     3
  9
$DIMALTF
 40
0.0393700787
  9
$DIMLFAC
 40
1.0
  9
$DIMTOFL
 70
     1
  9
$DIMTVP
 40
0.0
  9
$DIMTIX
 70
     0
  9
$DIMSOXD
 70
     0
  9
$DIMSAH
 70
     0
  9
$DIMBLK1
  1

  9
$DIMBLK2
  1

  9
$DIMSTYLE
  2
ISO-25
  9
$DIMCLRD
 70
     0
  9
$DIMCLRE
 70
     0
  9
$DIMCLRT
 70
     0
  9
$DIMTFAC
 40
1.0
  9
$DIMGAP
 40
1.524
  9
$DIMJUST
 70
     0
  9
$DIMSD1
 70
     0
  9
$DIMSD2
 70
     0
  9
$DIMTOLJ
 70
     0
  9
$DIMTZIN
 70
     1
  9
$DIMALTZ
 70
     0
  9
$DIMALTTZ
 70
     0
  9
$DIMUPT
 70
     0
  9
$DIMDEC
 70
     2
  9
$DIMTDEC
 70
     2
  9
$DIMALTU
 70
     2
  9
$DIMALTTD
 70
     3
  9
$DIMTXSTY
  7
Standard
  9
$DIMAUNIT
 70
     0
  9
$DIMADEC
 70
     2
  9
$DIMALTRND
 40
0.0
  9
$DIMAZIN
 70
     0
  9
$DIMDSEP
 70
    44
  9
$DIMATFIT
 70
     3
  9
$DIMFRAC
 70
     0
  9
$DIMLDRBLK
  1

  9
$DIMLUNIT
 70
     2
  9
$DIMLWD
 70
    -2
  9
$DIMLWE
 70
    -2
  9
$DIMTMOVE
 70
     0
  9
$LUNITS
 70
     2
  9
$LUPREC
 70
     2
  9
$SKETCHINC
 40
1.0
  9
$FILLETRAD
 40
10.0
  9
$AUNITS
 70
     0
  9
$AUPREC
 70
     2
  9
$MENU
  1
.
  9
$ELEVATION
 40
0.0
  9
$PELEVATION
 40
0.0
  9
$THICKNESS
 40
0.0
  9
$LIMCHECK
 70
     0
  9
$CHAMFERA
 40
0.0
  9
$CHAMFERB
 40
0.0
  9
$CHAMFERC
 40
0.0
  9
$CHAMFERD
 40
0.0
  9
$SKPOLY
 70
     0
  9
$TDCREATE
 40
2459914.598790475
  9
$TDUCREATE
 40
2459914.598790475
  9
$TDUPDATE
 40
2459914.598817616
  9
$TDUUPDATE
 40
2459914.598817616
  9
$TDINDWG
 40
0.0000000116
  9
$TDUSRTIMER
 40
0.0000000116
  9
$USRTIMER
 70
     1
  9
$ANGBASE
 50
0.0
  9
$ANGDIR
 70
     0
  9
$PDMODE
 70
     0
  9
$PDSIZE
 40
-1.0
  9
$PLINEWID
 40
0.0
  9
$SPLFRAME
 70
     0
  9
$SPLINETYPE
 70
     6
  9
$SPLINESEGS
 70
     8
  9
$HANDSEED
  5
1FA
  9
$SURFTAB1
 70
     6
  9
$SURFTAB2
 70
     6
  9
$SURFTYPE
 70
     6
  9
$SURFU
 70
     6
  9
$SURFV
 70
     6
  9
$UCSBASE
  2

  9
$UCSNAME
  2

  9
$UCSORG
 10
0.0
 20
0.0
 30
0.0
  9
$UCSXDIR
 10
1.0
 20
0.0
 30
0.0
  9
$UCSYDIR
 10
0.0
 20
1.0
 30
0.0
  9
$UCSORTHOREF
  2

  9
$UCSORTHOVIEW
 70
     0
  9
$UCSORGTOP
 10
0.0
 20
0.0
 30
0.0
  9
$UCSORGBOTTOM
 10
0.0
 20
0.0
 30
0.0
  9
$UCSORGLEFT
 10
0.0
 20
0.0
 30
0.0
  9
$UCSORGRIGHT
 10
0.0
 20
0.0
 30
0.0
  9
$UCSORGFRONT
 10
0.0
 20
0.0
 30
0.0
  9
$UCSORGBACK
 10
0.0
 20
0.0
 30
0.0
  9
$PUCSBASE
  2

  9
$PUCSNAME
  2

  9
$PUCSORG
 10
0.0
 20
0.0
 30
0.0
  9
$PUCSXDIR
 10
1.0
 20
0.0
 30
0.0
  9
$PUCSYDIR
 10
0.0
 20
1.0
 30
0.0
  9
$PUCSORTHOREF
  2

  9
$PUCSORTHOVIEW
 70
     0
  9
$PUCSORGTOP
 10
0.0
 20
0.0
 30
0.0
  9
$PUCSORGBOTTOM
 10
0.0
 20
0.0
 30
0.0
  9
$PUCSORGLEFT
 10
0.0
 20
0.0
 30
0.0
  9
$PUCSORGRIGHT
 10
0.0
 20
0.0
 30
0.0
  9
$PUCSORGFRONT
 10
0.0
 20
0.0
 30
0.0
  9
$PUCSORGBACK
 10
0.0
 20
0.0
 30
0.0
  9
$USERI1
 70
     0
  9
$USERI2
 70
     0
  9
$USERI3
 70
     0
  9
$USERI4
 70
     0
  9
$USERI5
 70
     0
  9
$USERR1
 40
0.0
  9
$USERR2
 40
0.0
  9
$USERR3
 40
0.0
  9
$USERR4
 40
0.0
  9
$USERR5
 40
0.0
  9
$WORLDVIEW
 70
     1
  9
$SHADEDGE
 70
     3
  9
$SHADEDIF
 70
    70
  9
$TILEMODE
 70
     1
  9
$MAXACTVP
 70
    64
  9
$PINSBASE
 10
0.0
 20
0.0
 30
0.0
  9
$PLIMCHECK
 70
     0
  9
$PEXTMIN
 10
-245.0
 20
0.0
 30
0.0
  9
$PEXTMAX
 10
245.0
 20
530.0
 30
0.0
  9
$PLIMMIN
 10
-299.358974359
 20
-20.3846153846
  9
$PLIMMAX
 10
507.8717948718
 20
550.3846153846
  9
$UNITMODE
 70
     0
  9
$VISRETAIN
 70
     1
  9
$PLINEGEN
 70
     0
  9
$PSLTSCALE
 70
     1
  9
$TREEDEPTH
 70
  3020
  9
$CMLSTYLE
  2
Standard
  9
$CMLJUST
 70
     0
  9
$CMLSCALE
 40
20.0
  9
$PROXYGRAPHICS
 70
     1
  9
$MEASUREMENT
 70
     1
  9
$CELWEIGHT
370
    -1
  9
$ENDCAPS
280
     0
  9
$JOINSTYLE
280
     0
  9
$LWDISPLAY
290
     1
  9
$INSUNITS
 70
     4
  9
$HYPERLINKBASE
  1

  9
$STYLESHEET
  1

  9
$XEDIT
290
     1
  9
$CEPSNTYPE
380
     0
  9
$PSTYLEMODE
290
     1
  9
$FINGERPRINTGUID
  2
{daac387a-338d-49ec-87c8-3524f92c39bd}
  9
$VERSIONGUID
  2
{FAEB1C32-E019-11D5-929B-00C0DF256EC4}
  9
$EXTNAMES
290
     1
  9
$PSVPSCALE
 40
0.0
  9
$OLESTARTUP
290
     0
  0
ENDSEC
  0
SECTION
  2
CLASSES
  0
CLASS
  1
ACDBDICTIONARYWDFLT
  2
AcDbDictionaryWithDefault
  3
ObjectDBX Classes
 90
        0
280
     0
281
     0
  0
CLASS
  1
VISUALSTYLE
  2
AcDbVisualStyle
  3
ObjectDBX Classes
 90
     4095
280
     0
281
     0
  0
CLASS
  1
MATERIAL
  2
AcDbMaterial
  3
ObjectDBX Classes
 90
     1153
280
     0
281
     0
  0
CLASS
  1
SCALE
  2
AcDbScale
  3
ObjectDBX Classes
 90
     1153
280
     0
281
     0
  0
CLASS
  1
TABLESTYLE
  2
AcDbTableStyle
  3
ObjectDBX Classes
 90
     4095
280
     0
281
     0
  0
CLASS
  1
MLEADERSTYLE
  2
AcDbMLeaderStyle
  3
ACDB_MLEADERSTYLE_CLASS
 90
     4095
280
     0
281
     0
  0
CLASS
  1
SUN
  2
AcDbSun
  3
SCENEOE
 90
     1153
280
     0
281
     0
  0
CLASS
  1
ACDBPLACEHOLDER
  2
AcDbPlaceHolder
  3
ObjectDBX Classes
 90
        0
280
     0
281
     0
  0
CLASS
  1
LAYOUT
  2
AcDbLayout
  3
ObjectDBX Classes
 90
        0
280
     0
281
     0
  0
ENDSEC
  0
SECTION
  2
TABLES
  0
TABLE
  2
VPORT
  5
8
330
0
100
AcDbSymbolTable
 70
     1
  0
VPORT
  5
29
330
8
100
AcDbSymbolTableRecord
100
AcDbViewportTableRecord
  2
*Active
 70
     0
 10
0.0
 20
0.0
 11
1.0
 21
1.0
 12
0.0
 22
265.0
 13
0.0
 23
0.0
 14
10.0
 24
10.0
 15
10.0
 25
10.0
 16
0.0
 26
0.0
 36
1.0
 17
0.0
 27
0.0
 37
0.0
 40
540.6
 41
0.9245283019
 42
50.0
 43
0.0
 44
0.0
 50
0.0
 51
0.0
 71
     0
 72
   100
 73
     1
 74
     3
 75
     0
 76
     0
 77
     0
 78
     0
281
     0
 65
     1
110
0.0
120
0.0
130
0.0
111
1.0
121
0.0
131
0.0
112
0.0
122
1.0
132
0.0
 79
     0
146
0.0
  0
ENDTAB
  0
TABLE
  2
LTYPE
  5
5
330
0
100
AcDbSymbolTable
 70
     6
  0
LTYPE
  5
14
330
5
100
AcDbSymbolTableRecord
100
AcDbLinetypeTableRecord
  2
ByBlock
 70
     0
  3

 72
    65
 73
     0
 40
0.0
  0
LTYPE
  5
15
330
5
100
AcDbSymbolTableRecord
100
AcDbLinetypeTableRecord
  2
ByLayer
 70
     0
  3

 72
    65
 73
     0
 40
0.0
  0
LTYPE
  5
16
330
5
100
AcDbSymbolTableRecord
100
AcDbLinetypeTableRecord
  2
Continuous
 70
     0
  3
Solid line
 72
    65
 73
     0
 40
0.0
  0
LTYPE
  5
6E
330
5
100
AcDbSymbolTableRecord
100
AcDbLinetypeTableRecord
  2
HIDDEN
 70
     0
  3
Hidden __ __ __ __ __ __ __ __ __ __ __ __ __ __
 72
    65
 73
     2
 40
1.905
 49
1.27
 74
     0
 49
-0.635
 74
     0
  0
LTYPE
  5
6F
330
5
100
AcDbSymbolTableRecord
100
AcDbLinetypeTableRecord
  2
PHANTOM
 70
     0
  3
Phantom ______  __  __  ______  __  __  ______
 72
    65
 73
     6
 40
12.7
 49
6.35
 74
     0
 49
-1.27
 74
     0
 49
1.27
 74
     0
 49
-1.27
 74
     0
 49
1.27
 74
     0
 49
-1.27
 74
     0
  0
LTYPE
  5
70
330
5
100
AcDbSymbolTableRecord
100
AcDbLinetypeTableRecord
  2
CENTER
 70
     0
  3
Center ____ _ ____ _ ____ _ ____ _ ____ _ ____
 72
    65
 73
     4
 40
10.16
 49
6.35
 74
     0
 49
-1.27
 74
     0
 49
1.27
 74
     0
 49
-1.27
 74
     0
  0
LTYPE
  5
71
330
5
100
AcDbSymbolTableRecord
100
AcDbLinetypeTableRecord
  2
CENTERX2
 70
     0
  3
Center (2x) ________  __  ________  __  _____
 72
    65
 73
     4
 40
20.32
 49
12.7
 74
     0
 49
-2.54
 74
     0
 49
2.54
 74
     0
 49
-2.54
 74
     0
  0
LTYPE
  5
72
330
5
100
AcDbSymbolTableRecord
100
AcDbLinetypeTableRecord
  2
DOT2
 70
     0
  3
Dot (.5x) ........................................
 72
    65
 73
     2
 40
0.635
 49
0.0
 74
     0
 49
-0.635
 74
     0
  0
ENDTAB
  0
TABLE
  2
LAYER
  5
2
330
0
100
AcDbSymbolTable
 70
     1
  0
LAYER
  5
10
330
2
100
AcDbSymbolTableRecord
100
AcDbLayerTableRecord
  2
0
 70
     0
 62
     7
  6
Continuous
370
    -3
390
F
  0
ENDTAB
  0
TABLE
  2
STYLE
  5
3
330
0
100
AcDbSymbolTable
 70
     1
  0
STYLE
  5
11
330
3
100
AcDbSymbolTableRecord
100
AcDbTextStyleTableRecord
  2
Standard
 70
     0
 40
0.0
 41
1.0
 50
0.0
 71
     0
 42
3.5
  3
txt
  4

  0
ENDTAB
  0
TABLE
  2
VIEW
  5
6
330
0
100
AcDbSymbolTable
 70
     0
  0
ENDTAB
  0
TABLE
  2
UCS
  5
7
330
0
100
AcDbSymbolTable
 70
     0
  0
ENDTAB
  0
TABLE
  2
APPID
  5
9
330
0
100
AcDbSymbolTable
 70
     1
  0
APPID
  5
12
330
9
100
AcDbSymbolTableRecord
100
AcDbRegAppTableRecord
  2
ACAD
 70
     0
  0
ENDTAB
  0
TABLE
  2
DIMSTYLE
  5
A
330
0
100
AcDbSymbolTable
 70
     1
100
AcDbDimStyleTable
  0
DIMSTYLE
105
27
330
A
100
AcDbSymbolTableRecord
100
AcDbDimStyleTableRecord
  2
ISO-25
 70
     0
 41
2.5
 42
0.625
 43
3.75
 44
1.25
 73
     0
 74
     0
 77
     1
 78
     8
140
2.5
141
2.5
143
0.0393700787
147
0.625
171
     3
172
     1
178
     0
271
     2
272
     2
274
     3
278
    44
283
     0
284
     8
340
11
  0
ENDTAB
  0
TABLE
  2
BLOCK_RECORD
  5
1
330
0
100
AcDbSymbolTable
 70
     2
  0
BLOCK_RECORD
  5
1F
330
1
100
AcDbSymbolTableRecord
100
AcDbBlockTableRecord
  2
*Model_Space
340
22
  0
BLOCK_RECORD
  5
1B
330
1
100
AcDbSymbolTableRecord
100
AcDbBlockTableRecord
  2
*Paper_Space
340
1E
  0
BLOCK_RECORD
  5
23
330
1
100
AcDbSymbolTableRecord
100
AcDbBlockTableRecord
  2
*Paper_Space0
340
26
  0
BLOCK_RECORD
  5
174
330
1
100
AcDbSymbolTableRecord
100
AcDbBlockTableRecord
  2
*Paper_Space1
340
175
  0
ENDTAB
  0
ENDSEC
  0
SECTION
  2
BLOCKS
  0
BLOCK
  5
20
330
1F
100
AcDbEntity
  8
0
100
AcDbBlockBegin
  2
*Model_Space
 70
     0
 10
0.0
 20
0.0
 30
0.0
  3
*Model_Space
  1

  0
ENDBLK
  5
21
330
1F
100
AcDbEntity
  8
0
100
AcDbBlockEnd
  0
BLOCK
  5
1C
330
1B
100
AcDbEntity
 67
     1
  8
0
100
AcDbBlockBegin
  2
*Paper_Space
 70
     0
 10
0.0
 20
0.0
 30
0.0
  3
*Paper_Space
  1

  0
ENDBLK
  5
1D
330
1B
100
AcDbEntity
 67
     1
  8
0
100
AcDbBlockEnd
  0
BLOCK
  5
24
330
23
100
AcDbEntity
  8
0
100
AcDbBlockBegin
  2
*Paper_Space0
 70
     0
 10
0.0
 20
0.0
 30
0.0
  3
*Paper_Space0
  1

  0
SPLINE
  5
153
330
23
100
AcDbEntity
  8
0
  6
Continuous
 62
     7
370
    25
100
AcDbSpline
210
0.0
220
0.0
230
1.0
 70
     8
 71
     3
 72
    13
 73
     9
 74
     0
 42
0.000000001
 43
0.00000001
 40
0.0
 40
0.0
 40
0.0
 40
0.0
 40
0.3125443614920063
 40
0.4810252253477417
 40
0.6402061474927893
 40
0.7843969854176668
 40
0.9184170957120412
 40
1.0
 40
1.0
 40
1.0
 40
1.0
 10
178.0
 20
219.1715728752536
 30
0.0
 10
177.975438254759
 20
219.3458855385435
 30
0.0
 10
177.9376362000904
 20
219.6141635767067
 30
0.0
 10
177.6819414030704
 20
219.9251437410125
 30
0.0
 10
177.4061144906414
 20
220.1066954391337
 30
0.0
 10
177.0736167533092
 20
220.1859068637216
 30
0.0
 10
176.7796074815675
 20
220.1640349618744
 30
0.0
 10
176.6389938161488
 20
220.0968404288355
 30
0.0
 10
176.5857864376265
 20
220.071414415344
 30
0.0
  0
SPLINE
  5
157
330
23
100
AcDbEntity
  8
0
  6
Continuous
 62
     7
370
    25
100
AcDbSpline
210
0.0
220
0.0
230
1.0
 70
    24
 71
     3
 72
    14
 73
    10
 74
     0
 42
0.000000001
 43
0.00000001
 40
0.0
 40
0.0
 40
0.0
 40
0.0
 40
0.25
 40
0.25
 40
0.5
 40
0.5
 40
0.75
 40
0.75
 40
1.0
 40
1.0
 40
1.0
 40
1.0
 10
-180.0
 20
0.0
 30
0.0
 10
-180.0
 20
0.0
 30
0.0
 10
-179.9785212611865
 20
0.0214787388134741
 30
0.0
 10
-179.8810553409383
 20
0.1189446590616483
 30
0.0
 10
-179.8047378541243
 20
0.1952621458756187
 30
0.0
 10
-179.6094757082487
 20
0.390524291751293
 30
0.0
 10
-179.4911916599458
 20
0.5088083400542343
 30
0.0
 10
-179.244997759178
 20
0.7550022408220336
 30
0.0
 10
-179.1178511301978
 20
0.8821488698022573
 30
0.0
 10
-179.0
 20
1.000000000000001
 30
0.0
  0
SPLINE
  5
159
330
23
100
AcDbEntity
  8
0
  6
Continuous
 62
     7
370
    25
100
AcDbSpline
210
0.0
220
0.0
230
1.0
 70
    24
 71
     3
 72
    14
 73
    10
 74
     0
 42
0.000000001
 43
0.00000001
 40
0.0
 40
0.0
 40
0.0
 40
0.0
 40
0.25
 40
0.25
 40
0.5
 40
0.5
 40
0.75
 40
0.75
 40
1.0
 40
1.0
 40
1.0
 40
1.0
 10
-179.0
 20
529.0
 30
0.0
 10
-179.1178511301978
 20
529.1178511301976
 30
0.0
 10
-179.244997759178
 20
529.2449977591782
 30
0.0
 10
-179.4911916599458
 20
529.4911916599456
 30
0.0
 10
-179.6094757082487
 20
529.6094757082486
 30
0.0
 10
-179.8047378541243
 20
529.8047378541243
 30
0.0
 10
-179.8810553409383
 20
529.8810553409384
 30
0.0
 10
-179.9785212611865
 20
529.9785212611865
 30
0.0
 10
-180.0
 20
530.0000000000001
 30
0.0
 10
-180.0
 20
530.0
 30
0.0
  0
SPLINE
  5
15C
330
23
100
AcDbEntity
  8
0
  6
Continuous
 62
     7
370
    25
100
AcDbSpline
210
0.0
220
0.0
230
1.0
 70
    24
 71
     3
 72
    14
 73
    10
 74
     0
 42
0.000000001
 43
0.00000001
 40
0.0
 40
0.0
 40
0.0
 40
0.0
 40
0.25
 40
0.25
 40
0.5
 40
0.5
 40
0.75
 40
0.75
 40
1.0
 40
1.0
 40
1.0
 40
1.0
 10
175.5857864376265
 20
529.0
 30
0.0
 10
175.7036375678243
 20
529.1178511301976
 30
0.0
 10
175.8307841968046
 20
529.2449977591782
 30
0.0
 10
176.0769780975723
 20
529.4911916599456
 30
0.0
 10
176.1952621458752
 20
529.6094757082486
 30
0.0
 10
176.3905242917508
 20
529.8047378541243
 30
0.0
 10
176.4668417785649
 20
529.8810553409384
 30
0.0
 10
176.564307698813
 20
529.9785212611865
 30
0.0
 10
176.5857864376265
 20
530.0000000000001
 30
0.0
 10
176.5857864376265
 20
530.0
 30
0.0
  0
SPLINE
  5
15D
330
23
100
AcDbEntity
  8
0
  6
Continuous
 62
     7
370
    25
100
AcDbSpline
210
0.0
220
0.0
230
1.0
 70
    24
 71
     3
 72
    14
 73
    10
 74
     0
 42
0.000000001
 43
0.00000001
 40
0.0
 40
0.0
 40
0.0
 40
0.0
 40
0.25
 40
0.25
 40
0.5
 40
0.5
 40
0.75
 40
0.75
 40
1.0
 40
1.0
 40
1.0
 40
1.0
 10
176.5857864376265
 20
0.0
 30
0.0
 10
176.5857864376265
 20
0.0
 30
0.0
 10
176.5643076988131
 20
0.0214787388134741
 30
0.0
 10
176.4668417785648
 20
0.1189446590616483
 30
0.0
 10
176.3905242917508
 20
0.1952621458756187
 30
0.0
 10
176.1952621458753
 20
0.390524291751293
 30
0.0
 10
176.0769780975723
 20
0.5088083400542343
 30
0.0
 10
175.8307841968045
 20
0.7550022408220336
 30
0.0
 10
175.7036375678242
 20
0.8821488698022573
 30
0.0
 10
175.5857864376265
 20
1.000000000000001
 30
0.0
  0
SPLINE
  5
161
330
23
100
AcDbEntity
  8
0
  6
Continuous
 62
     7
370
    25
100
AcDbSpline
210
0.0
220
0.0
230
1.0
 70
     8
 71
     3
 72
    13
 73
     9
 74
     0
 42
0.000000001
 43
0.00000001
 40
0.0
 40
0.0
 40
0.0
 40
0.0
 40
0.3125443614920078
 40
0.4810252253477512
 40
0.640206147492805
 40
0.7843969854176754
 40
0.9184170957120494
 40
1.0
 40
1.0
 40
1.0
 40
1.0
 10
178.0
 20
483.9999999999995
 30
0.0
 10
177.975438254759
 20
484.1743126632895
 30
0.0
 10
177.9376362000904
 20
484.4425907014528
 30
0.0
 10
177.6819414030703
 20
484.7535708657585
 30
0.0
 10
177.4061144906414
 20
484.9351225638797
 30
0.0
 10
177.0736167533092
 20
485.0143339884673
 30
0.0
 10
176.7796074815675
 20
484.9924620866203
 30
0.0
 10
176.6389938161489
 20
484.9252675535815
 30
0.0
 10
176.5857864376266
 20
484.8998415400901
 30
0.0
  0
LINE
  5
166
330
23
100
AcDbEntity
  8
0
  6
Continuous
 62
     7
370
    25
100
AcDbLine
 10
176.5857864376
 20
0.0
 30
0.0
 11
176.5857864376
 21
530.0
 31
0.0
  0
LINE
  5
167
330
23
100
AcDbEntity
  8
0
  6
Continuous
 62
     7
370
    25
100
AcDbLine
 10
178.0
 20
219.1715728753
 30
0.0
 11
178.0
 21
1.0
 31
0.0
  0
LINE
  5
168
330
23
100
AcDbEntity
  8
0
  6
Continuous
 62
     7
370
    25
100
AcDbLine
 10
-179.0
 20
529.0
 30
0.0
 11
-179.0
 21
1.0
 31
0.0
  0
LINE
  5
169
330
23
100
AcDbEntity
  8
0
  6
Continuous
 62
     7
370
    25
100
AcDbLine
 10
-180.0
 20
0.0
 30
0.0
 11
-180.0
 21
530.0
 31
0.0
  0
LINE
  5
16A
330
23
100
AcDbEntity
  8
0
  6
Continuous
 62
     7
370
    25
100
AcDbLine
 10
175.5857864376
 20
529.0
 30
0.0
 11
-179.0
 21
529.0
 31
0.0
  0
LINE
  5
16B
330
23
100
AcDbEntity
  8
0
  6
Continuous
 62
     7
370
    25
100
AcDbLine
 10
-180.0
 20
530.0
 30
0.0
 11
176.5857864376
 21
530.0
 31
0.0
  0
LINE
  5
16C
330
23
100
AcDbEntity
  8
0
  6
Continuous
 62
     7
370
    25
100
AcDbLine
 10
175.5857864376
 20
1.0
 30
0.0
 11
175.5857864376
 21
529.0
 31
0.0
  0
LINE
  5
16D
330
23
100
AcDbEntity
  8
0
  6
Continuous
 62
     7
370
    25
100
AcDbLine
 10
176.5857864376
 20
0.0
 30
0.0
 11
-180.0
 21
0.0
 31
0.0
  0
LINE
  5
16E
330
23
100
AcDbEntity
  8
0
  6
Continuous
 62
     7
370
    25
100
AcDbLine
 10
-179.0
 20
1.0
 30
0.0
 11
175.5857864376
 21
1.0
 31
0.0
  0
LINE
  5
16F
330
23
100
AcDbEntity
  8
0
  6
Continuous
 62
     7
370
    25
100
AcDbLine
 10
178.0
 20
484.0
 30
0.0
 11
178.0
 21
265.8284271247
 31
0.0
  0
LINE
  5
170
330
23
100
AcDbEntity
  8
0
  6
Continuous
 62
     8
370
    25
100
AcDbLine
 10
176.5857864376
 20
1.0
 30
0.0
 11
178.0
 21
1.0
 31
0.0
  0
LINE
  5
171
330
23
100
AcDbEntity
  8
0
  6
Continuous
 62
     8
370
    25
100
AcDbLine
 10
176.5857864376
 20
265.8284271247
 30
0.0
 11
178.0
 21
265.8284271247
 31
0.0
  0
ARC
  5
172
330
23
100
AcDbEntity
  8
0
  6
Continuous
 62
     7
370
    25
100
AcDbCircle
 10
177.0
 20
1.0
 30
0.0
 40
1.000000000000171
100
AcDbArc
 50
245.5301994793
 51
360.0
  0
ARC
  5
173
330
23
100
AcDbEntity
  8
0
  6
Continuous
 62
     7
370
    25
100
AcDbCircle
 10
177.0
 20
265.8284271247
 30
0.0
 40
1.000000000000142
100
AcDbArc
 50
245.5301994793
 51
360.0
  0
VIEWPORT
  5
1F6
330
23
100
AcDbEntity
  8
0
100
AcDbViewport
 10
0.0
 20
0.0
 30
0.0
 40
205.6
 41
156.0
 68
     1
 69
     1
 12
0.0
 22
265.0
 13
0.0
 23
0.0
 14
10.0
 24
10.0
 15
10.0
 25
10.0
 16
0.0
 26
0.0
 36
1.0
 17
0.0
 27
0.0
 37
0.0
 42
50.0
 43
0.0
 44
0.0
 45
540.6
 50
0.0
 51
0.0
 72
   100
 90
   557152
  1

281
     0
 71
     1
 74
     0
110
0.0
120
0.0
130
0.0
111
1.0
121
0.0
131
0.0
112
0.0
122
1.0
132
0.0
 79
     0
146
0.0
  0
ENDBLK
  5
25
330
23
100
AcDbEntity
  8
0
100
AcDbBlockEnd
  0
BLOCK
  5
176
330
174
100
AcDbEntity
  8
0
100
AcDbBlockBegin
  2
*Paper_Space1
 70
     0
 10
0.0
 20
0.0
 30
0.0
  3
*Paper_Space1
  1

  0
SPLINE
  5
187
330
174
100
AcDbEntity
  8
0
  6
Continuous
 62
     7
370
    25
100
AcDbSpline
210
0.0
220
0.0
230
1.0
 70
     8
 71
     3
 72
    14
 73
    10
 74
     0
 42
0.000000001
 43
0.00000001
 40
0.0
 40
0.0
 40
0.0
 40
0.0
 40
0.25
 40
0.25
 40
0.5
 40
0.5
 40
0.75
 40
0.75
 40
1.0
 40
1.0
 40
1.0
 40
1.0
 10
244.0
 20
-176.5857864376265
 30
0.0
 10
244.1178511301977
 20
-176.5857864376265
 30
0.0
 10
244.244997759178
 20
-176.5643076988131
 30
0.0
 10
244.4911916599457
 20
-176.4668417785649
 30
0.0
 10
244.6094757082488
 20
-176.3905242917509
 30
0.0
 10
244.8047378541244
 20
-176.1952621458752
 30
0.0
 10
244.8810553409384
 20
-176.0769780975723
 30
0.0
 10
244.9785212611866
 20
-175.8307841968046
 30
0.0
 10
245.0
 20
-175.7036375678243
 30
0.0
 10
245.0
 20
-175.5857864376265
 30
0.0
  0
SPLINE
  5
188
330
174
100
AcDbEntity
  8
0
  6
Continuous
 62
     7
370
    25
100
AcDbSpline
210
0.0
220
0.0
230
1.0
 70
     8
 71
     3
 72
    14
 73
    10
 74
     0
 42
0.000000001
 43
0.00000001
 40
0.0
 40
0.0
 40
0.0
 40
0.0
 40
0.25
 40
0.25
 40
0.5
 40
0.5
 40
0.75
 40
0.75
 40
1.0
 40
1.0
 40
1.0
 40
1.0
 10
244.0
 20
180.0
 30
0.0
 10
244.1178511301977
 20
180.0
 30
0.0
 10
244.244997759178
 20
179.9785212611865
 30
0.0
 10
244.4911916599456
 20
179.8810553409383
 30
0.0
 10
244.6094757082487
 20
179.8047378541243
 30
0.0
 10
244.8047378541243
 20
179.6094757082487
 30
0.0
 10
244.8810553409384
 20
179.4911916599458
 30
0.0
 10
244.9785212611865
 20
179.244997759178
 30
0.0
 10
245.0
 20
179.1178511301978
 30
0.0
 10
245.0
 20
179.0
 30
0.0
  0
SPLINE
  5
190
330
174
100
AcDbEntity
  8
0
  6
Continuous
 62
     7
370
    25
100
AcDbSpline
210
0.0
220
0.0
230
1.0
 70
     8
 71
     3
 72
    14
 73
    10
 74
     0
 42
0.000000001
 43
0.00000001
 40
0.0
 40
0.0
 40
0.0
 40
0.0
 40
0.25
 40
0.25
 40
0.5
 40
0.5
 40
0.75
 40
0.75
 40
1.0
 40
1.0
 40
1.0
 40
1.0
 10
-245.0
 20
179.0
 30
0.0
 10
-245.0
 20
179.1178511301978
 30
0.0
 10
-244.9785212611866
 20
179.244997759178
 30
0.0
 10
-244.8810553409384
 20
179.4911916599458
 30
0.0
 10
-244.8047378541244
 20
179.6094757082487
 30
0.0
 10
-244.6094757082488
 20
179.8047378541243
 30
0.0
 10
-244.4911916599458
 20
179.8810553409383
 30
0.0
 10
-244.244997759178
 20
179.9785212611865
 30
0.0
 10
-244.1178511301977
 20
180.0
 30
0.0
 10
-244.0
 20
180.0
 30
0.0
  0
SPLINE
  5
192
330
174
100
AcDbEntity
  8
0
  6
Continuous
 62
     7
370
    25
100
AcDbSpline
210
0.0
220
0.0
230
1.0
 70
     8
 71
     3
 72
    14
 73
    10
 74
     0
 42
0.000000001
 43
0.00000001
 40
0.0
 40
0.0
 40
0.0
 40
0.0
 40
0.25
 40
0.25
 40
0.5
 40
0.5
 40
0.75
 40
0.75
 40
1.0
 40
1.0
 40
1.0
 40
1.0
 10
-245.0
 20
-175.5857864376265
 30
0.0
 10
-245.0
 20
-175.7036375678243
 30
0.0
 10
-244.9785212611866
 20
-175.8307841968046
 30
0.0
 10
-244.8810553409384
 20
-176.0769780975723
 30
0.0
 10
-244.8047378541244
 20
-176.1952621458752
 30
0.0
 10
-244.6094757082488
 20
-176.3905242917508
 30
0.0
 10
-244.4911916599458
 20
-176.4668417785649
 30
0.0
 10
-244.244997759178
 20
-176.564307698813
 30
0.0
 10
-244.1178511301977
 20
-176.5857864376265
 30
0.0
 10
-244.0
 20
-176.5857864376265
 30
0.0
  0
SPLINE
  5
199
330
174
100
AcDbEntity
  8
0
  6
Continuous
 62
     7
370
    25
100
AcDbSpline
210
0.0
220
0.0
230
1.0
 70
     8
 71
     3
 72
    20
 73
    16
 74
     0
 42
0.000000001
 43
0.00000001
 40
0.0
 40
0.0
 40
0.0
 40
0.0
 40
0.125000000000001
 40
0.125000000000001
 40
0.2500000000000021
 40
0.2500000000000021
 40
0.3750000000000031
 40
0.3750000000000031
 40
0.5000000000000041
 40
0.5000000000000041
 40
0.6250000000000051
 40
0.6250000000000051
 40
0.7500000000000062
 40
0.7500000000000062
 40
1.0
 40
1.0
 40
1.0
 40
1.0
 10
241.5857864376265
 20
-178.0
 30
0.0
 10
241.6627763986691
 20
-178.0
 30
0.0
 10
241.7459454187886
 20
-177.9910962706723
 30
0.0
 10
241.9184749826873
 20
-177.9472280870904
 30
0.0
 10
242.0078360737001
 20
-177.9120912224759
 30
0.0
 10
242.1803817010275
 20
-177.8102424119785
 30
0.0
 10
242.2633849460357
 20
-177.7433692326966
 30
0.0
 10
242.4068673535759
 20
-177.5810023099624
 30
0.0
 10
242.4670491543726
 20
-177.4855695269709
 30
0.0
 10
242.5522827859033
 20
-177.2797973377592
 30
0.0
 10
242.5772089944569
 20
-177.1697612103112
 30
0.0
 10
242.5905623632097
 20
-176.9534930748528
 30
0.0
 10
242.5791566843536
 20
-176.8475144388972
 30
0.0
 10
242.5041713864705
 20
-176.5564751873387
 30
0.0
 10
242.4017734658862
 20
-176.4017734658865
 30
0.0
 10
242.292893218813
 20
-176.2928932188134
 30
0.0
  0
SPLINE
  5
19A
330
174
100
AcDbEntity
  8
0
  6
Continuous
 62
     7
370
    25
100
AcDbSpline
210
0.0
220
0.0
230
1.0
 70
     8
 71
     3
 72
    20
 73
    16
 74
     0
 42
0.000000001
 43
0.00000001
 40
0.0
 40
0.0
 40
0.0
 40
0.0
 40
0.125000000000001
 40
0.125000000000001
 40
0.2500000000000021
 40
0.2500000000000021
 40
0.3750000000000031
 40
0.3750000000000031
 40
0.5000000000000041
 40
0.5000000000000041
 40
0.6250000000000051
 40
0.6250000000000051
 40
0.7500000000000062
 40
0.7500000000000062
 40
1.0
 40
1.0
 40
1.0
 40
1.0
 10
-241.5857864376265
 20
-178.0
 30
0.0
 10
-241.6627763986691
 20
-178.0
 30
0.0
 10
-241.7459454187885
 20
-177.9910962706723
 30
0.0
 10
-241.9184749826871
 20
-177.9472280870904
 30
0.0
 10
-242.0078360736999
 20
-177.9120912224759
 30
0.0
 10
-242.1803817010273
 20
-177.8102424119785
 30
0.0
 10
-242.2633849460354
 20
-177.7433692326966
 30
0.0
 10
-242.4068673535757
 20
-177.5810023099625
 30
0.0
 10
-242.4670491543722
 20
-177.4855695269709
 30
0.0
 10
-242.5522827859029
 20
-177.2797973377592
 30
0.0
 10
-242.5772089944566
 20
-177.1697612103112
 30
0.0
 10
-242.5905623632094
 20
-176.9534930748528
 30
0.0
 10
-242.5791566843533
 20
-176.8475144388972
 30
0.0
 10
-242.5041713864704
 20
-176.5564751873387
 30
0.0
 10
-242.401773465886
 20
-176.4017734658865
 30
0.0
 10
-242.292893218813
 20
-176.2928932188134
 30
0.0
  0
LINE
  5
1C1
330
174
100
AcDbEntity
  8
0
  6
Continuous
 62
     7
370
    25
100
AcDbLine
 10
-75.0
 20
135.0
 30
0.0
 11
-75.0
 21
117.0
 31
0.0
  0
LINE
  5
1C2
330
174
100
AcDbEntity
  8
0
  6
Continuous
 62
     7
370
    25
100
AcDbLine
 10
78.0
 20
135.0
 30
0.0
 11
-78.0
 21
135.0
 31
0.0
  0
LINE
  5
1C3
330
174
100
AcDbEntity
  8
0
  6
Continuous
 62
     7
370
    25
100
AcDbLine
 10
75.0
 20
117.0
 30
0.0
 11
75.0
 21
135.0
 31
0.0
  0
LINE
  5
1C4
330
174
100
AcDbEntity
  8
0
  6
Continuous
 62
     7
370
    25
100
AcDbLine
 10
-78.0
 20
117.0
 30
0.0
 11
78.0
 21
117.0
 31
0.0
  0
LINE
  5
1C5
330
174
100
AcDbEntity
  8
0
  6
Continuous
 62
     7
370
    25
100
AcDbLine
 10
-227.0
 20
-160.0
 30
0.0
 11
227.0
 21
-160.0
 31
0.0
  0
LINE
  5
1C6
330
174
100
AcDbEntity
  8
0
  6
Continuous
 62
     7
370
    25
100
AcDbLine
 10
-227.0
 20
180.0
 30
0.0
 11
-227.0
 21
-160.0
 31
0.0
  0
LINE
  5
1C7
330
174
100
AcDbEntity
  8
0
  6
Continuous
 62
     7
370
    25
100
AcDbLine
 10
-227.0
 20
-152.0
 30
0.0
 11
227.0
 21
-152.0
 31
0.0
  0
LINE
  5
1C8
330
174
100
AcDbEntity
  8
0
  6
Continuous
 62
     7
370
    25
100
AcDbLine
 10
227.0
 20
-160.0
 30
0.0
 11
227.0
 21
180.0
 31
0.0
  0
LINE
  5
1C9
330
174
100
AcDbEntity
  8
0
  6
Continuous
 62
     7
370
    25
100
AcDbLine
 10
-227.0
 20
-142.0
 30
0.0
 11
227.0
 21
-142.0
 31
0.0
  0
LINE
  5
1CA
330
174
100
AcDbEntity
  8
0
  6
Continuous
 62
     7
370
    25
100
AcDbLine
 10
244.0
 20
-176.5857864376
 30
0.0
 11
244.0
 21
180.0
 31
0.0
  0
LINE
  5
1CB
330
174
100
AcDbEntity
  8
0
  6
Continuous
 62
     7
370
    25
100
AcDbLine
 10
245.0
 20
179.0
 30
0.0
 11
245.0
 21
-175.5857864376
 31
0.0
  0
LINE
  5
1CC
330
174
100
AcDbEntity
  8
0
  6
Continuous
 62
     7
370
    25
100
AcDbLine
 10
-244.0
 20
180.0
 30
0.0
 11
244.0
 21
180.0
 31
0.0
  0
LINE
  5
1CD
330
174
100
AcDbEntity
  8
0
  6
Continuous
 62
     7
370
    25
100
AcDbLine
 10
227.0
 20
-160.0
 30
0.0
 11
243.2928932188
 21
-176.2928932188
 31
0.0
  0
LINE
  5
1CE
330
174
100
AcDbEntity
  8
0
  6
Continuous
 62
     7
370
    25
100
AcDbLine
 10
-227.0
 20
162.0
 30
0.0
 11
227.0
 21
162.0
 31
0.0
  0
LINE
  5
1CF
330
174
100
AcDbEntity
  8
0
  6
Continuous
 62
     7
370
    25
100
AcDbLine
 10
-245.0
 20
-175.5857864376
 30
0.0
 11
-245.0
 21
179.0
 31
0.0
  0
LINE
  5
1D0
330
174
100
AcDbEntity
  8
0
  6
Continuous
 62
     7
370
    25
100
AcDbLine
 10
-244.0
 20
180.0
 30
0.0
 11
-244.0
 21
-176.5857864376
 31
0.0
  0
LINE
  5
1D1
330
174
100
AcDbEntity
  8
0
  6
Continuous
 62
     7
370
    25
100
AcDbLine
 10
-243.2928932188
 20
-176.2928932188
 30
0.0
 11
-227.0
 21
-160.0
 31
0.0
  0
LINE
  5
1D2
330
174
100
AcDbEntity
  8
0
  6
Continuous
 62
     7
370
    25
100
AcDbLine
 10
241.5857864376
 20
-178.0
 30
0.0
 11
-241.5857864376
 21
-178.0
 31
0.0
  0
LINE
  5
1D3
330
174
100
AcDbEntity
  8
0
  6
Continuous
 62
     7
370
    25
100
AcDbLine
 10
-242.2928932188
 20
-176.2928932188
 30
0.0
 11
242.2928932188
 21
-176.2928932188
 31
0.0
  0
LINE
  5
1D4
330
174
100
AcDbEntity
  8
0
  6
Continuous
 62
     7
370
    25
100
AcDbLine
 10
226.0
 20
-160.0
 30
0.0
 11
242.2928932188
 21
-176.2928932188
 31
0.0
  0
LINE
  5
1D5
330
174
100
AcDbEntity
  8
0
  6
Continuous
 62
     7
370
    25
100
AcDbLine
 10
-226.0
 20
-160.0
 30
0.0
 11
-242.2928932188
 21
-176.2928932188
 31
0.0
  0
LINE
  5
1D6
330
174
100
AcDbEntity
  8
0
  6
Continuous
 62
     7
370
    25
100
AcDbLine
 10
-223.5
 20
135.0
 30
0.0
 11
-223.5
 21
-142.0
 31
0.0
  0
LINE
  5
1D7
330
174
100
AcDbEntity
  8
0
  6
Continuous
 62
     7
370
    25
100
AcDbLine
 10
-80.0
 20
135.0
 30
0.0
 11
-223.5
 21
135.0
 31
0.0
  0
LINE
  5
1D8
330
174
100
AcDbEntity
  8
0
  6
Continuous
 62
     7
370
    25
100
AcDbLine
 10
-205.5
 20
-142.0
 30
0.0
 11
-205.5
 21
135.0
 31
0.0
  0
LINE
  5
1D9
330
174
100
AcDbEntity
  8
0
  6
Continuous
 62
     7
370
    25
100
AcDbLine
 10
223.5
 20
135.0
 30
0.0
 11
80.0
 21
135.0
 31
0.0
  0
LINE
  5
1DA
330
174
100
AcDbEntity
  8
0
  6
Continuous
 62
     7
370
    25
100
AcDbLine
 10
223.5
 20
-142.0
 30
0.0
 11
223.5
 21
135.0
 31
0.0
  0
LINE
  5
1DB
330
174
100
AcDbEntity
  8
0
  6
Continuous
 62
     7
370
    25
100
AcDbLine
 10
205.5
 20
135.0
 30
0.0
 11
205.5
 21
-142.0
 31
0.0
  0
LINE
  5
1DC
330
174
100
AcDbEntity
  8
0
  6
Continuous
 62
     7
370
    25
100
AcDbLine
 10
80.0
 20
117.0
 30
0.0
 11
205.5
 21
117.0
 31
0.0
  0
LINE
  5
1DD
330
174
100
AcDbEntity
  8
0
  6
Continuous
 62
     7
370
    25
100
AcDbLine
 10
80.0
 20
135.0
 30
0.0
 11
80.0
 21
117.0
 31
0.0
  0
LINE
  5
1DE
330
174
100
AcDbEntity
  8
0
  6
Continuous
 62
     7
370
    25
100
AcDbLine
 10
-80.0
 20
117.0
 30
0.0
 11
-80.0
 21
135.0
 31
0.0
  0
LINE
  5
1DF
330
174
100
AcDbEntity
  8
0
  6
Continuous
 62
     7
370
    25
100
AcDbLine
 10
-205.5
 20
117.0
 30
0.0
 11
-80.0
 21
117.0
 31
0.0
  0
LINE
  5
1E0
330
174
100
AcDbEntity
  8
0
  6
Continuous
 62
     7
370
    25
100
AcDbLine
 10
10.0
 20
-40.0
 30
0.0
 11
-10.0
 21
-40.0
 31
0.0
  0
LINE
  5
1E1
330
174
100
AcDbEntity
  8
0
  6
Continuous
 62
     7
370
    25
100
AcDbLine
 10
-98.0
 20
135.0
 30
0.0
 11
-98.0
 21
137.0
 31
0.0
  0
LINE
  5
1E2
330
174
100
AcDbEntity
  8
0
  6
Continuous
 62
     7
370
    25
100
AcDbLine
 10
-80.0
 20
30.0
 30
0.0
 11
-80.0
 21
115.0
 31
0.0
  0
LINE
  5
1E3
330
174
100
AcDbEntity
  8
0
  6
Continuous
 62
     7
370
    25
100
AcDbLine
 10
80.0
 20
115.0
 30
0.0
 11
100.0
 21
115.0
 31
0.0
  0
LINE
  5
1E4
330
174
100
AcDbEntity
  8
0
  6
Continuous
 62
     7
370
    25
100
AcDbLine
 10
100.0
 20
117.0
 30
0.0
 11
100.0
 21
115.0
 31
0.0
  0
LINE
  5
1E5
330
174
100
AcDbEntity
  8
0
  6
Continuous
 62
     7
370
    25
100
AcDbLine
 10
-100.0
 20
117.0
 30
0.0
 11
-100.0
 21
115.0
 31
0.0
  0
LINE
  5
1E6
330
174
100
AcDbEntity
  8
0
  6
Continuous
 62
     7
370
    25
100
AcDbLine
 10
78.0
 20
137.0
 30
0.0
 11
78.0
 21
30.0
 31
0.0
  0
LINE
  5
1E7
330
174
100
AcDbEntity
  8
0
  6
Continuous
 62
     7
370
    25
100
AcDbLine
 10
-80.0
 20
115.0
 30
0.0
 11
-100.0
 21
115.0
 31
0.0
  0
LINE
  5
1E8
330
174
100
AcDbEntity
  8
0
  6
Continuous
 62
     7
370
    25
100
AcDbLine
 10
10.0
 20
-38.0
 30
0.0
 11
-10.0
 21
-38.0
 31
0.0
  0
LINE
  5
1E9
330
174
100
AcDbEntity
  8
0
  6
Continuous
 62
     7
370
    25
100
AcDbLine
 10
-78.0
 20
30.0
 30
0.0
 11
-78.0
 21
137.0
 31
0.0
  0
LINE
  5
1EA
330
174
100
AcDbEntity
  8
0
  6
Continuous
 62
     7
370
    25
100
AcDbLine
 10
78.0
 20
137.0
 30
0.0
 11
98.0
 21
137.0
 31
0.0
  0
LINE
  5
1EB
330
174
100
AcDbEntity
  8
0
  6
Continuous
 62
     7
370
    25
100
AcDbLine
 10
80.0
 20
115.0
 30
0.0
 11
80.0
 21
30.0
 31
0.0
  0
LINE
  5
1EC
330
174
100
AcDbEntity
  8
0
  6
Continuous
 62
     7
370
    25
100
AcDbLine
 10
-78.0
 20
137.0
 30
0.0
 11
-98.0
 21
137.0
 31
0.0
  0
LINE
  5
1ED
330
174
100
AcDbEntity
  8
0
  6
Continuous
 62
     7
370
    25
100
AcDbLine
 10
98.0
 20
135.0
 30
0.0
 11
98.0
 21
137.0
 31
0.0
  0
ARC
  5
1EE
330
174
100
AcDbEntity
  8
0
  6
Continuous
 62
     7
370
    25
100
AcDbCircle
 10
244.0
 20
-175.5857864376
 30
0.0
 40
1.000000000000881
100
AcDbArc
 50
225.0
 51
270.0
  0
ARC
  5
1EF
330
174
100
AcDbEntity
  8
0
  6
Continuous
 62
     7
370
    25
100
AcDbCircle
 10
-244.0
 20
-175.5857864376
 30
0.0
 40
0.9999999999994031
100
AcDbArc
 50
270.0
 51
315.0
  0
ARC
  5
1F0
330
174
100
AcDbEntity
  8
0
  6
Continuous
 62
     7
370
    25
100
AcDbCircle
 10
-10.0
 20
30.0
 30
0.0
 40
70.00000000000006
100
AcDbArc
 50
180.0
 51
270.0
  0
ARC
  5
1F1
330
174
100
AcDbEntity
  8
0
  6
Continuous
 62
     7
370
    25
100
AcDbCircle
 10
10.0
 20
30.0
 30
0.0
 40
68.0
100
AcDbArc
 50
270.0
 51
0.0
  0
ARC
  5
1F2
330
174
100
AcDbEntity
  8
0
  6
Continuous
 62
     7
370
    25
100
AcDbCircle
 10
-10.0
 20
30.0
 30
0.0
 40
68.00000000000003
100
AcDbArc
 50
180.0
 51
270.0
  0
ARC
  5
1F3
330
174
100
AcDbEntity
  8
0
  6
Continuous
 62
     7
370
    25
100
AcDbCircle
 10
10.0
 20
30.0
 30
0.0
 40
70.00000000000006
100
AcDbArc
 50
270.0
 51
0.0
  0
VIEWPORT
  5
1F8
330
174
100
AcDbEntity
  8
0
100
AcDbViewport
 10
0.0
 20
0.0
 30
0.0
 40
205.6
 41
156.0
 68
     1
 69
     1
 12
0.0
 22
265.0
 13
0.0
 23
0.0
 14
10.0
 24
10.0
 15
10.0
 25
10.0
 16
0.0
 26
0.0
 36
1.0
 17
0.0
 27
0.0
 37
0.0
 42
50.0
 43
0.0
 44
0.0
 45
540.6
 50
0.0
 51
0.0
 72
   100
 90
   557152
  1

281
     0
 71
     1
 74
     0
110
0.0
120
0.0
130
0.0
111
1.0
121
0.0
131
0.0
112
0.0
122
1.0
132
0.0
 79
     0
146
0.0
  0
ENDBLK
  5
177
330
174
100
AcDbEntity
  8
0
100
AcDbBlockEnd
  0
ENDSEC
  0
SECTION
  2
ENTITIES
  0
SPLINE
  5
7F
330
1F
100
AcDbEntity
  8
0
  6
Continuous
 62
     7
370
    25
100
AcDbSpline
210
0.0
220
0.0
230
1.0
 70
    24
 71
     3
 72
    12
 73
     8
 74
     0
 42
0.000000001
 43
0.00000001
 40
0.0
 40
0.0
 40
0.0
 40
0.0
 40
0.385559363318135
 40
0.5933998576703672
 40
0.7897678058926524
 40
0.9676437637285877
 40
1.0
 40
1.0
 40
1.0
 40
1.0
 10
241.5857864376265
 20
219.1715728752536
 30
0.0
 10
241.7596820890286
 20
219.3454685266557
 30
0.0
 10
242.0273183199411
 20
219.6131047575681
 30
0.0
 10
242.3413882640891
 20
219.9271747017161
 30
0.0
 10
242.5139107922517
 20
220.0996972298787
 30
0.0
 10
242.5960425817562
 20
220.1818290193831
 30
0.0
 10
242.5804658136107
 20
220.1662522512377
 30
0.0
 10
242.5780684377349
 20
220.1638548753619
 30
0.0
  0
SPLINE
  5
82
330
1F
100
AcDbEntity
  8
0
  6
Continuous
 62
     7
370
    25
100
AcDbSpline
210
0.0
220
0.0
230
1.0
 70
    24
 71
     3
 72
    12
 73
     8
 74
     0
 42
0.000000001
 43
0.00000001
 40
0.0
 40
0.0
 40
0.0
 40
0.0
 40
0.3855593633180999
 40
0.5933998576703302
 40
0.7897678058926253
 40
0.9676437637285852
 40
0.9999999999999999
 40
0.9999999999999999
 40
0.9999999999999999
 40
0.9999999999999999
 10
-241.5857864376265
 20
219.1715728752536
 30
0.0
 10
-241.7596820890285
 20
219.3454685266557
 30
0.0
 10
-242.0273183199408
 20
219.6131047575682
 30
0.0
 10
-242.3413882640889
 20
219.9271747017161
 30
0.0
 10
-242.5139107922514
 20
220.0996972298787
 30
0.0
 10
-242.5960425817557
 20
220.1818290193831
 30
0.0
 10
-242.5804658136103
 20
220.1662522512377
 30
0.0
 10
-242.5780684377346
 20
220.1638548753619
 30
0.0
  0
SPLINE
  5
8C
330
1F
100
AcDbEntity
  8
0
  6
Continuous
 62
     7
370
    25
100
AcDbSpline
210
0.0
220
0.0
230
1.0
 70
     8
 71
     3
 72
    14
 73
    10
 74
     0
 42
0.000000001
 43
0.00000001
 40
0.0
 40
0.0
 40
0.0
 40
0.0
 40
0.25
 40
0.25
 40
0.5
 40
0.5
 40
0.75
 40
0.75
 40
1.0
 40
1.0
 40
1.0
 40
1.0
 10
244.0
 20
530.0
 30
0.0
 10
244.1178511301977
 20
529.9999999999999
 30
0.0
 10
244.244997759178
 20
529.9785212611866
 30
0.0
 10
244.4911916599457
 20
529.8810553409382
 30
0.0
 10
244.6094757082488
 20
529.8047378541245
 30
0.0
 10
244.8047378541244
 20
529.6094757082485
 30
0.0
 10
244.8810553409384
 20
529.4911916599457
 30
0.0
 10
244.9785212611866
 20
529.2449977591782
 30
0.0
 10
245.0
 20
529.1178511301977
 30
0.0
 10
245.0
 20
529.0
 30
0.0
  0
SPLINE
  5
8D
330
1F
100
AcDbEntity
  8
0
  6
Continuous
 62
     7
370
    25
100
AcDbSpline
210
0.0
220
0.0
230
1.0
 70
     8
 71
     3
 72
    14
 73
    10
 74
     0
 42
0.000000001
 43
0.00000001
 40
0.0
 40
0.0
 40
0.0
 40
0.0
 40
0.25
 40
0.25
 40
0.5
 40
0.5
 40
0.75
 40
0.75
 40
1.0
 40
1.0
 40
1.0
 40
1.0
 10
245.0
 20
1.000000000000001
 30
0.0
 10
245.0
 20
0.8821488698022573
 30
0.0
 10
244.9785212611866
 20
0.7550022408220336
 30
0.0
 10
244.8810553409384
 20
0.5088083400542343
 30
0.0
 10
244.8047378541244
 20
0.390524291751293
 30
0.0
 10
244.6094757082488
 20
0.1952621458756187
 30
0.0
 10
244.4911916599458
 20
0.1189446590616483
 30
0.0
 10
244.244997759178
 20
0.0214787388134741
 30
0.0
 10
244.1178511301977
 20
0.0
 30
0.0
 10
244.0
 20
0.0
 30
0.0
  0
SPLINE
  5
99
330
1F
100
AcDbEntity
  8
0
  6
Continuous
 62
     7
370
    25
100
AcDbSpline
210
0.0
220
0.0
230
1.0
 70
     8
 71
     3
 72
    14
 73
    10
 74
     0
 42
0.000000001
 43
0.00000001
 40
0.0
 40
0.0
 40
0.0
 40
0.0
 40
0.25
 40
0.25
 40
0.5
 40
0.5
 40
0.75
 40
0.75
 40
1.0
 40
1.0
 40
1.0
 40
1.0
 10
-245.0
 20
529.0
 30
0.0
 10
-245.0
 20
529.1178511301976
 30
0.0
 10
-244.9785212611866
 20
529.2449977591782
 30
0.0
 10
-244.8810553409384
 20
529.4911916599456
 30
0.0
 10
-244.8047378541244
 20
529.6094757082486
 30
0.0
 10
-244.6094757082488
 20
529.8047378541243
 30
0.0
 10
-244.4911916599458
 20
529.8810553409384
 30
0.0
 10
-244.244997759178
 20
529.9785212611865
 30
0.0
 10
-244.1178511301977
 20
530.0000000000001
 30
0.0
 10
-244.0
 20
530.0
 30
0.0
  0
SPLINE
  5
9A
330
1F
100
AcDbEntity
  8
0
  6
Continuous
 62
     7
370
    25
100
AcDbSpline
210
0.0
220
0.0
230
1.0
 70
     8
 71
     3
 72
    14
 73
    10
 74
     0
 42
0.000000001
 43
0.00000001
 40
0.0
 40
0.0
 40
0.0
 40
0.0
 40
0.25
 40
0.25
 40
0.5
 40
0.5
 40
0.75
 40
0.75
 40
1.0
 40
1.0
 40
1.0
 40
1.0
 10
-244.0
 20
0.0
 30
0.0
 10
-244.1178511301977
 20
0.0
 30
0.0
 10
-244.244997759178
 20
0.0214787388134741
 30
0.0
 10
-244.4911916599456
 20
0.1189446590616483
 30
0.0
 10
-244.6094757082487
 20
0.1952621458756187
 30
0.0
 10
-244.8047378541243
 20
0.390524291751293
 30
0.0
 10
-244.8810553409384
 20
0.5088083400542343
 30
0.0
 10
-244.9785212611865
 20
0.7550022408220336
 30
0.0
 10
-245.0
 20
0.8821488698022573
 30
0.0
 10
-245.0
 20
1.000000000000001
 30
0.0
  0
SPLINE
  5
9F
330
1F
100
AcDbEntity
  8
0
  6
Continuous
 62
     7
370
    25
100
AcDbSpline
210
0.0
220
0.0
230
1.0
 70
    24
 71
     3
 72
    12
 73
     8
 74
     0
 42
0.000000001
 43
0.00000001
 40
0.0
 40
0.0
 40
0.0
 40
0.0
 40
0.385559363318132
 40
0.5933998576703716
 40
0.7897678058926622
 40
0.9676437637285865
 40
1.0
 40
1.0
 40
1.0
 40
1.0
 10
241.5857864376265
 20
483.9999999999995
 30
0.0
 10
241.7596820890286
 20
484.1738956514016
 30
0.0
 10
242.0273183199411
 20
484.4415318823141
 30
0.0
 10
242.341388264089
 20
484.7556018264621
 30
0.0
 10
242.5139107922518
 20
484.9281243546247
 30
0.0
 10
242.596042581756
 20
485.0102561441291
 30
0.0
 10
242.5804658136107
 20
484.9946793759836
 30
0.0
 10
242.5780684377349
 20
484.9922820001079
 30
0.0
  0
SPLINE
  5
A2
330
1F
100
AcDbEntity
  8
0
  6
Continuous
 62
     7
370
    25
100
AcDbSpline
210
0.0
220
0.0
230
1.0
 70
    24
 71
     3
 72
    12
 73
     8
 74
     0
 42
0.000000001
 43
0.00000001
 40
0.0
 40
0.0
 40
0.0
 40
0.0
 40
0.3855593633181047
 40
0.5933998576703465
 40
0.7897678058926509
 40
0.9676437637286034
 40
1.0
 40
1.0
 40
1.0
 40
1.0
 10
-241.5857864376265
 20
483.9999999999995
 30
0.0
 10
-241.7596820890285
 20
484.1738956514016
 30
0.0
 10
-242.0273183199409
 20
484.4415318823141
 30
0.0
 10
-242.3413882640887
 20
484.7556018264621
 30
0.0
 10
-242.5139107922515
 20
484.9281243546249
 30
0.0
 10
-242.5960425817555
 20
485.0102561441287
 30
0.0
 10
-242.5804658136104
 20
484.9946793759836
 30
0.0
 10
-242.5780684377347
 20
484.9922820001079
 30
0.0
  0
LINE
  5
AD
330
1F
100
AcDbEntity
  8
0
  6
Continuous
 62
     7
370
    25
100
AcDbLine
 10
242.5857864376
 20
1.0
 30
0.0
 11
242.5857864376
 21
220.1638548754
 31
0.0
  0
LINE
  5
AE
330
1F
100
AcDbEntity
  8
0
  6
Continuous
 62
     7
370
    25
100
AcDbLine
 10
242.5780684377
 20
220.1715728753
 30
0.0
 11
-242.5780684377
 21
220.1715728753
 31
0.0
  0
LINE
  5
AF
330
1F
100
AcDbEntity
  8
0
  6
Continuous
 62
     7
370
    25
100
AcDbLine
 10
-242.5857864376
 20
220.1638548754
 30
0.0
 11
-242.5857864376
 21
1.0
 31
0.0
  0
LINE
  5
B0
330
1F
100
AcDbEntity
  8
0
  6
Continuous
 62
     7
370
    25
100
AcDbLine
 10
242.5857864376
 20
265.8284271247
 30
0.0
 11
242.5857864376
 21
484.9922820001
 31
0.0
  0
LINE
  5
B1
330
1F
100
AcDbEntity
  8
0
  6
Continuous
 62
     7
370
    25
100
AcDbLine
 10
242.5780684377
 20
485.0
 30
0.0
 11
-242.5780684377
 21
485.0
 31
0.0
  0
LINE
  5
B2
330
1F
100
AcDbEntity
  8
0
  6
Continuous
 62
     7
370
    25
100
AcDbLine
 10
-242.5857864376
 20
484.9922820001
 30
0.0
 11
-242.5857864376
 21
265.8284271247
 31
0.0
  0
LINE
  5
B3
330
1F
100
AcDbEntity
  8
0
  6
Continuous
 62
     7
370
    25
100
AcDbLine
 10
-241.5857864376
 20
264.8284271247
 30
0.0
 11
241.5857864376
 21
264.8284271247
 31
0.0
  0
LINE
  5
B4
330
1F
100
AcDbEntity
  8
0
  6
Continuous
 62
     7
370
    25
100
AcDbLine
 10
241.5857864376
 20
0.0
 30
0.0
 11
241.5857864376
 21
219.1715728753
 31
0.0
  0
LINE
  5
B5
330
1F
100
AcDbEntity
  8
0
  6
Continuous
 62
     7
370
    25
100
AcDbLine
 10
241.5857864376
 20
219.1715728753
 30
0.0
 11
-241.5857864376
 21
219.1715728753
 31
0.0
  0
LINE
  5
B6
330
1F
100
AcDbEntity
  8
0
  6
Continuous
 62
     7
370
    25
100
AcDbLine
 10
-242.5857864376
 20
1.0
 30
0.0
 11
242.5857864376
 21
1.0
 31
0.0
  0
LINE
  5
B7
330
1F
100
AcDbEntity
  8
0
  6
Continuous
 62
     7
370
    25
100
AcDbLine
 10
-241.5857864376
 20
219.1715728753
 30
0.0
 11
-241.5857864376
 21
0.0
 31
0.0
  0
LINE
  5
B8
330
1F
100
AcDbEntity
  8
0
  6
Continuous
 62
     7
370
    25
100
AcDbLine
 10
227.0
 20
485.0
 30
0.0
 11
227.0
 21
530.0
 31
0.0
  0
LINE
  5
B9
330
1F
100
AcDbEntity
  8
0
  6
Continuous
 62
     7
370
    25
100
AcDbLine
 10
-227.0
 20
530.0
 30
0.0
 11
-227.0
 21
485.0
 31
0.0
  0
LINE
  5
BA
330
1F
100
AcDbEntity
  8
0
  6
Continuous
 62
     7
370
    25
100
AcDbLine
 10
-227.0
 20
264.8284271247
 30
0.0
 11
-227.0
 21
220.1715728753
 31
0.0
  0
LINE
  5
BB
330
1F
100
AcDbEntity
  8
0
  6
Continuous
 62
     7
370
    25
100
AcDbLine
 10
227.0
 20
220.1715728753
 30
0.0
 11
227.0
 21
264.8284271247
 31
0.0
  0
LINE
  5
BC
330
1F
100
AcDbEntity
  8
0
  6
Continuous
 62
     7
370
    25
100
AcDbLine
 10
245.0
 20
529.0
 30
0.0
 11
245.0
 21
1.0
 31
0.0
  0
LINE
  5
BD
330
1F
100
AcDbEntity
  8
0
  6
Continuous
 62
     7
370
    25
100
AcDbLine
 10
244.0
 20
0.0
 30
0.0
 11
244.0
 21
530.0
 31
0.0
  0
LINE
  5
BE
330
1F
100
AcDbEntity
  8
0
  6
Continuous
 62
     7
370
    25
100
AcDbLine
 10
243.2928932188
 20
0.0
 30
0.0
 11
243.2928932188
 21
530.0
 31
0.0
  0
LINE
  5
BF
330
1F
100
AcDbEntity
  8
0
  6
Continuous
 62
     7
370
    25
100
AcDbLine
 10
-244.0
 20
0.0
 30
0.0
 11
244.0
 21
0.0
 31
0.0
  0
LINE
  5
C0
330
1F
100
AcDbEntity
  8
0
  6
Continuous
 62
     7
370
    25
100
AcDbLine
 10
-245.0
 20
1.0
 30
0.0
 11
-245.0
 21
529.0
 31
0.0
  0
LINE
  5
C1
330
1F
100
AcDbEntity
  8
0
  6
Continuous
 62
     7
370
    25
100
AcDbLine
 10
-244.0
 20
530.0
 30
0.0
 11
244.0
 21
530.0
 31
0.0
  0
LINE
  5
C2
330
1F
100
AcDbEntity
  8
0
  6
Continuous
 62
     7
370
    25
100
AcDbLine
 10
-243.2928932188
 20
530.0
 30
0.0
 11
-243.2928932188
 21
0.0
 31
0.0
  0
LINE
  5
C3
330
1F
100
AcDbEntity
  8
0
  6
Continuous
 62
     7
370
    25
100
AcDbLine
 10
241.5857864376
 20
264.8284271247
 30
0.0
 11
241.5857864376
 21
484.0
 31
0.0
  0
LINE
  5
C4
330
1F
100
AcDbEntity
  8
0
  6
Continuous
 62
     7
370
    25
100
AcDbLine
 10
241.5857864376
 20
484.0
 30
0.0
 11
-241.5857864376
 21
484.0
 31
0.0
  0
LINE
  5
C5
330
1F
100
AcDbEntity
  8
0
  6
Continuous
 62
     7
370
    25
100
AcDbLine
 10
-241.5857864376
 20
484.0
 30
0.0
 11
-241.5857864376
 21
264.8284271247
 31
0.0
  0
LINE
  5
C6
330
1F
100
AcDbEntity
  8
0
  6
Continuous
 62
     7
370
    25
100
AcDbLine
 10
-242.5857864376
 20
265.8284271247
 30
0.0
 11
242.5857864376
 21
265.8284271247
 31
0.0
  0
ARC
  5
C7
330
1F
100
AcDbEntity
  8
0
  6
Continuous
 62
     7
370
    25
100
AcDbCircle
 10
241.5857864376
 20
1.0
 30
0.0
 40
1.000000000000064
100
AcDbArc
 50
270.0
 51
360.0
  0
ARC
  5
C8
330
1F
100
AcDbEntity
  8
0
  6
Continuous
 62
     7
370
    25
100
AcDbCircle
 10
-241.5857864376
 20
1.0
 30
0.0
 40
1.000000000000035
100
AcDbArc
 50
180.0
 51
270.0
  0
ARC
  5
C9
330
1F
100
AcDbEntity
  8
0
  6
Continuous
 62
     7
370
    25
100
AcDbCircle
 10
-241.5857864376
 20
265.8284271247
 30
0.0
 40
1.0
100
AcDbArc
 50
180.0
 51
270.0
  0
ARC
  5
CA
330
1F
100
AcDbEntity
  8
0
  6
Continuous
 62
     7
370
    25
100
AcDbCircle
 10
241.5857864376
 20
265.8284271247
 30
0.0
 40
1.0
100
AcDbArc
 50
270.0
 51
0.0
  0
LWPOLYLINE
  5
D5
330
1B
100
AcDbEntity
 67
     1
  8
0
  6
Continuous
 62
     7
370
    25
100
AcDbPolyline
 90
        3
 70
   128
 43
0.0
 10
-75.0
 20
124.5857864376
 10
-74.8173037695
 20
119.3540509068
 10
-74.7102899004
 20
118.0
  0
LWPOLYLINE
  5
D6
330
1B
100
AcDbEntity
 67
     1
  8
0
  6
Continuous
 62
     7
370
    25
100
AcDbPolyline
 90
        3
 70
   128
 43
0.0
 10
74.7102899004
 20
118.0
 10
74.8173037695
 20
119.3540509068
 10
75.0
 20
124.5857864376
  0
SPLINE
  5
E7
330
1B
100
AcDbEntity
 67
     1
  8
0
  6
Continuous
 62
     7
370
    25
100
AcDbSpline
210
0.0
220
0.0
230
1.0
 70
     8
 71
     3
 72
    14
 73
    10
 74
     0
 42
0.000000001
 43
0.00000001
 40
0.0
 40
0.0
 40
0.0
 40
0.0
 40
0.25
 40
0.25
 40
0.5
 40
0.5
 40
0.75
 40
0.75
 40
1.0
 40
1.0
 40
1.0
 40
1.0
 10
-244.0
 20
530.0
 30
0.0
 10
-244.1178511301977
 20
530.0
 30
0.0
 10
-244.244997759178
 20
529.9785212611865
 30
0.0
 10
-244.4911916599456
 20
529.8810553409384
 30
0.0
 10
-244.6094757082487
 20
529.8047378541245
 30
0.0
 10
-244.8047378541243
 20
529.6094757082486
 30
0.0
 10
-244.8810553409384
 20
529.4911916599458
 30
0.0
 10
-244.9785212611865
 20
529.2449977591779
 30
0.0
 10
-245.0
 20
529.1178511301977
 30
0.0
 10
-245.0
 20
529.0
 30
0.0
  0
SPLINE
  5
E8
330
1B
100
AcDbEntity
 67
     1
  8
0
  6
Continuous
 62
     7
370
    25
100
AcDbSpline
210
0.0
220
0.0
230
1.0
 70
     8
 71
     3
 72
    14
 73
    10
 74
     0
 42
0.000000001
 43
0.00000001
 40
0.0
 40
0.0
 40
0.0
 40
0.0
 40
0.25
 40
0.25
 40
0.5
 40
0.5
 40
0.75
 40
0.75
 40
1.0
 40
1.0
 40
1.0
 40
1.0
 10
-245.0
 20
1.000000000000001
 30
0.0
 10
-245.0
 20
0.8821488698022573
 30
0.0
 10
-244.9785212611866
 20
0.7550022408220336
 30
0.0
 10
-244.8810553409384
 20
0.5088083400542343
 30
0.0
 10
-244.8047378541244
 20
0.390524291751293
 30
0.0
 10
-244.6094757082487
 20
0.1952621458756187
 30
0.0
 10
-244.4911916599458
 20
0.1189446590616483
 30
0.0
 10
-244.2449977591779
 20
0.0214787388134741
 30
0.0
 10
-244.1178511301977
 20
0.0
 30
0.0
 10
-244.0
 20
0.0
 30
0.0
  0
SPLINE
  5
EF
330
1B
100
AcDbEntity
 67
     1
  8
0
  6
Continuous
 62
     7
370
    25
100
AcDbSpline
210
0.0
220
0.0
230
1.0
 70
     8
 71
     3
 72
    14
 73
    10
 74
     0
 42
0.000000001
 43
0.00000001
 40
0.0
 40
0.0
 40
0.0
 40
0.0
 40
0.25
 40
0.25
 40
0.5
 40
0.5
 40
0.75
 40
0.75
 40
1.0
 40
1.0
 40
1.0
 40
1.0
 10
244.0
 20
0.0
 30
0.0
 10
244.1178511301977
 20
0.0
 30
0.0
 10
244.244997759178
 20
0.0214787388134741
 30
0.0
 10
244.4911916599457
 20
0.1189446590616483
 30
0.0
 10
244.6094757082487
 20
0.1952621458756187
 30
0.0
 10
244.8047378541244
 20
0.390524291751293
 30
0.0
 10
244.8810553409384
 20
0.5088083400542343
 30
0.0
 10
244.9785212611866
 20
0.7550022408220336
 30
0.0
 10
245.0
 20
0.8821488698022573
 30
0.0
 10
245.0
 20
1.000000000000001
 30
0.0
  0
SPLINE
  5
F0
330
1B
100
AcDbEntity
 67
     1
  8
0
  6
Continuous
 62
     7
370
    25
100
AcDbSpline
210
0.0
220
0.0
230
1.0
 70
     8
 71
     3
 72
    14
 73
    10
 74
     0
 42
0.000000001
 43
0.00000001
 40
0.0
 40
0.0
 40
0.0
 40
0.0
 40
0.25
 40
0.25
 40
0.5
 40
0.5
 40
0.75
 40
0.75
 40
1.0
 40
1.0
 40
1.0
 40
1.0
 10
245.0
 20
529.0
 30
0.0
 10
245.0
 20
529.1178511301976
 30
0.0
 10
244.9785212611866
 20
529.2449977591782
 30
0.0
 10
244.8810553409384
 20
529.4911916599456
 30
0.0
 10
244.8047378541244
 20
529.6094757082486
 30
0.0
 10
244.6094757082488
 20
529.8047378541243
 30
0.0
 10
244.4911916599458
 20
529.8810553409384
 30
0.0
 10
244.244997759178
 20
529.9785212611865
 30
0.0
 10
244.1178511301977
 20
530.0000000000001
 30
0.0
 10
244.0
 20
530.0
 30
0.0
  0
SPLINE
  5
F4
330
1B
100
AcDbEntity
 67
     1
  8
0
  6
Continuous
 62
     7
370
    25
100
AcDbSpline
210
0.0
220
0.0
230
1.0
 70
     8
 71
     3
 72
    10
 73
     6
 74
     0
 42
0.000000001
 43
0.00000001
 40
0.0
 40
0.0
 40
0.0
 40
0.0
 40
0.5
 40
0.5
 40
1.0
 40
1.0
 40
1.0
 40
1.0
 10
-226.0
 20
282.1213203435597
 30
0.0
 10
-225.9999999999999
 20
281.9171961983278
 30
0.0
 10
-225.9368437696727
 20
281.729994714009
 30
0.0
 10
-225.6842188483641
 20
281.4773697927002
 30
0.0
 10
-225.4970173640453
 20
281.414213562373
 30
0.0
 10
-225.2928932188135
 20
281.4142135623729
 30
0.0
  0
SPLINE
  5
F7
330
1B
100
AcDbEntity
 67
     1
  8
0
  6
Continuous
 62
     7
370
    25
100
AcDbSpline
210
0.0
220
0.0
230
1.0
 70
     8
 71
     3
 72
    10
 73
     6
 74
     0
 42
0.000000001
 43
0.00000001
 40
0.0
 40
0.0
 40
0.0
 40
0.0
 40
0.5
 40
0.5
 40
1.0
 40
1.0
 40
1.0
 40
1.0
 10
225.292893218813
 20
281.4142135623729
 30
0.0
 10
225.497017364045
 20
281.4142135623731
 30
0.0
 10
225.6842188483638
 20
281.4773697927002
 30
0.0
 10
225.9368437696726
 20
281.7299947140089
 30
0.0
 10
225.9999999999999
 20
281.9171961983278
 30
0.0
 10
226.0
 20
282.1213203435597
 30
0.0
  0
LINE
  5
121
330
1B
100
AcDbEntity
 67
     1
  8
0
  6
Continuous
 62
     7
370
    25
100
AcDbLine
 10
-226.0
 20
190.0
 30
0.0
 11
-226.0
 21
118.0
 31
0.0
  0
LINE
  5
122
330
1B
100
AcDbEntity
 67
     1
  8
0
  6
Continuous
 62
     7
370
    25
100
AcDbLine
 10
226.0
 20
118.0
 30
0.0
 11
226.0
 21
190.0
 31
0.0
  0
LINE
  5
123
330
1B
100
AcDbEntity
 67
     1
  8
0
  6
Continuous
 62
     7
370
    25
100
AcDbLine
 10
205.5
 20
118.0
 30
0.0
 11
205.5
 21
133.5857864376
 31
0.0
  0
LINE
  5
124
330
1B
100
AcDbEntity
 67
     1
  8
0
  6
Continuous
 62
     7
370
    25
100
AcDbLine
 10
205.5
 20
133.5857864376
 30
0.0
 11
223.5
 21
133.5857864376
 31
0.0
  0
LINE
  5
125
330
1B
100
AcDbEntity
 67
     1
  8
0
  6
Continuous
 62
     7
370
    25
100
AcDbLine
 10
223.5
 20
118.0
 30
0.0
 11
223.5
 21
133.5857864376
 31
0.0
  0
LINE
  5
126
330
1B
100
AcDbEntity
 67
     1
  8
0
  6
Continuous
 62
     7
370
    25
100
AcDbLine
 10
-223.5
 20
118.0
 30
0.0
 11
-223.5
 21
133.5857864376
 31
0.0
  0
LINE
  5
127
330
1B
100
AcDbEntity
 67
     1
  8
0
  6
Continuous
 62
     7
370
    25
100
AcDbLine
 10
-223.5
 20
133.5857864376
 30
0.0
 11
-205.5
 21
133.5857864376
 31
0.0
  0
LINE
  5
128
330
1B
100
AcDbEntity
 67
     1
  8
0
  6
Continuous
 62
     7
370
    25
100
AcDbLine
 10
-205.5
 20
118.0
 30
0.0
 11
-205.5
 21
133.5857864376
 31
0.0
  0
LINE
  5
129
330
1B
100
AcDbEntity
 67
     1
  8
0
  6
Continuous
 62
     7
370
    25
100
AcDbLine
 10
75.0
 20
124.5857864376
 30
0.0
 11
205.5
 21
124.5857864376
 31
0.0
  0
LINE
  5
12A
330
1B
100
AcDbEntity
 67
     1
  8
0
  6
Continuous
 62
     7
370
    25
100
AcDbLine
 10
-205.5
 20
124.5857864376
 30
0.0
 11
-75.0
 21
124.5857864376
 31
0.0
  0
LINE
  5
12B
330
1B
100
AcDbEntity
 67
     1
  8
0
  6
Continuous
 62
     7
370
    25
100
AcDbLine
 10
227.0
 20
490.0
 30
0.0
 11
-227.0
 21
490.0
 31
0.0
  0
LINE
  5
12C
330
1B
100
AcDbEntity
 67
     1
  8
0
  6
Continuous
 62
     7
370
    25
100
AcDbLine
 10
227.0
 20
430.0
 30
0.0
 11
-227.0
 21
430.0
 31
0.0
  0
LINE
  5
12D
330
1B
100
AcDbEntity
 67
     1
  8
0
  6
Continuous
 62
     7
370
    25
100
AcDbLine
 10
244.0
 20
530.0
 30
0.0
 11
-244.0
 21
530.0
 31
0.0
  0
LINE
  5
12E
330
1B
100
AcDbEntity
 67
     1
  8
0
  6
Continuous
 62
     7
370
    25
100
AcDbLine
 10
227.0
 20
530.0
 30
0.0
 11
227.0
 21
0.0
 31
0.0
  0
LINE
  5
12F
330
1B
100
AcDbEntity
 67
     1
  8
0
  6
Continuous
 62
     7
370
    25
100
AcDbLine
 10
-244.0
 20
0.0
 30
0.0
 11
244.0
 21
0.0
 31
0.0
  0
LINE
  5
130
330
1B
100
AcDbEntity
 67
     1
  8
0
  6
Continuous
 62
     7
370
    25
100
AcDbLine
 10
-227.0
 20
530.0
 30
0.0
 11
-227.0
 21
0.0
 31
0.0
  0
LINE
  5
131
330
1B
100
AcDbEntity
 67
     1
  8
0
  6
Continuous
 62
     7
370
    25
100
AcDbLine
 10
-227.0
 20
18.0
 30
0.0
 11
227.0
 21
18.0
 31
0.0
  0
LINE
  5
132
330
1B
100
AcDbEntity
 67
     1
  8
0
  6
Continuous
 62
     7
370
    25
100
AcDbLine
 10
-227.0
 20
270.0
 30
0.0
 11
227.0
 21
270.0
 31
0.0
  0
LINE
  5
133
330
1B
100
AcDbEntity
 67
     1
  8
0
  6
Continuous
 62
     7
370
    25
100
AcDbLine
 10
227.0
 20
190.0
 30
0.0
 11
-227.0
 21
190.0
 31
0.0
  0
LINE
  5
134
330
1B
100
AcDbEntity
 67
     1
  8
0
  6
Continuous
 62
     7
370
    25
100
AcDbLine
 10
-244.0
 20
530.0
 30
0.0
 11
-244.0
 21
0.0
 31
0.0
  0
LINE
  5
135
330
1B
100
AcDbEntity
 67
     1
  8
0
  6
Continuous
 62
     7
370
    25
100
AcDbLine
 10
-245.0
 20
1.0
 30
0.0
 11
-245.0
 21
529.0
 31
0.0
  0
LINE
  5
136
330
1B
100
AcDbEntity
 67
     1
  8
0
  6
Continuous
 62
     7
370
    25
100
AcDbLine
 10
227.0
 20
118.0
 30
0.0
 11
-227.0
 21
118.0
 31
0.0
  0
LINE
  5
137
330
1B
100
AcDbEntity
 67
     1
  8
0
  6
Continuous
 62
     7
370
    25
100
AcDbLine
 10
245.0
 20
529.0
 30
0.0
 11
245.0
 21
1.0
 31
0.0
  0
LINE
  5
138
330
1B
100
AcDbEntity
 67
     1
  8
0
  6
Continuous
 62
     7
370
    25
100
AcDbLine
 10
244.0
 20
0.0
 30
0.0
 11
244.0
 21
530.0
 31
0.0
  0
LINE
  5
139
330
1B
100
AcDbEntity
 67
     1
  8
0
  6
Continuous
 62
     7
370
    25
100
AcDbLine
 10
-226.0
 20
430.0
 30
0.0
 11
-226.0
 21
282.1213203436
 31
0.0
  0
LINE
  5
13A
330
1B
100
AcDbEntity
 67
     1
  8
0
  6
Continuous
 62
     7
370
    25
100
AcDbLine
 10
226.0
 20
282.1213203436
 30
0.0
 11
226.0
 21
430.0
 31
0.0
  0
LINE
  5
13B
330
1B
100
AcDbEntity
 67
     1
  8
0
  6
Continuous
 62
     7
370
    25
100
AcDbLine
 10
-225.2928932188
 20
281.4142135624
 30
0.0
 11
225.2928932188
 21
281.4142135624
 31
0.0
  0
LINE
  5
13C
330
1B
100
AcDbEntity
 67
     1
  8
0
  6
Continuous
 62
     7
370
    25
100
AcDbLine
 10
205.5
 20
293.4142135624
 30
0.0
 11
223.5
 21
293.4142135624
 31
0.0
  0
LINE
  5
13D
330
1B
100
AcDbEntity
 67
     1
  8
0
  6
Continuous
 62
     7
370
    25
100
AcDbLine
 10
223.5
 20
293.4142135624
 30
0.0
 11
223.5
 21
398.4142135624
 31
0.0
  0
LINE
  5
13E
330
1B
100
AcDbEntity
 67
     1
  8
0
  6
Continuous
 62
     7
370
    25
100
AcDbLine
 10
205.5
 20
291.4142135624
 30
0.0
 11
205.5
 21
398.4142135624
 31
0.0
  0
LINE
  5
13F
330
1B
100
AcDbEntity
 67
     1
  8
0
  6
Continuous
 62
     7
370
    25
100
AcDbLine
 10
205.5
 20
398.4142135624
 30
0.0
 11
223.5
 21
398.4142135624
 31
0.0
  0
LINE
  5
140
330
1B
100
AcDbEntity
 67
     1
  8
0
  6
Continuous
 62
     7
370
    25
100
AcDbLine
 10
-223.5
 20
293.4142135624
 30
0.0
 11
-205.5
 21
293.4142135624
 31
0.0
  0
LINE
  5
141
330
1B
100
AcDbEntity
 67
     1
  8
0
  6
Continuous
 62
     7
370
    25
100
AcDbLine
 10
-223.5
 20
398.4142135624
 30
0.0
 11
-205.5
 21
398.4142135624
 31
0.0
  0
LINE
  5
142
330
1B
100
AcDbEntity
 67
     1
  8
0
  6
Continuous
 62
     7
370
    25
100
AcDbLine
 10
-223.5
 20
293.4142135624
 30
0.0
 11
-223.5
 21
398.4142135624
 31
0.0
  0
LINE
  5
143
330
1B
100
AcDbEntity
 67
     1
  8
0
  6
Continuous
 62
     7
370
    25
100
AcDbLine
 10
-205.5
 20
291.4142135624
 30
0.0
 11
-205.5
 21
398.4142135624
 31
0.0
  0
LINE
  5
144
330
1B
100
AcDbEntity
 67
     1
  8
0
  6
Continuous
 62
     7
370
    25
100
AcDbLine
 10
-205.5
 20
309.4142135624
 30
0.0
 11
-98.0
 21
309.4142135624
 31
0.0
  0
LINE
  5
145
330
1B
100
AcDbEntity
 67
     1
  8
0
  6
Continuous
 62
     7
370
    25
100
AcDbLine
 10
98.0
 20
309.4142135624
 30
0.0
 11
205.5
 21
309.4142135624
 31
0.0
  0
LINE
  5
146
330
1B
100
AcDbEntity
 67
     1
  8
0
  6
Continuous
 62
     7
370
    25
100
AcDbLine
 10
205.5
 20
291.4142135624
 30
0.0
 11
-205.5
 21
291.4142135624
 31
0.0
  0
LINE
  5
147
330
1B
100
AcDbEntity
 67
     1
  8
0
  6
Continuous
 62
     7
370
    25
100
AcDbLine
 10
-205.5
 20
389.4142135624
 30
0.0
 11
205.5
 21
389.4142135624
 31
0.0
  0
LINE
  5
148
330
1B
100
AcDbEntity
 67
     1
  8
0
  6
Continuous
 62
     7
370
    25
100
AcDbLine
 10
-98.0
 20
389.4142135624
 30
0.0
 11
-98.0
 21
291.4142135624
 31
0.0
  0
LINE
  5
149
330
1B
100
AcDbEntity
 67
     1
  8
0
  6
Continuous
 62
     7
370
    25
100
AcDbLine
 10
-78.0
 20
389.4142135624
 30
0.0
 11
-78.0
 21
291.4142135624
 31
0.0
  0
LINE
  5
14A
330
1B
100
AcDbEntity
 67
     1
  8
0
  6
Continuous
 62
     7
370
    25
100
AcDbLine
 10
98.0
 20
389.4142135624
 30
0.0
 11
98.0
 21
291.4142135624
 31
0.0
  0
LINE
  5
14B
330
1B
100
AcDbEntity
 67
     1
  8
0
  6
Continuous
 62
     7
370
    25
100
AcDbLine
 10
78.0
 20
389.4142135624
 30
0.0
 11
78.0
 21
291.4142135624
 31
0.0
  0
LINE
  5
14C
330
1B
100
AcDbEntity
 67
     1
  8
0
  6
Continuous
 62
     7
370
    25
100
AcDbLine
 10
10.0
 20
389.4142135624
 30
0.0
 11
10.0
 21
291.4142135624
 31
0.0
  0
LINE
  5
14D
330
1B
100
AcDbEntity
 67
     1
  8
0
  6
Continuous
 62
     7
370
    25
100
AcDbLine
 10
-10.0
 20
389.4142135624
 30
0.0
 11
-10.0
 21
291.4142135624
 31
0.0
  0
LINE
  5
14E
330
1B
100
AcDbEntity
 67
     1
  8
0
  6
Continuous
 62
     8
370
    25
100
AcDbLine
 10
-225.2928932188
 20
281.4142135624
 30
0.0
 11
-227.0
 21
279.7071067812
 31
0.0
  0
LINE
  5
14F
330
1B
100
AcDbEntity
 67
     1
  8
0
  6
Continuous
 62
     8
370
    25
100
AcDbLine
 10
-227.0
 20
281.1213203436
 30
0.0
 11
-226.0
 21
282.1213203436
 31
0.0
  0
LINE
  5
150
330
1B
100
AcDbEntity
 67
     1
  8
0
  6
Continuous
 62
     8
370
    25
100
AcDbLine
 10
227.0
 20
279.7071067812
 30
0.0
 11
225.2928932188
 21
281.4142135624
 31
0.0
  0
LINE
  5
151
330
1B
100
AcDbEntity
 67
     1
  8
0
  6
Continuous
 62
     8
370
    25
100
AcDbLine
 10
226.0
 20
282.1213203436
 30
0.0
 11
227.0
 21
281.1213203436
 31
0.0
  0
VIEWPORT
  5
1F4
330
1B
100
AcDbEntity
 67
     1
  8
0
100
AcDbViewport
 10
0.0
 20
0.0
 30
0.0
 40
205.6
 41
156.0
 68
     1
 69
     1
 12
0.0
 22
265.0
 13
0.0
 23
0.0
 14
10.0
 24
10.0
 15
10.0
 25
10.0
 16
0.0
 26
0.0
 36
1.0
 17
0.0
 27
0.0
 37
0.0
 42
50.0
 43
0.0
 44
0.0
 45
540.6
 50
0.0
 51
0.0
 72
   100
 90
   557152
  1

281
     0
 71
     1
 74
     0
110
0.0
120
0.0
130
0.0
111
1.0
121
0.0
131
0.0
112
0.0
122
1.0
132
0.0
 79
     0
146
0.0
  0
ENDSEC
  0
SECTION
  2
OBJECTS
  0
DICTIONARY
  5
C
330
0
100
AcDbDictionary
281
     1
  3
ACAD_GROUP
350
D
  3
ACAD_LAYOUT
350
1A
  3
ACAD_MLINESTYLE
350
17
  3
ACAD_PLOTSETTINGS
350
19
  3
ACAD_PLOTSTYLENAME
350
E
  3
ACAD_SCALELIST
350
47
  0
DICTIONARY
  5
D
102
{ACAD_REACTORS
330
C
102
}
330
C
100
AcDbDictionary
281
     1
  0
DICTIONARY
  5
1A
102
{ACAD_REACTORS
330
C
102
}
330
C
100
AcDbDictionary
281
     1
  3
_Back
350
1E
  3
_Left
350
26
  3
_Top
350
175
  3
Model
350
22
  0
DICTIONARY
  5
17
102
{ACAD_REACTORS
330
C
102
}
330
C
100
AcDbDictionary
281
     1
  3
Standard
350
18
  0
DICTIONARY
  5
19
102
{ACAD_REACTORS
330
C
102
}
330
C
100
AcDbDictionary
281
     1
  0
ACDBDICTIONARYWDFLT
  5
E
102
{ACAD_REACTORS
330
C
102
}
330
C
100
AcDbDictionary
281
     1
  3
Normal
350
F
100
AcDbDictionaryWithDefault
340
F
  0
DICTIONARY
  5
47
102
{ACAD_REACTORS
330
C
102
}
330
C
100
AcDbDictionary
281
     1
  3
A0
350
48
  3
A1
350
49
  3
A2
350
4A
  3
A3
350
4B
  3
A4
350
4C
  3
A5
350
4D
  3
A6
350
4E
  3
A7
350
4F
  3
A8
350
50
  3
A9
350
51
  3
B0
350
52
  3
B1
350
53
  3
B2
350
54
  3
B3
350
55
  3
B4
350
56
  3
B5
350
57
  3
B6
350
58
  3
B7
350
59
  3
B8
350
5A
  3
B9
350
5B
  3
C0
350
5C
  3
C1
350
5D
  3
C2
350
5E
  3
C3
350
5F
  3
C4
350
60
  3
C5
350
61
  3
C6
350
62
  3
C7
350
63
  3
C8
350
64
  3
C9
350
65
  3
D0
350
66
  3
D1
350
67
  3
D2
350
68
  0
LAYOUT
  5
1E
102
{ACAD_REACTORS
330
1A
102
}
330
1A
100
AcDbPlotSettings
  1

  2
none_device
  4
ISO_A4_(210.00_x_297.00_MM)
  6

 40
7.5
 41
20.0
 42
7.5
 43
20.0
 44
210.0
 45
297.0
 46
0.0
 47
0.0
 48
0.0
 49
0.0
140
0.0
141
0.0
142
1.0
143
2.7179487179
 70
   688
 72
     1
 73
     1
 74
     1
  7

 75
     0
147
0.3679245283
148
245.0
149
0.0
100
AcDbLayout
  1
_Back
 70
     1
 71
     1
 10
-299.358974359
 20
-20.3846153846
 11
507.8717948718
 21
550.3846153846
 12
0.0
 22
0.0
 32
0.0
 14
-245.0
 24
0.0
 34
0.0
 15
245.0
 25
530.0
 35
0.0
146
0.0
 13
0.0
 23
0.0
 33
0.0
 16
1.0
 26
0.0
 36
0.0
 17
0.0
 27
1.0
 37
0.0
 76
     0
330
1B
331
1F4
  0
LAYOUT
  5
26
102
{ACAD_REACTORS
330
1A
102
}
330
1A
100
AcDbPlotSettings
  1

  2
none_device
  4
ISO_A4_(210.00_x_297.00_MM)
  6

 40
7.5
 41
20.0
 42
7.5
 43
20.0
 44
210.0
 45
297.0
 46
0.0
 47
0.0
 48
0.0
 49
0.0
140
0.0
141
0.0
142
1.0
143
2.7179487179
 70
   688
 72
     1
 73
     1
 74
     1
  7

 75
     0
147
0.3679245283
148
245.0
149
0.0
100
AcDbLayout
  1
_Left
 70
     1
 71
     2
 10
0.0
 20
0.0
 11
0.0
 21
0.0
 12
0.0
 22
0.0
 32
0.0
 14
0.0
 24
0.0
 34
0.0
 15
0.0
 25
0.0
 35
0.0
146
0.0
 13
0.0
 23
0.0
 33
0.0
 16
1.0
 26
0.0
 36
0.0
 17
0.0
 27
1.0
 37
0.0
 76
     0
330
23
331
1F6
  0
LAYOUT
  5
175
102
{ACAD_REACTORS
330
1A
102
}
330
1A
100
AcDbPlotSettings
  1

  2
none_device
  4
ISO_A4_(210.00_x_297.00_MM)
  6

 40
7.5
 41
20.0
 42
7.5
 43
20.0
 44
210.0
 45
297.0
 46
0.0
 47
0.0
 48
0.0
 49
0.0
140
0.0
141
0.0
142
1.0
143
2.7179487179
 70
   688
 72
     1
 73
     1
 74
     1
  7

 75
     0
147
0.3679245283
148
245.0
149
0.0
100
AcDbLayout
  1
_Top
 70
     1
 71
     3
 10
0.0
 20
0.0
 11
0.0
 21
0.0
 12
0.0
 22
0.0
 32
0.0
 14
0.0
 24
0.0
 34
0.0
 15
0.0
 25
0.0
 35
0.0
146
0.0
 13
0.0
 23
0.0
 33
0.0
 16
1.0
 26
0.0
 36
0.0
 17
0.0
 27
1.0
 37
0.0
 76
     0
330
174
331
1F8
  0
LAYOUT
  5
22
102
{ACAD_REACTORS
330
1A
102
}
330
1A
100
AcDbPlotSettings
  1

  2
none_device
  4
ANSI_A_(11.00_x_8.50_Inches)
  6

 40
6.35
 41
19.05
 42
6.35000508
 43
19.05000254
 44
279.4
 45
215.9
 46
133.34999746
 47
-17.97050127
 48
0.0
 49
0.0
140
0.0
141
0.0
142
0.0158773585
143
1.0
 70
  1696
 72
     0
 73
     0
 74
     0
  7

 75
     0
147
0.0179189148
148
-1300.4909072572
149
0.0
100
AcDbLayout
  1
Model
 70
     1
 71
     0
 10
0.0
 20
0.0
 11
420.0
 21
297.0
 12
0.0
 22
0.0
 32
0.0
 14
-245.0
 24
0.0
 34
0.0
 15
245.0
 25
530.0
 35
0.0
146
0.0
 13
0.0
 23
0.0
 33
0.0
 16
1.0
 26
0.0
 36
0.0
 17
0.0
 27
1.0
 37
0.0
 76
     0
330
1F
331
29
  0
MLINESTYLE
  5
18
102
{ACAD_REACTORS
330
17
102
}
330
17
100
AcDbMlineStyle
  2
Standard
 70
     0
  3

 62
   256
 51
90.0
 52
90.0
 71
     2
 49
0.5
 62
   256
  6
BYLAYER
 49
-0.5
 62
   256
  6
BYLAYER
  0
ACDBPLACEHOLDER
  5
F
102
{ACAD_REACTORS
330
E
102
}
330
E
  0
SCALE
  5
48
102
{ACAD_REACTORS
330
47
102
}
330
47
100
AcDbScale
 70
     0
300
1:1
140
1.0
141
1.0
290
     1
  0
SCALE
  5
49
102
{ACAD_REACTORS
330
47
102
}
330
47
100
AcDbScale
 70
     0
300
1:2
140
1.0
141
2.0
290
     0
  0
SCALE
  5
4A
102
{ACAD_REACTORS
330
47
102
}
330
47
100
AcDbScale
 70
     0
300
1:4
140
1.0
141
4.0
290
     0
  0
SCALE
  5
4B
102
{ACAD_REACTORS
330
47
102
}
330
47
100
AcDbScale
 70
     0
300
1:5
140
1.0
141
5.0
290
     0
  0
SCALE
  5
4C
102
{ACAD_REACTORS
330
47
102
}
330
47
100
AcDbScale
 70
     0
300
1:8
140
1.0
141
8.0
290
     0
  0
SCALE
  5
4D
102
{ACAD_REACTORS
330
47
102
}
330
47
100
AcDbScale
 70
     0
300
1:10
140
1.0
141
10.0
290
     0
  0
SCALE
  5
4E
102
{ACAD_REACTORS
330
47
102
}
330
47
100
AcDbScale
 70
     0
300
1:16
140
1.0
141
16.0
290
     0
  0
SCALE
  5
4F
102
{ACAD_REACTORS
330
47
102
}
330
47
100
AcDbScale
 70
     0
300
1:20
140
1.0
141
20.0
290
     0
  0
SCALE
  5
50
102
{ACAD_REACTORS
330
47
102
}
330
47
100
AcDbScale
 70
     0
300
1:30
140
1.0
141
30.0
290
     0
  0
SCALE
  5
51
102
{ACAD_REACTORS
330
47
102
}
330
47
100
AcDbScale
 70
     0
300
1:40
140
1.0
141
40.0
290
     0
  0
SCALE
  5
52
102
{ACAD_REACTORS
330
47
102
}
330
47
100
AcDbScale
 70
     0
300
1:50
140
1.0
141
50.0
290
     0
  0
SCALE
  5
53
102
{ACAD_REACTORS
330
47
102
}
330
47
100
AcDbScale
 70
     0
300
1:100
140
1.0
141
100.0
290
     0
  0
SCALE
  5
54
102
{ACAD_REACTORS
330
47
102
}
330
47
100
AcDbScale
 70
     0
300
2:1
140
2.0
141
1.0
290
     0
  0
SCALE
  5
55
102
{ACAD_REACTORS
330
47
102
}
330
47
100
AcDbScale
 70
     0
300
4:1
140
4.0
141
1.0
290
     0
  0
SCALE
  5
56
102
{ACAD_REACTORS
330
47
102
}
330
47
100
AcDbScale
 70
     0
300
8:1
140
8.0
141
1.0
290
     0
  0
SCALE
  5
57
102
{ACAD_REACTORS
330
47
102
}
330
47
100
AcDbScale
 70
     0
300
10:1
140
10.0
141
1.0
290
     0
  0
SCALE
  5
58
102
{ACAD_REACTORS
330
47
102
}
330
47
100
AcDbScale
 70
     0
300
100:1
140
100.0
141
1.0
290
     0
  0
SCALE
  5
59
102
{ACAD_REACTORS
330
47
102
}
330
47
100
AcDbScale
 70
     0
300
1/128" = 1'-0"
140
0.0078125
141
12.0
290
     0
  0
SCALE
  5
5A
102
{ACAD_REACTORS
330
47
102
}
330
47
100
AcDbScale
 70
     0
300
1/64" = 1'-0"
140
0.015625
141
12.0
290
     0
  0
SCALE
  5
5B
102
{ACAD_REACTORS
330
47
102
}
330
47
100
AcDbScale
 70
     0
300
1/32" = 1'-0"
140
0.03125
141
12.0
290
     0
  0
SCALE
  5
5C
102
{ACAD_REACTORS
330
47
102
}
330
47
100
AcDbScale
 70
     0
300
1/16" = 1'-0"
140
0.0625
141
12.0
290
     0
  0
SCALE
  5
5D
102
{ACAD_REACTORS
330
47
102
}
330
47
100
AcDbScale
 70
     0
300
3/32" = 1'-0"
140
0.09375
141
12.0
290
     0
  0
SCALE
  5
5E
102
{ACAD_REACTORS
330
47
102
}
330
47
100
AcDbScale
 70
     0
300
1/8" = 1'-0"
140
0.125
141
12.0
290
     0
  0
SCALE
  5
5F
102
{ACAD_REACTORS
330
47
102
}
330
47
100
AcDbScale
 70
     0
300
3/16" = 1'-0"
140
0.1875
141
12.0
290
     0
  0
SCALE
  5
60
102
{ACAD_REACTORS
330
47
102
}
330
47
100
AcDbScale
 70
     0
300
1/4" = 1'-0"
140
0.25
141
12.0
290
     0
  0
SCALE
  5
61
102
{ACAD_REACTORS
330
47
102
}
330
47
100
AcDbScale
 70
     0
300
3/8" = 1'-0"
140
0.375
141
12.0
290
     0
  0
SCALE
  5
62
102
{ACAD_REACTORS
330
47
102
}
330
47
100
AcDbScale
 70
     0
300
1/2" = 1'-0"
140
0.5
141
12.0
290
     0
  0
SCALE
  5
63
102
{ACAD_REACTORS
330
47
102
}
330
47
100
AcDbScale
 70
     0
300
3/4" = 1'-0"
140
0.75
141
12.0
290
     0
  0
SCALE
  5
64
102
{ACAD_REACTORS
330
47
102
}
330
47
100
AcDbScale
 70
     0
300
1" = 1'-0"
140
1.0
141
12.0
290
     0
  0
SCALE
  5
65
102
{ACAD_REACTORS
330
47
102
}
330
47
100
AcDbScale
 70
     0
300
1-1/2" = 1'-0"
140
1.5
141
12.0
290
     0
  0
SCALE
  5
66
102
{ACAD_REACTORS
330
47
102
}
330
47
100
AcDbScale
 70
     0
300
3" = 1'-0"
140
3.0
141
12.0
290
     0
  0
SCALE
  5
67
102
{ACAD_REACTORS
330
47
102
}
330
47
100
AcDbScale
 70
     0
300
6" = 1'-0"
140
6.0
141
12.0
290
     0
  0
SCALE
  5
68
102
{ACAD_REACTORS
330
47
102
}
330
47
100
AcDbScale
 70
     0
300
1'-0" = 1'-0"
140
12.0
141
12.0
290
     0
  0
ENDSEC
  0
EOF
