  0
SECTION
  2
HEADER
  9
$ACADVER
  1
AC1015
  9
$ACADMAINTVER
 70
     6
  9
$DWGCODEPAGE
  3
ANSI_1252
  9
$INSBASE
 10
0.0
 20
0.0
 30
0.0
  9
$EXTMIN
 10
-175.0
 20
-845.0
 30
0.0
  9
$EXTMAX
 10
175.0
 20
845.0
 30
0.0
  9
$LIMMIN
 10
0.0
 20
0.0
  9
$LIMMAX
 10
420.0
 20
297.0
  9
$ORTHOMODE
 70
     0
  9
$REGENMODE
 70
     1
  9
$FILLMODE
 70
     1
  9
$QTEXTMODE
 70
     0
  9
$MIRRTEXT
 70
     1
  9
$LTSCALE
 40
1.0
  9
$ATTMODE
 70
     1
  9
$TEXTSIZE
 40
3.5
  9
$TRACEWID
 40
1.0
  9
$TEXTSTYLE
  7
Standard
  9
$CLAYER
  8
0
  9
$CELTYPE
  6
ByLayer
  9
$CECOLOR
 62
   256
  9
$CELTSCALE
 40
1.0
  9
$DISPSILH
 70
     0
  9
$DIMSCALE
 40
1.0
  9
$DIMASZ
 40
3.302
  9
$DIMEXO
 40
1.0
  9
$DIMDLI
 40
3.75
  9
$DIMRND
 40
0.0
  9
$DIMDLE
 40
0.0
  9
$DIMEXE
 40
1.0
  9
$DIMTP
 40
0.0
  9
$DIMTM
 40
0.0
  9
$DIMTXT
 40
3.5
  9
$DIMCEN
 40
2.5
  9
$DIMTSZ
 40
0.0
  9
$DIMTOL
 70
     0
  9
$DIMLIM
 70
     0
  9
$DIMTIH
 70
     1
  9
$DIMTOH
 70
     1
  9
$DIMSE1
 70
     0
  9
$DIMSE2
 70
     0
  9
$DIMTAD
 70
     1
  9
$DIMZIN
 70
     1
  9
$DIMBLK
  1

  9
$DIMASO
 70
     1
  9
$DIMSHO
 70
     1
  9
$DIMPOST
  1

  9
$DIMAPOST
  1

  9
$DIMALT
 70
     0
  9
$DIMALTD
 70
     3
  9
$DIMALTF
 40
0.0393700787
  9
$DIMLFAC
 40
1.0
  9
$DIMTOFL
 70
     1
  9
$DIMTVP
 40
0.0
  9
$DIMTIX
 70
     0
  9
$DIMSOXD
 70
     0
  9
$DIMSAH
 70
     0
  9
$DIMBLK1
  1

  9
$DIMBLK2
  1

  9
$DIMSTYLE
  2
ISO-25
  9
$DIMCLRD
 70
     0
  9
$DIMCLRE
 70
     0
  9
$DIMCLRT
 70
     0
  9
$DIMTFAC
 40
1.0
  9
$DIMGAP
 40
1.524
  9
$DIMJUST
 70
     0
  9
$DIMSD1
 70
     0
  9
$DIMSD2
 70
     0
  9
$DIMTOLJ
 70
     0
  9
$DIMTZIN
 70
     1
  9
$DIMALTZ
 70
     0
  9
$DIMALTTZ
 70
     0
  9
$DIMUPT
 70
     0
  9
$DIMDEC
 70
     2
  9
$DIMTDEC
 70
     2
  9
$DIMALTU
 70
     2
  9
$DIMALTTD
 70
     3
  9
$DIMTXSTY
  7
Standard
  9
$DIMAUNIT
 70
     0
  9
$DIMADEC
 70
     2
  9
$DIMALTRND
 40
0.0
  9
$DIMAZIN
 70
     0
  9
$DIMDSEP
 70
    44
  9
$DIMATFIT
 70
     3
  9
$DIMFRAC
 70
     0
  9
$DIMLDRBLK
  1

  9
$DIMLUNIT
 70
     2
  9
$DIMLWD
 70
    -2
  9
$DIMLWE
 70
    -2
  9
$DIMTMOVE
 70
     0
  9
$LUNITS
 70
     2
  9
$LUPREC
 70
     2
  9
$SKETCHINC
 40
1.0
  9
$FILLETRAD
 40
10.0
  9
$AUNITS
 70
     0
  9
$AUPREC
 70
     2
  9
$MENU
  1
.
  9
$ELEVATION
 40
0.0
  9
$PELEVATION
 40
0.0
  9
$THICKNESS
 40
0.0
  9
$LIMCHECK
 70
     0
  9
$CHAMFERA
 40
0.0
  9
$CHAMFERB
 40
0.0
  9
$CHAMFERC
 40
0.0
  9
$CHAMFERD
 40
0.0
  9
$SKPOLY
 70
     0
  9
$TDCREATE
 40
2459285.708671713
  9
$TDUCREATE
 40
2459285.708671713
  9
$TDUPDATE
 40
2459285.708709421
  9
$TDUUPDATE
 40
2459285.708709421
  9
$TDINDWG
 40
0.0000000116
  9
$TDUSRTIMER
 40
0.0000000116
  9
$USRTIMER
 70
     1
  9
$ANGBASE
 50
0.0
  9
$ANGDIR
 70
     0
  9
$PDMODE
 70
     0
  9
$PDSIZE
 40
-1.0
  9
$PLINEWID
 40
0.0
  9
$SPLFRAME
 70
     0
  9
$SPLINETYPE
 70
     6
  9
$SPLINESEGS
 70
     8
  9
$HANDSEED
  5
426
  9
$SURFTAB1
 70
     6
  9
$SURFTAB2
 70
     6
  9
$SURFTYPE
 70
     6
  9
$SURFU
 70
     6
  9
$SURFV
 70
     6
  9
$UCSBASE
  2

  9
$UCSNAME
  2

  9
$UCSORG
 10
0.0
 20
0.0
 30
0.0
  9
$UCSXDIR
 10
1.0
 20
0.0
 30
0.0
  9
$UCSYDIR
 10
0.0
 20
1.0
 30
0.0
  9
$UCSORTHOREF
  2

  9
$UCSORTHOVIEW
 70
     0
  9
$UCSORGTOP
 10
0.0
 20
0.0
 30
0.0
  9
$UCSORGBOTTOM
 10
0.0
 20
0.0
 30
0.0
  9
$UCSORGLEFT
 10
0.0
 20
0.0
 30
0.0
  9
$UCSORGRIGHT
 10
0.0
 20
0.0
 30
0.0
  9
$UCSORGFRONT
 10
0.0
 20
0.0
 30
0.0
  9
$UCSORGBACK
 10
0.0
 20
0.0
 30
0.0
  9
$PUCSBASE
  2

  9
$PUCSNAME
  2

  9
$PUCSORG
 10
0.0
 20
0.0
 30
0.0
  9
$PUCSXDIR
 10
1.0
 20
0.0
 30
0.0
  9
$PUCSYDIR
 10
0.0
 20
1.0
 30
0.0
  9
$PUCSORTHOREF
  2

  9
$PUCSORTHOVIEW
 70
     0
  9
$PUCSORGTOP
 10
0.0
 20
0.0
 30
0.0
  9
$PUCSORGBOTTOM
 10
0.0
 20
0.0
 30
0.0
  9
$PUCSORGLEFT
 10
0.0
 20
0.0
 30
0.0
  9
$PUCSORGRIGHT
 10
0.0
 20
0.0
 30
0.0
  9
$PUCSORGFRONT
 10
0.0
 20
0.0
 30
0.0
  9
$PUCSORGBACK
 10
0.0
 20
0.0
 30
0.0
  9
$USERI1
 70
     0
  9
$USERI2
 70
     0
  9
$USERI3
 70
     0
  9
$USERI4
 70
     0
  9
$USERI5
 70
     0
  9
$USERR1
 40
0.0
  9
$USERR2
 40
0.0
  9
$USERR3
 40
0.0
  9
$USERR4
 40
0.0
  9
$USERR5
 40
0.0
  9
$WORLDVIEW
 70
     1
  9
$SHADEDGE
 70
     3
  9
$SHADEDIF
 70
    70
  9
$TILEMODE
 70
     1
  9
$MAXACTVP
 70
    64
  9
$PINSBASE
 10
0.0
 20
0.0
 30
0.0
  9
$PLIMCHECK
 70
     0
  9
$PEXTMIN
 10
-175.0
 20
-845.0
 30
0.0
  9
$PEXTMAX
 10
175.0
 20
845.0
 30
0.0
  9
$PLIMMIN
 10
-348.3333333333
 20
-910.0
  9
$PLIMMAX
 10
2225.6666666667
 20
910.0
  9
$UNITMODE
 70
     0
  9
$VISRETAIN
 70
     1
  9
$PLINEGEN
 70
     0
  9
$PSLTSCALE
 70
     1
  9
$TREEDEPTH
 70
  3020
  9
$CMLSTYLE
  2
Standard
  9
$CMLJUST
 70
     0
  9
$CMLSCALE
 40
20.0
  9
$PROXYGRAPHICS
 70
     1
  9
$MEASUREMENT
 70
     1
  9
$CELWEIGHT
370
    -1
  9
$ENDCAPS
280
     0
  9
$JOINSTYLE
280
     0
  9
$LWDISPLAY
290
     1
  9
$INSUNITS
 70
     4
  9
$HYPERLINKBASE
  1

  9
$STYLESHEET
  1

  9
$XEDIT
290
     1
  9
$CEPSNTYPE
380
     0
  9
$PSTYLEMODE
290
     1
  9
$FINGERPRINTGUID
  2
{590f95d9-7a08-4508-854d-0e5fe3702428}
  9
$VERSIONGUID
  2
{FAEB1C32-E019-11D5-929B-00C0DF256EC4}
  9
$EXTNAMES
290
     1
  9
$PSVPSCALE
 40
0.0
  9
$OLESTARTUP
290
     0
  0
ENDSEC
  0
SECTION
  2
CLASSES
  0
CLASS
  1
ACDBDICTIONARYWDFLT
  2
AcDbDictionaryWithDefault
  3
ObjectDBX Classes
 90
        0
280
     0
281
     0
  0
CLASS
  1
VISUALSTYLE
  2
AcDbVisualStyle
  3
ObjectDBX Classes
 90
     4095
280
     0
281
     0
  0
CLASS
  1
MATERIAL
  2
AcDbMaterial
  3
ObjectDBX Classes
 90
     1153
280
     0
281
     0
  0
CLASS
  1
SCALE
  2
AcDbScale
  3
ObjectDBX Classes
 90
     1153
280
     0
281
     0
  0
CLASS
  1
TABLESTYLE
  2
AcDbTableStyle
  3
ObjectDBX Classes
 90
     4095
280
     0
281
     0
  0
CLASS
  1
MLEADERSTYLE
  2
AcDbMLeaderStyle
  3
ACDB_MLEADERSTYLE_CLASS
 90
     4095
280
     0
281
     0
  0
CLASS
  1
SUN
  2
AcDbSun
  3
SCENEOE
 90
     1153
280
     0
281
     0
  0
CLASS
  1
ACDBPLACEHOLDER
  2
AcDbPlaceHolder
  3
ObjectDBX Classes
 90
        0
280
     0
281
     0
  0
CLASS
  1
LAYOUT
  2
AcDbLayout
  3
ObjectDBX Classes
 90
        0
280
     0
281
     0
  0
ENDSEC
  0
SECTION
  2
TABLES
  0
TABLE
  2
VPORT
  5
8
330
0
100
AcDbSymbolTable
 70
     1
  0
VPORT
  5
29
330
8
100
AcDbSymbolTableRecord
100
AcDbViewportTableRecord
  2
*Active
 70
     0
 10
0.0
 20
0.0
 11
1.0
 21
1.0
 12
0.0
 22
0.0
 13
0.0
 23
0.0
 14
10.0
 24
10.0
 15
10.0
 25
10.0
 16
0.0
 26
0.0
 36
1.0
 17
0.0
 27
0.0
 37
0.0
 40
1723.8
 41
0.2071005917
 42
50.0
 43
0.0
 44
0.0
 50
0.0
 51
0.0
 71
     0
 72
   100
 73
     1
 74
     3
 75
     0
 76
     0
 77
     0
 78
     0
281
     0
 65
     1
110
0.0
120
0.0
130
0.0
111
1.0
121
0.0
131
0.0
112
0.0
122
1.0
132
0.0
 79
     0
146
0.0
  0
ENDTAB
  0
TABLE
  2
LTYPE
  5
5
330
0
100
AcDbSymbolTable
 70
     6
  0
LTYPE
  5
14
330
5
100
AcDbSymbolTableRecord
100
AcDbLinetypeTableRecord
  2
ByBlock
 70
     0
  3

 72
    65
 73
     0
 40
0.0
  0
LTYPE
  5
15
330
5
100
AcDbSymbolTableRecord
100
AcDbLinetypeTableRecord
  2
ByLayer
 70
     0
  3

 72
    65
 73
     0
 40
0.0
  0
LTYPE
  5
16
330
5
100
AcDbSymbolTableRecord
100
AcDbLinetypeTableRecord
  2
Continuous
 70
     0
  3
Solid line
 72
    65
 73
     0
 40
0.0
  0
LTYPE
  5
6E
330
5
100
AcDbSymbolTableRecord
100
AcDbLinetypeTableRecord
  2
HIDDEN
 70
     0
  3
Hidden __ __ __ __ __ __ __ __ __ __ __ __ __ __
 72
    65
 73
     2
 40
1.905
 49
1.27
 74
     0
 49
-0.635
 74
     0
  0
LTYPE
  5
6F
330
5
100
AcDbSymbolTableRecord
100
AcDbLinetypeTableRecord
  2
PHANTOM
 70
     0
  3
Phantom ______  __  __  ______  __  __  ______
 72
    65
 73
     6
 40
12.7
 49
6.35
 74
     0
 49
-1.27
 74
     0
 49
1.27
 74
     0
 49
-1.27
 74
     0
 49
1.27
 74
     0
 49
-1.27
 74
     0
  0
LTYPE
  5
70
330
5
100
AcDbSymbolTableRecord
100
AcDbLinetypeTableRecord
  2
CENTER
 70
     0
  3
Center ____ _ ____ _ ____ _ ____ _ ____ _ ____
 72
    65
 73
     4
 40
10.16
 49
6.35
 74
     0
 49
-1.27
 74
     0
 49
1.27
 74
     0
 49
-1.27
 74
     0
  0
LTYPE
  5
71
330
5
100
AcDbSymbolTableRecord
100
AcDbLinetypeTableRecord
  2
CENTERX2
 70
     0
  3
Center (2x) ________  __  ________  __  _____
 72
    65
 73
     4
 40
20.32
 49
12.7
 74
     0
 49
-2.54
 74
     0
 49
2.54
 74
     0
 49
-2.54
 74
     0
  0
LTYPE
  5
72
330
5
100
AcDbSymbolTableRecord
100
AcDbLinetypeTableRecord
  2
DOT2
 70
     0
  3
Dot (.5x) ........................................
 72
    65
 73
     2
 40
0.635
 49
0.0
 74
     0
 49
-0.635
 74
     0
  0
ENDTAB
  0
TABLE
  2
LAYER
  5
2
330
0
100
AcDbSymbolTable
 70
     1
  0
LAYER
  5
10
330
2
100
AcDbSymbolTableRecord
100
AcDbLayerTableRecord
  2
0
 70
     0
 62
     7
  6
Continuous
370
    -3
390
F
  0
ENDTAB
  0
TABLE
  2
STYLE
  5
3
330
0
100
AcDbSymbolTable
 70
     1
  0
STYLE
  5
11
330
3
100
AcDbSymbolTableRecord
100
AcDbTextStyleTableRecord
  2
Standard
 70
     0
 40
0.0
 41
1.0
 50
0.0
 71
     0
 42
3.5
  3
txt
  4

  0
ENDTAB
  0
TABLE
  2
VIEW
  5
6
330
0
100
AcDbSymbolTable
 70
     0
  0
ENDTAB
  0
TABLE
  2
UCS
  5
7
330
0
100
AcDbSymbolTable
 70
     0
  0
ENDTAB
  0
TABLE
  2
APPID
  5
9
330
0
100
AcDbSymbolTable
 70
     1
  0
APPID
  5
12
330
9
100
AcDbSymbolTableRecord
100
AcDbRegAppTableRecord
  2
ACAD
 70
     0
  0
ENDTAB
  0
TABLE
  2
DIMSTYLE
  5
A
330
0
100
AcDbSymbolTable
 70
     1
100
AcDbDimStyleTable
  0
DIMSTYLE
105
27
330
A
100
AcDbSymbolTableRecord
100
AcDbDimStyleTableRecord
  2
ISO-25
 70
     0
 41
2.5
 42
0.625
 43
3.75
 44
1.25
 73
     0
 74
     0
 77
     1
 78
     8
140
2.5
141
2.5
143
0.0393700787
147
0.625
171
     3
172
     1
178
     0
271
     2
272
     2
274
     3
278
    44
283
     0
284
     8
340
11
  0
ENDTAB
  0
TABLE
  2
BLOCK_RECORD
  5
1
330
0
100
AcDbSymbolTable
 70
     7
  0
BLOCK_RECORD
  5
1F
330
1
100
AcDbSymbolTableRecord
100
AcDbBlockTableRecord
  2
*Model_Space
340
22
  0
BLOCK_RECORD
  5
1B
330
1
100
AcDbSymbolTableRecord
100
AcDbBlockTableRecord
  2
*Paper_Space
340
1E
  0
BLOCK_RECORD
  5
23
330
1
100
AcDbSymbolTableRecord
100
AcDbBlockTableRecord
  2
*Paper_Space0
340
26
  0
BLOCK_RECORD
  5
16B
330
1
100
AcDbSymbolTableRecord
100
AcDbBlockTableRecord
  2
*Paper_Space1
340
16C
  0
BLOCK_RECORD
  5
183
330
1
100
AcDbSymbolTableRecord
100
AcDbBlockTableRecord
  2
*Paper_Space2
340
184
  0
BLOCK_RECORD
  5
1C9
330
1
100
AcDbSymbolTableRecord
100
AcDbBlockTableRecord
  2
*Paper_Space3
340
1CA
  0
BLOCK_RECORD
  5
20F
330
1
100
AcDbSymbolTableRecord
100
AcDbBlockTableRecord
  2
*Paper_Space4
340
210
  0
BLOCK_RECORD
  5
2BA
330
1
100
AcDbSymbolTableRecord
100
AcDbBlockTableRecord
  2
*Paper_Space5
340
2BB
  0
BLOCK_RECORD
  5
367
330
1
100
AcDbSymbolTableRecord
100
AcDbBlockTableRecord
  2
*Paper_Space6
340
368
  0
ENDTAB
  0
ENDSEC
  0
SECTION
  2
BLOCKS
  0
BLOCK
  5
20
330
1F
100
AcDbEntity
  8
0
100
AcDbBlockBegin
  2
*Model_Space
 70
     0
 10
0.0
 20
0.0
 30
0.0
  3
*Model_Space
  1

  0
ENDBLK
  5
21
330
1F
100
AcDbEntity
  8
0
100
AcDbBlockEnd
  0
BLOCK
  5
1C
330
1B
100
AcDbEntity
 67
     1
  8
0
100
AcDbBlockBegin
  2
*Paper_Space
 70
     0
 10
0.0
 20
0.0
 30
0.0
  3
*Paper_Space
  1

  0
ENDBLK
  5
1D
330
1B
100
AcDbEntity
 67
     1
  8
0
100
AcDbBlockEnd
  0
BLOCK
  5
24
330
23
100
AcDbEntity
  8
0
100
AcDbBlockBegin
  2
*Paper_Space0
 70
     0
 10
0.0
 20
0.0
 30
0.0
  3
*Paper_Space0
  1

  0
SPLINE
  5
158
330
23
100
AcDbEntity
  8
0
  6
Continuous
 62
     7
370
    25
100
AcDbSpline
210
0.0
220
0.0
230
1.0
 70
    24
 71
     3
 72
    14
 73
    10
 74
     0
 42
0.000000001
 43
0.00000001
 40
0.0
 40
0.0
 40
0.0
 40
0.0
 40
0.25
 40
0.25
 40
0.5
 40
0.5
 40
0.75
 40
0.75
 40
1.0
 40
1.0
 40
1.0
 40
1.0
 10
319.5
 20
844.5
 30
0.0
 10
319.5589255650989
 20
844.5589255650987
 30
0.0
 10
319.622498879589
 20
844.6224988795893
 30
0.0
 10
319.7455958299728
 20
844.7455958299729
 30
0.0
 10
319.8047378541243
 20
844.8047378541245
 30
0.0
 10
319.9023689270621
 20
844.9023689270624
 30
0.0
 10
319.9405276704693
 20
844.9405276704692
 30
0.0
 10
319.9892606305934
 20
844.9892606305932
 30
0.0
 10
320.0000000000001
 20
845.0
 30
0.0
 10
320.0
 20
845.0
 30
0.0
  0
SPLINE
  5
15A
330
23
100
AcDbEntity
  8
0
  6
Continuous
 62
     7
370
    25
100
AcDbSpline
210
0.0
220
0.0
230
1.0
 70
    24
 71
     3
 72
    14
 73
    10
 74
     0
 42
0.000000001
 43
0.00000001
 40
0.0
 40
0.0
 40
0.0
 40
0.0
 40
0.25
 40
0.25
 40
0.5
 40
0.5
 40
0.75
 40
0.75
 40
1.0
 40
1.0
 40
1.0
 40
1.0
 10
320.0
 20
-845.0
 30
0.0
 10
320.0000000000001
 20
-845.0000000000003
 30
0.0
 10
319.9892606305934
 20
-844.9892606305938
 30
0.0
 10
319.9405276704693
 20
-844.9405276704697
 30
0.0
 10
319.9023689270623
 20
-844.9023689270626
 30
0.0
 10
319.8047378541244
 20
-844.8047378541247
 30
0.0
 10
319.7455958299728
 20
-844.7455958299731
 30
0.0
 10
319.6224988795889
 20
-844.6224988795891
 30
0.0
 10
319.5589255650988
 20
-844.558925565099
 30
0.0
 10
319.5
 20
-844.5
 30
0.0
  0
SPLINE
  5
15C
330
23
100
AcDbEntity
  8
0
  6
Continuous
 62
     7
370
    25
100
AcDbSpline
210
0.0
220
0.0
230
1.0
 70
    24
 71
     3
 72
    14
 73
    10
 74
     0
 42
0.000000001
 43
0.00000001
 40
0.0
 40
0.0
 40
0.0
 40
0.0
 40
0.25
 40
0.25
 40
0.5
 40
0.5
 40
0.75
 40
0.75
 40
1.0
 40
1.0
 40
1.0
 40
1.0
 10
-18.49999999999999
 20
844.5
 30
0.0
 10
-18.55892556509886
 20
844.5589255650987
 30
0.0
 10
-18.622498879589
 20
844.6224988795893
 30
0.0
 10
-18.74559582997287
 20
844.7455958299729
 30
0.0
 10
-18.80473785412437
 20
844.8047378541245
 30
0.0
 10
-18.90236892706218
 20
844.9023689270624
 30
0.0
 10
-18.94052767046917
 20
844.9405276704692
 30
0.0
 10
-18.98926063059325
 20
844.9892606305932
 30
0.0
 10
-19.00000000000002
 20
845.0
 30
0.0
 10
-18.99999999999999
 20
845.0
 30
0.0
  0
SPLINE
  5
15F
330
23
100
AcDbEntity
  8
0
  6
Continuous
 62
     7
370
    25
100
AcDbSpline
210
0.0
220
0.0
230
1.0
 70
    24
 71
     3
 72
    14
 73
    10
 74
     0
 42
0.000000001
 43
0.00000001
 40
0.0
 40
0.0
 40
0.0
 40
0.0
 40
0.25
 40
0.25
 40
0.5
 40
0.5
 40
0.75
 40
0.75
 40
1.0
 40
1.0
 40
1.0
 40
1.0
 10
-18.99999999999999
 20
-845.0
 30
0.0
 10
-19.00000000000002
 20
-845.0000000000002
 30
0.0
 10
-18.98926063059325
 20
-844.9892606305937
 30
0.0
 10
-18.94052767046917
 20
-844.9405276704695
 30
0.0
 10
-18.90236892706218
 20
-844.9023689270628
 30
0.0
 10
-18.80473785412437
 20
-844.8047378541248
 30
0.0
 10
-18.74559582997287
 20
-844.7455958299731
 30
0.0
 10
-18.622498879589
 20
-844.6224988795891
 30
0.0
 10
-18.55892556509886
 20
-844.558925565099
 30
0.0
 10
-18.49999999999999
 20
-844.5
 30
0.0
  0
LINE
  5
163
330
23
100
AcDbEntity
  8
0
  6
Continuous
 62
     7
370
    25
100
AcDbLine
 10
319.5
 20
-844.5
 30
0.0
 11
319.5
 21
844.5
 31
0.0
  0
LINE
  5
164
330
23
100
AcDbEntity
  8
0
  6
Continuous
 62
     7
370
    25
100
AcDbLine
 10
320.0
 20
845.0
 30
0.0
 11
320.0
 21
-845.0
 31
0.0
  0
LINE
  5
165
330
23
100
AcDbEntity
  8
0
  6
Continuous
 62
     7
370
    25
100
AcDbLine
 10
319.5
 20
844.5
 30
0.0
 11
-18.5
 21
844.5
 31
0.0
  0
LINE
  5
166
330
23
100
AcDbEntity
  8
0
  6
Continuous
 62
     7
370
    25
100
AcDbLine
 10
-19.0
 20
845.0
 30
0.0
 11
320.0
 21
845.0
 31
0.0
  0
LINE
  5
167
330
23
100
AcDbEntity
  8
0
  6
Continuous
 62
     7
370
    25
100
AcDbLine
 10
320.0
 20
-845.0
 30
0.0
 11
-19.0
 21
-845.0
 31
0.0
  0
LINE
  5
168
330
23
100
AcDbEntity
  8
0
  6
Continuous
 62
     7
370
    25
100
AcDbLine
 10
-18.5
 20
-844.5
 30
0.0
 11
319.5
 21
-844.5
 31
0.0
  0
LINE
  5
169
330
23
100
AcDbEntity
  8
0
  6
Continuous
 62
     7
370
    25
100
AcDbLine
 10
-18.5
 20
844.5
 30
0.0
 11
-18.5
 21
-844.5
 31
0.0
  0
LINE
  5
16A
330
23
100
AcDbEntity
  8
0
  6
Continuous
 62
     7
370
    25
100
AcDbLine
 10
-19.0
 20
-845.0
 30
0.0
 11
-19.0
 21
845.0
 31
0.0
  0
VIEWPORT
  5
418
330
23
100
AcDbEntity
  8
0
100
AcDbViewport
 10
0.0
 20
0.0
 30
0.0
 40
205.6
 41
156.0
 68
     1
 69
     1
 12
0.0
 22
0.0
 13
0.0
 23
0.0
 14
10.0
 24
10.0
 15
10.0
 25
10.0
 16
0.0
 26
0.0
 36
1.0
 17
0.0
 27
0.0
 37
0.0
 42
50.0
 43
0.0
 44
0.0
 45
1723.8
 50
0.0
 51
0.0
 72
   100
 90
   557152
  1

281
     0
 71
     1
 74
     0
110
0.0
120
0.0
130
0.0
111
1.0
121
0.0
131
0.0
112
0.0
122
1.0
132
0.0
 79
     0
146
0.0
  0
ENDBLK
  5
25
330
23
100
AcDbEntity
  8
0
100
AcDbBlockEnd
  0
BLOCK
  5
16D
330
16B
100
AcDbEntity
  8
0
100
AcDbBlockBegin
  2
*Paper_Space1
 70
     0
 10
0.0
 20
0.0
 30
0.0
  3
*Paper_Space1
  1

  0
SPLINE
  5
170
330
16B
100
AcDbEntity
  8
0
  6
Continuous
 62
     7
370
    25
100
AcDbSpline
210
0.0
220
0.0
230
1.0
 70
    24
 71
     3
 72
    14
 73
    10
 74
     0
 42
0.000000001
 43
0.00000001
 40
0.0
 40
0.0
 40
0.0
 40
0.0
 40
0.25
 40
0.25
 40
0.5
 40
0.5
 40
0.75
 40
0.75
 40
1.0
 40
1.0
 40
1.0
 40
1.0
 10
18.99999999999999
 20
-845.0
 30
0.0
 10
19.00000000000002
 20
-845.0000000000003
 30
0.0
 10
18.98926063059325
 20
-844.9892606305938
 30
0.0
 10
18.94052767046917
 20
-844.9405276704697
 30
0.0
 10
18.90236892706218
 20
-844.9023689270626
 30
0.0
 10
18.80473785412437
 20
-844.8047378541247
 30
0.0
 10
18.74559582997287
 20
-844.7455958299731
 30
0.0
 10
18.622498879589
 20
-844.6224988795891
 30
0.0
 10
18.55892556509886
 20
-844.558925565099
 30
0.0
 10
18.49999999999999
 20
-844.5
 30
0.0
  0
SPLINE
  5
172
330
16B
100
AcDbEntity
  8
0
  6
Continuous
 62
     7
370
    25
100
AcDbSpline
210
0.0
220
0.0
230
1.0
 70
    24
 71
     3
 72
    14
 73
    10
 74
     0
 42
0.000000001
 43
0.00000001
 40
0.0
 40
0.0
 40
0.0
 40
0.0
 40
0.25
 40
0.25
 40
0.5
 40
0.5
 40
0.75
 40
0.75
 40
1.0
 40
1.0
 40
1.0
 40
1.0
 10
18.99999999999999
 20
845.0
 30
0.0
 10
19.00000000000002
 20
844.9999999999998
 30
0.0
 10
18.98926063059325
 20
844.9892606305931
 30
0.0
 10
18.94052767046917
 20
844.9405276704688
 30
0.0
 10
18.90236892706218
 20
844.9023689270621
 30
0.0
 10
18.80473785412437
 20
844.8047378541244
 30
0.0
 10
18.74559582997287
 20
844.7455958299729
 30
0.0
 10
18.622498879589
 20
844.622498879589
 30
0.0
 10
18.55892556509886
 20
844.5589255650991
 30
0.0
 10
18.49999999999999
 20
844.5
 30
0.0
  0
SPLINE
  5
174
330
16B
100
AcDbEntity
  8
0
  6
Continuous
 62
     7
370
    25
100
AcDbSpline
210
0.0
220
0.0
230
1.0
 70
    24
 71
     3
 72
    14
 73
    10
 74
     0
 42
0.000000001
 43
0.00000001
 40
0.0
 40
0.0
 40
0.0
 40
0.0
 40
0.25
 40
0.25
 40
0.5
 40
0.5
 40
0.75
 40
0.75
 40
1.0
 40
1.0
 40
1.0
 40
1.0
 10
-319.5
 20
-844.5
 30
0.0
 10
-319.5589255650989
 20
-844.5589255650987
 30
0.0
 10
-319.622498879589
 20
-844.6224988795893
 30
0.0
 10
-319.7455958299728
 20
-844.7455958299729
 30
0.0
 10
-319.8047378541243
 20
-844.8047378541245
 30
0.0
 10
-319.9023689270621
 20
-844.9023689270624
 30
0.0
 10
-319.9405276704693
 20
-844.9405276704692
 30
0.0
 10
-319.9892606305934
 20
-844.9892606305932
 30
0.0
 10
-320.0000000000001
 20
-845.0
 30
0.0
 10
-320.0
 20
-845.0
 30
0.0
  0
SPLINE
  5
176
330
16B
100
AcDbEntity
  8
0
  6
Continuous
 62
     7
370
    25
100
AcDbSpline
210
0.0
220
0.0
230
1.0
 70
    24
 71
     3
 72
    14
 73
    10
 74
     0
 42
0.000000001
 43
0.00000001
 40
0.0
 40
0.0
 40
0.0
 40
0.0
 40
0.25
 40
0.25
 40
0.5
 40
0.5
 40
0.75
 40
0.75
 40
1.0
 40
1.0
 40
1.0
 40
1.0
 10
-319.5
 20
844.5
 30
0.0
 10
-319.5589255650989
 20
844.5589255650987
 30
0.0
 10
-319.622498879589
 20
844.6224988795893
 30
0.0
 10
-319.7455958299728
 20
844.7455958299729
 30
0.0
 10
-319.8047378541243
 20
844.8047378541245
 30
0.0
 10
-319.9023689270621
 20
844.9023689270622
 30
0.0
 10
-319.9405276704692
 20
844.9405276704692
 30
0.0
 10
-319.9892606305933
 20
844.989260630593
 30
0.0
 10
-320.0000000000001
 20
845.0
 30
0.0
 10
-320.0
 20
845.0
 30
0.0
  0
LINE
  5
17B
330
16B
100
AcDbEntity
  8
0
  6
Continuous
 62
     7
370
    25
100
AcDbLine
 10
19.0
 20
845.0
 30
0.0
 11
19.0
 21
-845.0
 31
0.0
  0
LINE
  5
17C
330
16B
100
AcDbEntity
  8
0
  6
Continuous
 62
     7
370
    25
100
AcDbLine
 10
18.5
 20
-844.5
 30
0.0
 11
18.5
 21
844.5
 31
0.0
  0
LINE
  5
17D
330
16B
100
AcDbEntity
  8
0
  6
Continuous
 62
     7
370
    25
100
AcDbLine
 10
-319.5
 20
844.5
 30
0.0
 11
-319.5
 21
-844.5
 31
0.0
  0
LINE
  5
17E
330
16B
100
AcDbEntity
  8
0
  6
Continuous
 62
     7
370
    25
100
AcDbLine
 10
-320.0
 20
-845.0
 30
0.0
 11
-320.0
 21
845.0
 31
0.0
  0
LINE
  5
17F
330
16B
100
AcDbEntity
  8
0
  6
Continuous
 62
     7
370
    25
100
AcDbLine
 10
19.0
 20
-845.0
 30
0.0
 11
-320.0
 21
-845.0
 31
0.0
  0
LINE
  5
180
330
16B
100
AcDbEntity
  8
0
  6
Continuous
 62
     7
370
    25
100
AcDbLine
 10
-319.5
 20
-844.5
 30
0.0
 11
18.5
 21
-844.5
 31
0.0
  0
LINE
  5
181
330
16B
100
AcDbEntity
  8
0
  6
Continuous
 62
     7
370
    25
100
AcDbLine
 10
-320.0
 20
845.0
 30
0.0
 11
19.0
 21
845.0
 31
0.0
  0
LINE
  5
182
330
16B
100
AcDbEntity
  8
0
  6
Continuous
 62
     7
370
    25
100
AcDbLine
 10
18.5
 20
844.5
 30
0.0
 11
-319.5
 21
844.5
 31
0.0
  0
VIEWPORT
  5
41A
330
16B
100
AcDbEntity
  8
0
100
AcDbViewport
 10
0.0
 20
0.0
 30
0.0
 40
205.6
 41
156.0
 68
     1
 69
     1
 12
0.0
 22
0.0
 13
0.0
 23
0.0
 14
10.0
 24
10.0
 15
10.0
 25
10.0
 16
0.0
 26
0.0
 36
1.0
 17
0.0
 27
0.0
 37
0.0
 42
50.0
 43
0.0
 44
0.0
 45
1723.8
 50
0.0
 51
0.0
 72
   100
 90
   557152
  1

281
     0
 71
     1
 74
     0
110
0.0
120
0.0
130
0.0
111
1.0
121
0.0
131
0.0
112
0.0
122
1.0
132
0.0
 79
     0
146
0.0
  0
ENDBLK
  5
16E
330
16B
100
AcDbEntity
  8
0
100
AcDbBlockEnd
  0
BLOCK
  5
185
330
183
100
AcDbEntity
  8
0
100
AcDbBlockBegin
  2
*Paper_Space2
 70
     0
 10
0.0
 20
0.0
 30
0.0
  3
*Paper_Space2
  1

  0
SPLINE
  5
18C
330
183
100
AcDbEntity
  8
0
  6
Continuous
 62
     7
370
    25
100
AcDbSpline
210
0.0
220
0.0
230
1.0
 70
     8
 71
     3
 72
    14
 73
    10
 74
     0
 42
0.000000001
 43
0.00000001
 40
0.0
 40
0.0
 40
0.0
 40
0.0
 40
0.25
 40
0.25
 40
0.5
 40
0.5
 40
0.75
 40
0.75
 40
1.0
 40
1.0
 40
1.0
 40
1.0
 10
158.5
 20
-310.0
 30
0.0
 10
158.5589255650989
 20
-309.9999999999999
 30
0.0
 10
158.6224988795889
 20
-309.9892606305933
 30
0.0
 10
158.7455958299728
 20
-309.940527670469
 30
0.0
 10
158.8047378541243
 20
-309.9023689270619
 30
0.0
 10
158.902368927062
 20
-309.8047378541241
 30
0.0
 10
158.9405276704691
 20
-309.7455958299726
 30
0.0
 10
158.9892606305932
 20
-309.6224988795889
 30
0.0
 10
159.0
 20
-309.5589255650987
 30
0.0
 10
159.0
 20
-309.5
 30
0.0
  0
SPLINE
  5
18D
330
183
100
AcDbEntity
  8
0
  6
Continuous
 62
     7
370
    25
100
AcDbSpline
210
0.0
220
0.0
230
1.0
 70
     8
 71
     3
 72
    14
 73
    10
 74
     0
 42
0.000000001
 43
0.00000001
 40
0.0
 40
0.0
 40
0.0
 40
0.0
 40
0.25
 40
0.25
 40
0.5
 40
0.5
 40
0.75
 40
0.75
 40
1.0
 40
1.0
 40
1.0
 40
1.0
 10
-159.0
 20
-309.5
 30
0.0
 10
-159.0000000000001
 20
-309.5589255650988
 30
0.0
 10
-158.9892606305933
 20
-309.6224988795889
 30
0.0
 10
-158.9405276704692
 20
-309.7455958299727
 30
0.0
 10
-158.9023689270622
 20
-309.8047378541242
 30
0.0
 10
-158.8047378541244
 20
-309.902368927062
 30
0.0
 10
-158.7455958299729
 20
-309.940527670469
 30
0.0
 10
-158.622498879589
 20
-309.9892606305932
 30
0.0
 10
-158.5589255650989
 20
-310.0000000000001
 30
0.0
 10
-158.5
 20
-310.0
 30
0.0
  0
SPLINE
  5
194
330
183
100
AcDbEntity
  8
0
  6
Continuous
 62
     7
370
    25
100
AcDbSpline
210
0.0
220
0.0
230
1.0
 70
     8
 71
     3
 72
    14
 73
    10
 74
     0
 42
0.000000001
 43
0.00000001
 40
0.0
 40
0.0
 40
0.0
 40
0.0
 40
0.25
 40
0.25
 40
0.5
 40
0.5
 40
0.75
 40
0.75
 40
1.0
 40
1.0
 40
1.0
 40
1.0
 10
-175.0
 20
18.49999999999999
 30
0.0
 10
-175.0000000000001
 20
18.55892556509886
 30
0.0
 10
-174.9892606305933
 20
18.622498879589
 30
0.0
 10
-174.9405276704692
 20
18.74559582997287
 30
0.0
 10
-174.9023689270622
 20
18.80473785412437
 30
0.0
 10
-174.8047378541244
 20
18.90236892706218
 30
0.0
 10
-174.7455958299729
 20
18.94052767046917
 30
0.0
 10
-174.6224988795889
 20
18.98926063059325
 30
0.0
 10
-174.5589255650989
 20
19.00000000000002
 30
0.0
 10
-174.5
 20
18.99999999999999
 30
0.0
  0
SPLINE
  5
196
330
183
100
AcDbEntity
  8
0
  6
Continuous
 62
     7
370
    25
100
AcDbSpline
210
0.0
220
0.0
230
1.0
 70
     8
 71
     3
 72
    14
 73
    10
 74
     0
 42
0.000000001
 43
0.00000001
 40
0.0
 40
0.0
 40
0.0
 40
0.0
 40
0.25
 40
0.25
 40
0.5
 40
0.5
 40
0.75
 40
0.75
 40
1.0
 40
1.0
 40
1.0
 40
1.0
 10
-175.0
 20
-319.5
 30
0.0
 10
-175.0000000000001
 20
-319.5589255650989
 30
0.0
 10
-174.9892606305933
 20
-319.622498879589
 30
0.0
 10
-174.9405276704692
 20
-319.7455958299728
 30
0.0
 10
-174.9023689270622
 20
-319.8047378541243
 30
0.0
 10
-174.8047378541244
 20
-319.9023689270621
 30
0.0
 10
-174.7455958299729
 20
-319.9405276704693
 30
0.0
 10
-174.6224988795889
 20
-319.9892606305934
 30
0.0
 10
-174.5589255650989
 20
-320.0000000000001
 30
0.0
 10
-174.5
 20
-320.0
 30
0.0
  0
SPLINE
  5
19B
330
183
100
AcDbEntity
  8
0
  6
Continuous
 62
     7
370
    25
100
AcDbSpline
210
0.0
220
0.0
230
1.0
 70
     8
 71
     3
 72
    14
 73
    10
 74
     0
 42
0.000000001
 43
0.00000001
 40
0.0
 40
0.0
 40
0.0
 40
0.0
 40
0.25
 40
0.25
 40
0.5
 40
0.5
 40
0.75
 40
0.75
 40
1.0
 40
1.0
 40
1.0
 40
1.0
 10
174.5
 20
18.99999999999999
 30
0.0
 10
174.5589255650989
 20
19.00000000000002
 30
0.0
 10
174.622498879589
 20
18.98926063059325
 30
0.0
 10
174.7455958299729
 20
18.94052767046917
 30
0.0
 10
174.8047378541244
 20
18.90236892706218
 30
0.0
 10
174.9023689270622
 20
18.80473785412437
 30
0.0
 10
174.9405276704693
 20
18.74559582997287
 30
0.0
 10
174.9892606305933
 20
18.622498879589
 30
0.0
 10
175.0000000000001
 20
18.55892556509886
 30
0.0
 10
175.0
 20
18.49999999999999
 30
0.0
  0
SPLINE
  5
19D
330
183
100
AcDbEntity
  8
0
  6
Continuous
 62
     7
370
    25
100
AcDbSpline
210
0.0
220
0.0
230
1.0
 70
     8
 71
     3
 72
    14
 73
    10
 74
     0
 42
0.000000001
 43
0.00000001
 40
0.0
 40
0.0
 40
0.0
 40
0.0
 40
0.25
 40
0.25
 40
0.5
 40
0.5
 40
0.75
 40
0.75
 40
1.0
 40
1.0
 40
1.0
 40
1.0
 10
175.0
 20
-319.5
 30
0.0
 10
175.0000000000001
 20
-319.5589255650989
 30
0.0
 10
174.9892606305933
 20
-319.622498879589
 30
0.0
 10
174.9405276704692
 20
-319.7455958299728
 30
0.0
 10
174.9023689270622
 20
-319.8047378541243
 30
0.0
 10
174.8047378541244
 20
-319.9023689270621
 30
0.0
 10
174.7455958299729
 20
-319.9405276704692
 30
0.0
 10
174.622498879589
 20
-319.9892606305933
 30
0.0
 10
174.5589255650989
 20
-320.0000000000001
 30
0.0
 10
174.5
 20
-320.0
 30
0.0
  0
SPLINE
  5
19E
330
183
100
AcDbEntity
  8
0
  6
Continuous
 62
     7
370
    25
100
AcDbSpline
210
0.0
220
0.0
230
1.0
 70
    24
 71
     3
 72
     8
 73
     4
 74
     0
 42
0.000000001
 43
0.00000001
 40
0.0
 40
0.0
 40
0.0
 40
0.0
 40
1.0
 40
1.0
 40
1.0
 40
1.0
 10
159.0
 20
-309.739716474724
 30
0.0
 10
158.9999999999997
 20
-309.6394812082219
 30
0.0
 10
158.9999999999997
 20
-309.5119773718615
 30
0.0
 10
159.0
 20
-309.389612705619
 30
0.0
  0
SPLINE
  5
19F
330
183
100
AcDbEntity
  8
0
  6
Continuous
 62
     7
370
    25
100
AcDbSpline
210
0.0
220
0.0
230
1.0
 70
     8
 71
     3
 72
     8
 73
     4
 74
     0
 42
0.000000001
 43
0.00000001
 40
0.0
 40
0.0
 40
0.0
 40
0.0
 40
1.0
 40
1.0
 40
1.0
 40
1.0
 10
173.4391294618605
 20
-320.0
 30
0.0
 10
173.3388941953593
 20
-320.0000000000003
 30
0.0
 10
173.2344491671494
 20
-319.9670686091013
 30
0.0
 10
173.152341243685
 20
-319.9095760221445
 30
0.0
  0
SPLINE
  5
1A1
330
183
100
AcDbEntity
  8
0
  6
Continuous
 62
     7
370
    25
100
AcDbSpline
210
0.0
220
0.0
230
1.0
 70
     8
 71
     3
 72
    10
 73
     6
 74
     0
 42
0.000000001
 43
0.00000001
 40
0.0
 40
0.0
 40
0.0
 40
0.0
 40
0.5
 40
0.5
 40
1.0
 40
1.0
 40
1.0
 40
1.0
 10
159.0
 20
-309.739716474724
 30
0.0
 10
158.9999999999999
 20
-309.8166745769297
 30
0.0
 10
159.0188315278034
 20
-309.8982407246726
 30
0.0
 10
159.0941576390179
 20
-310.0429408380099
 30
0.0
 10
159.1501713950778
 20
-310.1051511428569
 30
0.0
 10
159.2132117818245
 20
-310.1492924968685
 30
0.0
  0
SPLINE
  5
1A2
330
183
100
AcDbEntity
  8
0
  6
Continuous
 62
     7
370
    25
100
AcDbSpline
210
0.0
220
0.0
230
1.0
 70
    24
 71
     3
 72
    10
 73
     6
 74
     0
 42
0.000000001
 43
0.00000001
 40
0.0
 40
0.0
 40
0.0
 40
0.0
 40
0.5
 40
0.5
 40
1.0
 40
1.0
 40
1.0
 40
1.0
 10
174.1532034652315
 20
-320.0
 30
0.0
 10
174.0190311085438
 20
-319.9999999999999
 30
0.0
 10
173.8768248696302
 20
-320.0000000000001
 30
0.0
 10
173.6245479207062
 20
-320.0
 30
0.0
 10
173.5160875640665
 20
-320.0
 30
0.0
 10
173.4391294618605
 20
-320.0
 30
0.0
  0
SPLINE
  5
1A3
330
183
100
AcDbEntity
  8
0
  6
Continuous
 62
     7
370
    25
100
AcDbSpline
210
0.0
220
0.0
230
1.0
 70
     8
 71
     3
 72
    10
 73
     6
 74
     0
 42
0.000000001
 43
0.00000001
 40
0.0
 40
0.0
 40
0.0
 40
0.0
 40
0.5
 40
0.5
 40
1.0
 40
1.0
 40
1.0
 40
1.0
 10
-159.2132117818245
 20
-310.1492924968685
 30
0.0
 10
-159.1501713950779
 20
-310.1051511428567
 30
0.0
 10
-159.094157639018
 20
-310.04294083801
 30
0.0
 10
-159.0188315278033
 20
-309.8982407246723
 30
0.0
 10
-158.9999999999998
 20
-309.8166745769296
 30
0.0
 10
-159.0
 20
-309.739716474724
 30
0.0
  0
SPLINE
  5
1A5
330
183
100
AcDbEntity
  8
0
  6
Continuous
 62
     7
370
    25
100
AcDbSpline
210
0.0
220
0.0
230
1.0
 70
     8
 71
     3
 72
     8
 73
     4
 74
     0
 42
0.000000001
 43
0.00000001
 40
0.0
 40
0.0
 40
0.0
 40
0.0
 40
1.0
 40
1.0
 40
1.0
 40
1.0
 10
-173.152341243685
 20
-319.9095760221445
 30
0.0
 10
-173.2344491671494
 20
-319.9670686091013
 30
0.0
 10
-173.3388941953593
 20
-319.9999999999999
 30
0.0
 10
-173.4391294618605
 20
-320.0
 30
0.0
  0
SPLINE
  5
1A6
330
183
100
AcDbEntity
  8
0
  6
Continuous
 62
     7
370
    25
100
AcDbSpline
210
0.0
220
0.0
230
1.0
 70
    24
 71
     3
 72
    10
 73
     6
 74
     0
 42
0.000000001
 43
0.00000001
 40
0.0
 40
0.0
 40
0.0
 40
0.0
 40
0.5
 40
0.5
 40
1.0
 40
1.0
 40
1.0
 40
1.0
 10
-173.4391294618605
 20
-320.0
 30
0.0
 10
-173.5160875640664
 20
-319.9999999999998
 30
0.0
 10
-173.6245479207061
 20
-319.9999999999998
 30
0.0
 10
-173.8768248696301
 20
-319.9999999999998
 30
0.0
 10
-174.0190311085437
 20
-319.9999999999998
 30
0.0
 10
-174.1532034652315
 20
-320.0
 30
0.0
  0
SPLINE
  5
1A7
330
183
100
AcDbEntity
  8
0
  6
Continuous
 62
     7
370
    25
100
AcDbSpline
210
0.0
220
0.0
230
1.0
 70
    24
 71
     3
 72
     8
 73
     4
 74
     0
 42
0.000000001
 43
0.00000001
 40
0.0
 40
0.0
 40
0.0
 40
0.0
 40
1.0
 40
1.0
 40
1.0
 40
1.0
 10
-159.0
 20
-309.389612705619
 30
0.0
 10
-158.9999999999997
 20
-309.5119773718615
 30
0.0
 10
-158.9999999999997
 20
-309.6394812082219
 30
0.0
 10
-159.0
 20
-309.739716474724
 30
0.0
  0
SPLINE
  5
1A8
330
183
100
AcDbEntity
  8
0
  6
Continuous
 62
     7
370
    25
100
AcDbSpline
210
0.0
220
0.0
230
1.0
 70
     8
 71
     3
 72
    10
 73
     6
 74
     0
 42
0.000000001
 43
0.00000001
 40
0.0
 40
0.0
 40
0.0
 40
0.0
 40
0.3407406776411832
 40
0.6728125813120777
 40
1.0
 40
1.0
 40
1.0
 40
1.0
 10
171.488275463461
 20
-319.6500583613665
 30
0.0
 10
171.4577963560943
 20
-319.6413282407177
 30
0.0
 10
171.3976135594718
 20
-319.6240901021733
 30
0.0
 10
171.3052613847813
 20
-319.6088908093529
 30
0.0
 10
171.2437430520183
 20
-319.6068325664912
 30
0.0
 10
171.2132117818245
 20
-319.6058110698719
 30
0.0
  0
SPLINE
  5
1AA
330
183
100
AcDbEntity
  8
0
  6
Continuous
 62
     7
370
    25
100
AcDbSpline
210
0.0
220
0.0
230
1.0
 70
     8
 71
     3
 72
    11
 73
     7
 74
     0
 42
0.000000001
 43
0.00000001
 40
0.0
 40
0.0
 40
0.0
 40
0.0
 40
0.2450890083269517
 40
0.4923764711674687
 40
0.7434940738850239
 40
1.0
 40
1.0
 40
1.0
 40
1.0
 10
171.5000000000002
 20
-319.6058110698719
 30
0.0
 10
171.4998822901959
 20
-319.6063684955864
 30
0.0
 10
171.4996458147274
 20
-319.6074883471377
 30
0.0
 10
171.4976339513451
 20
-319.6163251992664
 30
0.0
 10
171.4942956757635
 20
-319.6299536818381
 30
0.0
 10
171.4902963515738
 20
-319.6433095449084
 30
0.0
 10
171.488275463461
 20
-319.6500583613665
 30
0.0
  0
SPLINE
  5
1AC
330
183
100
AcDbEntity
  8
0
  6
Continuous
 62
     7
370
    25
100
AcDbSpline
210
0.0
220
0.0
230
1.0
 70
     8
 71
     3
 72
    10
 73
     6
 74
     0
 42
0.000000001
 43
0.00000001
 40
0.0
 40
0.0
 40
0.0
 40
0.0
 40
0.5
 40
0.5
 40
1.0
 40
1.0
 40
1.0
 40
1.0
 10
-171.011324220477
 20
-320.0
 30
0.0
 10
-171.1099173291263
 20
-320.0
 30
0.0
 10
-171.2190854458061
 20
-319.9677103280335
 30
0.0
 10
-171.3951216470442
 20
-319.8385516401669
 30
0.0
 10
-171.4586860228091
 20
-319.7441065728065
 30
0.0
 10
-171.488275463461
 20
-319.6500583613665
 30
0.0
  0
SPLINE
  5
1AD
330
183
100
AcDbEntity
  8
0
  6
Continuous
 62
     7
370
    25
100
AcDbSpline
210
0.0
220
0.0
230
1.0
 70
     8
 71
     3
 72
    11
 73
     7
 74
     0
 42
0.000000001
 43
0.00000001
 40
0.0
 40
0.0
 40
0.0
 40
0.0
 40
0.2450890083291423
 40
0.4923764711701607
 40
0.7434940738868387
 40
1.0
 40
1.0
 40
1.0
 40
1.0
 10
-171.2132117818245
 20
-319.6058110698719
 30
0.0
 10
-171.2360913539014
 20
-319.6063684955864
 30
0.0
 10
-171.2820557283868
 20
-319.607488347138
 30
0.0
 10
-171.3509505249613
 20
-319.6163251992666
 30
0.0
 10
-171.4200812677817
 20
-319.6299536818382
 30
0.0
 10
-171.4653837725241
 20
-319.6433095449084
 30
0.0
 10
-171.4882754634609
 20
-319.6500583613665
 30
0.0
  0
SPLINE
  5
1AF
330
183
100
AcDbEntity
  8
0
  6
Continuous
 62
     7
370
    25
100
AcDbSpline
210
0.0
220
0.0
230
1.0
 70
     8
 71
     3
 72
    10
 73
     6
 74
     0
 42
0.000000001
 43
0.00000001
 40
0.0
 40
0.0
 40
0.0
 40
0.0
 40
0.5
 40
0.5
 40
1.0
 40
1.0
 40
1.0
 40
1.0
 10
171.488275463461
 20
-319.6500583613665
 30
0.0
 10
171.458686022809
 20
-319.7441065728065
 30
0.0
 10
171.3951216470441
 20
-319.8385516401671
 30
0.0
 10
171.2190854458061
 20
-319.9677103280334
 30
0.0
 10
171.1099173291263
 20
-320.0
 30
0.0
 10
171.011324220477
 20
-320.0
 30
0.0
  0
SPLINE
  5
1B0
330
183
100
AcDbEntity
  8
0
  6
Continuous
 62
     7
370
    25
100
AcDbSpline
210
0.0
220
0.0
230
1.0
 70
     8
 71
     3
 72
    10
 73
     6
 74
     0
 42
0.000000001
 43
0.00000001
 40
0.0
 40
0.0
 40
0.0
 40
0.0
 40
0.3407406776468461
 40
0.6728125813175312
 40
1.0
 40
1.0
 40
1.0
 40
1.0
 10
-171.488275463461
 20
-319.6500583613665
 30
0.0
 10
-171.490847391664
 20
-319.6413282407174
 30
0.0
 10
-171.4959258157171
 20
-319.6240901021729
 30
0.0
 10
-171.4993208360627
 20
-319.6088908093525
 30
0.0
 10
-171.4997747330027
 20
-319.6068325664909
 30
0.0
 10
-171.5000000000002
 20
-319.6058110698719
 30
0.0
  0
LINE
  5
1B4
330
183
100
AcDbEntity
  8
0
  6
Continuous
 62
     7
370
    25
100
AcDbLine
 10
174.5
 20
19.0
 30
0.0
 11
-174.5
 21
19.0
 31
0.0
  0
LINE
  5
1B5
330
183
100
AcDbEntity
  8
0
  6
Continuous
 62
     7
370
    25
100
AcDbLine
 10
159.0
 20
19.0
 30
0.0
 11
159.0
 21
-309.5
 31
0.0
  0
LINE
  5
1B6
330
183
100
AcDbEntity
  8
0
  6
Continuous
 62
     7
370
    25
100
AcDbLine
 10
-159.0
 20
-309.5
 30
0.0
 11
159.0
 21
-309.5
 31
0.0
  0
LINE
  5
1B7
330
183
100
AcDbEntity
  8
0
  6
Continuous
 62
     7
370
    25
100
AcDbLine
 10
-159.0
 20
19.0
 30
0.0
 11
-159.0
 21
-309.5
 31
0.0
  0
LINE
  5
1B8
330
183
100
AcDbEntity
  8
0
  6
Continuous
 62
     7
370
    25
100
AcDbLine
 10
158.5
 20
-310.0
 30
0.0
 11
-158.5
 21
-310.0
 31
0.0
  0
LINE
  5
1B9
330
183
100
AcDbEntity
  8
0
  6
Continuous
 62
     7
370
    25
100
AcDbLine
 10
174.5
 20
-320.0
 30
0.0
 11
174.5
 21
19.0
 31
0.0
  0
LINE
  5
1BA
330
183
100
AcDbEntity
  8
0
  6
Continuous
 62
     7
370
    25
100
AcDbLine
 10
159.0
 20
-309.3896127056
 30
0.0
 11
174.1532034652
 21
-320.0
 31
0.0
  0
LINE
  5
1BB
330
183
100
AcDbEntity
  8
0
  6
Continuous
 62
     7
370
    25
100
AcDbLine
 10
174.5
 20
-320.0
 30
0.0
 11
174.1532034652
 21
-320.0
 31
0.0
  0
LINE
  5
1BC
330
183
100
AcDbEntity
  8
0
  6
Continuous
 62
     7
370
    25
100
AcDbLine
 10
-175.0
 20
-319.5
 30
0.0
 11
-175.0
 21
18.5
 31
0.0
  0
LINE
  5
1BD
330
183
100
AcDbEntity
  8
0
  6
Continuous
 62
     7
370
    25
100
AcDbLine
 10
-174.5
 20
19.0
 30
0.0
 11
-174.5
 21
-320.0
 31
0.0
  0
LINE
  5
1BE
330
183
100
AcDbEntity
  8
0
  6
Continuous
 62
     7
370
    25
100
AcDbLine
 10
-174.1532034652
 20
-320.0
 30
0.0
 11
-159.0
 21
-309.3896127056
 31
0.0
  0
LINE
  5
1BF
330
183
100
AcDbEntity
  8
0
  6
Continuous
 62
     7
370
    25
100
AcDbLine
 10
-174.1532034652
 20
-320.0
 30
0.0
 11
-174.5
 21
-320.0
 31
0.0
  0
LINE
  5
1C0
330
183
100
AcDbEntity
  8
0
  6
Continuous
 62
     7
370
    25
100
AcDbLine
 10
175.0
 20
18.5
 30
0.0
 11
175.0
 21
-319.5
 31
0.0
  0
LINE
  5
1C1
330
183
100
AcDbEntity
  8
0
  6
Continuous
 62
     7
370
    25
100
AcDbLine
 10
173.1523412437
 20
-319.9095760221
 30
0.0
 11
159.2132117818
 21
-310.1492924969
 31
0.0
  0
LINE
  5
1C2
330
183
100
AcDbEntity
  8
0
  6
Continuous
 62
     7
370
    25
100
AcDbLine
 10
-159.2132117818
 20
-310.1492924969
 30
0.0
 11
-173.1523412437
 21
-319.9095760221
 31
0.0
  0
LINE
  5
1C3
330
183
100
AcDbEntity
  8
0
  6
Continuous
 62
     7
370
    25
100
AcDbLine
 10
157.7814800674
 20
-310.0
 30
0.0
 11
171.5
 21
-319.6058110699
 31
0.0
  0
LINE
  5
1C4
330
183
100
AcDbEntity
  8
0
  6
Continuous
 62
     7
370
    25
100
AcDbLine
 10
171.0113242205
 20
-320.0
 30
0.0
 11
-171.0113242205
 21
-320.0
 31
0.0
  0
LINE
  5
1C5
330
183
100
AcDbEntity
  8
0
  6
Continuous
 62
     7
370
    25
100
AcDbLine
 10
171.2132117818
 20
-319.6058110699
 30
0.0
 11
-171.2132117818
 21
-319.6058110699
 31
0.0
  0
LINE
  5
1C6
330
183
100
AcDbEntity
  8
0
  6
Continuous
 62
     7
370
    25
100
AcDbLine
 10
-171.5
 20
-319.6058110699
 30
0.0
 11
-157.7814800674
 21
-310.0
 31
0.0
  0
LINE
  5
1C7
330
183
100
AcDbEntity
  8
0
  6
Continuous
 62
     8
370
    25
100
AcDbLine
 10
171.2132117818
 20
-319.6058110699
 30
0.0
 11
157.4946918492
 21
-310.0
 31
0.0
  0
LINE
  5
1C8
330
183
100
AcDbEntity
  8
0
  6
Continuous
 62
     8
370
    25
100
AcDbLine
 10
-157.4946918492
 20
-310.0
 30
0.0
 11
-171.2132117818
 21
-319.6058110699
 31
0.0
  0
VIEWPORT
  5
41C
330
183
100
AcDbEntity
  8
0
100
AcDbViewport
 10
0.0
 20
0.0
 30
0.0
 40
205.6
 41
156.0
 68
     1
 69
     1
 12
0.0
 22
0.0
 13
0.0
 23
0.0
 14
10.0
 24
10.0
 15
10.0
 25
10.0
 16
0.0
 26
0.0
 36
1.0
 17
0.0
 27
0.0
 37
0.0
 42
50.0
 43
0.0
 44
0.0
 45
1723.8
 50
0.0
 51
0.0
 72
   100
 90
   557152
  1

281
     0
 71
     1
 74
     0
110
0.0
120
0.0
130
0.0
111
1.0
121
0.0
131
0.0
112
0.0
122
1.0
132
0.0
 79
     0
146
0.0
  0
ENDBLK
  5
186
330
183
100
AcDbEntity
  8
0
100
AcDbBlockEnd
  0
BLOCK
  5
1CB
330
1C9
100
AcDbEntity
  8
0
100
AcDbBlockBegin
  2
*Paper_Space3
 70
     0
 10
0.0
 20
0.0
 30
0.0
  3
*Paper_Space3
  1

  0
SPLINE
  5
1CE
330
1C9
100
AcDbEntity
  8
0
  6
Continuous
 62
     7
370
    25
100
AcDbSpline
210
0.0
220
0.0
230
1.0
 70
     8
 71
     3
 72
    14
 73
    10
 74
     0
 42
0.000000001
 43
0.00000001
 40
0.0
 40
0.0
 40
0.0
 40
0.0
 40
0.25
 40
0.25
 40
0.5
 40
0.5
 40
0.75
 40
0.75
 40
1.0
 40
1.0
 40
1.0
 40
1.0
 10
158.5
 20
310.0
 30
0.0
 10
158.5589255650989
 20
309.9999999999999
 30
0.0
 10
158.6224988795891
 20
309.9892606305932
 30
0.0
 10
158.745595829973
 20
309.940527670469
 30
0.0
 10
158.8047378541244
 20
309.9023689270622
 30
0.0
 10
158.9023689270622
 20
309.8047378541243
 30
0.0
 10
158.9405276704693
 20
309.7455958299728
 30
0.0
 10
158.9892606305933
 20
309.622498879589
 30
0.0
 10
159.0
 20
309.5589255650989
 30
0.0
 10
159.0
 20
309.5
 30
0.0
  0
SPLINE
  5
1D0
330
1C9
100
AcDbEntity
  8
0
  6
Continuous
 62
     7
370
    25
100
AcDbSpline
210
0.0
220
0.0
230
1.0
 70
     8
 71
     3
 72
    14
 73
    10
 74
     0
 42
0.000000001
 43
0.00000001
 40
0.0
 40
0.0
 40
0.0
 40
0.0
 40
0.25
 40
0.25
 40
0.5
 40
0.5
 40
0.75
 40
0.75
 40
1.0
 40
1.0
 40
1.0
 40
1.0
 10
-159.0
 20
309.5
 30
0.0
 10
-158.9999999999999
 20
309.5589255650989
 30
0.0
 10
-158.9892606305932
 20
309.6224988795892
 30
0.0
 10
-158.9405276704691
 20
309.7455958299728
 30
0.0
 10
-158.9023689270621
 20
309.8047378541243
 30
0.0
 10
-158.8047378541243
 20
309.9023689270621
 30
0.0
 10
-158.7455958299728
 20
309.9405276704691
 30
0.0
 10
-158.622498879589
 20
309.9892606305932
 30
0.0
 10
-158.5589255650988
 20
309.9999999999999
 30
0.0
 10
-158.5
 20
310.0
 30
0.0
  0
SPLINE
  5
1D6
330
1C9
100
AcDbEntity
  8
0
  6
Continuous
 62
     7
370
    25
100
AcDbSpline
210
0.0
220
0.0
230
1.0
 70
     8
 71
     3
 72
    14
 73
    10
 74
     0
 42
0.000000001
 43
0.00000001
 40
0.0
 40
0.0
 40
0.0
 40
0.0
 40
0.25
 40
0.25
 40
0.5
 40
0.5
 40
0.75
 40
0.75
 40
1.0
 40
1.0
 40
1.0
 40
1.0
 10
-174.5
 20
-18.99999999999999
 30
0.0
 10
-174.5589255650989
 20
-19.00000000000002
 30
0.0
 10
-174.622498879589
 20
-18.98926063059325
 30
0.0
 10
-174.745595829973
 20
-18.94052767046917
 30
0.0
 10
-174.8047378541245
 20
-18.90236892706218
 30
0.0
 10
-174.9023689270624
 20
-18.80473785412437
 30
0.0
 10
-174.9405276704693
 20
-18.74559582997287
 30
0.0
 10
-174.9892606305933
 20
-18.622498879589
 30
0.0
 10
-175.0000000000001
 20
-18.55892556509886
 30
0.0
 10
-175.0
 20
-18.49999999999999
 30
0.0
  0
SPLINE
  5
1D7
330
1C9
100
AcDbEntity
  8
0
  6
Continuous
 62
     7
370
    25
100
AcDbSpline
210
0.0
220
0.0
230
1.0
 70
     8
 71
     3
 72
    14
 73
    10
 74
     0
 42
0.000000001
 43
0.00000001
 40
0.0
 40
0.0
 40
0.0
 40
0.0
 40
0.25
 40
0.25
 40
0.5
 40
0.5
 40
0.75
 40
0.75
 40
1.0
 40
1.0
 40
1.0
 40
1.0
 10
-174.5
 20
320.0
 30
0.0
 10
-174.5589255650989
 20
320.0000000000001
 30
0.0
 10
-174.6224988795891
 20
319.9892606305934
 30
0.0
 10
-174.745595829973
 20
319.9405276704693
 30
0.0
 10
-174.8047378541245
 20
319.9023689270623
 30
0.0
 10
-174.9023689270624
 20
319.8047378541244
 30
0.0
 10
-174.9405276704693
 20
319.7455958299728
 30
0.0
 10
-174.9892606305933
 20
319.6224988795889
 30
0.0
 10
-175.0000000000001
 20
319.5589255650988
 30
0.0
 10
-175.0
 20
319.5
 30
0.0
  0
SPLINE
  5
1D9
330
1C9
100
AcDbEntity
  8
0
  6
Continuous
 62
     7
370
    25
100
AcDbSpline
210
0.0
220
0.0
230
1.0
 70
     8
 71
     3
 72
    14
 73
    10
 74
     0
 42
0.000000001
 43
0.00000001
 40
0.0
 40
0.0
 40
0.0
 40
0.0
 40
0.25
 40
0.25
 40
0.5
 40
0.5
 40
0.75
 40
0.75
 40
1.0
 40
1.0
 40
1.0
 40
1.0
 10
175.0
 20
319.5
 30
0.0
 10
175.0000000000001
 20
319.5589255650989
 30
0.0
 10
174.9892606305933
 20
319.622498879589
 30
0.0
 10
174.9405276704693
 20
319.7455958299728
 30
0.0
 10
174.9023689270623
 20
319.8047378541243
 30
0.0
 10
174.8047378541245
 20
319.9023689270621
 30
0.0
 10
174.745595829973
 20
319.9405276704693
 30
0.0
 10
174.622498879589
 20
319.9892606305934
 30
0.0
 10
174.5589255650989
 20
320.0000000000001
 30
0.0
 10
174.5
 20
320.0
 30
0.0
  0
SPLINE
  5
1DB
330
1C9
100
AcDbEntity
  8
0
  6
Continuous
 62
     7
370
    25
100
AcDbSpline
210
0.0
220
0.0
230
1.0
 70
     8
 71
     3
 72
    14
 73
    10
 74
     0
 42
0.000000001
 43
0.00000001
 40
0.0
 40
0.0
 40
0.0
 40
0.0
 40
0.25
 40
0.25
 40
0.5
 40
0.5
 40
0.75
 40
0.75
 40
1.0
 40
1.0
 40
1.0
 40
1.0
 10
174.5
 20
-18.99999999999999
 30
0.0
 10
174.5589255650989
 20
-19.00000000000002
 30
0.0
 10
174.6224988795891
 20
-18.98926063059325
 30
0.0
 10
174.745595829973
 20
-18.94052767046917
 30
0.0
 10
174.8047378541245
 20
-18.90236892706218
 30
0.0
 10
174.9023689270624
 20
-18.80473785412437
 30
0.0
 10
174.9405276704693
 20
-18.74559582997287
 30
0.0
 10
174.9892606305933
 20
-18.622498879589
 30
0.0
 10
175.0000000000001
 20
-18.55892556509886
 30
0.0
 10
175.0
 20
-18.49999999999999
 30
0.0
  0
SPLINE
  5
1DD
330
1C9
100
AcDbEntity
  8
0
  6
Continuous
 62
     7
370
    25
100
AcDbSpline
210
0.0
220
0.0
230
1.0
 70
    24
 71
     3
 72
    10
 73
     6
 74
     0
 42
0.000000001
 43
0.00000001
 40
0.0
 40
0.0
 40
0.0
 40
0.0
 40
0.5
 40
0.5
 40
1.0
 40
1.0
 40
1.0
 40
1.0
 10
-174.153203465232
 20
320.0
 30
0.0
 10
-174.0190311085442
 20
320.0000000000001
 30
0.0
 10
-173.8768248696306
 20
320.0000000000002
 30
0.0
 10
-173.6245479207066
 20
320.0000000000001
 30
0.0
 10
-173.5160875640668
 20
320.0000000000001
 30
0.0
 10
-173.439129461861
 20
320.0
 30
0.0
  0
SPLINE
  5
1DE
330
1C9
100
AcDbEntity
  8
0
  6
Continuous
 62
     7
370
    25
100
AcDbSpline
210
0.0
220
0.0
230
1.0
 70
     8
 71
     3
 72
     8
 73
     4
 74
     0
 42
0.000000001
 43
0.00000001
 40
0.0
 40
0.0
 40
0.0
 40
0.0
 40
1.0
 40
1.0
 40
1.0
 40
1.0
 10
-173.439129461861
 20
320.0
 30
0.0
 10
-173.3388941953596
 20
320.0000000000001
 30
0.0
 10
-173.2344491671497
 20
319.967068609101
 30
0.0
 10
-173.1523412436855
 20
319.9095760221445
 30
0.0
  0
SPLINE
  5
1E0
330
1C9
100
AcDbEntity
  8
0
  6
Continuous
 62
     7
370
    25
100
AcDbSpline
210
0.0
220
0.0
230
1.0
 70
     8
 71
     3
 72
    10
 73
     6
 74
     0
 42
0.000000001
 43
0.00000001
 40
0.0
 40
0.0
 40
0.0
 40
0.0
 40
0.5
 40
0.5
 40
1.0
 40
1.0
 40
1.0
 40
1.0
 10
-159.0
 20
309.739716474724
 30
0.0
 10
-159.0
 20
309.8166745769297
 30
0.0
 10
-159.0188315278037
 20
309.8982407246726
 30
0.0
 10
-159.0941576390181
 20
310.0429408380099
 30
0.0
 10
-159.150171395078
 20
310.1051511428569
 30
0.0
 10
-159.2132117818245
 20
310.1492924968685
 30
0.0
  0
SPLINE
  5
1E1
330
1C9
100
AcDbEntity
  8
0
  6
Continuous
 62
     7
370
    25
100
AcDbSpline
210
0.0
220
0.0
230
1.0
 70
    24
 71
     3
 72
     8
 73
     4
 74
     0
 42
0.000000001
 43
0.00000001
 40
0.0
 40
0.0
 40
0.0
 40
0.0
 40
1.0
 40
1.0
 40
1.0
 40
1.0
 10
-159.0
 20
309.739716474724
 30
0.0
 10
-159.0000000000003
 20
309.6394812082217
 30
0.0
 10
-159.0000000000003
 20
309.5119773718618
 30
0.0
 10
-159.0
 20
309.389612705619
 30
0.0
  0
SPLINE
  5
1E2
330
1C9
100
AcDbEntity
  8
0
  6
Continuous
 62
     7
370
    25
100
AcDbSpline
210
0.0
220
0.0
230
1.0
 70
    24
 71
     3
 72
     8
 73
     4
 74
     0
 42
0.000000001
 43
0.00000001
 40
0.0
 40
0.0
 40
0.0
 40
0.0
 40
1.0
 40
1.0
 40
1.0
 40
1.0
 10
159.0
 20
309.389612705619
 30
0.0
 10
159.0000000000003
 20
309.5119773718613
 30
0.0
 10
159.0000000000003
 20
309.6394812082217
 30
0.0
 10
159.0
 20
309.739716474724
 30
0.0
  0
SPLINE
  5
1E3
330
1C9
100
AcDbEntity
  8
0
  6
Continuous
 62
     7
370
    25
100
AcDbSpline
210
0.0
220
0.0
230
1.0
 70
     8
 71
     3
 72
    10
 73
     6
 74
     0
 42
0.000000001
 43
0.00000001
 40
0.0
 40
0.0
 40
0.0
 40
0.0
 40
0.5
 40
0.5
 40
1.0
 40
1.0
 40
1.0
 40
1.0
 10
159.2132117818245
 20
310.1492924968685
 30
0.0
 10
159.150171395078
 20
310.1051511428569
 30
0.0
 10
159.0941576390182
 20
310.0429408380101
 30
0.0
 10
159.0188315278036
 20
309.8982407246726
 30
0.0
 10
159.0
 20
309.8166745769298
 30
0.0
 10
159.0
 20
309.739716474724
 30
0.0
  0
SPLINE
  5
1E5
330
1C9
100
AcDbEntity
  8
0
  6
Continuous
 62
     7
370
    25
100
AcDbSpline
210
0.0
220
0.0
230
1.0
 70
     8
 71
     3
 72
     8
 73
     4
 74
     0
 42
0.000000001
 43
0.00000001
 40
0.0
 40
0.0
 40
0.0
 40
0.0
 40
1.0
 40
1.0
 40
1.0
 40
1.0
 10
173.1523412436855
 20
319.9095760221445
 30
0.0
 10
173.2344491671499
 20
319.9670686091013
 30
0.0
 10
173.3388941953593
 20
319.9999999999999
 30
0.0
 10
173.439129461861
 20
320.0
 30
0.0
  0
SPLINE
  5
1E6
330
1C9
100
AcDbEntity
  8
0
  6
Continuous
 62
     7
370
    25
100
AcDbSpline
210
0.0
220
0.0
230
1.0
 70
    24
 71
     3
 72
    10
 73
     6
 74
     0
 42
0.000000001
 43
0.00000001
 40
0.0
 40
0.0
 40
0.0
 40
0.0
 40
0.5
 40
0.5
 40
1.0
 40
1.0
 40
1.0
 40
1.0
 10
173.439129461861
 20
320.0
 30
0.0
 10
173.5160875640669
 20
319.9999999999999
 30
0.0
 10
173.6245479207065
 20
320.0000000000001
 30
0.0
 10
173.8768248696305
 20
319.9999999999997
 30
0.0
 10
174.0190311085442
 20
319.9999999999999
 30
0.0
 10
174.153203465232
 20
320.0
 30
0.0
  0
SPLINE
  5
1EE
330
1C9
100
AcDbEntity
  8
0
  6
Continuous
 62
     7
370
    25
100
AcDbSpline
210
0.0
220
0.0
230
1.0
 70
     8
 71
     3
 72
    10
 73
     6
 74
     0
 42
0.000000001
 43
0.00000001
 40
0.0
 40
0.0
 40
0.0
 40
0.0
 40
0.3407406776570889
 40
0.6728125813276917
 40
1.0
 40
1.0
 40
1.0
 40
1.0
 10
-171.4882754634608
 20
319.6500583613665
 30
0.0
 10
-171.4577963560927
 20
319.6413282407172
 30
0.0
 10
-171.3976135594689
 20
319.6240901021723
 30
0.0
 10
-171.3052613847783
 20
319.6088908093515
 30
0.0
 10
-171.2437430520168
 20
319.6068325664907
 30
0.0
 10
-171.2132117818244
 20
319.6058110698719
 30
0.0
  0
SPLINE
  5
1F0
330
1C9
100
AcDbEntity
  8
0
  6
Continuous
 62
     7
370
    25
100
AcDbSpline
210
0.0
220
0.0
230
1.0
 70
     8
 71
     3
 72
    11
 73
     7
 74
     0
 42
0.000000001
 43
0.00000001
 40
0.0
 40
0.0
 40
0.0
 40
0.0
 40
0.2450890083268379
 40
0.4923764711672408
 40
0.7434940738842953
 40
1.0
 40
1.0
 40
1.0
 40
1.0
 10
-171.5000000000002
 20
319.6058110698719
 30
0.0
 10
-171.4998822901959
 20
319.6063684955864
 30
0.0
 10
-171.4996458147274
 20
319.6074883471378
 30
0.0
 10
-171.497633951345
 20
319.6163251992663
 30
0.0
 10
-171.4942956757636
 20
319.6299536818383
 30
0.0
 10
-171.4902963515738
 20
319.6433095449084
 30
0.0
 10
-171.488275463461
 20
319.6500583613666
 30
0.0
  0
SPLINE
  5
1F2
330
1C9
100
AcDbEntity
  8
0
  6
Continuous
 62
     7
370
    25
100
AcDbSpline
210
0.0
220
0.0
230
1.0
 70
     8
 71
     3
 72
    10
 73
     6
 74
     0
 42
0.000000001
 43
0.00000001
 40
0.0
 40
0.0
 40
0.0
 40
0.0
 40
0.5
 40
0.5
 40
1.0
 40
1.0
 40
1.0
 40
1.0
 10
171.488275463461
 20
319.6500583613665
 30
0.0
 10
171.458686022809
 20
319.7441065728065
 30
0.0
 10
171.395121647044
 20
319.8385516401671
 30
0.0
 10
171.219085445806
 20
319.9677103280333
 30
0.0
 10
171.1099173291264
 20
320.0000000000001
 30
0.0
 10
171.011324220477
 20
320.0
 30
0.0
  0
SPLINE
  5
1F3
330
1C9
100
AcDbEntity
  8
0
  6
Continuous
 62
     7
370
    25
100
AcDbSpline
210
0.0
220
0.0
230
1.0
 70
     8
 71
     3
 72
    11
 73
     7
 74
     0
 42
0.000000001
 43
0.00000001
 40
0.0
 40
0.0
 40
0.0
 40
0.0
 40
0.2450890083293563
 40
0.4923764711703
 40
0.743494073886792
 40
1.0
 40
1.0
 40
1.0
 40
1.0
 10
171.2132117818245
 20
319.6058110698719
 30
0.0
 10
171.2360913539014
 20
319.6063684955864
 30
0.0
 10
171.2820557283869
 20
319.6074883471379
 30
0.0
 10
171.3509505249614
 20
319.6163251992667
 30
0.0
 10
171.4200812677817
 20
319.6299536818384
 30
0.0
 10
171.4653837725242
 20
319.6433095449084
 30
0.0
 10
171.488275463461
 20
319.6500583613665
 30
0.0
  0
SPLINE
  5
1F5
330
1C9
100
AcDbEntity
  8
0
  6
Continuous
 62
     7
370
    25
100
AcDbSpline
210
0.0
220
0.0
230
1.0
 70
     8
 71
     3
 72
    10
 73
     6
 74
     0
 42
0.000000001
 43
0.00000001
 40
0.0
 40
0.0
 40
0.0
 40
0.0
 40
0.5
 40
0.5
 40
1.0
 40
1.0
 40
1.0
 40
1.0
 10
-171.011324220477
 20
320.0
 30
0.0
 10
-171.1099173291263
 20
320.0
 30
0.0
 10
-171.219085445806
 20
319.9677103280335
 30
0.0
 10
-171.395121647044
 20
319.838551640167
 30
0.0
 10
-171.458686022809
 20
319.7441065728065
 30
0.0
 10
-171.488275463461
 20
319.6500583613665
 30
0.0
  0
SPLINE
  5
1F6
330
1C9
100
AcDbEntity
  8
0
  6
Continuous
 62
     7
370
    25
100
AcDbSpline
210
0.0
220
0.0
230
1.0
 70
     8
 71
     3
 72
    10
 73
     6
 74
     0
 42
0.000000001
 43
0.00000001
 40
0.0
 40
0.0
 40
0.0
 40
0.0
 40
0.3407406776493401
 40
0.672812581320388
 40
1.0
 40
1.0
 40
1.0
 40
1.0
 10
171.4882754634611
 20
319.6500583613665
 30
0.0
 10
171.4908473916641
 20
319.6413282407174
 30
0.0
 10
171.4959258157171
 20
319.6240901021727
 30
0.0
 10
171.4993208360627
 20
319.6088908093521
 30
0.0
 10
171.4997747330027
 20
319.6068325664908
 30
0.0
 10
171.5000000000002
 20
319.6058110698719
 30
0.0
  0
LINE
  5
1FA
330
1C9
100
AcDbEntity
  8
0
  6
Continuous
 62
     7
370
    25
100
AcDbLine
 10
-158.5
 20
310.0
 30
0.0
 11
158.5
 21
310.0
 31
0.0
  0
LINE
  5
1FB
330
1C9
100
AcDbEntity
  8
0
  6
Continuous
 62
     7
370
    25
100
AcDbLine
 10
159.0
 20
309.5
 30
0.0
 11
-159.0
 21
309.5
 31
0.0
  0
LINE
  5
1FC
330
1C9
100
AcDbEntity
  8
0
  6
Continuous
 62
     7
370
    25
100
AcDbLine
 10
159.0
 20
-19.0
 30
0.0
 11
159.0
 21
309.5
 31
0.0
  0
LINE
  5
1FD
330
1C9
100
AcDbEntity
  8
0
  6
Continuous
 62
     7
370
    25
100
AcDbLine
 10
-174.5
 20
-19.0
 30
0.0
 11
174.5
 21
-19.0
 31
0.0
  0
LINE
  5
1FE
330
1C9
100
AcDbEntity
  8
0
  6
Continuous
 62
     7
370
    25
100
AcDbLine
 10
-159.0
 20
-19.0
 30
0.0
 11
-159.0
 21
309.5
 31
0.0
  0
LINE
  5
1FF
330
1C9
100
AcDbEntity
  8
0
  6
Continuous
 62
     7
370
    25
100
AcDbLine
 10
-174.5
 20
320.0
 30
0.0
 11
-174.5
 21
-19.0
 31
0.0
  0
LINE
  5
200
330
1C9
100
AcDbEntity
  8
0
  6
Continuous
 62
     7
370
    25
100
AcDbLine
 10
-175.0
 20
-18.5
 30
0.0
 11
-175.0
 21
319.5
 31
0.0
  0
LINE
  5
201
330
1C9
100
AcDbEntity
  8
0
  6
Continuous
 62
     7
370
    25
100
AcDbLine
 10
174.5
 20
-19.0
 30
0.0
 11
174.5
 21
320.0
 31
0.0
  0
LINE
  5
202
330
1C9
100
AcDbEntity
  8
0
  6
Continuous
 62
     7
370
    25
100
AcDbLine
 10
175.0
 20
319.5
 30
0.0
 11
175.0
 21
-18.5
 31
0.0
  0
LINE
  5
203
330
1C9
100
AcDbEntity
  8
0
  6
Continuous
 62
     7
370
    25
100
AcDbLine
 10
-159.0
 20
309.3896127056
 30
0.0
 11
-174.1532034652
 21
320.0
 31
0.0
  0
LINE
  5
204
330
1C9
100
AcDbEntity
  8
0
  6
Continuous
 62
     7
370
    25
100
AcDbLine
 10
-173.1523412437
 20
319.9095760221
 30
0.0
 11
-159.2132117818
 21
310.1492924969
 31
0.0
  0
LINE
  5
205
330
1C9
100
AcDbEntity
  8
0
  6
Continuous
 62
     7
370
    25
100
AcDbLine
 10
159.2132117818
 20
310.1492924969
 30
0.0
 11
173.1523412437
 21
319.9095760221
 31
0.0
  0
LINE
  5
206
330
1C9
100
AcDbEntity
  8
0
  6
Continuous
 62
     7
370
    25
100
AcDbLine
 10
174.1532034652
 20
320.0
 30
0.0
 11
159.0
 21
309.3896127056
 31
0.0
  0
LINE
  5
207
330
1C9
100
AcDbEntity
  8
0
  6
Continuous
 62
     7
370
    25
100
AcDbLine
 10
174.1532034652
 20
320.0
 30
0.0
 11
174.5
 21
320.0
 31
0.0
  0
LINE
  5
208
330
1C9
100
AcDbEntity
  8
0
  6
Continuous
 62
     7
370
    25
100
AcDbLine
 10
-174.5
 20
320.0
 30
0.0
 11
-174.1532034652
 21
320.0
 31
0.0
  0
LINE
  5
209
330
1C9
100
AcDbEntity
  8
0
  6
Continuous
 62
     7
370
    25
100
AcDbLine
 10
-157.7814800674
 20
310.0
 30
0.0
 11
-171.5
 21
319.6058110699
 31
0.0
  0
LINE
  5
20A
330
1C9
100
AcDbEntity
  8
0
  6
Continuous
 62
     7
370
    25
100
AcDbLine
 10
-171.0113242205
 20
320.0
 30
0.0
 11
171.0113242205
 21
320.0
 31
0.0
  0
LINE
  5
20B
330
1C9
100
AcDbEntity
  8
0
  6
Continuous
 62
     7
370
    25
100
AcDbLine
 10
-171.2132117818
 20
319.6058110699
 30
0.0
 11
171.2132117818
 21
319.6058110699
 31
0.0
  0
LINE
  5
20C
330
1C9
100
AcDbEntity
  8
0
  6
Continuous
 62
     7
370
    25
100
AcDbLine
 10
171.5
 20
319.6058110699
 30
0.0
 11
157.7814800674
 21
310.0
 31
0.0
  0
LINE
  5
20D
330
1C9
100
AcDbEntity
  8
0
  6
Continuous
 62
     8
370
    25
100
AcDbLine
 10
-171.2132117818
 20
319.6058110699
 30
0.0
 11
-157.4946918492
 21
310.0
 31
0.0
  0
LINE
  5
20E
330
1C9
100
AcDbEntity
  8
0
  6
Continuous
 62
     8
370
    25
100
AcDbLine
 10
157.4946918492
 20
310.0
 30
0.0
 11
171.2132117818
 21
319.6058110699
 31
0.0
  0
VIEWPORT
  5
41E
330
1C9
100
AcDbEntity
  8
0
100
AcDbViewport
 10
0.0
 20
0.0
 30
0.0
 40
205.6
 41
156.0
 68
     1
 69
     1
 12
0.0
 22
0.0
 13
0.0
 23
0.0
 14
10.0
 24
10.0
 15
10.0
 25
10.0
 16
0.0
 26
0.0
 36
1.0
 17
0.0
 27
0.0
 37
0.0
 42
50.0
 43
0.0
 44
0.0
 45
1723.8
 50
0.0
 51
0.0
 72
   100
 90
   557152
  1

281
     0
 71
     1
 74
     0
110
0.0
120
0.0
130
0.0
111
1.0
121
0.0
131
0.0
112
0.0
122
1.0
132
0.0
 79
     0
146
0.0
  0
ENDBLK
  5
1CC
330
1C9
100
AcDbEntity
  8
0
100
AcDbBlockEnd
  0
BLOCK
  5
211
330
20F
100
AcDbEntity
  8
0
100
AcDbBlockBegin
  2
*Paper_Space4
 70
     0
 10
0.0
 20
0.0
 30
0.0
  3
*Paper_Space4
  1

  0
SPLINE
  5
222
330
20F
100
AcDbEntity
  8
0
  6
Continuous
 62
     7
370
    25
100
AcDbSpline
210
0.0
220
0.0
230
1.0
 70
     8
 71
     3
 72
    14
 73
    10
 74
     0
 42
0.000000001
 43
0.00000001
 40
0.0
 40
0.0
 40
0.0
 40
0.0
 40
0.25
 40
0.25
 40
0.5
 40
0.5
 40
0.75
 40
0.75
 40
1.0
 40
1.0
 40
1.0
 40
1.0
 10
-331.2795269858977
 20
628.5422756288001
 30
0.0
 10
-331.3211936525644
 20
628.5182219741299
 30
0.0
 10
-331.3585528934096
 20
628.4791181017432
 30
0.0
 10
-331.4111361751984
 20
628.3691839845213
 30
0.0
 10
-331.4259735953044
 20
628.2983072452388
 30
0.0
 10
-331.4259735953044
 20
628.1388806897645
 30
0.0
 10
-331.4111361751984
 20
628.0508702453866
 30
0.0
 10
-331.3585528934096
 20
627.8802148951831
 30
0.0
 10
-331.3211936525645
 20
627.7979699503828
 30
0.0
 10
-331.2795269858977
 20
627.7258011669459
 30
0.0
  0
SPLINE
  5
224
330
20F
100
AcDbEntity
  8
0
  6
Continuous
 62
     7
370
    25
100
AcDbSpline
210
0.0
220
0.0
230
1.0
 70
     8
 71
     3
 72
    14
 73
    10
 74
     0
 42
0.000000001
 43
0.00000001
 40
0.0
 40
0.0
 40
0.0
 40
0.0
 40
0.25
 40
0.25
 40
0.5
 40
0.5
 40
0.75
 40
0.75
 40
1.0
 40
1.0
 40
1.0
 40
1.0
 10
-107.1266773497625
 20
498.3251154430462
 30
0.0
 10
-107.0850106830958
 20
498.3491769171428
 30
0.0
 10
-107.0324636803843
 20
498.3795200922978
 30
0.0
 10
-106.9109615854534
 20
498.4496780936672
 30
0.0
 10
-106.842159552898
 20
498.4894045097783
 30
0.0
 10
-106.7040883654404
 20
498.5691242653402
 30
0.0
 10
-106.6352863328851
 20
498.6088478969685
 30
0.0
 10
-106.5137842379543
 20
498.6789960302315
 30
0.0
 10
-106.4612372352426
 20
498.709332194319
 30
0.0
 10
-106.419570568576
 20
498.7333858489892
 30
0.0
  0
SPLINE
  5
229
330
20F
100
AcDbEntity
  8
0
  6
Continuous
 62
     7
370
    25
100
AcDbSpline
210
0.0
220
0.0
230
1.0
 70
     8
 71
     3
 72
    14
 73
    10
 74
     0
 42
0.000000001
 43
0.00000001
 40
0.0
 40
0.0
 40
0.0
 40
0.0
 40
0.25
 40
0.25
 40
0.5
 40
0.5
 40
0.75
 40
0.75
 40
1.0
 40
1.0
 40
1.0
 40
1.0
 10
136.8251621595967
 20
626.5012553492428
 30
0.0
 10
136.8668288262634
 20
626.4772016945724
 30
0.0
 10
136.9041880671087
 20
626.4380978221857
 30
0.0
 10
136.9567713488975
 20
626.328163704964
 30
0.0
 10
136.9716087690035
 20
626.2572869656814
 30
0.0
 10
136.9716087690035
 20
626.0978604102072
 30
0.0
 10
136.9567713488975
 20
626.0098499658293
 30
0.0
 10
136.9041880671088
 20
625.8391946156258
 30
0.0
 10
136.8668288262634
 20
625.7569496708257
 30
0.0
 10
136.8251621595967
 20
625.6847808873886
 30
0.0
  0
SPLINE
  5
22B
330
20F
100
AcDbEntity
  8
0
  6
Continuous
 62
     7
370
    25
100
AcDbSpline
210
0.0
220
0.0
230
1.0
 70
     8
 71
     3
 72
    14
 73
    10
 74
     0
 42
0.000000001
 43
0.00000001
 40
0.0
 40
0.0
 40
0.0
 40
0.0
 40
0.25
 40
0.25
 40
0.5
 40
0.5
 40
0.75
 40
0.75
 40
1.0
 40
1.0
 40
1.0
 40
1.0
 10
-102.1769298814567
 20
487.711809989351
 30
0.0
 10
-102.2185965481234
 20
487.7358714634473
 30
0.0
 10
-102.2711435508349
 20
487.7662146386029
 30
0.0
 10
-102.3926456457658
 20
487.8363726399721
 30
0.0
 10
-102.4614476783211
 20
487.8760990560831
 30
0.0
 10
-102.5995188657788
 20
487.955818811645
 30
0.0
 10
-102.6683208983341
 20
487.9955424432733
 30
0.0
 10
-102.789822993265
 20
488.0656905765362
 30
0.0
 10
-102.8423699959767
 20
488.0960267406237
 30
0.0
 10
-102.8840366626433
 20
488.1200803952939
 30
0.0
  0
SPLINE
  5
22D
330
20F
100
AcDbEntity
  8
0
  6
Continuous
 62
     7
370
    25
100
AcDbSpline
210
0.0
220
0.0
230
1.0
 70
     8
 71
     3
 72
    14
 73
    10
 74
     0
 42
0.000000001
 43
0.00000001
 40
0.0
 40
0.0
 40
0.0
 40
0.0
 40
0.25
 40
0.25
 40
0.5
 40
0.5
 40
0.75
 40
0.75
 40
1.0
 40
1.0
 40
1.0
 40
1.0
 10
-102.1769298814567
 20
-891.4256212856804
 30
0.0
 10
-102.2185965481234
 20
-891.4977900691173
 30
0.0
 10
-102.2711435508349
 20
-891.5712673056186
 30
0.0
 10
-102.3926456457658
 20
-891.7021366718633
 30
0.0
 10
-102.461447678321
 20
-891.7589940085867
 30
0.0
 10
-102.5995188657787
 20
-891.8387137641487
 30
0.0
 10
-102.6683208983341
 20
-891.8613064751646
 30
0.0
 10
-102.789822993265
 20
-891.8707432435519
 30
0.0
 10
-102.8423699959767
 20
-891.8579453462936
 30
0.0
 10
-102.8840366626433
 20
-891.8338916916233
 30
0.0
  0
SPLINE
  5
22F
330
20F
100
AcDbEntity
  8
0
  6
Continuous
 62
     7
370
    25
100
AcDbSpline
210
0.0
220
0.0
230
1.0
 70
     8
 71
     3
 72
    10
 73
     6
 74
     0
 42
0.000000001
 43
0.00000001
 40
0.0
 40
0.0
 40
0.0
 40
0.0
 40
0.5
 40
0.5
 40
1.0
 40
1.0
 40
1.0
 40
1.0
 10
-103.1292588440701
 20
488.2616441473624
 30
0.0
 10
-103.2241330273317
 20
488.3164138475532
 30
0.0
 10
-103.3246880231946
 20
488.3590863000521
 30
0.0
 10
-103.5030747645158
 20
488.4005599298087
 30
0.0
 10
-103.5797678181857
 20
488.399096369445
 30
0.0
 10
-103.6341854141228
 20
488.3790359303252
 30
0.0
  0
SPLINE
  5
232
330
20F
100
AcDbEntity
  8
0
  6
Continuous
 62
     7
370
    25
100
AcDbSpline
210
0.0
220
0.0
230
1.0
 70
     8
 71
     3
 72
    10
 73
     6
 74
     0
 42
0.000000001
 43
0.00000001
 40
0.0
 40
0.0
 40
0.0
 40
0.0
 40
0.5
 40
0.5
 40
1.0
 40
1.0
 40
1.0
 40
1.0
 10
-103.6341854141224
 20
-891.2267439137239
 30
0.0
 10
-103.5797678181853
 20
-891.3096335717547
 30
0.0
 10
-103.5030747645156
 20
-891.3996450470905
 30
0.0
 10
-103.3246880231942
 20
-891.5641323648612
 30
0.0
 10
-103.2241330273314
 20
-891.6375582393638
 30
0.0
 10
-103.1292588440697
 20
-891.692327939555
 30
0.0
  0
SPLINE
  5
237
330
20F
100
AcDbEntity
  8
0
  6
Continuous
 62
     7
370
    25
100
AcDbSpline
210
0.0
220
0.0
230
1.0
 70
     8
 71
     3
 72
     8
 73
     4
 74
     0
 42
0.000000001
 43
0.00000001
 40
0.0
 40
0.0
 40
0.0
 40
0.0
 40
1.0
 40
1.0
 40
1.0
 40
1.0
 10
-106.5890757134155
 20
498.5616977434474
 30
0.0
 10
-106.518198676758
 20
498.6495592294088
 30
0.0
 10
-106.4280398494403
 20
498.7284966372159
 30
0.0
 10
-106.3415149641623
 20
498.7784463902766
 30
0.0
  0
SPLINE
  5
238
330
20F
100
AcDbEntity
  8
0
  6
Continuous
 62
     7
370
    25
100
AcDbSpline
210
0.0
220
0.0
230
1.0
 70
     8
 71
     3
 72
     8
 73
     4
 74
     0
 42
0.000000001
 43
0.00000001
 40
0.0
 40
0.0
 40
0.0
 40
0.0
 40
1.0
 40
1.0
 40
1.0
 40
1.0
 10
-103.6341854141228
 20
488.3790359303252
 30
0.0
 10
-103.70506245078
 20
488.352907902168
 30
0.0
 10
-103.7556302286698
 20
488.3237018855032
 30
0.0
 10
-103.7730359000355
 20
488.2988411941756
 30
0.0
  0
SPLINE
  5
23A
330
20F
100
AcDbEntity
  8
0
  6
Continuous
 62
     7
370
    25
100
AcDbSpline
210
0.0
220
0.0
230
1.0
 70
     8
 71
     3
 72
    10
 73
     6
 74
     0
 42
0.000000001
 43
0.00000001
 40
0.0
 40
0.0
 40
0.0
 40
0.0
 40
0.5
 40
0.5
 40
1.0
 40
1.0
 40
1.0
 40
1.0
 10
-106.5890757134155
 20
498.5616977434474
 30
0.0
 10
-106.6434933093524
 20
498.494239916949
 30
0.0
 10
-106.6878533845267
 20
498.4024599257595
 30
0.0
 10
-106.7369082118658
 20
498.1944907804656
 30
0.0
 10
-106.7412898335331
 20
498.0796291507965
 30
0.0
 10
-106.7279261993283
 20
497.9730376982429
 30
0.0
  0
SPLINE
  5
23D
330
20F
100
AcDbEntity
  8
0
  6
Continuous
 62
     7
370
    25
100
AcDbSpline
210
0.0
220
0.0
230
1.0
 70
     8
 71
     3
 72
     8
 73
     4
 74
     0
 42
0.000000001
 43
0.00000001
 40
0.0
 40
0.0
 40
0.0
 40
0.0
 40
1.0
 40
1.0
 40
1.0
 40
1.0
 10
-103.7730359000352
 20
-890.8385900808562
 30
0.0
 10
-103.7556302286695
 20
-890.9774217613062
 30
0.0
 10
-103.7050624507797
 20
-891.1187830009043
 30
0.0
 10
-103.6341854141224
 20
-891.2267439137239
 30
0.0
  0
SPLINE
  5
23F
330
20F
100
AcDbEntity
  8
0
  6
Continuous
 62
     7
370
    25
100
AcDbSpline
210
0.0
220
0.0
230
1.0
 70
     8
 71
     3
 72
     8
 73
     4
 74
     0
 42
0.000000001
 43
0.00000001
 40
0.0
 40
0.0
 40
0.0
 40
0.0
 40
1.0
 40
1.0
 40
1.0
 40
1.0
 10
-331.2014713814841
 20
628.5873361700875
 30
0.0
 10
-331.2879962667616
 20
628.5373864170265
 30
0.0
 10
-331.3781550940794
 20
628.4584490092195
 30
0.0
 10
-331.4490321307372
 20
628.3705875232582
 30
0.0
  0
SPLINE
  5
240
330
20F
100
AcDbEntity
  8
0
  6
Continuous
 62
     7
370
    25
100
AcDbSpline
210
0.0
220
0.0
230
1.0
 70
     8
 71
     3
 72
    10
 73
     6
 74
     0
 42
0.000000001
 43
0.00000001
 40
0.0
 40
0.0
 40
0.0
 40
0.0
 40
0.5
 40
0.5
 40
1.0
 40
1.0
 40
1.0
 40
1.0
 10
-331.889409610164
 20
627.9559953062716
 30
0.0
 10
-331.8136206744543
 20
628.0111200757124
 30
0.0
 10
-331.7300236392878
 20
628.0802516205605
 30
0.0
 10
-331.5744416038681
 20
628.226723917626
 30
0.0
 10
-331.5034497266739
 20
628.3031296967594
 30
0.0
 10
-331.4490321307372
 20
628.3705875232582
 30
0.0
  0
SPLINE
  5
242
330
20F
100
AcDbEntity
  8
0
  6
Continuous
 62
     7
370
    25
100
AcDbSpline
210
0.0
220
0.0
230
1.0
 70
     8
 71
     3
 72
     8
 73
     4
 74
     0
 42
0.000000001
 43
0.00000001
 40
0.0
 40
0.0
 40
0.0
 40
0.0
 40
1.0
 40
1.0
 40
1.0
 40
1.0
 10
-348.6474252435087
 20
629.6618171666139
 30
0.0
 10
-348.7461377110847
 20
629.7537114327027
 30
0.0
 10
-348.8432775086114
 20
629.868187217638
 30
0.0
 10
-348.9141545452685
 20
629.9761481304572
 30
0.0
  0
SPLINE
  5
243
330
20F
100
AcDbEntity
  8
0
  6
Continuous
 62
     7
370
    25
100
AcDbSpline
210
0.0
220
0.0
230
1.0
 70
     8
 71
     3
 72
    10
 73
     6
 74
     0
 42
0.000000001
 43
0.00000001
 40
0.0
 40
0.0
 40
0.0
 40
0.0
 40
0.5
 40
0.5
 40
1.0
 40
1.0
 40
1.0
 40
1.0
 10
-348.9141545452685
 20
629.9761481304572
 30
0.0
 10
-348.9685721412054
 20
630.0590377884884
 30
0.0
 10
-349.0452651948752
 20
630.1490492638239
 30
0.0
 10
-349.2236519361965
 20
630.3135365815948
 30
0.0
 10
-349.3242069320593
 20
630.386962456097
 30
0.0
 10
-349.4190811153211
 20
630.4417321562883
 30
0.0
  0
SPLINE
  5
24A
330
20F
100
AcDbEntity
  8
0
  6
Continuous
 62
     7
370
    25
100
AcDbSpline
210
0.0
220
0.0
230
1.0
 70
     8
 71
     3
 72
    10
 73
     6
 74
     0
 42
0.000000001
 43
0.00000001
 40
0.0
 40
0.0
 40
0.0
 40
0.0
 40
0.1130064663089522
 40
0.5613377526747996
 40
1.0
 40
1.0
 40
1.0
 40
1.0
 10
136.966435632865
 20
-753.534252232281
 30
0.0
 10
136.9677804313978
 20
-753.5350271376867
 30
0.0
 10
136.9744604578677
 20
-753.538876330333
 30
0.0
 10
136.9280829812425
 20
-753.5120869692009
 30
0.0
 10
136.8592188729353
 20
-753.4723180757508
 30
0.0
 10
136.8251621595967
 20
-753.452650387643
 30
0.0
  0
SPLINE
  5
24C
330
20F
100
AcDbEntity
  8
0
  6
Continuous
 62
     7
370
    25
100
AcDbSpline
210
0.0
220
0.0
230
1.0
 70
     8
 71
     3
 72
     8
 73
     4
 74
     0
 42
0.000000001
 43
0.00000001
 40
0.0
 40
0.0
 40
0.0
 40
0.0
 40
1.0
 40
1.0
 40
1.0
 40
1.0
 10
-348.9141545452688
 20
-749.6296317135914
 30
0.0
 10
-348.8432775086117
 20
-749.6035036854346
 30
0.0
 10
-348.7461377110847
 20
-749.5474122141061
 30
0.0
 10
-348.6474252435091
 20
-749.4756141084173
 30
0.0
  0
SPLINE
  5
24D
330
20F
100
AcDbEntity
  8
0
  6
Continuous
 62
     7
370
    25
100
AcDbSpline
210
0.0
220
0.0
230
1.0
 70
     8
 71
     3
 72
    10
 73
     6
 74
     0
 42
0.000000001
 43
0.00000001
 40
0.0
 40
0.0
 40
0.0
 40
0.0
 40
0.5
 40
0.5
 40
1.0
 40
1.0
 40
1.0
 40
1.0
 10
-349.4190811153215
 20
-749.5122399306287
 30
0.0
 10
-349.3242069320598
 20
-749.5670096308198
 30
0.0
 10
-349.223651936197
 20
-749.6096820833188
 30
0.0
 10
-349.0452651948758
 20
-749.6511557130751
 30
0.0
 10
-348.9685721412059
 20
-749.6496921527115
 30
0.0
 10
-348.9141545452688
 20
-749.6296317135914
 30
0.0
  0
SPLINE
  5
250
330
20F
100
AcDbEntity
  8
0
  6
Continuous
 62
     7
370
    25
100
AcDbSpline
210
0.0
220
0.0
230
1.0
 70
     8
 71
     3
 72
    11
 73
     7
 74
     0
 42
0.000000001
 43
0.00000001
 40
0.0
 40
0.0
 40
0.0
 40
0.0
 40
0.1457898344458588
 40
0.4634933844327185
 40
0.7463763865878352
 40
0.9999999999999999
 40
0.9999999999999999
 40
0.9999999999999999
 40
0.9999999999999999
 10
-110.3074586278195
 20
768.9199410741426
 30
0.0
 10
-110.2916161475939
 20
768.9325584327478
 30
0.0
 10
-110.241249914547
 20
768.9726713957991
 30
0.0
 10
-110.1462042500521
 20
768.9953156970383
 30
0.0
 10
-110.0402480349298
 20
769.0019997302545
 30
0.0
 10
-109.9824346748483
 20
768.9765172399119
 30
0.0
 10
-109.9551044745079
 20
768.9644708623058
 30
0.0
  0
SPLINE
  5
251
330
20F
100
AcDbEntity
  8
0
  6
Continuous
 62
     7
370
    25
100
AcDbSpline
210
0.0
220
0.0
230
1.0
 70
     8
 71
     3
 72
    11
 73
     7
 74
     0
 42
0.000000001
 43
0.00000001
 40
0.0
 40
0.0
 40
0.0
 40
0.0
 40
0.1457898344459483
 40
0.4634933844328007
 40
0.7463763865878739
 40
1.0
 40
1.0
 40
1.0
 40
1.0
 10
-349.8019297177606
 20
630.6627258014938
 30
0.0
 10
-349.8049350830378
 20
630.6644625304909
 30
0.0
 10
-349.8144897061643
 20
630.6699839195759
 30
0.0
 10
-349.7865740834112
 20
630.6538748726058
 30
0.0
 10
-349.7393803700152
 20
630.6266360356433
 30
0.0
 10
-349.6884022590557
 20
630.5972076399739
 30
0.0
 10
-349.664303296748
 20
630.5832959083568
 30
0.0
  0
SPLINE
  5
252
330
20F
100
AcDbEntity
  8
0
  6
Continuous
 62
     7
370
    25
100
AcDbSpline
210
0.0
220
0.0
230
1.0
 70
     8
 71
     3
 72
    10
 73
     6
 74
     0
 42
0.000000001
 43
0.00000001
 40
0.0
 40
0.0
 40
0.0
 40
0.0
 40
0.3276849979262482
 40
0.7058719616083514
 40
1.0
 40
1.0
 40
1.0
 40
1.0
 10
-349.664303296748
 20
-749.3706761785603
 30
0.0
 10
-349.6943467623594
 20
-749.3466820777314
 30
0.0
 10
-349.7590639149263
 20
-749.29499596721
 30
0.0
 10
-349.8059868095121
 20
-749.1734898040977
 30
0.0
 10
-349.8057015617603
 20
-749.083186043749
 30
0.0
 10
-349.8055767700162
 20
-749.0436794615533
 30
0.0
  0
SPLINE
  5
254
330
20F
100
AcDbEntity
  8
0
  6
Continuous
 62
     7
370
    25
100
AcDbSpline
210
0.0
220
0.0
230
1.0
 70
     8
 71
     3
 72
    10
 73
     6
 74
     0
 42
0.000000001
 43
0.00000001
 40
0.0
 40
0.0
 40
0.0
 40
0.0
 40
0.5
 40
0.5
 40
1.0
 40
1.0
 40
1.0
 40
1.0
 10
-104.7662013997986
 20
489.4827526000349
 30
0.0
 10
-104.8536264220029
 20
489.432279282467
 30
0.0
 10
-104.9653559707285
 20
489.3677707519143
 30
0.0
 10
-105.1811613463976
 20
489.243165600323
 30
0.0
 10
-105.281187108001
 20
489.1854074706417
 30
0.0
 10
-105.3509029637053
 20
489.1451482804944
 30
0.0
  0
SPLINE
  5
255
330
20F
100
AcDbEntity
  8
0
  6
Continuous
 62
     7
370
    25
100
AcDbSpline
210
0.0
220
0.0
230
1.0
 70
     8
 71
     3
 72
    11
 73
     7
 74
     0
 42
0.000000001
 43
0.00000001
 40
0.0
 40
0.0
 40
0.0
 40
0.0
 40
0.2450890083269517
 40
0.4923764711674687
 40
0.7434940738850239
 40
1.0
 40
1.0
 40
1.0
 40
1.0
 10
-104.7266233406405
 20
489.2714277985931
 30
0.0
 10
-104.7271007335441
 20
489.2899304091345
 30
0.0
 10
-104.7280598015774
 20
489.3271015990943
 30
0.0
 10
-104.7357310018823
 20
489.3805710241363
 30
0.0
 10
-104.7477283116272
 20
489.4328185927753
 30
0.0
 10
-104.7600002822276
 20
489.4659905596582
 30
0.0
 10
-104.7662013997986
 20
489.4827526000346
 30
0.0
  0
SPLINE
  5
257
330
20F
100
AcDbEntity
  8
0
  6
Continuous
 62
     7
370
    25
100
AcDbSpline
210
0.0
220
0.0
230
1.0
 70
     8
 71
     3
 72
    10
 73
     6
 74
     0
 42
0.000000001
 43
0.00000001
 40
0.0
 40
0.0
 40
0.0
 40
0.0
 40
0.3407406776493401
 40
0.672812581320388
 40
1.0
 40
1.0
 40
1.0
 40
1.0
 10
-104.7662013997985
 20
-183.3277292686541
 30
0.0
 10
-104.758209644414
 20
-183.3003280344452
 30
0.0
 10
-104.7424294516683
 20
-183.2462226800548
 30
0.0
 10
-104.7292812867371
 20
-183.1659948084523
 30
0.0
 10
-104.7275049356483
 20
-183.1151076785606
 30
0.0
 10
-104.7266233406405
 20
-183.0898526262484
 30
0.0
  0
SPLINE
  5
258
330
20F
100
AcDbEntity
  8
0
  6
Continuous
 62
     7
370
    25
100
AcDbSpline
210
0.0
220
0.0
230
1.0
 70
     8
 71
     3
 72
    10
 73
     6
 74
     0
 42
0.000000001
 43
0.00000001
 40
0.0
 40
0.0
 40
0.0
 40
0.0
 40
0.5
 40
0.5
 40
1.0
 40
1.0
 40
1.0
 40
1.0
 10
-104.7662013997986
 20
-183.327729268654
 30
0.0
 10
-104.8536264220029
 20
-183.3298806144354
 30
0.0
 10
-104.9653559707285
 20
-183.2905833310001
 30
0.0
 10
-105.1811613463975
 20
-183.1277069972306
 30
0.0
 10
-105.281187108001
 20
-183.0071846816609
 30
0.0
 10
-105.3509029637053
 20
-182.8864332778424
 30
0.0
  0
SPLINE
  5
25A
330
20F
100
AcDbEntity
  8
0
  6
Continuous
 62
     7
370
    25
100
AcDbSpline
210
0.0
220
0.0
230
1.0
 70
     8
 71
     3
 72
    10
 73
     6
 74
     0
 42
0.000000001
 43
0.00000001
 40
0.0
 40
0.0
 40
0.0
 40
0.0
 40
0.5
 40
0.5
 40
1.0
 40
1.0
 40
1.0
 40
1.0
 10
-347.197436995686
 20
628.7601805876354
 30
0.0
 10
-347.2671528513902
 20
628.8809319914536
 30
0.0
 10
-347.321514120974
 20
629.0278158571451
 30
0.0
 10
-347.3546615285641
 20
629.2961383914012
 30
0.0
 10
-347.3328255821293
 20
629.4125413939514
 30
0.0
 10
-347.287246348198
 20
629.4871717708919
 30
0.0
  0
SPLINE
  5
25B
330
20F
100
AcDbEntity
  8
0
  6
Continuous
 62
     7
370
    25
100
AcDbSpline
210
0.0
220
0.0
230
1.0
 70
     8
 71
     3
 72
    11
 73
     7
 74
     0
 42
0.000000001
 43
0.00000001
 40
0.0
 40
0.0
 40
0.0
 40
0.0
 40
0.2450890083291423
 40
0.4923764711701607
 40
0.7434940738868387
 40
1.0
 40
1.0
 40
1.0
 40
1.0
 10
-347.0614593937898
 20
629.4025251468498
 30
0.0
 10
-347.0780318538587
 20
629.4115410226725
 30
0.0
 10
-347.1113254293764
 20
629.4296536469483
 30
0.0
 10
-347.1662900052872
 20
629.4525267749012
 30
0.0
 10
-347.2248096147676
 20
629.4724571843934
 30
0.0
 10
-347.2662873444213
 20
629.482232321676
 30
0.0
 10
-347.2872463481979
 20
629.487171770892
 30
0.0
  0
SPLINE
  5
25D
330
20F
100
AcDbEntity
  8
0
  6
Continuous
 62
     7
370
    25
100
AcDbSpline
210
0.0
220
0.0
230
1.0
 70
     8
 71
     3
 72
    10
 73
     6
 74
     0
 42
0.000000001
 43
0.00000001
 40
0.0
 40
0.0
 40
0.0
 40
0.0
 40
0.3407406776411832
 40
0.6728125813120777
 40
1.0
 40
1.0
 40
1.0
 40
1.0
 10
-104.7662013997986
 20
489.482752600035
 30
0.0
 10
-104.7815802557908
 20
489.5008580502831
 30
0.0
 10
-104.8119467147336
 20
489.5366083305299
 30
0.0
 10
-104.866502040692
 20
489.5832834484563
 30
0.0
 10
-104.9085466734711
 20
489.6096062898631
 30
0.0
 10
-104.929413234477
 20
489.6226701969486
 30
0.0
  0
SPLINE
  5
260
330
20F
100
AcDbEntity
  8
0
  6
Continuous
 62
     7
370
    25
100
AcDbSpline
210
0.0
220
0.0
230
1.0
 70
     8
 71
     3
 72
    10
 73
     6
 74
     0
 42
0.000000001
 43
0.00000001
 40
0.0
 40
0.0
 40
0.0
 40
0.0
 40
0.4606181372613298
 40
0.9164348923670187
 40
1.0
 40
1.0
 40
1.0
 40
1.0
 10
-347.197436995686
 20
-43.27140097070139
 30
0.0
 10
-347.2330196142312
 20
-43.2919499083301
 30
0.0
 10
-347.3038139459321
 20
-43.3328335859812
 30
0.0
 10
-347.3480793113162
 20
-43.35840361705618
 30
0.0
 10
-347.3410984777908
 20
-43.3543804562165
 30
0.0
 10
-347.3400169543929
 20
-43.35375715778581
 30
0.0
  0
SPLINE
  5
262
330
20F
100
AcDbEntity
  8
0
  6
Continuous
 62
     7
370
    25
100
AcDbSpline
210
0.0
220
0.0
230
1.0
 70
     8
 71
     3
 72
    10
 73
     6
 74
     0
 42
0.000000001
 43
0.00000001
 40
0.0
 40
0.0
 40
0.0
 40
0.0
 40
0.5
 40
0.5
 40
1.0
 40
1.0
 40
1.0
 40
1.0
 10
-104.7662013997986
 20
-217.6415904930245
 30
0.0
 10
-104.8536264220029
 20
-217.6920638105925
 30
0.0
 10
-104.9653559707285
 20
-217.7565723411454
 30
0.0
 10
-105.1811613463976
 20
-217.8811774927362
 30
0.0
 10
-105.281187108001
 20
-217.9389356224178
 30
0.0
 10
-105.3509029637053
 20
-217.9791948125651
 30
0.0
  0
SPLINE
  5
263
330
20F
100
AcDbEntity
  8
0
  6
Continuous
 62
     7
370
    25
100
AcDbSpline
210
0.0
220
0.0
230
1.0
 70
     8
 71
     3
 72
    11
 73
     7
 74
     0
 42
0.000000001
 43
0.00000001
 40
0.0
 40
0.0
 40
0.0
 40
0.0
 40
0.2450890083270174
 40
0.4923764711672916
 40
0.7434940738847028
 40
1.0
 40
1.0
 40
1.0
 40
1.0
 10
-104.7266233406405
 20
-217.8529152944662
 30
0.0
 10
-104.7271007335441
 20
-217.834412683925
 30
0.0
 10
-104.7280598015773
 20
-217.797241493965
 30
0.0
 10
-104.7357310018823
 20
-217.7437720689232
 30
0.0
 10
-104.7477283116272
 20
-217.691524500284
 30
0.0
 10
-104.7600002822276
 20
-217.6583525334011
 30
0.0
 10
-104.7662013997986
 20
-217.6415904930247
 30
0.0
  0
SPLINE
  5
265
330
20F
100
AcDbEntity
  8
0
  6
Continuous
 62
     7
370
    25
100
AcDbSpline
210
0.0
220
0.0
230
1.0
 70
     8
 71
     3
 72
    10
 73
     6
 74
     0
 42
0.000000001
 43
0.00000001
 40
0.0
 40
0.0
 40
0.0
 40
0.0
 40
0.3407406776493401
 40
0.672812581320388
 40
1.0
 40
1.0
 40
1.0
 40
1.0
 10
-104.7662013997985
 20
-890.4520723617135
 30
0.0
 10
-104.758209644414
 20
-890.4246711275047
 30
0.0
 10
-104.7424294516683
 20
-890.3705657731142
 30
0.0
 10
-104.7292812867371
 20
-890.2903379015116
 30
0.0
 10
-104.7275049356483
 20
-890.2394507716198
 30
0.0
 10
-104.7266233406405
 20
-890.2141957193079
 30
0.0
  0
SPLINE
  5
266
330
20F
100
AcDbEntity
  8
0
  6
Continuous
 62
     7
370
    25
100
AcDbSpline
210
0.0
220
0.0
230
1.0
 70
     8
 71
     3
 72
    10
 73
     6
 74
     0
 42
0.000000001
 43
0.00000001
 40
0.0
 40
0.0
 40
0.0
 40
0.0
 40
0.5
 40
0.5
 40
1.0
 40
1.0
 40
1.0
 40
1.0
 10
-104.7662013997986
 20
-890.4520723617134
 30
0.0
 10
-104.8536264220029
 20
-890.4542237074949
 30
0.0
 10
-104.9653559707285
 20
-890.4149264240596
 30
0.0
 10
-105.1811613463975
 20
-890.2520500902897
 30
0.0
 10
-105.281187108001
 20
-890.1315277747203
 30
0.0
 10
-105.3509029637053
 20
-890.0107763709019
 30
0.0
  0
SPLINE
  5
268
330
20F
100
AcDbEntity
  8
0
  6
Continuous
 62
     7
370
    25
100
AcDbSpline
210
0.0
220
0.0
230
1.0
 70
     8
 71
     3
 72
    10
 73
     6
 74
     0
 42
0.000000001
 43
0.00000001
 40
0.0
 40
0.0
 40
0.0
 40
0.0
 40
0.5
 40
0.5
 40
1.0
 40
1.0
 40
1.0
 40
1.0
 10
-347.197436995686
 20
-78.36416250542405
 30
0.0
 10
-347.2671528513902
 20
-78.24341110160564
 30
0.0
 10
-347.321514120974
 20
-78.09652723591432
 30
0.0
 10
-347.3546615285641
 20
-77.82820470165832
 30
0.0
 10
-347.3328255821293
 20
-77.71180169910808
 30
0.0
 10
-347.287246348198
 20
-77.63717132216749
 30
0.0
  0
SPLINE
  5
269
330
20F
100
AcDbEntity
  8
0
  6
Continuous
 62
     7
370
    25
100
AcDbSpline
210
0.0
220
0.0
230
1.0
 70
     8
 71
     3
 72
    11
 73
     7
 74
     0
 42
0.000000001
 43
0.00000001
 40
0.0
 40
0.0
 40
0.0
 40
0.0
 40
0.2450890083291427
 40
0.4923764711701567
 40
0.7434940738868322
 40
1.0
 40
1.0
 40
1.0
 40
1.0
 10
-347.0614593937898
 20
-77.72181794620957
 30
0.0
 10
-347.0780318538588
 20
-77.712802070387
 30
0.0
 10
-347.1113254293764
 20
-77.69468944611108
 30
0.0
 10
-347.1662900052872
 20
-77.67181631815814
 30
0.0
 10
-347.2248096147677
 20
-77.65188590866589
 30
0.0
 10
-347.2662873444212
 20
-77.6421107713835
 30
0.0
 10
-347.2872463481979
 20
-77.63717132216748
 30
0.0
  0
SPLINE
  5
26B
330
20F
100
AcDbEntity
  8
0
  6
Continuous
 62
     7
370
    25
100
AcDbSpline
210
0.0
220
0.0
230
1.0
 70
     8
 71
     3
 72
    10
 73
     6
 74
     0
 42
0.000000001
 43
0.00000001
 40
0.0
 40
0.0
 40
0.0
 40
0.0
 40
0.3407406776411925
 40
0.6728125813120801
 40
1.0
 40
1.0
 40
1.0
 40
1.0
 10
-104.7662013997986
 20
-217.6415904930244
 30
0.0
 10
-104.7815802557908
 20
-217.6234850427765
 30
0.0
 10
-104.8119467147336
 20
-217.5877347625296
 30
0.0
 10
-104.8665020406921
 20
-217.5410596446031
 30
0.0
 10
-104.9085466734711
 20
-217.5147368031961
 30
0.0
 10
-104.929413234477
 20
-217.5016728961108
 30
0.0
  0
SPLINE
  5
26E
330
20F
100
AcDbEntity
  8
0
  6
Continuous
 62
     7
370
    25
100
AcDbSpline
210
0.0
220
0.0
230
1.0
 70
     8
 71
     3
 72
    10
 73
     6
 74
     0
 42
0.000000001
 43
0.00000001
 40
0.0
 40
0.0
 40
0.0
 40
0.0
 40
0.4606181372613439
 40
0.9164348923669583
 40
1.0
 40
1.0
 40
1.0
 40
1.0
 10
-347.197436995686
 20
-750.3957440637608
 30
0.0
 10
-347.2330196142312
 20
-750.4162930013896
 30
0.0
 10
-347.303813945932
 20
-750.4571766790407
 30
0.0
 10
-347.3480793113162
 20
-750.4827467101152
 30
0.0
 10
-347.3410984777908
 20
-750.4787235492761
 30
0.0
 10
-347.3400169543929
 20
-750.4781002508452
 30
0.0
  0
LINE
  5
27B
330
20F
100
AcDbEntity
  8
0
  6
Continuous
 62
     7
370
    25
100
AcDbLine
 10
-331.4259735953
 20
628.2154429896
 30
0.0
 11
-331.4259735953
 21
620.3763513229
 31
0.0
  0
LINE
  5
27C
330
20F
100
AcDbEntity
  8
0
  6
Continuous
 62
     7
370
    25
100
AcDbLine
 10
-320.8193718775
 20
-58.6682644067
 30
0.0
 11
-320.8193718775
 21
-92.8710526088
 31
0.0
  0
LINE
  5
27D
330
20F
100
AcDbEntity
  8
0
  6
Continuous
 62
     7
370
    25
100
AcDbLine
 10
-106.7355223228
 20
498.0922247582
 30
0.0
 11
-106.7355223228
 21
490.6653147803
 31
0.0
  0
LINE
  5
27E
330
20F
100
AcDbEntity
  8
0
  6
Continuous
 62
     7
370
    25
100
AcDbLine
 10
-106.7355223228
 20
-182.2562401105
 30
0.0
 11
-106.7355223228
 21
-216.4590283127
 31
0.0
  0
LINE
  5
27F
330
20F
100
AcDbEntity
  8
0
  6
Continuous
 62
     7
370
    25
100
AcDbLine
 10
136.971608769
 20
-753.5340881544
 30
0.0
 11
136.971608769
 21
626.1744227101
 31
0.0
  0
LINE
  5
280
330
20F
100
AcDbEntity
  8
0
  6
Continuous
 62
     7
370
    25
100
AcDbLine
 10
-110.3124480238
 20
768.9272450469
 30
0.0
 11
-349.8069191138
 21
630.6700297743
 31
0.0
  0
LINE
  5
281
330
20F
100
AcDbEntity
  8
0
  6
Continuous
 62
     7
370
    25
100
AcDbLine
 10
-349.8107499062
 20
630.6633920149
 30
0.0
 11
-349.8107499062
 21
-749.0438435394
 31
0.0
  0
LINE
  5
282
330
20F
100
AcDbEntity
  8
0
  6
Continuous
 62
     7
370
    25
100
AcDbLine
 10
-102.5266931133
 20
-891.7966658762
 30
0.0
 11
136.9688789152
 21
-753.5388150453
 31
0.0
  0
LINE
  5
283
330
20F
100
AcDbEntity
  8
0
  6
Continuous
 62
     7
370
    25
100
AcDbLine
 10
-104.7266233406
 20
-887.7659862766
 30
0.0
 11
-103.7382936915
 21
-891.0017393056
 31
0.0
  0
LINE
  5
284
330
20F
100
AcDbEntity
  8
0
  6
Continuous
 62
     7
370
    25
100
AcDbLine
 10
-349.0596082053
 20
-749.643144472
 30
0.0
 11
-347.3438836051
 21
-749.8177904798
 31
0.0
  0
LINE
  5
285
330
20F
100
AcDbEntity
  8
0
  6
Continuous
 62
     7
370
    25
100
AcDbLine
 10
-347.3438836051
 20
629.2505882269
 30
0.0
 11
-347.3438836051
 21
-43.3536045541
 31
0.0
  0
LINE
  5
286
330
20F
100
AcDbEntity
  8
0
  6
Continuous
 62
     7
370
    25
100
AcDbLine
 10
-347.341816629
 20
-43.3571829572
 30
0.0
 11
-105.0009686582
 21
-183.2575766271
 31
0.0
  0
LINE
  5
287
330
20F
100
AcDbEntity
  8
0
  6
Continuous
 62
     7
370
    25
100
AcDbLine
 10
-347.3438836051
 20
-77.8737548662
 30
0.0
 11
-347.3438836051
 21
-750.4779476471
 31
0.0
  0
LINE
  5
288
330
20F
100
AcDbEntity
  8
0
  6
Continuous
 62
     7
370
    25
100
AcDbLine
 10
-347.341816629
 20
-750.4815260502
 30
0.0
 11
-105.0009686582
 21
-890.3819197201
 31
0.0
  0
LINE
  5
289
330
20F
100
AcDbEntity
  8
0
  6
Continuous
 62
     7
370
    25
100
AcDbLine
 10
-107.1266773498
 20
498.325115443
 30
0.0
 11
-331.2795269859
 21
627.7258011669
 31
0.0
  0
LINE
  5
28A
330
20F
100
AcDbEntity
  8
0
  6
Continuous
 62
     7
370
    25
100
AcDbLine
 10
-331.2795269859
 20
628.5422756288
 30
0.0
 11
-106.4195705686
 21
498.733385849
 31
0.0
  0
LINE
  5
28B
330
20F
100
AcDbEntity
  8
0
  6
Continuous
 62
     7
370
    25
100
AcDbLine
 10
125.8650070512
 20
632.8284182159
 30
0.0
 11
-106.4195705686
 21
498.733385849
 31
0.0
  0
LINE
  5
28C
330
20F
100
AcDbEntity
  8
0
  6
Continuous
 62
     7
370
    25
100
AcDbLine
 10
136.8251621596
 20
626.5012553492
 30
0.0
 11
-109.9551044745
 21
768.9644708623
 31
0.0
  0
LINE
  5
28D
330
20F
100
AcDbEntity
  8
0
  6
Continuous
 62
     7
370
    25
100
AcDbLine
 10
-98.9949493661
 20
762.6373079957
 30
0.0
 11
-331.2795269859
 21
628.5422756288
 31
0.0
  0
LINE
  5
28E
330
20F
100
AcDbEntity
  8
0
  6
Continuous
 62
     7
370
    25
100
AcDbLine
 10
-102.8840366626
 20
488.1200803953
 30
0.0
 11
136.8251621596
 21
626.5012553492
 31
0.0
  0
LINE
  5
28F
330
20F
100
AcDbEntity
  8
0
  6
Continuous
 62
     7
370
    25
100
AcDbLine
 10
136.8251621596
 20
625.6847808874
 30
0.0
 11
-102.1769298815
 21
487.7118099894
 31
0.0
  0
LINE
  5
290
330
20F
100
AcDbEntity
  8
0
  6
Continuous
 62
     7
370
    25
100
AcDbLine
 10
-102.1769298815
 20
487.7118099894
 30
0.0
 11
-102.1769298815
 21
-891.4256212857
 31
0.0
  0
LINE
  5
291
330
20F
100
AcDbEntity
  8
0
  6
Continuous
 62
     7
370
    25
100
AcDbLine
 10
-102.8840366626
 20
-891.8338916916
 30
0.0
 11
-102.8840366626
 21
488.1200803953
 31
0.0
  0
LINE
  5
292
330
20F
100
AcDbEntity
  8
0
  6
Continuous
 62
     7
370
    25
100
AcDbLine
 10
-102.8840366626
 20
488.1200803953
 30
0.0
 11
-103.1292588441
 21
488.2616441474
 31
0.0
  0
LINE
  5
293
330
20F
100
AcDbEntity
  8
0
  6
Continuous
 62
     7
370
    25
100
AcDbLine
 10
-103.1292588441
 20
-891.6923279396
 30
0.0
 11
-102.8840366626
 21
-891.8338916916
 31
0.0
  0
LINE
  5
294
330
20F
100
AcDbEntity
  8
0
  6
Continuous
 62
     7
370
    25
100
AcDbLine
 10
-103.6341854141
 20
488.3790359303
 30
0.0
 11
-103.6341854141
 21
-891.2267439137
 31
0.0
  0
LINE
  5
295
330
20F
100
AcDbEntity
  8
0
  6
Continuous
 62
     7
370
    25
100
AcDbLine
 10
-106.3415149642
 20
498.7784463903
 30
0.0
 11
-103.1292588441
 21
488.2616441474
 31
0.0
  0
LINE
  5
296
330
20F
100
AcDbEntity
  8
0
  6
Continuous
 62
     7
370
    25
100
AcDbLine
 10
-103.7730359
 20
488.2988411942
 30
0.0
 11
-106.7279261993
 21
497.9730376982
 31
0.0
  0
LINE
  5
297
330
20F
100
AcDbEntity
  8
0
  6
Continuous
 62
     7
370
    25
100
AcDbLine
 10
136.8251621596
 20
-753.4526503876
 30
0.0
 11
136.8251621596
 21
625.6847808874
 31
0.0
  0
LINE
  5
298
330
20F
100
AcDbEntity
  8
0
  6
Continuous
 62
     7
370
    25
100
AcDbLine
 10
-102.1769298815
 20
-891.4256212857
 30
0.0
 11
136.8251621596
 21
-753.4526503876
 31
0.0
  0
LINE
  5
299
330
20F
100
AcDbEntity
  8
0
  6
Continuous
 62
     7
370
    25
100
AcDbLine
 10
-103.7730359
 20
-890.8385900809
 30
0.0
 11
-103.7730359
 21
488.2988411942
 31
0.0
  0
LINE
  5
29A
330
20F
100
AcDbEntity
  8
0
  6
Continuous
 62
     7
370
    25
100
AcDbLine
 10
-331.8894096102
 20
627.9559953063
 30
0.0
 11
-348.6474252435
 21
629.6618171666
 31
0.0
  0
LINE
  5
29B
330
20F
100
AcDbEntity
  8
0
  6
Continuous
 62
     7
370
    25
100
AcDbLine
 10
-349.4190811153
 20
630.4417321563
 30
0.0
 11
-331.2014713815
 21
628.5873361701
 31
0.0
  0
LINE
  5
29C
330
20F
100
AcDbEntity
  8
0
  6
Continuous
 62
     7
370
    25
100
AcDbLine
 10
-109.9551044745
 20
768.9644708623
 30
0.0
 11
-349.6643032967
 21
630.5832959084
 31
0.0
  0
LINE
  5
29D
330
20F
100
AcDbEntity
  8
0
  6
Continuous
 62
     7
370
    25
100
AcDbLine
 10
-349.4190811153
 20
630.4417321563
 30
0.0
 11
-349.6643032967
 21
630.5832959084
 31
0.0
  0
LINE
  5
29E
330
20F
100
AcDbEntity
  8
0
  6
Continuous
 62
     7
370
    25
100
AcDbLine
 10
-348.6474252435
 20
629.6618171666
 30
0.0
 11
-348.6474252435
 21
-749.4756141084
 31
0.0
  0
LINE
  5
29F
330
20F
100
AcDbEntity
  8
0
  6
Continuous
 62
     7
370
    25
100
AcDbLine
 10
-348.9141545453
 20
-749.6296317136
 30
0.0
 11
-348.9141545453
 21
629.9761481305
 31
0.0
  0
LINE
  5
2A0
330
20F
100
AcDbEntity
  8
0
  6
Continuous
 62
     7
370
    25
100
AcDbLine
 10
-349.6643032967
 20
-749.3706761786
 30
0.0
 11
-349.4190811153
 21
-749.5122399306
 31
0.0
  0
LINE
  5
2A1
330
20F
100
AcDbEntity
  8
0
  6
Continuous
 62
     7
370
    25
100
AcDbLine
 10
-349.6643032967
 20
630.5832959084
 30
0.0
 11
-349.6643032967
 21
-749.3706761786
 31
0.0
  0
LINE
  5
2A2
330
20F
100
AcDbEntity
  8
0
  6
Continuous
 62
     7
370
    25
100
AcDbLine
 10
-105.3509029637
 20
-182.8864332778
 30
0.0
 11
-105.3509029637
 21
489.1451482805
 31
0.0
  0
LINE
  5
2A3
330
20F
100
AcDbEntity
  8
0
  6
Continuous
 62
     7
370
    25
100
AcDbLine
 10
-104.7266233406
 20
-183.0898526262
 30
0.0
 11
-104.7266233406
 21
489.2714277986
 31
0.0
  0
LINE
  5
2A4
330
20F
100
AcDbEntity
  8
0
  6
Continuous
 62
     7
370
    25
100
AcDbLine
 10
-105.3509029637
 20
489.1451482805
 30
0.0
 11
-347.1974369957
 21
628.7601805876
 31
0.0
  0
LINE
  5
2A5
330
20F
100
AcDbEntity
  8
0
  6
Continuous
 62
     7
370
    25
100
AcDbLine
 10
-104.9294132345
 20
489.6226701969
 30
0.0
 11
-347.0614593938
 21
629.4025251468
 31
0.0
  0
LINE
  5
2A6
330
20F
100
AcDbEntity
  8
0
  6
Continuous
 62
     7
370
    25
100
AcDbLine
 10
-347.1974369957
 20
-43.2714009707
 30
0.0
 11
-105.3509029637
 21
-182.8864332778
 31
0.0
  0
LINE
  5
2A7
330
20F
100
AcDbEntity
  8
0
  6
Continuous
 62
     7
370
    25
100
AcDbLine
 10
-347.1974369957
 20
628.7601805876
 30
0.0
 11
-347.1974369957
 21
-43.2714009707
 31
0.0
  0
LINE
  5
2A8
330
20F
100
AcDbEntity
  8
0
  6
Continuous
 62
     7
370
    25
100
AcDbLine
 10
-105.3509029637
 20
-890.0107763709
 30
0.0
 11
-105.3509029637
 21
-217.9791948126
 31
0.0
  0
LINE
  5
2A9
330
20F
100
AcDbEntity
  8
0
  6
Continuous
 62
     7
370
    25
100
AcDbLine
 10
-104.7266233406
 20
-890.2141957193
 30
0.0
 11
-104.7266233406
 21
-217.8529152945
 31
0.0
  0
LINE
  5
2AA
330
20F
100
AcDbEntity
  8
0
  6
Continuous
 62
     7
370
    25
100
AcDbLine
 10
-105.3509029637
 20
-217.9791948126
 30
0.0
 11
-347.1974369957
 21
-78.3641625054
 31
0.0
  0
LINE
  5
2AB
330
20F
100
AcDbEntity
  8
0
  6
Continuous
 62
     7
370
    25
100
AcDbLine
 10
-104.9294132345
 20
-217.5016728961
 30
0.0
 11
-347.0614593938
 21
-77.7218179462
 31
0.0
  0
LINE
  5
2AC
330
20F
100
AcDbEntity
  8
0
  6
Continuous
 62
     7
370
    25
100
AcDbLine
 10
-347.1974369957
 20
-750.3957440638
 30
0.0
 11
-105.3509029637
 21
-890.0107763709
 31
0.0
  0
LINE
  5
2AD
330
20F
100
AcDbEntity
  8
0
  6
Continuous
 62
     7
370
    25
100
AcDbLine
 10
-347.1974369957
 20
-78.3641625054
 30
0.0
 11
-347.1974369957
 21
-750.3957440638
 31
0.0
  0
LINE
  5
2AE
330
20F
100
AcDbEntity
  8
0
  6
Continuous
 62
     8
370
    25
100
AcDbLine
 10
-107.1266773498
 20
490.8911237709
 30
0.0
 11
-107.1266773498
 21
498.325115443
 31
0.0
  0
LINE
  5
2AF
330
20F
100
AcDbEntity
  8
0
  6
Continuous
 62
     8
370
    25
100
AcDbLine
 10
-106.4195705686
 20
498.733385849
 30
0.0
 11
-106.4195705686
 21
498.7266539052
 31
0.0
  0
LINE
  5
2B0
330
20F
100
AcDbEntity
  8
0
  6
Continuous
 62
     8
370
    25
100
AcDbLine
 10
-331.2795269859
 20
627.7258011669
 30
0.0
 11
-331.2795269859
 21
620.2918094948
 31
0.0
  0
LINE
  5
2B1
330
20F
100
AcDbEntity
  8
0
  6
Continuous
 62
     8
370
    25
100
AcDbLine
 10
-320.6729252681
 20
-58.7528062347
 30
0.0
 11
-320.6729252681
 21
-92.9555944369
 31
0.0
  0
LINE
  5
2B2
330
20F
100
AcDbEntity
  8
0
  6
Continuous
 62
     8
370
    25
100
AcDbLine
 10
-106.7279261993
 20
497.9730376982
 30
0.0
 11
-106.7279261993
 21
490.6609296316
 31
0.0
  0
LINE
  5
2B3
330
20F
100
AcDbEntity
  8
0
  6
Continuous
 62
     8
370
    25
100
AcDbLine
 10
-106.7279261993
 20
-182.2606252593
 30
0.0
 11
-106.7279261993
 21
-216.4634134615
 31
0.0
  0
LINE
  5
2B4
330
20F
100
AcDbEntity
  8
0
  6
Continuous
 62
     8
370
    25
100
AcDbLine
 10
-104.7266233406
 20
-887.7165816982
 30
0.0
 11
-103.7730359
 21
-890.8385900809
 31
0.0
  0
LINE
  5
2B5
330
20F
100
AcDbEntity
  8
0
  6
Continuous
 62
     8
370
    25
100
AcDbLine
 10
-331.8894096102
 20
-86.4804558534
 30
0.0
 11
-331.8894096102
 21
-52.2776676513
 31
0.0
  0
LINE
  5
2B6
330
20F
100
AcDbEntity
  8
0
  6
Continuous
 62
     8
370
    25
100
AcDbLine
 10
-331.8894096102
 20
620.6438872396
 30
0.0
 11
-331.8894096102
 21
627.9559953063
 31
0.0
  0
LINE
  5
2B7
330
20F
100
AcDbEntity
  8
0
  6
Continuous
 62
     8
370
    25
100
AcDbLine
 10
-348.6474252435
 20
-749.4756141084
 30
0.0
 11
-347.3438836051
 21
-749.6083034358
 31
0.0
  0
LINE
  5
2B8
330
20F
100
AcDbEntity
  8
0
  6
Continuous
 62
     8
370
    25
100
AcDbLine
 10
-331.4490321307
 20
628.3705875233
 30
0.0
 11
-331.4490321307
 21
620.3896627321
 31
0.0
  0
LINE
  5
2B9
330
20F
100
AcDbEntity
  8
0
  6
Continuous
 62
     8
370
    25
100
AcDbLine
 10
-331.4490321307
 20
-52.5318921588
 30
0.0
 11
-331.4490321307
 21
-86.734680361
 31
0.0
  0
VIEWPORT
  5
420
330
20F
100
AcDbEntity
  8
0
100
AcDbViewport
 10
0.0
 20
0.0
 30
0.0
 40
205.6
 41
156.0
 68
     1
 69
     1
 12
0.0
 22
0.0
 13
0.0
 23
0.0
 14
10.0
 24
10.0
 15
10.0
 25
10.0
 16
0.0
 26
0.0
 36
1.0
 17
0.0
 27
0.0
 37
0.0
 42
50.0
 43
0.0
 44
0.0
 45
1723.8
 50
0.0
 51
0.0
 72
   100
 90
   557152
  1

281
     0
 71
     1
 74
     0
110
0.0
120
0.0
130
0.0
111
1.0
121
0.0
131
0.0
112
0.0
122
1.0
132
0.0
 79
     0
146
0.0
  0
ENDBLK
  5
212
330
20F
100
AcDbEntity
  8
0
100
AcDbBlockEnd
  0
BLOCK
  5
2BC
330
2BA
100
AcDbEntity
  8
0
100
AcDbBlockBegin
  2
*Paper_Space5
 70
     0
 10
0.0
 20
0.0
 30
0.0
  3
*Paper_Space5
  1

  0
SPLINE
  5
2CD
330
2BA
100
AcDbEntity
  8
0
  6
Continuous
 62
     7
370
    25
100
AcDbSpline
210
0.0
220
0.0
230
1.0
 70
     8
 71
     3
 72
    14
 73
    10
 74
     0
 42
0.000000001
 43
0.00000001
 40
0.0
 40
0.0
 40
0.0
 40
0.0
 40
0.25
 40
0.25
 40
0.5
 40
0.5
 40
0.75
 40
0.75
 40
1.0
 40
1.0
 40
1.0
 40
1.0
 10
-285.0647042205642
 20
621.5445087421242
 30
0.0
 10
-285.092204510086
 20
621.5176676164905
 30
0.0
 10
-285.1123757898988
 20
621.4769225847267
 30
0.0
 10
-285.1267242559775
 20
621.3673647736708
 30
0.0
 10
-285.1205772817715
 20
621.2985445614061
 30
0.0
 10
-285.0797945631828
 20
621.1469193848886
 30
0.0
 10
-285.045296794866
 20
621.0646273988297
 30
0.0
 10
-284.9591710690021
 20
620.907326107268
 30
0.0
 10
-284.9079576917941
 20
620.832660404782
 30
0.0
 10
-284.8558428541905
 20
620.7679876410291
 30
0.0
  0
SPLINE
  5
2CF
330
2BA
100
AcDbEntity
  8
0
  6
Continuous
 62
     7
370
    25
100
AcDbSpline
210
0.0
220
0.0
230
1.0
 70
     8
 71
     3
 72
    14
 73
    10
 74
     0
 42
0.000000001
 43
0.00000001
 40
0.0
 40
0.0
 40
0.0
 40
0.0
 40
0.25
 40
0.25
 40
0.5
 40
0.5
 40
0.75
 40
0.75
 40
1.0
 40
1.0
 40
1.0
 40
1.0
 10
-4.495298282448018
 20
544.571999026226
 30
0.0
 10
-4.443183444844428
 20
544.6083443976293
 30
0.0
 10
-4.381946039272277
 20
544.6524483868842
 30
0.0
 10
-4.250333417850666
 20
544.7505730612223
 30
0.0
 10
-4.18021863034293
 20
544.8044335961841
 30
0.0
 10
-4.048307968641584
 20
544.9091244123103
 30
0.0
 10
-3.986958374508465
 20
544.9596005035772
 30
0.0
 10
-3.886409282316289
 20
545.045730831511
 30
0.0
 10
-3.847241816665958
 20
545.0813131070036
 30
0.0
 10
-3.81974152714426
 20
545.1081542326372
 30
0.0
  0
SPLINE
  5
2D4
330
2BA
100
AcDbEntity
  8
0
  6
Continuous
 62
     7
370
    25
100
AcDbSpline
210
0.0
220
0.0
230
1.0
 70
     8
 71
     3
 72
    14
 73
    10
 74
     0
 42
0.000000001
 43
0.00000001
 40
0.0
 40
0.0
 40
0.0
 40
0.0
 40
0.25
 40
0.25
 40
0.5
 40
0.5
 40
0.75
 40
0.75
 40
1.0
 40
1.0
 40
1.0
 40
1.0
 10
163.1981746223812
 20
691.0171916002402
 30
0.0
 10
163.2502894599847
 20
691.0030279040652
 30
0.0
 10
163.3015028371927
 20
690.973649731672
 30
0.0
 10
163.3876285630567
 20
690.8800908209104
 30
0.0
 10
163.4221263313735
 20
690.8157850169675
 30
0.0
 10
163.4629090499621
 20
690.66415984045
 30
0.0
 10
163.4690560241683
 20
690.5773534460693
 30
0.0
 10
163.4547075580896
 20
690.4040532542133
 30
0.0
 10
163.4345362782767
 20
690.3180206923569
 30
0.0
 10
163.4070359887549
 20
690.240670499145
 30
0.0
  0
SPLINE
  5
2D6
330
2BA
100
AcDbEntity
  8
0
  6
Continuous
 62
     7
370
    25
100
AcDbSpline
210
0.0
220
0.0
230
1.0
 70
     8
 71
     3
 72
    14
 73
    10
 74
     0
 42
0.000000001
 43
0.00000001
 40
0.0
 40
0.0
 40
0.0
 40
0.0
 40
0.25
 40
0.25
 40
0.5
 40
0.5
 40
0.75
 40
0.75
 40
1.0
 40
1.0
 40
1.0
 40
1.0
 10
5.663994530393845
 20
536.2786261993008
 30
0.0
 10
5.636494240872148
 20
536.302294141245
 30
0.0
 10
5.597326775221956
 20
536.3304102684168
 30
0.0
 10
5.496777683029697
 20
536.3915669210526
 30
0.0
 10
5.435428088896605
 20
536.4244938660702
 30
0.0
 10
5.303517427195259
 20
536.4871753764533
 30
0.0
 10
5.233402639687523
 20
536.5167178777762
 30
0.0
 10
5.101790018265967
 20
536.5658801840076
 30
0.0
 10
5.040552612693622
 20
536.5854745974167
 30
0.0
 10
4.988437775090116
 20
536.5996382935916
 30
0.0
  0
SPLINE
  5
2D8
330
2BA
100
AcDbEntity
  8
0
  6
Continuous
 62
     7
370
    25
100
AcDbSpline
210
0.0
220
0.0
230
1.0
 70
     8
 71
     3
 72
    14
 73
    10
 74
     0
 42
0.000000001
 43
0.00000001
 40
0.0
 40
0.0
 40
0.0
 40
0.0
 40
0.25
 40
0.25
 40
0.5
 40
0.5
 40
0.75
 40
0.75
 40
1.0
 40
1.0
 40
1.0
 40
1.0
 10
5.663994530393845
 20
-911.4769446866037
 30
0.0
 10
5.636494240872148
 20
-911.5542948798153
 30
0.0
 10
5.597326775221956
 20
-911.6351646854006
 30
0.0
 10
5.496777683029752
 20
-911.7850373941347
 30
0.0
 10
5.435428088896687
 20
-911.8534996675176
 30
0.0
 10
5.303517427195315
 20
-911.9581904836439
 30
0.0
 10
5.233402639687551
 20
-911.9940648364899
 30
0.0
 10
5.101790018265939
 20
-912.0284471300273
 30
0.0
 10
5.040552612693622
 20
-912.0272635891896
 30
0.0
 10
4.988437775090116
 20
-912.0130998930147
 30
0.0
  0
SPLINE
  5
2DA
330
2BA
100
AcDbEntity
  8
0
  6
Continuous
 62
     7
370
    25
100
AcDbSpline
210
0.0
220
0.0
230
1.0
 70
     8
 71
     3
 72
    10
 73
     6
 74
     0
 42
0.000000001
 43
0.00000001
 40
0.0
 40
0.0
 40
0.0
 40
0.0
 40
0.5
 40
0.5
 40
1.0
 40
1.0
 40
1.0
 40
1.0
 10
4.681724635205914
 20
536.6829963529444
 30
0.0
 10
4.56306017152322
 20
536.7152468115013
 30
0.0
 10
4.437290396812399
 20
536.733286571492
 30
0.0
 10
4.214172091502516
 20
536.7293582666064
 30
0.0
 10
4.118247786606716
 20
536.707415277184
 30
0.0
 10
4.050184646405858
 20
536.6718772221312
 30
0.0
  0
SPLINE
  5
2DD
330
2BA
100
AcDbEntity
  8
0
  6
Continuous
 62
     7
370
    25
100
AcDbSpline
210
0.0
220
0.0
230
1.0
 70
     8
 71
     3
 72
    10
 73
     6
 74
     0
 42
0.000000001
 43
0.00000001
 40
0.0
 40
0.0
 40
0.0
 40
0.0
 40
0.5
 40
0.5
 40
1.0
 40
1.0
 40
1.0
 40
1.0
 10
4.050184646406302
 20
-911.5753446294672
 30
0.0
 10
4.118247786607104
 20
-911.6478788906995
 30
0.0
 10
4.214172091502766
 20
-911.7219622214449
 30
0.0
 10
4.437290396812788
 20
-911.8471680754028
 30
0.0
 10
4.563060171523553
 20
-911.8974913751049
 30
0.0
 10
4.681724635206358
 20
-911.9297418336621
 30
0.0
  0
SPLINE
  5
2E2
330
2BA
100
AcDbEntity
  8
0
  6
Continuous
 62
     7
370
    25
100
AcDbSpline
210
0.0
220
0.0
230
1.0
 70
     8
 71
     3
 72
     8
 73
     4
 74
     0
 42
0.000000001
 43
0.00000001
 40
0.0
 40
0.0
 40
0.0
 40
0.0
 40
1.0
 40
1.0
 40
1.0
 40
1.0
 10
-3.931616100548513
 20
544.9214527423052
 30
0.0
 10
-3.884836763864086
 20
545.0163915745674
 30
0.0
 10
-3.825331311363783
 20
545.1026984318761
 30
0.0
 10
-3.768224285860184
 20
545.1584366394644
 30
0.0
  0
SPLINE
  5
2E3
330
2BA
100
AcDbEntity
  8
0
  6
Continuous
 62
     7
370
    25
100
AcDbSpline
210
0.0
220
0.0
230
1.0
 70
     8
 71
     3
 72
     8
 73
     4
 74
     0
 42
0.000000001
 43
0.00000001
 40
0.0
 40
0.0
 40
0.0
 40
0.0
 40
1.0
 40
1.0
 40
1.0
 40
1.0
 10
4.050184646405858
 20
536.6718772221312
 30
0.0
 10
3.961534760280911
 20
536.6255901345199
 30
0.0
 10
3.884530612896619
 20
536.5761688394299
 30
0.0
 10
3.838744402681782
 20
536.5361747822751
 30
0.0
  0
SPLINE
  5
2E5
330
2BA
100
AcDbEntity
  8
0
  6
Continuous
 62
     7
370
    25
100
AcDbSpline
210
0.0
220
0.0
230
1.0
 70
     8
 71
     3
 72
    10
 73
     6
 74
     0
 42
0.000000001
 43
0.00000001
 40
0.0
 40
0.0
 40
0.0
 40
0.0
 40
0.5
 40
0.5
 40
1.0
 40
1.0
 40
1.0
 40
1.0
 10
-3.931616100548513
 20
544.9214527423052
 30
0.0
 10
-3.967532091988801
 20
544.8485611083361
 30
0.0
 10
-3.988943692584929
 20
544.7535558972786
 30
0.0
 10
-3.989854790463515
 20
544.5455056586916
 30
0.0
 10
-3.96934847195693
 20
544.4337886732382
 30
0.0
 10
-3.934194977898986
 20
544.3325631612167
 30
0.0
  0
SPLINE
  5
2E8
330
2BA
100
AcDbEntity
  8
0
  6
Continuous
 62
     7
370
    25
100
AcDbSpline
210
0.0
220
0.0
230
1.0
 70
     8
 71
     3
 72
     8
 73
     4
 74
     0
 42
0.000000001
 43
0.00000001
 40
0.0
 40
0.0
 40
0.0
 40
0.0
 40
1.0
 40
1.0
 40
1.0
 40
1.0
 10
3.838744402682226
 20
-911.2193961036295
 30
0.0
 10
3.88453061289698
 20
-911.3512388321192
 30
0.0
 10
3.961534760281077
 20
-911.480871262833
 30
0.0
 10
4.050184646406302
 20
-911.5753446294672
 30
0.0
  0
SPLINE
  5
2EA
330
2BA
100
AcDbEntity
  8
0
  6
Continuous
 62
     7
370
    25
100
AcDbSpline
210
0.0
220
0.0
230
1.0
 70
     8
 71
     3
 72
     8
 73
     4
 74
     0
 42
0.000000001
 43
0.00000001
 40
0.0
 40
0.0
 40
0.0
 40
0.0
 40
1.0
 40
1.0
 40
1.0
 40
1.0
 10
-285.0131869792801
 20
621.5947911489515
 30
0.0
 10
-285.0702940047832
 20
621.5390529413629
 30
0.0
 10
-285.1297994572836
 20
621.4527460840542
 30
0.0
 10
-285.1765787939685
 20
621.3578072517922
 30
0.0
  0
SPLINE
  5
2EB
330
2BA
100
AcDbEntity
  8
0
  6
Continuous
 62
     7
370
    25
100
AcDbSpline
210
0.0
220
0.0
230
1.0
 70
     8
 71
     3
 72
    10
 73
     6
 74
     0
 42
0.000000001
 43
0.00000001
 40
0.0
 40
0.0
 40
0.0
 40
0.0
 40
0.5
 40
0.5
 40
1.0
 40
1.0
 40
1.0
 40
1.0
 10
-285.5562943985204
 20
620.8714153520946
 30
0.0
 10
-285.4799397717057
 20
620.9423353461924
 30
0.0
 10
-285.4013669283672
 20
621.0271247384658
 30
0.0
 10
-285.2672162749012
 20
621.1989633208219
 30
0.0
 10
-285.2124947854085
 20
621.2849156178227
 30
0.0
 10
-285.1765787939685
 20
621.3578072517922
 30
0.0
  0
SPLINE
  5
2EC
330
2BA
100
AcDbEntity
  8
0
  6
Continuous
 62
     7
370
    25
100
AcDbSpline
210
0.0
220
0.0
230
1.0
 70
     8
 71
     3
 72
     8
 73
     4
 74
     0
 42
0.000000001
 43
0.00000001
 40
0.0
 40
0.0
 40
0.0
 40
0.0
 40
1.0
 40
1.0
 40
1.0
 40
1.0
 10
-302.4393924108938
 20
619.7760096215831
 30
0.0
 10
-302.5388416715694
 20
619.8554755677061
 30
0.0
 10
-302.6465836755208
 20
619.9551069080984
 30
0.0
 10
-302.7352335616457
 20
620.0495802747323
 30
0.0
  0
SPLINE
  5
2ED
330
2BA
100
AcDbEntity
  8
0
  6
Continuous
 62
     7
370
    25
100
AcDbSpline
210
0.0
220
0.0
230
1.0
 70
     8
 71
     3
 72
    10
 73
     6
 74
     0
 42
0.000000001
 43
0.00000001
 40
0.0
 40
0.0
 40
0.0
 40
0.0
 40
0.5
 40
0.5
 40
1.0
 40
1.0
 40
1.0
 40
1.0
 10
-302.7352335616457
 20
620.0495802747323
 30
0.0
 10
-302.8032967018464
 20
620.1221145359648
 30
0.0
 10
-302.8992210067422
 20
620.1961978667101
 30
0.0
 10
-303.122339312052
 20
620.3214037206682
 30
0.0
 10
-303.2481090867628
 20
620.3717270203698
 30
0.0
 10
-303.3667735504457
 20
620.4039774789271
 30
0.0
  0
SPLINE
  5
2F5
330
2BA
100
AcDbEntity
  8
0
  6
Continuous
 62
     7
370
    25
100
AcDbSpline
210
0.0
220
0.0
230
1.0
 70
     8
 71
     3
 72
     8
 73
     4
 74
     0
 42
0.000000001
 43
0.00000001
 40
0.0
 40
0.0
 40
0.0
 40
0.0
 40
1.0
 40
1.0
 40
1.0
 40
1.0
 10
-302.7352335616461
 20
-828.197641576866
 30
0.0
 10
-302.6465836755212
 20
-828.151354489255
 30
0.0
 10
-302.5388416715695
 20
-828.0719321038428
 30
0.0
 10
-302.4393924108942
 20
-827.9795612643213
 30
0.0
  0
SPLINE
  5
2F6
330
2BA
100
AcDbEntity
  8
0
  6
Continuous
 62
     7
370
    25
100
AcDbSpline
210
0.0
220
0.0
230
1.0
 70
     8
 71
     3
 72
    10
 73
     6
 74
     0
 42
0.000000001
 43
0.00000001
 40
0.0
 40
0.0
 40
0.0
 40
0.0
 40
0.5
 40
0.5
 40
1.0
 40
1.0
 40
1.0
 40
1.0
 10
-303.3667735504462
 20
-828.2087607076792
 30
0.0
 10
-303.2481090867633
 20
-828.2410111662363
 30
0.0
 10
-303.1223393120526
 20
-828.2590509262271
 30
0.0
 10
-302.8992210067427
 20
-828.2551226213412
 30
0.0
 10
-302.8032967018469
 20
-828.2331796319189
 30
0.0
 10
-302.7352335616461
 20
-828.197641576866
 30
0.0
  0
SPLINE
  5
2F9
330
2BA
100
AcDbEntity
  8
0
  6
Continuous
 62
     7
370
    25
100
AcDbSpline
210
0.0
220
0.0
230
1.0
 70
     8
 71
     3
 72
    11
 73
     7
 74
     0
 42
0.000000001
 43
0.00000001
 40
0.0
 40
0.0
 40
0.0
 40
0.0
 40
0.4093669952204902
 40
0.629039167157407
 40
0.8246351039670904
 40
1.0
 40
1.0
 40
1.0
 40
1.0
 10
-303.9342082006552
 20
620.4839055589232
 30
0.0
 10
-303.9305188323259
 20
620.4982352098916
 30
0.0
 10
-303.9248496962981
 20
620.5202543560764
 30
0.0
 10
-303.8483582359775
 20
620.5216885098442
 30
0.0
 10
-303.7700262802223
 20
620.511574474741
 30
0.0
 10
-303.7044748980048
 20
620.4951159856354
 30
0.0
 10
-303.6734866903299
 20
620.48733553828
 30
0.0
  0
SPLINE
  5
2FA
330
2BA
100
AcDbEntity
  8
0
  6
Continuous
 62
     7
370
    25
100
AcDbSpline
210
0.0
220
0.0
230
1.0
 70
     8
 71
     3
 72
    11
 73
     7
 74
     0
 42
0.000000001
 43
0.00000001
 40
0.0
 40
0.0
 40
0.0
 40
0.0
 40
0.2259310805346298
 40
0.4866820758183359
 40
0.7855369045648375
 40
1.0
 40
1.0
 40
1.0
 40
1.0
 10
-303.67348669033
 20
-828.1254026483265
 30
0.0
 10
-303.7130730911726
 20
-828.1089627216443
 30
0.0
 10
-303.7983468467385
 20
-828.0735491892293
 30
0.0
 10
-303.8868788584271
 20
-827.9512128850137
 30
0.0
 10
-303.937056284399
 20
-827.81001011994
 30
0.0
 10
-303.9337306715627
 20
-827.7082551570551
 30
0.0
 10
-303.9323412378619
 20
-827.6657421582134
 30
0.0
  0
SPLINE
  5
2FB
330
2BA
100
AcDbEntity
  8
0
  6
Continuous
 62
     7
370
    25
100
AcDbSpline
210
0.0
220
0.0
230
1.0
 70
     8
 71
     3
 72
    11
 73
     7
 74
     0
 42
0.000000001
 43
0.00000001
 40
0.0
 40
0.0
 40
0.0
 40
0.0
 40
0.2799471128106075
 40
0.5477539918003407
 40
0.7862090355968018
 40
1.0
 40
1.0
 40
1.0
 40
1.0
 10
-145.8977092250696
 20
774.7330531599421
 30
0.0
 10
-145.865954984162
 20
774.7689298767987
 30
0.0
 10
-145.8038235621263
 20
774.8391274747438
 30
0.0
 10
-145.6829903837159
 20
774.8950449035301
 30
0.0
 10
-145.567154867584
 20
774.9226134078915
 30
0.0
 10
-145.4969417840737
 20
774.9105782459159
 30
0.0
 10
-145.4637498430388
 20
774.9048888449286
 30
0.0
  0
SPLINE
  5
2FC
330
2BA
100
AcDbEntity
  8
0
  6
Continuous
 62
     7
370
    25
100
AcDbSpline
210
0.0
220
0.0
230
1.0
 70
     8
 71
     3
 72
     9
 73
     5
 74
     0
 42
0.000000001
 43
0.00000001
 40
0.0
 40
0.0
 40
0.0
 40
0.0
 40
0.4869212219406133
 40
1.0
 40
1.0
 40
1.0
 40
1.0
 10
163.4550906122587
 20
-757.6119675722647
 30
0.0
 10
163.4605924028851
 20
-757.6004987817864
 30
0.0
 10
163.4718915420034
 20
-757.5769450939179
 30
0.0
 10
163.4290282395839
 20
-757.5359394912632
 30
0.0
 10
163.4070359887549
 20
-757.5149003867593
 30
0.0
  0
SPLINE
  5
2FE
330
2BA
100
AcDbEntity
  8
0
  6
Continuous
 62
     7
370
    25
100
AcDbSpline
210
0.0
220
0.0
230
1.0
 70
     8
 71
     3
 72
    10
 73
     6
 74
     0
 42
0.000000001
 43
0.00000001
 40
0.0
 40
0.0
 40
0.0
 40
0.0
 40
0.5
 40
0.5
 40
1.0
 40
1.0
 40
1.0
 40
1.0
 10
-300.5880386102627
 20
619.2298999644208
 30
0.0
 10
-300.6752361422246
 20
619.3381091739998
 30
0.0
 10
-300.7567169619088
 20
619.472633042341
 30
0.0
 10
-300.8521288042875
 20
619.7246715624196
 30
0.0
 10
-300.8642692126627
 20
619.8374561536965
 30
0.0
 10
-300.8465467835694
 20
619.9127713544297
 30
0.0
  0
SPLINE
  5
2FF
330
2BA
100
AcDbEntity
  8
0
  6
Continuous
 62
     7
370
    25
100
AcDbSpline
210
0.0
220
0.0
230
1.0
 70
     8
 71
     3
 72
    11
 73
     7
 74
     0
 42
0.000000001
 43
0.00000001
 40
0.0
 40
0.0
 40
0.0
 40
0.0
 40
0.2450890083291423
 40
0.4923764711701607
 40
0.7434940738868387
 40
1.0
 40
1.0
 40
1.0
 40
1.0
 10
-300.5826254720016
 20
619.8768603556379
 30
0.0
 10
-300.6031207281733
 20
619.8820050150214
 30
0.0
 10
-300.6442950834751
 20
619.892340481511
 30
0.0
 10
-300.7093510081961
 20
619.9031506716874
 30
0.0
 10
-300.7768518398856
 20
619.910697987306
 30
0.0
 10
-300.8231513157473
 20
619.9120753585474
 30
0.0
 10
-300.8465467835692
 20
619.9127713544298
 30
0.0
  0
SPLINE
  5
301
330
2BA
100
AcDbEntity
  8
0
  6
Continuous
 62
     7
370
    25
100
AcDbSpline
210
0.0
220
0.0
230
1.0
 70
     8
 71
     3
 72
    10
 73
     6
 74
     0
 42
0.000000001
 43
0.00000001
 40
0.0
 40
0.0
 40
0.0
 40
0.0
 40
0.3407406776411832
 40
0.6728125813120777
 40
1.0
 40
1.0
 40
1.0
 40
1.0
 10
2.488130166619362
 20
537.4729058352747
 30
0.0
 10
2.465248198783327
 20
537.4864131945274
 30
0.0
 10
2.420066402609583
 20
537.5130842726868
 30
0.0
 10
2.345481905611235
 20
537.5451161009845
 30
0.0
 10
2.29203454975313
 20
537.5612296238551
 30
0.0
 10
2.265508868877941
 20
537.5692266923459
 30
0.0
  0
SPLINE
  5
302
330
2BA
100
AcDbEntity
  8
0
  6
Continuous
 62
     7
370
    25
100
AcDbSpline
210
0.0
220
0.0
230
1.0
 70
     8
 71
     3
 72
    10
 73
     6
 74
     0
 42
0.000000001
 43
0.00000001
 40
0.0
 40
0.0
 40
0.0
 40
0.0
 40
0.5
 40
0.5
 40
1.0
 40
1.0
 40
1.0
 40
1.0
 10
2.488130166619362
 20
537.4729058352746
 30
0.0
 10
2.418068862480277
 20
537.4118152192923
 30
0.0
 10
2.317774299216258
 20
537.3295880441171
 30
0.0
 10
2.101806928702654
 20
537.1621757220527
 30
0.0
 10
1.990187226984852
 20
537.080132437785
 30
0.0
 10
1.902989695022894
 20
537.0193200697466
 30
0.0
  0
SPLINE
  5
304
330
2BA
100
AcDbEntity
  8
0
  6
Continuous
 62
     7
370
    25
100
AcDbSpline
210
0.0
220
0.0
230
1.0
 70
     8
 71
     3
 72
    11
 73
     7
 74
     0
 42
0.000000001
 43
0.00000001
 40
0.0
 40
0.0
 40
0.0
 40
0.0
 40
0.2450890083269517
 40
0.4923764711674687
 40
0.7434940738850239
 40
1.0
 40
1.0
 40
1.0
 40
1.0
 10
2.519149566116069
 20
537.2544671028525
 30
0.0
 10
2.518785313421451
 20
537.2738531048797
 30
0.0
 10
2.518053540676441
 20
537.3127990018551
 30
0.0
 10
2.512150094101745
 20
537.3683116862726
 30
0.0
 10
2.502837312707895
 20
537.4221628095278
 30
0.0
 10
2.493067118209957
 20
537.4558722204481
 30
0.0
 10
2.488130166619418
 20
537.4729058352743
 30
0.0
  0
SPLINE
  5
306
330
2BA
100
AcDbEntity
  8
0
  6
Continuous
 62
     7
370
    25
100
AcDbSpline
210
0.0
220
0.0
230
1.0
 70
     8
 71
     3
 72
    10
 73
     6
 74
     0
 42
0.000000001
 43
0.00000001
 40
0.0
 40
0.0
 40
0.0
 40
0.0
 40
0.3407406776493401
 40
0.672812581320388
 40
1.0
 40
1.0
 40
1.0
 40
1.0
 10
2.488130166619445
 20
-168.8128501646097
 30
0.0
 10
2.494479133581557
 20
-168.7833660256572
 30
0.0
 10
2.507015543616209
 20
-168.7251478529006
 30
0.0
 10
2.517111601007621
 20
-168.6398792209332
 30
0.0
 10
2.518473608139393
 20
-168.5863192708783
 30
0.0
 10
2.519149566116069
 20
-168.559737710013
 30
0.0
  0
SPLINE
  5
307
330
2BA
100
AcDbEntity
  8
0
  6
Continuous
 62
     7
370
    25
100
AcDbSpline
210
0.0
220
0.0
230
1.0
 70
     8
 71
     3
 72
    10
 73
     6
 74
     0
 42
0.000000001
 43
0.00000001
 40
0.0
 40
0.0
 40
0.0
 40
0.0
 40
0.5
 40
0.5
 40
1.0
 40
1.0
 40
1.0
 40
1.0
 10
2.488130166619362
 20
-168.8128501646096
 30
0.0
 10
2.418068862480277
 20
-168.8232145786459
 30
0.0
 10
2.31777429921623
 20
-168.7964711450309
 30
0.0
 10
2.101806928702682
 20
-168.6620985162127
 30
0.0
 10
1.990187226984907
 20
-168.5569911206865
 30
0.0
 10
1.902989695022894
 20
-168.4487819111075
 30
0.0
  0
SPLINE
  5
30A
330
2BA
100
AcDbEntity
  8
0
  6
Continuous
 62
     7
370
    25
100
AcDbSpline
210
0.0
220
0.0
230
1.0
 70
     8
 71
     3
 72
    11
 73
     7
 74
     0
 42
0.000000001
 43
0.00000001
 40
0.0
 40
0.0
 40
0.0
 40
0.0
 40
0.3460903182139369
 40
0.6885730670690283
 40
0.9308027671626787
 40
1.0
 40
1.0
 40
1.0
 40
1.0
 10
-300.5880386102627
 20
-86.23820201643326
 30
0.0
 10
-300.6362899737302
 20
-86.27115146932506
 30
0.0
 10
-300.7322897390646
 20
-86.33670691725847
 30
0.0
 10
-300.8173359582796
 20
-86.38468649251939
 30
0.0
 10
-300.8565056446218
 20
-86.40037246647347
 30
0.0
 10
-300.8517217748288
 20
-86.38898856449448
 30
0.0
 10
-300.8506588270972
 20
-86.38645912842927
 30
0.0
  0
SPLINE
  5
30C
330
2BA
100
AcDbEntity
  8
0
  6
Continuous
 62
     7
370
    25
100
AcDbSpline
210
0.0
220
0.0
230
1.0
 70
     8
 71
     3
 72
    10
 73
     6
 74
     0
 42
0.000000001
 43
0.00000001
 40
0.0
 40
0.0
 40
0.0
 40
0.0
 40
0.5
 40
0.5
 40
1.0
 40
1.0
 40
1.0
 40
1.0
 10
-300.5880386102627
 20
-123.0769824436273
 30
0.0
 10
-300.6752361422246
 20
-122.9687732340484
 30
0.0
 10
-300.7567169619088
 20
-122.8342493657072
 30
0.0
 10
-300.8521288042875
 20
-122.5822108456286
 30
0.0
 10
-300.8642692126627
 20
-122.4694262543516
 30
0.0
 10
-300.8465467835694
 20
-122.3941110536183
 30
0.0
  0
SPLINE
  5
30D
330
2BA
100
AcDbEntity
  8
0
  6
Continuous
 62
     7
370
    25
100
AcDbSpline
210
0.0
220
0.0
230
1.0
 70
     8
 71
     3
 72
    11
 73
     7
 74
     0
 42
0.000000001
 43
0.00000001
 40
0.0
 40
0.0
 40
0.0
 40
0.0
 40
0.2450890083291427
 40
0.4923764711701567
 40
0.7434940738868322
 40
1.0
 40
1.0
 40
1.0
 40
1.0
 10
-300.5826254720017
 20
-122.4300220524102
 30
0.0
 10
-300.6031207281733
 20
-122.4248773930268
 30
0.0
 10
-300.6442950834752
 20
-122.4145419265371
 30
0.0
 10
-300.7093510081959
 20
-122.4037317363606
 30
0.0
 10
-300.7768518398858
 20
-122.3961844207419
 30
0.0
 10
-300.8231513157472
 20
-122.3948070495006
 30
0.0
 10
-300.8465467835692
 20
-122.3941110536183
 30
0.0
  0
SPLINE
  5
30F
330
2BA
100
AcDbEntity
  8
0
  6
Continuous
 62
     7
370
    25
100
AcDbSpline
210
0.0
220
0.0
230
1.0
 70
     8
 71
     3
 72
    10
 73
     6
 74
     0
 42
0.000000001
 43
0.00000001
 40
0.0
 40
0.0
 40
0.0
 40
0.0
 40
0.3407406776411925
 40
0.6728125813120801
 40
1.0
 40
1.0
 40
1.0
 40
1.0
 10
2.488130166619362
 20
-204.8339765727734
 30
0.0
 10
2.465248198783327
 20
-204.8204692135207
 30
0.0
 10
2.420066402609583
 20
-204.7937981353612
 30
0.0
 10
2.345481905611152
 20
-204.7617663070635
 30
0.0
 10
2.29203454975313
 20
-204.7456527841928
 30
0.0
 10
2.265508868877941
 20
-204.7376557157021
 30
0.0
  0
SPLINE
  5
310
330
2BA
100
AcDbEntity
  8
0
  6
Continuous
 62
     7
370
    25
100
AcDbSpline
210
0.0
220
0.0
230
1.0
 70
     8
 71
     3
 72
    10
 73
     6
 74
     0
 42
0.000000001
 43
0.00000001
 40
0.0
 40
0.0
 40
0.0
 40
0.0
 40
0.5
 40
0.5
 40
1.0
 40
1.0
 40
1.0
 40
1.0
 10
2.488130166619362
 20
-204.8339765727735
 30
0.0
 10
2.418068862480277
 20
-204.8950671887557
 30
0.0
 10
2.317774299216258
 20
-204.9772943639313
 30
0.0
 10
2.101806928702654
 20
-205.1447066859951
 30
0.0
 10
1.990187226984852
 20
-205.226749970263
 30
0.0
 10
1.902989695022894
 20
-205.2875623383015
 30
0.0
  0
SPLINE
  5
312
330
2BA
100
AcDbEntity
  8
0
  6
Continuous
 62
     7
370
    25
100
AcDbSpline
210
0.0
220
0.0
230
1.0
 70
     8
 71
     3
 72
    11
 73
     7
 74
     0
 42
0.000000001
 43
0.00000001
 40
0.0
 40
0.0
 40
0.0
 40
0.0
 40
0.2450890083270174
 40
0.4923764711672916
 40
0.7434940738847028
 40
1.0
 40
1.0
 40
1.0
 40
1.0
 10
2.519149566116069
 20
-205.0524153051957
 30
0.0
 10
2.518785313421423
 20
-205.0330293031686
 30
0.0
 10
2.518053540676413
 20
-204.994083406193
 30
0.0
 10
2.512150094101662
 20
-204.9385707217754
 30
0.0
 10
2.502837312708006
 20
-204.8847195985202
 30
0.0
 10
2.49306711820993
 20
-204.8510101875999
 30
0.0
 10
2.488130166619418
 20
-204.8339765727736
 30
0.0
  0
SPLINE
  5
314
330
2BA
100
AcDbEntity
  8
0
  6
Continuous
 62
     7
370
    25
100
AcDbSpline
210
0.0
220
0.0
230
1.0
 70
     8
 71
     3
 72
    10
 73
     6
 74
     0
 42
0.000000001
 43
0.00000001
 40
0.0
 40
0.0
 40
0.0
 40
0.0
 40
0.3407406776493401
 40
0.672812581320388
 40
1.0
 40
1.0
 40
1.0
 40
1.0
 10
2.488130166619445
 20
-911.1197325726578
 30
0.0
 10
2.494479133581557
 20
-911.0902484337054
 30
0.0
 10
2.507015543616209
 20
-911.0320302609485
 30
0.0
 10
2.517111601007621
 20
-910.9467616289812
 30
0.0
 10
2.518473608139393
 20
-910.8932016789262
 30
0.0
 10
2.519149566116069
 20
-910.8666201180611
 30
0.0
  0
SPLINE
  5
315
330
2BA
100
AcDbEntity
  8
0
  6
Continuous
 62
     7
370
    25
100
AcDbSpline
210
0.0
220
0.0
230
1.0
 70
     8
 71
     3
 72
    10
 73
     6
 74
     0
 42
0.000000001
 43
0.00000001
 40
0.0
 40
0.0
 40
0.0
 40
0.0
 40
0.5
 40
0.5
 40
1.0
 40
1.0
 40
1.0
 40
1.0
 10
2.488130166619362
 20
-911.1197325726577
 30
0.0
 10
2.418068862480277
 20
-911.130096986694
 30
0.0
 10
2.31777429921623
 20
-911.1033535530789
 30
0.0
 10
2.101806928702682
 20
-910.9689809242604
 30
0.0
 10
1.990187226984907
 20
-910.8638735287346
 30
0.0
 10
1.902989695022894
 20
-910.7556643191555
 30
0.0
  0
SPLINE
  5
318
330
2BA
100
AcDbEntity
  8
0
  6
Continuous
 62
     7
370
    25
100
AcDbSpline
210
0.0
220
0.0
230
1.0
 70
     8
 71
     3
 72
    11
 73
     7
 74
     0
 42
0.000000001
 43
0.00000001
 40
0.0
 40
0.0
 40
0.0
 40
0.0
 40
0.3460903182140337
 40
0.6885730670691544
 40
0.9308027671628617
 40
0.9999999999999999
 40
0.9999999999999999
 40
0.9999999999999999
 40
0.9999999999999999
 10
-300.5880386102627
 20
-828.5450844244813
 30
0.0
 10
-300.6362899737301
 20
-828.578033877373
 30
0.0
 10
-300.7322897390645
 20
-828.6435893253064
 30
0.0
 10
-300.8173359582798
 20
-828.691568900568
 30
0.0
 10
-300.8565056446218
 20
-828.7072548745216
 30
0.0
 10
-300.8517217748288
 20
-828.6958709725425
 30
0.0
 10
-300.8506588270972
 20
-828.6933415364772
 30
0.0
  0
LINE
  5
327
330
2BA
100
AcDbEntity
  8
0
  6
Continuous
 62
     7
370
    25
100
AcDbLine
 10
-285.1224951597
 20
621.3711138305
 30
0.0
 11
-285.1224951597
 21
615.6751282073
 31
0.0
  0
LINE
  5
328
330
2BA
100
AcDbEntity
  8
0
  6
Continuous
 62
     7
370
    25
100
AcDbLine
 10
-278.1220643258
 20
-92.5709359818
 30
0.0
 11
-278.1220643258
 21
-128.5343213003
 31
0.0
  0
LINE
  5
329
330
2BA
100
AcDbEntity
  8
0
  6
Continuous
 62
     7
370
    25
100
AcDbLine
 10
-3.9894070397
 20
544.6446426589
 30
0.0
 11
-3.9894070397
 21
539.2691788097
 31
0.0
  0
LINE
  5
32A
330
2BA
100
AcDbEntity
  8
0
  6
Continuous
 62
     7
370
    25
100
AcDbLine
 10
-3.9894070397
 20
-167.0743182799
 30
0.0
 11
-3.9894070397
 21
-203.0377035984
 31
0.0
  0
LINE
  5
32B
330
2BA
100
AcDbEntity
  8
0
  6
Continuous
 62
     7
370
    25
100
AcDbLine
 10
-303.9401389959
 20
620.4833836175
 30
0.0
 11
-303.9401389959
 21
-827.6658315485
 31
0.0
  0
LINE
  5
32C
330
2BA
100
AcDbEntity
  8
0
  6
Continuous
 62
     7
370
    25
100
AcDbLine
 10
-145.9069354677
 20
774.7424261727
 30
0.0
 11
-303.9287792243
 21
620.5082622827
 31
0.0
  0
LINE
  5
32D
330
2BA
100
AcDbEntity
  8
0
  6
Continuous
 62
     7
370
    25
100
AcDbLine
 10
163.4648269279
 20
-757.5914844934
 30
0.0
 11
163.4648269279
 21
690.5576205004
 31
0.0
  0
LINE
  5
32E
330
2BA
100
AcDbEntity
  8
0
  6
Continuous
 62
     7
370
    25
100
AcDbLine
 10
5.4316233998
 20
-911.8506372208
 30
0.0
 11
163.4567251854
 21
-757.6132933946
 31
0.0
  0
LINE
  5
32F
330
2BA
100
AcDbEntity
  8
0
  6
Continuous
 62
     7
370
    25
100
AcDbLine
 10
2.5191495661
 20
-910.0402333363
 30
0.0
 11
4.0679747161
 21
-911.5937309012
 31
0.0
  0
LINE
  5
330
330
2BA
100
AcDbEntity
  8
0
  6
Continuous
 62
     7
370
    25
100
AcDbLine
 10
-302.9673970864
 20
-828.2553161015
 30
0.0
 11
-300.8546909158
 21
-828.1182399295
 31
0.0
  0
LINE
  5
331
330
2BA
100
AcDbEntity
  8
0
  6
Continuous
 62
     7
370
    25
100
AcDbLine
 10
-300.8546909158
 20
619.8691059394
 30
0.0
 11
-300.8546909158
 21
-86.4218989846
 31
0.0
  0
LINE
  5
332
330
2BA
100
AcDbEntity
  8
0
  6
Continuous
 62
     7
370
    25
100
AcDbLine
 10
-300.8506549303
 20
-86.3937920703
 30
0.0
 11
2.3678538038
 21
-168.8020855575
 31
0.0
  0
LINE
  5
333
330
2BA
100
AcDbEntity
  8
0
  6
Continuous
 62
     7
370
    25
100
AcDbLine
 10
-300.8546909158
 20
-122.4377764686
 30
0.0
 11
-300.8546909158
 21
-828.7287813927
 31
0.0
  0
LINE
  5
334
330
2BA
100
AcDbEntity
  8
0
  6
Continuous
 62
     7
370
    25
100
AcDbLine
 10
-300.8506549303
 20
-828.7006744784
 30
0.0
 11
2.3678538038
 21
-911.1089679656
 31
0.0
  0
LINE
  5
335
330
2BA
100
AcDbEntity
  8
0
  6
Continuous
 62
     7
370
    25
100
AcDbLine
 10
-4.4952982824
 20
544.5719990262
 30
0.0
 11
-284.8558428542
 21
620.767987641
 31
0.0
  0
LINE
  5
336
330
2BA
100
AcDbEntity
  8
0
  6
Continuous
 62
     7
370
    25
100
AcDbLine
 10
-285.0647042206
 20
621.5445087421
 30
0.0
 11
-3.8197415271
 21
545.1081542326
 31
0.0
  0
LINE
  5
337
330
2BA
100
AcDbEntity
  8
0
  6
Continuous
 62
     7
370
    25
100
AcDbLine
 10
149.4896937364
 20
694.7428629678
 30
0.0
 11
-3.8197415271
 21
545.1081542326
 31
0.0
  0
LINE
  5
338
330
2BA
100
AcDbEntity
  8
0
  6
Continuous
 62
     7
370
    25
100
AcDbLine
 10
163.1981746224
 20
691.0171916002
 30
0.0
 11
-145.463749843
 21
774.9048888449
 31
0.0
  0
LINE
  5
339
330
2BA
100
AcDbEntity
  8
0
  6
Continuous
 62
     7
370
    25
100
AcDbLine
 10
-131.755268957
 20
771.1792174773
 30
0.0
 11
-285.0647042206
 21
621.5445087421
 31
0.0
  0
LINE
  5
33A
330
2BA
100
AcDbEntity
  8
0
  6
Continuous
 62
     7
370
    25
100
AcDbLine
 10
4.9884377751
 20
536.5996382936
 30
0.0
 11
163.1981746224
 21
691.0171916002
 31
0.0
  0
LINE
  5
33B
330
2BA
100
AcDbEntity
  8
0
  6
Continuous
 62
     7
370
    25
100
AcDbLine
 10
163.4070359888
 20
690.2406704991
 30
0.0
 11
5.6639945304
 21
536.2786261993
 31
0.0
  0
LINE
  5
33C
330
2BA
100
AcDbEntity
  8
0
  6
Continuous
 62
     7
370
    25
100
AcDbLine
 10
5.6639945304
 20
536.2786261993
 30
0.0
 11
5.6639945304
 21
-911.4769446866
 31
0.0
  0
LINE
  5
33D
330
2BA
100
AcDbEntity
  8
0
  6
Continuous
 62
     7
370
    25
100
AcDbLine
 10
4.9884377751
 20
-912.013099893
 30
0.0
 11
4.9884377751
 21
536.5996382936
 31
0.0
  0
LINE
  5
33E
330
2BA
100
AcDbEntity
  8
0
  6
Continuous
 62
     7
370
    25
100
AcDbLine
 10
4.9884377751
 20
536.5996382936
 30
0.0
 11
4.6817246352
 21
536.6829963529
 31
0.0
  0
LINE
  5
33F
330
2BA
100
AcDbEntity
  8
0
  6
Continuous
 62
     7
370
    25
100
AcDbLine
 10
4.6817246352
 20
-911.9297418337
 30
0.0
 11
4.9884377751
 21
-912.013099893
 31
0.0
  0
LINE
  5
340
330
2BA
100
AcDbEntity
  8
0
  6
Continuous
 62
     7
370
    25
100
AcDbLine
 10
4.0501846464
 20
536.6718772221
 30
0.0
 11
4.0501846464
 21
-911.5753446295
 31
0.0
  0
LINE
  5
341
330
2BA
100
AcDbEntity
  8
0
  6
Continuous
 62
     7
370
    25
100
AcDbLine
 10
-3.7682242859
 20
545.1584366395
 30
0.0
 11
4.6817246352
 21
536.6829963529
 31
0.0
  0
LINE
  5
342
330
2BA
100
AcDbEntity
  8
0
  6
Continuous
 62
     7
370
    25
100
AcDbLine
 10
3.8387444027
 20
536.5361747823
 30
0.0
 11
-3.9341949779
 21
544.3325631612
 31
0.0
  0
LINE
  5
343
330
2BA
100
AcDbEntity
  8
0
  6
Continuous
 62
     7
370
    25
100
AcDbLine
 10
163.4070359888
 20
-757.5149003868
 30
0.0
 11
163.4070359888
 21
690.2406704991
 31
0.0
  0
LINE
  5
344
330
2BA
100
AcDbEntity
  8
0
  6
Continuous
 62
     7
370
    25
100
AcDbLine
 10
5.6639945304
 20
-911.4769446866
 30
0.0
 11
163.4070359888
 21
-757.5149003868
 31
0.0
  0
LINE
  5
345
330
2BA
100
AcDbEntity
  8
0
  6
Continuous
 62
     7
370
    25
100
AcDbLine
 10
3.8387444027
 20
-911.2193961036
 30
0.0
 11
3.8387444027
 21
536.5361747823
 31
0.0
  0
LINE
  5
346
330
2BA
100
AcDbEntity
  8
0
  6
Continuous
 62
     7
370
    25
100
AcDbLine
 10
-303.3667735504
 20
620.4039774789
 30
0.0
 11
-285.0131869793
 21
621.594791149
 31
0.0
  0
LINE
  5
347
330
2BA
100
AcDbEntity
  8
0
  6
Continuous
 62
     7
370
    25
100
AcDbLine
 10
-145.463749843
 20
774.9048888449
 30
0.0
 11
-303.6734866903
 21
620.4873355383
 31
0.0
  0
LINE
  5
348
330
2BA
100
AcDbEntity
  8
0
  6
Continuous
 62
     7
370
    25
100
AcDbLine
 10
-303.3667735504
 20
620.4039774789
 30
0.0
 11
-303.6734866903
 21
620.4873355383
 31
0.0
  0
LINE
  5
349
330
2BA
100
AcDbEntity
  8
0
  6
Continuous
 62
     7
370
    25
100
AcDbLine
 10
-302.4393924109
 20
619.7760096216
 30
0.0
 11
-302.4393924109
 21
-827.9795612643
 31
0.0
  0
LINE
  5
34A
330
2BA
100
AcDbEntity
  8
0
  6
Continuous
 62
     7
370
    25
100
AcDbLine
 10
-302.7352335616
 20
-828.1976415769
 30
0.0
 11
-302.7352335616
 21
620.0495802747
 31
0.0
  0
LINE
  5
34B
330
2BA
100
AcDbEntity
  8
0
  6
Continuous
 62
     7
370
    25
100
AcDbLine
 10
-303.6734866903
 20
-828.1254026483
 30
0.0
 11
-303.3667735504
 21
-828.2087607077
 31
0.0
  0
LINE
  5
34C
330
2BA
100
AcDbEntity
  8
0
  6
Continuous
 62
     7
370
    25
100
AcDbLine
 10
-303.6734866903
 20
620.4873355383
 30
0.0
 11
-303.6734866903
 21
-828.1254026483
 31
0.0
  0
LINE
  5
34D
330
2BA
100
AcDbEntity
  8
0
  6
Continuous
 62
     7
370
    25
100
AcDbLine
 10
1.902989695
 20
537.0193200697
 30
0.0
 11
-300.5880386103
 21
619.2298999644
 31
0.0
  0
LINE
  5
34E
330
2BA
100
AcDbEntity
  8
0
  6
Continuous
 62
     7
370
    25
100
AcDbLine
 10
2.2655088689
 20
537.5692266923
 30
0.0
 11
-300.582625472
 21
619.8768603556
 31
0.0
  0
LINE
  5
34F
330
2BA
100
AcDbEntity
  8
0
  6
Continuous
 62
     7
370
    25
100
AcDbLine
 10
1.902989695
 20
-168.4487819111
 30
0.0
 11
1.902989695
 21
537.0193200697
 31
0.0
  0
LINE
  5
350
330
2BA
100
AcDbEntity
  8
0
  6
Continuous
 62
     7
370
    25
100
AcDbLine
 10
2.5191495661
 20
-168.55973771
 30
0.0
 11
2.5191495661
 21
537.2544671029
 31
0.0
  0
LINE
  5
351
330
2BA
100
AcDbEntity
  8
0
  6
Continuous
 62
     7
370
    25
100
AcDbLine
 10
-300.5880386103
 20
-86.2382020164
 30
0.0
 11
1.902989695
 21
-168.4487819111
 31
0.0
  0
LINE
  5
352
330
2BA
100
AcDbEntity
  8
0
  6
Continuous
 62
     7
370
    25
100
AcDbLine
 10
-300.5880386103
 20
619.2298999644
 30
0.0
 11
-300.5880386103
 21
-86.2382020164
 31
0.0
  0
LINE
  5
353
330
2BA
100
AcDbEntity
  8
0
  6
Continuous
 62
     7
370
    25
100
AcDbLine
 10
1.902989695
 20
-205.2875623383
 30
0.0
 11
-300.5880386103
 21
-123.0769824436
 31
0.0
  0
LINE
  5
354
330
2BA
100
AcDbEntity
  8
0
  6
Continuous
 62
     7
370
    25
100
AcDbLine
 10
2.2655088689
 20
-204.7376557157
 30
0.0
 11
-300.582625472
 21
-122.4300220524
 31
0.0
  0
LINE
  5
355
330
2BA
100
AcDbEntity
  8
0
  6
Continuous
 62
     7
370
    25
100
AcDbLine
 10
1.902989695
 20
-910.7556643192
 30
0.0
 11
1.902989695
 21
-205.2875623383
 31
0.0
  0
LINE
  5
356
330
2BA
100
AcDbEntity
  8
0
  6
Continuous
 62
     7
370
    25
100
AcDbLine
 10
2.5191495661
 20
-910.8666201181
 30
0.0
 11
2.5191495661
 21
-205.0524153052
 31
0.0
  0
LINE
  5
357
330
2BA
100
AcDbEntity
  8
0
  6
Continuous
 62
     7
370
    25
100
AcDbLine
 10
-300.5880386103
 20
-828.5450844245
 30
0.0
 11
1.902989695
 21
-910.7556643192
 31
0.0
  0
LINE
  5
358
330
2BA
100
AcDbEntity
  8
0
  6
Continuous
 62
     7
370
    25
100
AcDbLine
 10
-300.5880386103
 20
-123.0769824436
 30
0.0
 11
-300.5880386103
 21
-828.5450844245
 31
0.0
  0
LINE
  5
359
330
2BA
100
AcDbEntity
  8
0
  6
Continuous
 62
     8
370
    25
100
AcDbLine
 10
-4.4952982824
 20
539.4066692095
 30
0.0
 11
-4.4952982824
 21
544.5719990262
 31
0.0
  0
LINE
  5
35A
330
2BA
100
AcDbEntity
  8
0
  6
Continuous
 62
     8
370
    25
100
AcDbLine
 10
-3.8197415271
 20
545.1081542326
 30
0.0
 11
-3.8197415271
 21
545.1010873451
 31
0.0
  0
LINE
  5
35B
330
2BA
100
AcDbEntity
  8
0
  6
Continuous
 62
     8
370
    25
100
AcDbLine
 10
-284.8558428542
 20
620.767987641
 30
0.0
 11
-284.8558428542
 21
615.6026578243
 31
0.0
  0
LINE
  5
35C
330
2BA
100
AcDbEntity
  8
0
  6
Continuous
 62
     8
370
    25
100
AcDbLine
 10
-277.8554120202
 20
-92.6434063648
 30
0.0
 11
-277.8554120202
 21
-128.6067916833
 31
0.0
  0
LINE
  5
35D
330
2BA
100
AcDbEntity
  8
0
  6
Continuous
 62
     8
370
    25
100
AcDbLine
 10
-3.9341949779
 20
544.3325631612
 30
0.0
 11
-3.9341949779
 21
539.2541733543
 31
0.0
  0
LINE
  5
35E
330
2BA
100
AcDbEntity
  8
0
  6
Continuous
 62
     8
370
    25
100
AcDbLine
 10
-3.9341949779
 20
-167.0893237352
 30
0.0
 11
-3.9341949779
 21
-203.0527090537
 31
0.0
  0
LINE
  5
35F
330
2BA
100
AcDbEntity
  8
0
  6
Continuous
 62
     8
370
    25
100
AcDbLine
 10
2.5191495661
 20
-909.8958203821
 30
0.0
 11
3.8387444027
 21
-911.2193961036
 31
0.0
  0
LINE
  5
360
330
2BA
100
AcDbEntity
  8
0
  6
Continuous
 62
     8
370
    25
100
AcDbLine
 10
-285.5562943985
 20
620.8714153521
 30
0.0
 11
-300.6802604642
 21
619.8901452627
 31
0.0
  0
LINE
  5
361
330
2BA
100
AcDbEntity
  8
0
  6
Continuous
 62
     8
370
    25
100
AcDbLine
 10
-300.8482854576
 20
619.8792434992
 30
0.0
 11
-302.4393924109
 21
619.7760096216
 31
0.0
  0
LINE
  5
362
330
2BA
100
AcDbEntity
  8
0
  6
Continuous
 62
     8
370
    25
100
AcDbLine
 10
-285.5562943985
 20
-126.5138568629
 30
0.0
 11
-285.5562943985
 21
-90.5504715443
 31
0.0
  0
LINE
  5
363
330
2BA
100
AcDbEntity
  8
0
  6
Continuous
 62
     8
370
    25
100
AcDbLine
 10
-285.5562943985
 20
615.7930255452
 30
0.0
 11
-285.5562943985
 21
620.8714153521
 31
0.0
  0
LINE
  5
364
330
2BA
100
AcDbEntity
  8
0
  6
Continuous
 62
     8
370
    25
100
AcDbLine
 10
-302.4393924109
 20
-827.9795612643
 30
0.0
 11
-300.8546909158
 21
-827.8767429843
 31
0.0
  0
LINE
  5
365
330
2BA
100
AcDbEntity
  8
0
  6
Continuous
 62
     8
370
    25
100
AcDbLine
 10
-285.176578794
 20
621.3578072518
 30
0.0
 11
-285.176578794
 21
615.6898269802
 31
0.0
  0
LINE
  5
366
330
2BA
100
AcDbEntity
  8
0
  6
Continuous
 62
     8
370
    25
100
AcDbLine
 10
-285.176578794
 20
-90.6536701093
 30
0.0
 11
-285.176578794
 21
-126.6170554279
 31
0.0
  0
VIEWPORT
  5
422
330
2BA
100
AcDbEntity
  8
0
100
AcDbViewport
 10
0.0
 20
0.0
 30
0.0
 40
205.6
 41
156.0
 68
     1
 69
     1
 12
0.0
 22
0.0
 13
0.0
 23
0.0
 14
10.0
 24
10.0
 15
10.0
 25
10.0
 16
0.0
 26
0.0
 36
1.0
 17
0.0
 27
0.0
 37
0.0
 42
50.0
 43
0.0
 44
0.0
 45
1723.8
 50
0.0
 51
0.0
 72
   100
 90
   557152
  1

281
     0
 71
     1
 74
     0
110
0.0
120
0.0
130
0.0
111
1.0
121
0.0
131
0.0
112
0.0
122
1.0
132
0.0
 79
     0
146
0.0
  0
ENDBLK
  5
2BD
330
2BA
100
AcDbEntity
  8
0
100
AcDbBlockEnd
  0
BLOCK
  5
369
330
367
100
AcDbEntity
  8
0
100
AcDbBlockBegin
  2
*Paper_Space6
 70
     0
 10
0.0
 20
0.0
 30
0.0
  3
*Paper_Space6
  1

  0
SPLINE
  5
37A
330
367
100
AcDbEntity
  8
0
  6
Continuous
 62
     7
370
    25
100
AcDbSpline
210
0.0
220
0.0
230
1.0
 70
     8
 71
     3
 72
    14
 73
    10
 74
     0
 42
0.000000001
 43
0.00000001
 40
0.0
 40
0.0
 40
0.0
 40
0.0
 40
0.25
 40
0.25
 40
0.5
 40
0.5
 40
0.75
 40
0.75
 40
1.0
 40
1.0
 40
1.0
 40
1.0
 10
-258.1556554926539
 20
718.9083897724782
 30
0.0
 10
-258.1764888259824
 20
718.8900164994884
 30
0.0
 10
-258.1889196266487
 20
718.8588032146131
 30
0.0
 10
-258.1868554607602
 20
718.7687318869577
 30
0.0
 10
-258.1720710878848
 20
718.7098176616646
 30
0.0
 10
-258.1152633784292
 20
718.5758224356438
 30
0.0
 10
-258.0734322336528
 20
718.5011947674736
 30
0.0
 10
-257.9755152835073
 20
718.3554355649213
 30
0.0
 10
-257.9198448335302
 20
718.2846572955168
 30
0.0
 10
-257.8647250145478
 20
718.2221572955185
 30
0.0
  0
SPLINE
  5
37C
330
367
100
AcDbEntity
  8
0
  6
Continuous
 62
     7
370
    25
100
AcDbSpline
210
0.0
220
0.0
230
1.0
 70
    24
 71
     3
 72
    14
 73
    10
 74
     0
 42
0.000000001
 43
0.00000001
 40
0.0
 40
0.0
 40
0.0
 40
0.0
 40
0.25
 40
0.25
 40
0.5
 40
0.5
 40
0.75
 40
0.75
 40
1.0
 40
1.0
 40
1.0
 40
1.0
 10
38.66162289700489
 20
680.8633490402884
 30
0.0
 10
38.71674271598726
 20
680.9119601514044
 30
0.0
 10
38.7800070468957
 20
680.9677540468896
 30
0.0
 10
38.91238340360436
 20
681.0844990200021
 30
0.0
 10
38.98119685459924
 20
681.145186779402
 30
0.0
 10
39.1070401577678
 20
681.2561701408573
 30
0.0
 10
39.16364425696425
 20
681.30609026408
 30
0.0
 10
39.25275111119252
 20
681.3846751228834
 30
0.0
 10
39.28527343229454
 20
681.4133571141159
 30
0.0
 10
39.30610676562303
 20
681.4317303871057
 30
0.0
  0
SPLINE
  5
381
330
367
100
AcDbEntity
  8
0
  6
Continuous
 62
     7
370
    25
100
AcDbSpline
210
0.0
220
0.0
230
1.0
 70
     8
 71
     3
 72
    14
 73
    10
 74
     0
 42
0.000000001
 43
0.00000001
 40
0.0
 40
0.0
 40
0.0
 40
0.0
 40
0.25
 40
0.25
 40
0.5
 40
0.5
 40
0.75
 40
0.75
 40
1.0
 40
1.0
 40
1.0
 40
1.0
 10
169.9473179230937
 20
782.0329088118167
 30
0.0
 10
170.0024377420761
 20
782.0259643673752
 30
0.0
 10
170.0581081920533
 20
782.0049984190995
 30
0.0
 10
170.1560251421988
 20
781.9293502589339
 30
0.0
 10
170.1978562869751
 20
781.8745058175728
 30
0.0
 10
170.2546639964308
 20
781.740510591552
 30
0.0
 10
170.2694483693062
 20
781.6618131394501
 30
0.0
 10
170.2715125351947
 20
781.5016307694078
 30
0.0
 10
170.2590817345284
 20
781.4206051634038
 30
0.0
 10
170.2382484011998
 20
781.3466763348567
 30
0.0
  0
SPLINE
  5
383
330
367
100
AcDbEntity
  8
0
  6
Continuous
 62
     7
370
    25
100
AcDbSpline
210
0.0
220
0.0
230
1.0
 70
     8
 71
     3
 72
    14
 73
    10
 74
     0
 42
0.000000001
 43
0.00000001
 40
0.0
 40
0.0
 40
0.0
 40
0.0
 40
0.25
 40
0.25
 40
0.5
 40
0.5
 40
0.75
 40
0.75
 40
1.0
 40
1.0
 40
1.0
 40
1.0
 10
50.73720240808765
 20
675.9566599623458
 30
0.0
 10
50.71636907475915
 20
675.9938422449133
 30
0.0
 10
50.68384675365727
 20
676.0352229239652
 30
0.0
 10
50.59473989942892
 20
676.1186408584076
 30
0.0
 10
50.53813580023252
 20
676.1604567785946
 30
0.0
 10
50.41229249706391
 20
676.2335683337551
 30
0.0
 10
50.34347904606906
 20
676.264616617765
 30
0.0
 10
50.2111026893604
 20
676.3098744378982
 30
0.0
 10
50.14783835845176
 20
676.3241432126973
 30
0.0
 10
50.09271853946947
 20
676.3310876571387
 30
0.0
  0
SPLINE
  5
385
330
367
100
AcDbEntity
  8
0
  6
Continuous
 62
     7
370
    25
100
AcDbSpline
210
0.0
220
0.0
230
1.0
 70
     8
 71
     3
 72
    14
 73
    10
 74
     0
 42
0.000000001
 43
0.00000001
 40
0.0
 40
0.0
 40
0.0
 40
0.0
 40
0.25
 40
0.25
 40
0.5
 40
0.5
 40
0.75
 40
0.75
 40
1.0
 40
1.0
 40
1.0
 40
1.0
 10
50.73720240808765
 20
-916.4478113171199
 30
0.0
 10
50.71636907475915
 20
-916.5217401456666
 30
0.0
 10
50.68384675365727
 20
-916.6002344580282
 30
0.0
 10
50.59473989942897
 20
-916.7489303592185
 30
0.0
 10
50.53813580023261
 20
-916.8186337092499
 30
0.0
 10
50.41229249706399
 20
-916.9296170707051
 30
0.0
 10
50.34347904606911
 20
-916.9705216032964
 30
0.0
 10
50.21110268936037
 20
-917.0171555340216
 30
0.0
 10
50.14783835845181
 20
-917.0231371083785
 30
0.0
 10
50.09271853946947
 20
-917.0161926639371
 30
0.0
  0
SPLINE
  5
387
330
367
100
AcDbEntity
  8
0
  6
Continuous
 62
     7
370
    25
100
AcDbSpline
210
0.0
220
0.0
230
1.0
 70
     8
 71
     3
 72
    10
 73
     6
 74
     0
 42
0.000000001
 43
0.00000001
 40
0.0
 40
0.0
 40
0.0
 40
0.0
 40
0.5
 40
0.5
 40
1.0
 40
1.0
 40
1.0
 40
1.0
 10
49.76832008545281
 20
676.3719580206907
 30
0.0
 10
49.6428133380734
 20
676.3877703845599
 30
0.0
 10
49.50979158199991
 20
676.3867750158488
 30
0.0
 10
49.27380810462861
 20
676.3454880006664
 30
0.0
 10
49.17235273097694
 20
676.3054599006045
 30
0.0
 10
49.10036501807684
 20
676.2550944533122
 30
0.0
  0
SPLINE
  5
38A
330
367
100
AcDbEntity
  8
0
  6
Continuous
 62
     7
370
    25
100
AcDbSpline
210
0.0
220
0.0
230
1.0
 70
     8
 71
     3
 72
    10
 73
     6
 74
     0
 42
0.000000001
 43
0.00000001
 40
0.0
 40
0.0
 40
0.0
 40
0.0
 40
0.5
 40
0.5
 40
1.0
 40
1.0
 40
1.0
 40
1.0
 10
49.10036501807729
 20
-916.6901498764009
 30
0.0
 10
49.17235273097736
 20
-916.7586545223303
 30
0.0
 10
49.27380810462888
 20
-916.8242469736037
 30
0.0
 10
49.50979158200027
 20
-916.9249962358653
 30
0.0
 10
49.64281333807376
 20
-916.9595099365155
 30
0.0
 10
49.76832008545328
 20
-916.9753223003852
 30
0.0
  0
SPLINE
  5
38F
330
367
100
AcDbEntity
  8
0
  6
Continuous
 62
     7
370
    25
100
AcDbSpline
210
0.0
220
0.0
230
1.0
 70
     8
 71
     3
 72
     8
 73
     4
 74
     0
 42
0.000000001
 43
0.00000001
 40
0.0
 40
0.0
 40
0.0
 40
0.0
 40
1.0
 40
1.0
 40
1.0
 40
1.0
 10
39.22135419322275
 20
681.2717331000235
 30
0.0
 10
39.25679271154319
 20
681.3571914662678
 30
0.0
 10
39.30187212519173
 20
681.427995785281
 30
0.0
 10
39.3451345678209
 20
681.4661496733843
 30
0.0
  0
SPLINE
  5
390
330
367
100
AcDbEntity
  8
0
  6
Continuous
 62
     7
370
    25
100
AcDbSpline
210
0.0
220
0.0
230
1.0
 70
     8
 71
     3
 72
     8
 73
     4
 74
     0
 42
0.000000001
 43
0.00000001
 40
0.0
 40
0.0
 40
0.0
 40
0.0
 40
1.0
 40
1.0
 40
1.0
 40
1.0
 10
49.10036501807684
 20
676.2550944533122
 30
0.0
 10
49.00660351174382
 20
676.1894952001188
 30
0.0
 10
48.92054713881893
 20
676.1136006129497
 30
0.0
 10
48.86406890827845
 20
676.04670087253
 30
0.0
  0
SPLINE
  5
391
330
367
100
AcDbEntity
  8
0
  6
Continuous
 62
     7
370
    25
100
AcDbSpline
210
0.0
220
0.0
230
1.0
 70
     8
 71
     3
 72
    10
 73
     6
 74
     0
 42
0.000000001
 43
0.00000001
 40
0.0
 40
0.0
 40
0.0
 40
0.0
 40
0.5
 40
0.5
 40
1.0
 40
1.0
 40
1.0
 40
1.0
 10
39.22135419322275
 20
681.2717331000235
 30
0.0
 10
39.1941453952605
 20
681.2061203280579
 30
0.0
 10
39.18292268845308
 20
681.1198158584036
 30
0.0
 10
39.20222459788813
 20
680.929395828572
 30
0.0
 10
39.23262600471708
 20
680.8264957719839
 30
0.0
 10
39.27598856153033
 20
680.7327461113041
 30
0.0
  0
SPLINE
  5
392
330
367
100
AcDbEntity
  8
0
  6
Continuous
 62
     7
370
    25
100
AcDbSpline
210
0.0
220
0.0
230
1.0
 70
     8
 71
     3
 72
     8
 73
     4
 74
     0
 42
0.000000001
 43
0.00000001
 40
0.0
 40
0.0
 40
0.0
 40
0.0
 40
1.0
 40
1.0
 40
1.0
 40
1.0
 10
48.8640689082789
 20
-916.3577704069359
 30
0.0
 10
48.92054713881932
 20
-916.4798760976081
 30
0.0
 10
49.00660351174393
 20
-916.600924944333
 30
0.0
 10
49.10036501807729
 20
-916.6901498764009
 30
0.0
  0
SPLINE
  5
396
330
367
100
AcDbEntity
  8
0
  6
Continuous
 62
     7
370
    25
100
AcDbSpline
210
0.0
220
0.0
230
1.0
 70
     8
 71
     3
 72
     8
 73
     4
 74
     0
 42
0.000000001
 43
0.00000001
 40
0.0
 40
0.0
 40
0.0
 40
0.0
 40
1.0
 40
1.0
 40
1.0
 40
1.0
 10
-258.116627690456
 20
718.9428090587569
 30
0.0
 10
-258.1598901330847
 20
718.9046551706537
 30
0.0
 10
-258.2049695467331
 20
718.8338508516404
 30
0.0
 10
-258.2404080650541
 20
718.7483924853962
 30
0.0
  0
SPLINE
  5
397
330
367
100
AcDbEntity
  8
0
  6
Continuous
 62
     7
370
    25
100
AcDbSpline
210
0.0
220
0.0
230
1.0
 70
     8
 71
     3
 72
    10
 73
     6
 74
     0
 42
0.000000001
 43
0.00000001
 40
0.0
 40
0.0
 40
0.0
 40
0.0
 40
0.5
 40
0.5
 40
1.0
 40
1.0
 40
1.0
 40
1.0
 10
-258.5846564159651
 20
718.2596599955723
 30
0.0
 10
-258.5100812084066
 20
718.3385508946061
 30
0.0
 10
-258.4356904731708
 20
718.4282483822836
 30
0.0
 10
-258.3140701323798
 20
718.6009138774428
 30
0.0
 10
-258.2676168630161
 20
718.6827797134299
 30
0.0
 10
-258.2404080650541
 20
718.7483924853962
 30
0.0
  0
SPLINE
  5
398
330
367
100
AcDbEntity
  8
0
  6
Continuous
 62
     7
370
    25
100
AcDbSpline
210
0.0
220
0.0
230
1.0
 70
     8
 71
     3
 72
     8
 73
     4
 74
     0
 42
0.000000001
 43
0.00000001
 40
0.0
 40
0.0
 40
0.0
 40
0.0
 40
1.0
 40
1.0
 40
1.0
 40
1.0
 10
-275.0742994281559
 20
716.8590990773689
 30
0.0
 10
-275.1714310567921
 20
716.9453518409365
 30
0.0
 10
-275.2807734395302
 20
717.0458643573303
 30
0.0
 10
-275.3745349458631
 20
717.1350892893981
 30
0.0
  0
SPLINE
  5
399
330
367
100
AcDbEntity
  8
0
  6
Continuous
 62
     7
370
    25
100
AcDbSpline
210
0.0
220
0.0
230
1.0
 70
     8
 71
     3
 72
    10
 73
     6
 74
     0
 42
0.000000001
 43
0.00000001
 40
0.0
 40
0.0
 40
0.0
 40
0.0
 40
0.5
 40
0.5
 40
1.0
 40
1.0
 40
1.0
 40
1.0
 10
-275.3745349458631
 20
717.1350892893981
 30
0.0
 10
-275.4465226587631
 20
717.2035939353276
 30
0.0
 10
-275.5479780324147
 20
717.2691863866008
 30
0.0
 10
-275.783961509786
 20
717.3699356488626
 30
0.0
 10
-275.9169832658596
 20
717.4044493495124
 30
0.0
 10
-276.0424900132391
 20
717.4202617133824
 30
0.0
  0
SPLINE
  5
3A1
330
367
100
AcDbEntity
  8
0
  6
Continuous
 62
     7
370
    25
100
AcDbSpline
210
0.0
220
0.0
230
1.0
 70
     8
 71
     3
 72
     8
 73
     4
 74
     0
 42
0.000000001
 43
0.00000001
 40
0.0
 40
0.0
 40
0.0
 40
0.0
 40
1.0
 40
1.0
 40
1.0
 40
1.0
 10
-275.3745349458636
 20
-875.8101550403147
 30
0.0
 10
-275.2807734395305
 20
-875.7445557871217
 30
0.0
 10
-275.1714310567923
 20
-875.6481248696211
 30
0.0
 10
-275.0742994281563
 20
-875.5453722020967
 30
0.0
  0
SPLINE
  5
3A2
330
367
100
AcDbEntity
  8
0
  6
Continuous
 62
     7
370
    25
100
AcDbSpline
210
0.0
220
0.0
230
1.0
 70
     8
 71
     3
 72
    10
 73
     6
 74
     0
 42
0.000000001
 43
0.00000001
 40
0.0
 40
0.0
 40
0.0
 40
0.0
 40
0.5
 40
0.5
 40
1.0
 40
1.0
 40
1.0
 40
1.0
 10
-276.0424900132396
 20
-875.9270186076933
 30
0.0
 10
-275.91698326586
 20
-875.942830971563
 30
0.0
 10
-275.7839615097866
 20
-875.9418356028519
 30
0.0
 10
-275.5479780324152
 20
-875.9005485876693
 30
0.0
 10
-275.4465226587636
 20
-875.8605204876076
 30
0.0
 10
-275.3745349458636
 20
-875.8101550403147
 30
0.0
  0
SPLINE
  5
3A5
330
367
100
AcDbEntity
  8
0
  6
Continuous
 62
     7
370
    25
100
AcDbSpline
210
0.0
220
0.0
230
1.0
 70
     8
 71
     3
 72
    12
 73
     8
 74
     0
 42
0.000000001
 43
0.00000001
 40
0.0
 40
0.0
 40
0.0
 40
0.0
 40
0.0624089632218507
 40
0.4782834508400642
 40
0.6723237543144363
 40
0.8450970947073383
 40
0.9999999999999999
 40
0.9999999999999999
 40
0.9999999999999999
 40
0.9999999999999999
 10
-276.6844720877348
 20
717.3108809639182
 30
0.0
 10
-276.6862874585769
 20
717.3170987361877
 30
0.0
 10
-276.700199912592
 20
717.3647498655172
 30
0.0
 10
-276.6525915173241
 20
717.4174589254075
 30
0.0
 10
-276.5593565676141
 20
717.4573639128466
 30
0.0
 10
-276.4698456637639
 20
717.4698189707698
 30
0.0
 10
-276.3999366601327
 20
717.4639204798119
 30
0.0
 10
-276.3668884672558
 20
717.4611320769344
 30
0.0
  0
SPLINE
  5
3A6
330
367
100
AcDbEntity
  8
0
  6
Continuous
 62
     7
370
    25
100
AcDbSpline
210
0.0
220
0.0
230
1.0
 70
     8
 71
     3
 72
    11
 73
     7
 74
     0
 42
0.000000001
 43
0.00000001
 40
0.0
 40
0.0
 40
0.0
 40
0.0
 40
0.1994292200373472
 40
0.4295939565151198
 40
0.6933929223779616
 40
1.0
 40
1.0
 40
1.0
 40
1.0
 10
-276.3668884672558
 20
-875.8861482441414
 30
0.0
 10
-276.4092701025696
 20
-875.8756637196457
 30
0.0
 10
-276.500565121397
 20
-875.8530788228117
 30
0.0
 10
-276.6045244149798
 20
-875.7516239046029
 30
0.0
 10
-276.6776639186098
 20
-875.6059358988383
 30
0.0
 10
-276.684104989691
 20
-875.4877379759488
 30
0.0
 10
-276.6875672215582
 20
-875.4242037267379
 30
0.0
  0
SPLINE
  5
3A7
330
367
100
AcDbEntity
  8
0
  6
Continuous
 62
     7
370
    25
100
AcDbSpline
210
0.0
220
0.0
230
1.0
 70
     8
 71
     3
 72
    11
 73
     7
 74
     0
 42
0.000000001
 43
0.00000001
 40
0.0
 40
0.0
 40
0.0
 40
0.0
 40
0.1458926302103135
 40
0.4635579477098909
 40
0.7464069076870633
 40
1.0
 40
1.0
 40
1.0
 40
1.0
 10
-156.8900969498952
 20
823.01325291139
 30
0.0
 10
-156.8768834721477
 20
823.0289172017539
 30
0.0
 10
-156.8348990852877
 20
823.0786887788569
 30
0.0
 10
-156.7367720766117
 20
823.1280066945754
 30
0.0
 10
-156.6207815674243
 20
823.1673743807074
 30
0.0
 10
-156.5471140463507
 20
823.1643723746444
 30
0.0
 10
-156.5122890836315
 20
823.1629532316124
 30
0.0
  0
SPLINE
  5
3A8
330
367
100
AcDbEntity
  8
0
  6
Continuous
 62
     7
370
    25
100
AcDbSpline
210
0.0
220
0.0
230
1.0
 70
     8
 71
     3
 72
    10
 73
     6
 74
     0
 42
0.000000001
 43
0.00000001
 40
0.0
 40
0.0
 40
0.0
 40
0.0
 40
0.1130064663278253
 40
0.5613377526841332
 40
1.0
 40
1.0
 40
1.0
 40
1.0
 10
170.2216620894042
 20
-811.260787327704
 30
0.0
 10
170.2297124801521
 20
-811.2554806151223
 30
0.0
 10
170.2697012382958
 20
-811.2291205473175
 30
0.0
 10
170.2794434164882
 20
-811.1586921182385
 30
0.0
 10
170.2518799171964
 20
-811.0911820286221
 30
0.0
 10
170.2382484011998
 20
-811.0577949446091
 30
0.0
  0
SPLINE
  5
3AA
330
367
100
AcDbEntity
  8
0
  6
Continuous
 62
     7
370
    25
100
AcDbSpline
210
0.0
220
0.0
230
1.0
 70
    24
 71
     3
 72
    10
 73
     6
 74
     0
 42
0.000000001
 43
0.00000001
 40
0.0
 40
0.0
 40
0.0
 40
0.0
 40
0.5
 40
0.5
 40
1.0
 40
1.0
 40
1.0
 40
1.0
 10
47.39923125243006
 20
676.7840822747958
 30
0.0
 10
47.3383018011064
 20
676.7303475495529
 30
0.0
 10
47.24545139829286
 20
676.6484611912231
 30
0.0
 10
47.03512011810275
 20
676.4629664377715
 30
0.0
 10
46.92158657255337
 20
676.3628392621031
 30
0.0
 10
46.82936116423466
 20
676.2815040971068
 30
0.0
  0
SPLINE
  5
3AB
330
367
100
AcDbEntity
  8
0
  6
Continuous
 62
     7
370
    25
100
AcDbSpline
210
0.0
220
0.0
230
1.0
 70
     8
 71
     3
 72
    11
 73
     7
 74
     0
 42
0.000000001
 43
0.00000001
 40
0.0
 40
0.0
 40
0.0
 40
0.0
 40
0.2450890083269517
 40
0.4923764711674687
 40
0.7434940738850239
 40
1.0
 40
1.0
 40
1.0
 40
1.0
 10
47.42584233204638
 20
676.5371645159347
 30
0.0
 10
47.42553514485542
 20
676.558575647587
 30
0.0
 10
47.42491801499662
 20
676.6015899692756
 30
0.0
 10
47.41991179009369
 20
676.6640263340261
 30
0.0
 10
47.41197072300062
 20
676.725347416921
 30
0.0
 10
47.40350768710457
 20
676.7643659309002
 30
0.0
 10
47.39923125243011
 20
676.7840822747955
 30
0.0
  0
SPLINE
  5
3AD
330
367
100
AcDbEntity
  8
0
  6
Continuous
 62
     7
370
    25
100
AcDbSpline
210
0.0
220
0.0
230
1.0
 70
     8
 71
     3
 72
    10
 73
     6
 74
     0
 42
0.000000001
 43
0.00000001
 40
0.0
 40
0.0
 40
0.0
 40
0.0
 40
0.3407406776493401
 40
0.672812581320388
 40
1.0
 40
1.0
 40
1.0
 40
1.0
 10
47.39923125243014
 20
-100.0684600138146
 30
0.0
 10
47.40472363472499
 20
-100.0373050470866
 30
0.0
 10
47.4155686677716
 20
-99.97578772626103
 30
0.0
 10
47.42411818002036
 20
-99.88437815574811
 30
0.0
 10
47.42527046047206
 20
-99.82578983769542
 30
0.0
 10
47.42584233204638
 20
-99.79671272054514
 30
0.0
  0
SPLINE
  5
3AE
330
367
100
AcDbEntity
  8
0
  6
Continuous
 62
     7
370
    25
100
AcDbSpline
210
0.0
220
0.0
230
1.0
 70
     8
 71
     3
 72
    10
 73
     6
 74
     0
 42
0.000000001
 43
0.00000001
 40
0.0
 40
0.0
 40
0.0
 40
0.0
 40
0.5
 40
0.5
 40
1.0
 40
1.0
 40
1.0
 40
1.0
 10
47.39923125243006
 20
-100.0684600138145
 30
0.0
 10
47.3383018011064
 20
-100.0664003546917
 30
0.0
 10
47.24545139829283
 20
-100.0284285766307
 30
0.0
 10
47.03512011810275
 20
-99.88198628572614
 30
0.0
 10
46.92158657255343
 20
-99.77626408647254
 30
0.0
 10
46.82936116423466
 20
-99.6716903029188
 30
0.0
  0
SPLINE
  5
3B0
330
367
100
AcDbEntity
  8
0
  6
Continuous
 62
     7
370
    25
100
AcDbSpline
210
0.0
220
0.0
230
1.0
 70
     8
 71
     3
 72
    10
 73
     6
 74
     0
 42
0.000000001
 43
0.00000001
 40
0.0
 40
0.0
 40
0.0
 40
0.0
 40
0.5
 40
0.5
 40
1.0
 40
1.0
 40
1.0
 40
1.0
 10
-273.1035310920209
 20
716.5892597502663
 30
0.0
 10
-273.1957565003397
 20
716.6938335338199
 30
0.0
 10
-273.2864577998845
 20
716.819691881341
 30
0.0
 10
-273.4054600960561
 20
717.0466787653161
 30
0.0
 10
-273.4315277513047
 20
717.1435473906872
 30
0.0
 10
-273.4259550745758
 20
717.2042564139725
 30
0.0
  0
SPLINE
  5
3B1
330
367
100
AcDbEntity
  8
0
  6
Continuous
 62
     7
370
    25
100
AcDbSpline
210
0.0
220
0.0
230
1.0
 70
     8
 71
     3
 72
    11
 73
     7
 74
     0
 42
0.000000001
 43
0.00000001
 40
0.0
 40
0.0
 40
0.0
 40
0.0
 40
0.2450890083291423
 40
0.4923764711701607
 40
0.7434940738868387
 40
1.0
 40
1.0
 40
1.0
 40
1.0
 10
-273.1530127805814
 20
717.1966903643743
 30
0.0
 10
-273.1746117403003
 20
717.1991019619296
 30
0.0
 10
-273.2180034029452
 20
717.2039467891299
 30
0.0
 10
-273.2855728831072
 20
717.2074139430268
 30
0.0
 10
-273.3550571679617
 20
717.2081642967545
 30
0.0
 10
-273.402155791512
 20
717.2055682271553
 30
0.0
 10
-273.4259550745757
 20
717.2042564139726
 30
0.0
  0
SPLINE
  5
3B3
330
367
100
AcDbEntity
  8
0
  6
Continuous
 62
     7
370
    25
100
AcDbSpline
210
0.0
220
0.0
230
1.0
 70
     8
 71
     3
 72
    10
 73
     6
 74
     0
 42
0.000000001
 43
0.00000001
 40
0.0
 40
0.0
 40
0.0
 40
0.0
 40
0.3407406776411832
 40
0.6728125813120777
 40
1.0
 40
1.0
 40
1.0
 40
1.0
 10
47.39923125243006
 20
676.7840822747959
 30
0.0
 10
47.37380722187886
 20
676.7928212025762
 30
0.0
 10
47.32360597282069
 20
676.8100767313214
 30
0.0
 10
47.24259218517406
 20
676.8289006075448
 30
0.0
 10
47.18577475286325
 20
676.8372203206916
 30
0.0
 10
47.15757651829341
 20
676.8413493566818
 30
0.0
  0
SPLINE
  5
3B6
330
367
100
AcDbEntity
  8
0
  6
Continuous
 62
     7
370
    25
100
AcDbSpline
210
0.0
220
0.0
230
1.0
 70
    24
 71
     3
 72
    10
 73
     6
 74
     0
 42
0.000000001
 43
0.00000001
 40
0.0
 40
0.0
 40
0.0
 40
0.0
 40
0.5
 40
0.5
 40
1.0
 40
1.0
 40
1.0
 40
1.0
 10
-273.1035310920209
 20
-59.36393464975936
 30
0.0
 10
-273.1957565003396
 20
-59.44526981475595
 30
0.0
 10
-273.2864577998844
 20
-59.52526084215732
 30
0.0
 10
-273.4054600960559
 20
-59.63021100253811
 30
0.0
 10
-273.4315277513047
 20
-59.65320051355761
 30
0.0
 10
-273.4259550745758
 20
-59.64828587463787
 30
0.0
  0
SPLINE
  5
3B8
330
367
100
AcDbEntity
  8
0
  6
Continuous
 62
     7
370
    25
100
AcDbSpline
210
0.0
220
0.0
230
1.0
 70
    24
 71
     3
 72
    10
 73
     6
 74
     0
 42
0.000000001
 43
0.00000001
 40
0.0
 40
0.0
 40
0.0
 40
0.0
 40
0.5
 40
0.5
 40
1.0
 40
1.0
 40
1.0
 40
1.0
 10
47.39923125243006
 20
-139.6885477595542
 30
0.0
 10
47.3383018011064
 20
-139.7422824847972
 30
0.0
 10
47.24545139829286
 20
-139.8241688431273
 30
0.0
 10
47.03512011810275
 20
-140.0096635965784
 30
0.0
 10
46.92158657255337
 20
-140.1097907722471
 30
0.0
 10
46.82936116423466
 20
-140.1911259372434
 30
0.0
  0
SPLINE
  5
3B9
330
367
100
AcDbEntity
  8
0
  6
Continuous
 62
     7
370
    25
100
AcDbSpline
210
0.0
220
0.0
230
1.0
 70
     8
 71
     3
 72
    11
 73
     7
 74
     0
 42
0.000000001
 43
0.00000001
 40
0.0
 40
0.0
 40
0.0
 40
0.0
 40
0.2450890083270174
 40
0.4923764711672916
 40
0.7434940738847028
 40
1.0
 40
1.0
 40
1.0
 40
1.0
 10
47.42584233204638
 20
-139.9354655184154
 30
0.0
 10
47.42553514485536
 20
-139.9140543867633
 30
0.0
 10
47.42491801499662
 20
-139.8710400650745
 30
0.0
 10
47.4199117900936
 20
-139.808603700324
 30
0.0
 10
47.41197072300071
 20
-139.7472826174292
 30
0.0
 10
47.40350768710454
 20
-139.7082641034498
 30
0.0
 10
47.39923125243011
 20
-139.6885477595543
 30
0.0
  0
SPLINE
  5
3BB
330
367
100
AcDbEntity
  8
0
  6
Continuous
 62
     7
370
    25
100
AcDbSpline
210
0.0
220
0.0
230
1.0
 70
     8
 71
     3
 72
    10
 73
     6
 74
     0
 42
0.000000001
 43
0.00000001
 40
0.0
 40
0.0
 40
0.0
 40
0.0
 40
0.3407406776493401
 40
0.672812581320388
 40
1.0
 40
1.0
 40
1.0
 40
1.0
 10
47.39923125243014
 20
-916.5410900481647
 30
0.0
 10
47.40472363472499
 20
-916.5099350814368
 30
0.0
 10
47.4155686677716
 20
-916.448417760611
 30
0.0
 10
47.42411818002036
 20
-916.3570081900982
 30
0.0
 10
47.42527046047206
 20
-916.2984198720455
 30
0.0
 10
47.42584233204638
 20
-916.2693427548952
 30
0.0
  0
SPLINE
  5
3BC
330
367
100
AcDbEntity
  8
0
  6
Continuous
 62
     7
370
    25
100
AcDbSpline
210
0.0
220
0.0
230
1.0
 70
     8
 71
     3
 72
    10
 73
     6
 74
     0
 42
0.000000001
 43
0.00000001
 40
0.0
 40
0.0
 40
0.0
 40
0.0
 40
0.5
 40
0.5
 40
1.0
 40
1.0
 40
1.0
 40
1.0
 10
47.39923125243006
 20
-916.5410900481646
 30
0.0
 10
47.3383018011064
 20
-916.539030389042
 30
0.0
 10
47.24545139829283
 20
-916.5010586109809
 30
0.0
 10
47.03512011810275
 20
-916.3546163200759
 30
0.0
 10
46.92158657255343
 20
-916.2488941208228
 30
0.0
 10
46.82936116423466
 20
-916.1443203372689
 30
0.0
  0
SPLINE
  5
3BE
330
367
100
AcDbEntity
  8
0
  6
Continuous
 62
     7
370
    25
100
AcDbSpline
210
0.0
220
0.0
230
1.0
 70
     8
 71
     3
 72
    10
 73
     6
 74
     0
 42
0.000000001
 43
0.00000001
 40
0.0
 40
0.0
 40
0.0
 40
0.0
 40
0.5
 40
0.5
 40
1.0
 40
1.0
 40
1.0
 40
1.0
 10
-273.1035310920209
 20
-99.88337028408395
 30
0.0
 10
-273.1957565003397
 20
-99.77879650053035
 30
0.0
 10
-273.2864577998845
 20
-99.65293815300919
 30
0.0
 10
-273.4054600960561
 20
-99.42595126903423
 30
0.0
 10
-273.4315277513047
 20
-99.3290826436629
 30
0.0
 10
-273.4259550745758
 20
-99.2683736203775
 30
0.0
  0
SPLINE
  5
3BF
330
367
100
AcDbEntity
  8
0
  6
Continuous
 62
     7
370
    25
100
AcDbSpline
210
0.0
220
0.0
230
1.0
 70
     8
 71
     3
 72
    11
 73
     7
 74
     0
 42
0.000000001
 43
0.00000001
 40
0.0
 40
0.0
 40
0.0
 40
0.0
 40
0.2450890083291427
 40
0.4923764711701567
 40
0.7434940738868322
 40
1.0
 40
1.0
 40
1.0
 40
1.0
 10
-273.1530127805814
 20
-99.2759396699758
 30
0.0
 10
-273.1746117403004
 20
-99.27352807242066
 30
0.0
 10
-273.2180034029452
 20
-99.26868324522023
 30
0.0
 10
-273.2855728831071
 20
-99.26521609132327
 30
0.0
 10
-273.3550571679618
 20
-99.26446573759537
 30
0.0
 10
-273.402155791512
 20
-99.2670618071949
 30
0.0
 10
-273.4259550745757
 20
-99.26837362037745
 30
0.0
  0
SPLINE
  5
3C1
330
367
100
AcDbEntity
  8
0
  6
Continuous
 62
     7
370
    25
100
AcDbSpline
210
0.0
220
0.0
230
1.0
 70
     8
 71
     3
 72
    10
 73
     6
 74
     0
 42
0.000000001
 43
0.00000001
 40
0.0
 40
0.0
 40
0.0
 40
0.0
 40
0.3407406776411925
 40
0.6728125813120801
 40
1.0
 40
1.0
 40
1.0
 40
1.0
 10
47.39923125243006
 20
-139.6885477595541
 30
0.0
 10
47.37380722187888
 20
-139.679808831774
 30
0.0
 10
47.32360597282069
 20
-139.6625533030288
 30
0.0
 10
47.24259218517401
 20
-139.6437294268051
 30
0.0
 10
47.18577475286325
 20
-139.6354097136583
 30
0.0
 10
47.15757651829341
 20
-139.6312806776683
 30
0.0
  0
SPLINE
  5
3C4
330
367
100
AcDbEntity
  8
0
  6
Continuous
 62
     7
370
    25
100
AcDbSpline
210
0.0
220
0.0
230
1.0
 70
    24
 71
     3
 72
    10
 73
     6
 74
     0
 42
0.000000001
 43
0.00000001
 40
0.0
 40
0.0
 40
0.0
 40
0.0
 40
0.5
 40
0.5
 40
1.0
 40
1.0
 40
1.0
 40
1.0
 10
-273.1035310920209
 20
-875.8365646841095
 30
0.0
 10
-273.1957565003396
 20
-875.9178998491059
 30
0.0
 10
-273.2864577998844
 20
-875.9978908765073
 30
0.0
 10
-273.4054600960559
 20
-876.1028410368882
 30
0.0
 10
-273.4315277513047
 20
-876.1258305479079
 30
0.0
 10
-273.4259550745758
 20
-876.1209159089879
 30
0.0
  0
LINE
  5
3D5
330
367
100
AcDbEntity
  8
0
  6
Continuous
 62
     7
370
    25
100
AcDbLine
 10
-258.1879483193
 20
718.8494642074
 30
0.0
 11
-258.1879483193
 21
715.3112694644
 31
0.0
  0
LINE
  5
3D6
330
367
100
AcDbEntity
  8
0
  6
Continuous
 62
     7
370
    25
100
AcDbLine
 10
-252.8846474616
 20
-62.2370530167
 30
0.0
 11
-252.8846474616
 21
-101.8295136742
 31
0.0
  0
LINE
  5
3D7
330
367
100
AcDbEntity
  8
0
  6
Continuous
 62
     7
370
    25
100
AcDbLine
 10
39.1890613666
 20
681.0901532886
 30
0.0
 11
39.1890613666
 21
677.8452878995
 31
0.0
  0
LINE
  5
3D8
330
367
100
AcDbEntity
  8
0
  6
Continuous
 62
     7
370
    25
100
AcDbLine
 10
39.1890613666
 20
-99.0348814773
 30
0.0
 11
39.1890613666
 21
-138.6273421348
 31
0.0
  0
LINE
  5
3D9
330
367
100
AcDbEntity
  8
0
  6
Continuous
 62
     7
370
    25
100
AcDbLine
 10
-276.690111772
 20
717.3111630508
 30
0.0
 11
-276.690111772
 21
-875.4243288282
 31
0.0
  0
LINE
  5
3DA
330
367
100
AcDbEntity
  8
0
  6
Continuous
 62
     7
370
    25
100
AcDbLine
 10
-156.8967012279
 20
823.0191957326
 30
0.0
 11
-276.6439141507
 21
717.4120805344
 31
0.0
  0
LINE
  5
3DB
330
367
100
AcDbEntity
  8
0
  6
Continuous
 62
     7
370
    25
100
AcDbLine
 10
170.2705412278
 20
-811.1643568754
 30
0.0
 11
170.2705412278
 21
781.5710893958
 31
0.0
  0
LINE
  5
3DC
330
367
100
AcDbEntity
  8
0
  6
Continuous
 62
     7
370
    25
100
AcDbLine
 10
50.4771306838
 20
-916.8724351649
 30
0.0
 11
170.2248958022
 21
-811.264832976
 31
0.0
  0
LINE
  5
3DD
330
367
100
AcDbEntity
  8
0
  6
Continuous
 62
     7
370
    25
100
AcDbLine
 10
47.425842332
 20
-915.9155845066
 30
0.0
 11
49.3349197636
 21
-916.8486204101
 31
0.0
  0
LINE
  5
3DE
330
367
100
AcDbEntity
  8
0
  6
Continuous
 62
     7
370
    25
100
AcDbLine
 10
-275.7630037564
 20
-875.9336759811
 30
0.0
 11
-273.4267543968
 21
-875.7352447873
 31
0.0
  0
LINE
  5
3DF
330
367
100
AcDbEntity
  8
0
  6
Continuous
 62
     7
370
    25
100
AcDbLine
 10
-273.4267543968
 20
717.1977227644
 30
0.0
 11
-273.4267543968
 21
-59.6605928816
 31
0.0
  0
LINE
  5
3E0
330
367
100
AcDbEntity
  8
0
  6
Continuous
 62
     7
370
    25
100
AcDbLine
 10
-273.4382654698
 20
-59.6475405517
 30
0.0
 11
47.3926489327
 21
-100.0684363605
 31
0.0
  0
LINE
  5
3E1
330
367
100
AcDbEntity
  8
0
  6
Continuous
 62
     7
370
    25
100
AcDbLine
 10
-273.4267543968
 20
-99.27490727
 30
0.0
 11
-273.4267543968
 21
-876.133222916
 31
0.0
  0
LINE
  5
3E2
330
367
100
AcDbEntity
  8
0
  6
Continuous
 62
     7
370
    25
100
AcDbLine
 10
-273.4382654698
 20
-876.120170586
 30
0.0
 11
47.3926489327
 21
-916.5410663949
 31
0.0
  0
LINE
  5
3E3
330
367
100
AcDbEntity
  8
0
  6
Continuous
 62
     7
370
    25
100
AcDbLine
 10
38.661622897
 20
680.8633490403
 30
0.0
 11
-257.8647250145
 21
718.2221572955
 31
0.0
  0
LINE
  5
3E4
330
367
100
AcDbEntity
  8
0
  6
Continuous
 62
     7
370
    25
100
AcDbLine
 10
-258.1556554927
 20
718.9083897725
 30
0.0
 11
39.3061067656
 21
681.4317303871
 31
0.0
  0
LINE
  5
3E5
330
367
100
AcDbEntity
  8
0
  6
Continuous
 62
     7
370
    25
100
AcDbLine
 10
155.4483955489
 20
783.859601329
 30
0.0
 11
39.3061067656
 21
681.4317303871
 31
0.0
  0
LINE
  5
3E6
330
367
100
AcDbEntity
  8
0
  6
Continuous
 62
     7
370
    25
100
AcDbLine
 10
169.9473179231
 20
782.0329088118
 30
0.0
 11
-156.5122890836
 21
823.1629532316
 31
0.0
  0
LINE
  5
3E7
330
367
100
AcDbEntity
  8
0
  6
Continuous
 62
     7
370
    25
100
AcDbLine
 10
-142.0133667094
 20
821.3362607144
 30
0.0
 11
-258.1556554927
 21
718.9083897725
 31
0.0
  0
LINE
  5
3E8
330
367
100
AcDbEntity
  8
0
  6
Continuous
 62
     7
370
    25
100
AcDbLine
 10
50.0927185395
 20
676.3310876571
 30
0.0
 11
169.9473179231
 21
782.0329088118
 31
0.0
  0
LINE
  5
3E9
330
367
100
AcDbEntity
  8
0
  6
Continuous
 62
     7
370
    25
100
AcDbLine
 10
170.2382484012
 20
781.3466763349
 30
0.0
 11
50.7372024081
 21
675.9566599623
 31
0.0
  0
LINE
  5
3EA
330
367
100
AcDbEntity
  8
0
  6
Continuous
 62
     7
370
    25
100
AcDbLine
 10
50.7372024081
 20
675.9566599623
 30
0.0
 11
50.7372024081
 21
-916.4478113171
 31
0.0
  0
LINE
  5
3EB
330
367
100
AcDbEntity
  8
0
  6
Continuous
 62
     7
370
    25
100
AcDbLine
 10
50.0927185395
 20
-917.0161926639
 30
0.0
 11
50.0927185395
 21
676.3310876571
 31
0.0
  0
LINE
  5
3EC
330
367
100
AcDbEntity
  8
0
  6
Continuous
 62
     7
370
    25
100
AcDbLine
 10
50.0927185395
 20
676.3310876571
 30
0.0
 11
49.7683200855
 21
676.3719580207
 31
0.0
  0
LINE
  5
3ED
330
367
100
AcDbEntity
  8
0
  6
Continuous
 62
     7
370
    25
100
AcDbLine
 10
49.7683200855
 20
-916.9753223004
 30
0.0
 11
50.0927185395
 21
-917.0161926639
 31
0.0
  0
LINE
  5
3EE
330
367
100
AcDbEntity
  8
0
  6
Continuous
 62
     7
370
    25
100
AcDbLine
 10
49.1003650181
 20
676.2550944533
 30
0.0
 11
49.1003650181
 21
-916.6901498764
 31
0.0
  0
LINE
  5
3EF
330
367
100
AcDbEntity
  8
0
  6
Continuous
 62
     7
370
    25
100
AcDbLine
 10
39.3451345678
 20
681.4661496734
 30
0.0
 11
49.7683200855
 21
676.3719580207
 31
0.0
  0
LINE
  5
3F0
330
367
100
AcDbEntity
  8
0
  6
Continuous
 62
     7
370
    25
100
AcDbLine
 10
48.8640689083
 20
-916.3577704069
 30
0.0
 11
48.8640689083
 21
676.0467008725
 31
0.0
  0
LINE
  5
3F1
330
367
100
AcDbEntity
  8
0
  6
Continuous
 62
     7
370
    25
100
AcDbLine
 10
170.2382484012
 20
-811.0577949446
 30
0.0
 11
170.2382484012
 21
781.3466763349
 31
0.0
  0
LINE
  5
3F2
330
367
100
AcDbEntity
  8
0
  6
Continuous
 62
     7
370
    25
100
AcDbLine
 10
50.7372024081
 20
-916.4478113171
 30
0.0
 11
170.2382484012
 21
-811.0577949446
 31
0.0
  0
LINE
  5
3F3
330
367
100
AcDbEntity
  8
0
  6
Continuous
 62
     7
370
    25
100
AcDbLine
 10
-276.0424900132
 20
717.4202617134
 30
0.0
 11
-258.1166276905
 21
718.9428090588
 31
0.0
  0
LINE
  5
3F4
330
367
100
AcDbEntity
  8
0
  6
Continuous
 62
     7
370
    25
100
AcDbLine
 10
-156.5122890836
 20
823.1629532316
 30
0.0
 11
-276.3668884673
 21
717.4611320769
 31
0.0
  0
LINE
  5
3F5
330
367
100
AcDbEntity
  8
0
  6
Continuous
 62
     7
370
    25
100
AcDbLine
 10
-276.0424900132
 20
717.4202617134
 30
0.0
 11
-276.3668884673
 21
717.4611320769
 31
0.0
  0
LINE
  5
3F6
330
367
100
AcDbEntity
  8
0
  6
Continuous
 62
     7
370
    25
100
AcDbLine
 10
-275.0742994282
 20
716.8590990774
 30
0.0
 11
-275.0742994282
 21
-875.5453722021
 31
0.0
  0
LINE
  5
3F7
330
367
100
AcDbEntity
  8
0
  6
Continuous
 62
     7
370
    25
100
AcDbLine
 10
-275.3745349459
 20
-875.8101550403
 30
0.0
 11
-275.3745349459
 21
717.1350892894
 31
0.0
  0
LINE
  5
3F8
330
367
100
AcDbEntity
  8
0
  6
Continuous
 62
     7
370
    25
100
AcDbLine
 10
-276.3668884673
 20
-875.8861482441
 30
0.0
 11
-276.0424900132
 21
-875.9270186077
 31
0.0
  0
LINE
  5
3F9
330
367
100
AcDbEntity
  8
0
  6
Continuous
 62
     7
370
    25
100
AcDbLine
 10
-276.3668884673
 20
717.4611320769
 30
0.0
 11
-276.3668884673
 21
-875.8861482441
 31
0.0
  0
LINE
  5
3FA
330
367
100
AcDbEntity
  8
0
  6
Continuous
 62
     7
370
    25
100
AcDbLine
 10
46.8293611642
 20
-99.6716903029
 30
0.0
 11
46.8293611642
 21
676.2815040971
 31
0.0
  0
LINE
  5
3FB
330
367
100
AcDbEntity
  8
0
  6
Continuous
 62
     7
370
    25
100
AcDbLine
 10
47.425842332
 20
-99.7967127205
 30
0.0
 11
47.425842332
 21
676.5371645159
 31
0.0
  0
LINE
  5
3FC
330
367
100
AcDbEntity
  8
0
  6
Continuous
 62
     7
370
    25
100
AcDbLine
 10
46.8293611642
 20
676.2815040971
 30
0.0
 11
-273.103531092
 21
716.5892597503
 31
0.0
  0
LINE
  5
3FD
330
367
100
AcDbEntity
  8
0
  6
Continuous
 62
     7
370
    25
100
AcDbLine
 10
47.1575765183
 20
676.8413493567
 30
0.0
 11
-273.1530127806
 21
717.1966903644
 31
0.0
  0
LINE
  5
3FE
330
367
100
AcDbEntity
  8
0
  6
Continuous
 62
     7
370
    25
100
AcDbLine
 10
-273.103531092
 20
-59.3639346498
 30
0.0
 11
46.8293611642
 21
-99.6716903029
 31
0.0
  0
LINE
  5
3FF
330
367
100
AcDbEntity
  8
0
  6
Continuous
 62
     7
370
    25
100
AcDbLine
 10
-273.103531092
 20
716.5892597503
 30
0.0
 11
-273.103531092
 21
-59.3639346498
 31
0.0
  0
LINE
  5
400
330
367
100
AcDbEntity
  8
0
  6
Continuous
 62
     7
370
    25
100
AcDbLine
 10
46.8293611642
 20
-916.1443203373
 30
0.0
 11
46.8293611642
 21
-140.1911259372
 31
0.0
  0
LINE
  5
401
330
367
100
AcDbEntity
  8
0
  6
Continuous
 62
     7
370
    25
100
AcDbLine
 10
47.425842332
 20
-916.2693427549
 30
0.0
 11
47.425842332
 21
-139.9354655184
 31
0.0
  0
LINE
  5
402
330
367
100
AcDbEntity
  8
0
  6
Continuous
 62
     7
370
    25
100
AcDbLine
 10
46.8293611642
 20
-140.1911259372
 30
0.0
 11
-273.103531092
 21
-99.8833702841
 31
0.0
  0
LINE
  5
403
330
367
100
AcDbEntity
  8
0
  6
Continuous
 62
     7
370
    25
100
AcDbLine
 10
47.1575765183
 20
-139.6312806777
 30
0.0
 11
-273.1530127806
 21
-99.27593967
 31
0.0
  0
LINE
  5
404
330
367
100
AcDbEntity
  8
0
  6
Continuous
 62
     7
370
    25
100
AcDbLine
 10
-273.103531092
 20
-875.8365646841
 30
0.0
 11
46.8293611642
 21
-916.1443203373
 31
0.0
  0
LINE
  5
405
330
367
100
AcDbEntity
  8
0
  6
Continuous
 62
     7
370
    25
100
AcDbLine
 10
-273.103531092
 20
-99.8833702841
 30
0.0
 11
-273.103531092
 21
-875.8365646841
 31
0.0
  0
LINE
  5
406
330
367
100
AcDbEntity
  8
0
  6
Continuous
 62
     8
370
    25
100
AcDbLine
 10
38.661622897
 20
677.9117389005
 30
0.0
 11
38.661622897
 21
680.8633490403
 31
0.0
  0
LINE
  5
407
330
367
100
AcDbEntity
  8
0
  6
Continuous
 62
     8
370
    25
100
AcDbLine
 10
39.3061067656
 20
681.4317303871
 30
0.0
 11
39.3061067656
 21
681.4239574291
 31
0.0
  0
LINE
  5
408
330
367
100
AcDbEntity
  8
0
  6
Continuous
 62
     8
370
    25
100
AcDbLine
 10
-257.8647250145
 20
718.2221572955
 30
0.0
 11
-257.8647250145
 21
715.2705471558
 31
0.0
  0
LINE
  5
409
330
367
100
AcDbEntity
  8
0
  6
Continuous
 62
     8
370
    25
100
AcDbLine
 10
-252.5614241569
 20
-62.2777753253
 30
0.0
 11
-252.5614241569
 21
-101.8702359829
 31
0.0
  0
LINE
  5
40A
330
367
100
AcDbEntity
  8
0
  6
Continuous
 62
     8
370
    25
100
AcDbLine
 10
48.8640689083
 20
676.0467008725
 30
0.0
 11
47.4016728519
 21
676.761427265
 31
0.0
  0
LINE
  5
40B
330
367
100
AcDbEntity
  8
0
  6
Continuous
 62
     8
370
    25
100
AcDbLine
 10
47.3139837351
 20
676.8042841408
 30
0.0
 11
39.2759885615
 21
680.7327461113
 31
0.0
  0
LINE
  5
40C
330
367
100
AcDbEntity
  8
0
  6
Continuous
 62
     8
370
    25
100
AcDbLine
 10
39.2759885615
 20
680.7327461113
 30
0.0
 11
39.2759885615
 21
677.8343361024
 31
0.0
  0
LINE
  5
40D
330
367
100
AcDbEntity
  8
0
  6
Continuous
 62
     8
370
    25
100
AcDbLine
 10
39.2759885615
 20
-99.0458332744
 30
0.0
 11
39.2759885615
 21
-138.638293932
 31
0.0
  0
LINE
  5
40E
330
367
100
AcDbEntity
  8
0
  6
Continuous
 62
     8
370
    25
100
AcDbLine
 10
47.425842332
 20
-915.6548565226
 30
0.0
 11
48.8640689083
 21
-916.3577704069
 31
0.0
  0
LINE
  5
40F
330
367
100
AcDbEntity
  8
0
  6
Continuous
 62
     8
370
    25
100
AcDbLine
 10
-258.584656416
 20
718.2596599956
 30
0.0
 11
-272.3261494519
 21
717.092515377
 31
0.0
  0
LINE
  5
410
330
367
100
AcDbEntity
  8
0
  6
Continuous
 62
     8
370
    25
100
AcDbLine
 10
-273.4267543968
 20
716.9990346224
 30
0.0
 11
-275.0742994282
 21
716.8590990774
 31
0.0
  0
LINE
  5
411
330
367
100
AcDbEntity
  8
0
  6
Continuous
 62
     8
370
    25
100
AcDbLine
 10
-258.584656416
 20
-101.1113800477
 30
0.0
 11
-258.584656416
 21
-61.5189193902
 31
0.0
  0
LINE
  5
412
330
367
100
AcDbEntity
  8
0
  6
Continuous
 62
     8
370
    25
100
AcDbLine
 10
-258.584656416
 20
715.3612499866
 30
0.0
 11
-258.584656416
 21
718.2596599956
 31
0.0
  0
LINE
  5
413
330
367
100
AcDbEntity
  8
0
  6
Continuous
 62
     8
370
    25
100
AcDbLine
 10
-275.0742994282
 20
-875.5453722021
 30
0.0
 11
-273.4267543968
 21
-875.4054366571
 31
0.0
  0
LINE
  5
414
330
367
100
AcDbEntity
  8
0
  6
Continuous
 62
     8
370
    25
100
AcDbLine
 10
-258.2404080651
 20
718.7483924854
 30
0.0
 11
-258.2404080651
 21
715.3178787711
 31
0.0
  0
LINE
  5
415
330
367
100
AcDbEntity
  8
0
  6
Continuous
 62
     8
370
    25
100
AcDbLine
 10
-258.2404080651
 20
-61.5622906057
 30
0.0
 11
-258.2404080651
 21
-101.1547512632
 31
0.0
  0
VIEWPORT
  5
424
330
367
100
AcDbEntity
  8
0
100
AcDbViewport
 10
0.0
 20
0.0
 30
0.0
 40
205.6
 41
156.0
 68
     1
 69
     1
 12
0.0
 22
0.0
 13
0.0
 23
0.0
 14
10.0
 24
10.0
 15
10.0
 25
10.0
 16
0.0
 26
0.0
 36
1.0
 17
0.0
 27
0.0
 37
0.0
 42
50.0
 43
0.0
 44
0.0
 45
1723.8
 50
0.0
 51
0.0
 72
   100
 90
   557152
  1

281
     0
 71
     1
 74
     0
110
0.0
120
0.0
130
0.0
111
1.0
121
0.0
131
0.0
112
0.0
122
1.0
132
0.0
 79
     0
146
0.0
  0
ENDBLK
  5
36A
330
367
100
AcDbEntity
  8
0
100
AcDbBlockEnd
  0
ENDSEC
  0
SECTION
  2
ENTITIES
  0
SPLINE
  5
74
330
1F
100
AcDbEntity
  8
0
  6
Continuous
 62
     7
370
    25
100
AcDbSpline
210
0.0
220
0.0
230
1.0
 70
     8
 71
     3
 72
    10
 73
     6
 74
     0
 42
0.000000001
 43
0.00000001
 40
0.0
 40
0.0
 40
0.0
 40
0.0
 40
0.5
 40
0.5
 40
1.0
 40
1.0
 40
1.0
 40
1.0
 10
174.1532034652315
 20
844.9999999999793
 30
0.0
 10
174.0190311085438
 20
844.999999999979
 30
0.0
 10
173.8768248696302
 20
844.9811684721757
 30
0.0
 10
173.6245479207062
 20
844.9058423609613
 30
0.0
 10
173.5160875640665
 20
844.8498286049017
 30
0.0
 10
173.4391294618605
 20
844.7867882181554
 30
0.0
  0
SPLINE
  5
75
330
1F
100
AcDbEntity
  8
0
  6
Continuous
 62
     7
370
    25
100
AcDbSpline
210
0.0
220
0.0
230
1.0
 70
     8
 71
     3
 72
     8
 73
     4
 74
     0
 42
0.000000001
 43
0.00000001
 40
0.0
 40
0.0
 40
0.0
 40
0.0
 40
1.0
 40
1.0
 40
1.0
 40
1.0
 10
173.4391294618605
 20
844.7867882181554
 30
0.0
 10
173.3388941953593
 20
844.7046802946905
 30
0.0
 10
173.2344491671494
 20
844.600235266481
 30
0.0
 10
173.152341243685
 20
844.4999999999794
 30
0.0
  0
SPLINE
  5
77
330
1F
100
AcDbEntity
  8
0
  6
Continuous
 62
     7
370
    25
100
AcDbSpline
210
0.0
220
0.0
230
1.0
 70
     8
 71
     3
 72
     8
 73
     4
 74
     0
 42
0.000000001
 43
0.00000001
 40
0.0
 40
0.0
 40
0.0
 40
0.0
 40
1.0
 40
1.0
 40
1.0
 40
1.0
 10
173.1523412436855
 20
-844.5000000000207
 30
0.0
 10
173.2344491671499
 20
-844.6002352665223
 30
0.0
 10
173.3388941953593
 20
-844.7046802947318
 30
0.0
 10
173.439129461861
 20
-844.7867882181966
 30
0.0
  0
SPLINE
  5
7A
330
1F
100
AcDbEntity
  8
0
  6
Continuous
 62
     7
370
    25
100
AcDbSpline
210
0.0
220
0.0
230
1.0
 70
     8
 71
     3
 72
    14
 73
    10
 74
     0
 42
0.000000001
 43
0.00000001
 40
0.0
 40
0.0
 40
0.0
 40
0.0
 40
0.25
 40
0.25
 40
0.5
 40
0.5
 40
0.75
 40
0.75
 40
1.0
 40
1.0
 40
1.0
 40
1.0
 10
-175.0
 20
844.4999999999794
 30
0.0
 10
-175.0000000000001
 20
844.5589255650781
 30
0.0
 10
-174.9892606305933
 20
844.6224988795686
 30
0.0
 10
-174.9405276704692
 20
844.7455958299522
 30
0.0
 10
-174.9023689270622
 20
844.8047378541038
 30
0.0
 10
-174.8047378541244
 20
844.9023689270417
 30
0.0
 10
-174.7455958299729
 20
844.9405276704485
 30
0.0
 10
-174.6224988795889
 20
844.9892606305725
 30
0.0
 10
-174.5589255650989
 20
844.9999999999793
 30
0.0
 10
-174.5
 20
844.9999999999793
 30
0.0
  0
SPLINE
  5
7C
330
1F
100
AcDbEntity
  8
0
  6
Continuous
 62
     7
370
    25
100
AcDbSpline
210
0.0
220
0.0
230
1.0
 70
     8
 71
     3
 72
    14
 73
    10
 74
     0
 42
0.000000001
 43
0.00000001
 40
0.0
 40
0.0
 40
0.0
 40
0.0
 40
0.25
 40
0.25
 40
0.5
 40
0.5
 40
0.75
 40
0.75
 40
1.0
 40
1.0
 40
1.0
 40
1.0
 10
-174.5
 20
-845.0000000000206
 30
0.0
 10
-174.5589255650989
 20
-845.0000000000209
 30
0.0
 10
-174.6224988795891
 20
-844.9892606306145
 30
0.0
 10
-174.745595829973
 20
-844.9405276704904
 30
0.0
 10
-174.8047378541245
 20
-844.9023689270832
 30
0.0
 10
-174.9023689270624
 20
-844.8047378541453
 30
0.0
 10
-174.9405276704693
 20
-844.7455958299937
 30
0.0
 10
-174.9892606305933
 20
-844.6224988796097
 30
0.0
 10
-175.0000000000001
 20
-844.5589255651197
 30
0.0
 10
-175.0
 20
-844.5000000000207
 30
0.0
  0
SPLINE
  5
7E
330
1F
100
AcDbEntity
  8
0
  6
Continuous
 62
     7
370
    25
100
AcDbSpline
210
0.0
220
0.0
230
1.0
 70
     8
 71
     3
 72
    14
 73
    10
 74
     0
 42
0.000000001
 43
0.00000001
 40
0.0
 40
0.0
 40
0.0
 40
0.0
 40
0.25
 40
0.25
 40
0.5
 40
0.5
 40
0.75
 40
0.75
 40
1.0
 40
1.0
 40
1.0
 40
1.0
 10
175.0
 20
-844.5000000000207
 30
0.0
 10
175.0000000000001
 20
-844.5589255651194
 30
0.0
 10
174.9892606305933
 20
-844.6224988796099
 30
0.0
 10
174.9405276704693
 20
-844.7455958299936
 30
0.0
 10
174.9023689270623
 20
-844.8047378541451
 30
0.0
 10
174.8047378541245
 20
-844.902368927083
 30
0.0
 10
174.745595829973
 20
-844.9405276704899
 30
0.0
 10
174.622498879589
 20
-844.9892606306139
 30
0.0
 10
174.5589255650989
 20
-845.0000000000206
 30
0.0
 10
174.5
 20
-845.0000000000206
 30
0.0
  0
SPLINE
  5
80
330
1F
100
AcDbEntity
  8
0
  6
Continuous
 62
     7
370
    25
100
AcDbSpline
210
0.0
220
0.0
230
1.0
 70
     8
 71
     3
 72
    14
 73
    10
 74
     0
 42
0.000000001
 43
0.00000001
 40
0.0
 40
0.0
 40
0.0
 40
0.0
 40
0.25
 40
0.25
 40
0.5
 40
0.5
 40
0.75
 40
0.75
 40
1.0
 40
1.0
 40
1.0
 40
1.0
 10
175.0
 20
844.4999999999794
 30
0.0
 10
175.0000000000001
 20
844.5589255650781
 30
0.0
 10
174.9892606305933
 20
844.6224988795686
 30
0.0
 10
174.9405276704692
 20
844.7455958299522
 30
0.0
 10
174.9023689270622
 20
844.8047378541038
 30
0.0
 10
174.8047378541244
 20
844.9023689270415
 30
0.0
 10
174.7455958299729
 20
844.9405276704485
 30
0.0
 10
174.622498879589
 20
844.9892606305723
 30
0.0
 10
174.5589255650989
 20
844.9999999999793
 30
0.0
 10
174.5
 20
844.9999999999793
 30
0.0
  0
SPLINE
  5
82
330
1F
100
AcDbEntity
  8
0
  6
Continuous
 62
     7
370
    25
100
AcDbSpline
210
0.0
220
0.0
230
1.0
 70
     8
 71
     3
 72
    10
 73
     6
 74
     0
 42
0.000000001
 43
0.00000001
 40
0.0
 40
0.0
 40
0.0
 40
0.0
 40
0.5
 40
0.5
 40
1.0
 40
1.0
 40
1.0
 40
1.0
 10
-174.153203465232
 20
-845.0000000000206
 30
0.0
 10
-174.0190311085442
 20
-845.0000000000206
 30
0.0
 10
-173.8768248696306
 20
-844.9811684722173
 30
0.0
 10
-173.6245479207066
 20
-844.9058423610029
 30
0.0
 10
-173.5160875640668
 20
-844.8498286049432
 30
0.0
 10
-173.439129461861
 20
-844.7867882181966
 30
0.0
  0
SPLINE
  5
83
330
1F
100
AcDbEntity
  8
0
  6
Continuous
 62
     7
370
    25
100
AcDbSpline
210
0.0
220
0.0
230
1.0
 70
     8
 71
     3
 72
     8
 73
     4
 74
     0
 42
0.000000001
 43
0.00000001
 40
0.0
 40
0.0
 40
0.0
 40
0.0
 40
1.0
 40
1.0
 40
1.0
 40
1.0
 10
-173.439129461861
 20
-844.7867882181966
 30
0.0
 10
-173.3388941953596
 20
-844.704680294732
 30
0.0
 10
-173.2344491671497
 20
-844.6002352665225
 30
0.0
 10
-173.1523412436855
 20
-844.5000000000207
 30
0.0
  0
SPLINE
  5
86
330
1F
100
AcDbEntity
  8
0
  6
Continuous
 62
     7
370
    25
100
AcDbSpline
210
0.0
220
0.0
230
1.0
 70
     8
 71
     3
 72
    10
 73
     6
 74
     0
 42
0.000000001
 43
0.00000001
 40
0.0
 40
0.0
 40
0.0
 40
0.0
 40
0.5
 40
0.5
 40
1.0
 40
1.0
 40
1.0
 40
1.0
 10
-173.4391294618605
 20
844.7867882181554
 30
0.0
 10
-173.5160875640664
 20
844.8498286049014
 30
0.0
 10
-173.6245479207061
 20
844.9058423609611
 30
0.0
 10
-173.8768248696301
 20
844.9811684721753
 30
0.0
 10
-174.0190311085437
 20
844.9999999999789
 30
0.0
 10
-174.1532034652315
 20
844.9999999999793
 30
0.0
  0
SPLINE
  5
88
330
1F
100
AcDbEntity
  8
0
  6
Continuous
 62
     7
370
    25
100
AcDbSpline
210
0.0
220
0.0
230
1.0
 70
     8
 71
     3
 72
     8
 73
     4
 74
     0
 42
0.000000001
 43
0.00000001
 40
0.0
 40
0.0
 40
0.0
 40
0.0
 40
1.0
 40
1.0
 40
1.0
 40
1.0
 10
-173.152341243685
 20
844.4999999999794
 30
0.0
 10
-173.2344491671494
 20
844.600235266481
 30
0.0
 10
-173.3388941953593
 20
844.7046802946904
 30
0.0
 10
-173.4391294618605
 20
844.7867882181554
 30
0.0
  0
SPLINE
  5
8C
330
1F
100
AcDbEntity
  8
0
  6
Continuous
 62
     7
370
    25
100
AcDbSpline
210
0.0
220
0.0
230
1.0
 70
     8
 71
     3
 72
    10
 73
     6
 74
     0
 42
0.000000001
 43
0.00000001
 40
0.0
 40
0.0
 40
0.0
 40
0.0
 40
0.5
 40
0.5
 40
1.0
 40
1.0
 40
1.0
 40
1.0
 10
173.439129461861
 20
-844.7867882181966
 30
0.0
 10
173.5160875640669
 20
-844.8498286049428
 30
0.0
 10
173.6245479207065
 20
-844.9058423610024
 30
0.0
 10
173.8768248696305
 20
-844.9811684722166
 30
0.0
 10
174.0190311085442
 20
-845.0000000000205
 30
0.0
 10
174.153203465232
 20
-845.0000000000206
 30
0.0
  0
SPLINE
  5
91
330
1F
100
AcDbEntity
  8
0
  6
Continuous
 62
     7
370
    25
100
AcDbSpline
210
0.0
220
0.0
230
1.0
 70
     8
 71
     3
 72
    10
 73
     6
 74
     0
 42
0.000000001
 43
0.00000001
 40
0.0
 40
0.0
 40
0.0
 40
0.0
 40
0.3407406776468461
 40
0.6728125813175312
 40
1.0
 40
1.0
 40
1.0
 40
1.0
 10
-171.488275463461
 20
844.9882754634401
 30
0.0
 10
-171.490847391664
 20
844.9577963560728
 30
0.0
 10
-171.4959258157171
 20
844.89761355945
 30
0.0
 10
-171.4993208360627
 20
844.8052613847598
 30
0.0
 10
-171.4997747330027
 20
844.743743051997
 30
0.0
 10
-171.5000000000002
 20
844.7132117818037
 30
0.0
  0
SPLINE
  5
92
330
1F
100
AcDbEntity
  8
0
  6
Continuous
 62
     7
370
    25
100
AcDbSpline
210
0.0
220
0.0
230
1.0
 70
    24
 71
     3
 72
    10
 73
     6
 74
     0
 42
0.000000001
 43
0.00000001
 40
0.0
 40
0.0
 40
0.0
 40
0.0
 40
0.5
 40
0.5
 40
1.0
 40
1.0
 40
1.0
 40
1.0
 10
-171.011324220477
 20
844.5113242204563
 30
0.0
 10
-171.1099173291263
 20
844.6099173291058
 30
0.0
 10
-171.2190854458061
 20
844.7190854457855
 30
0.0
 10
-171.3951216470442
 20
844.8951216470234
 30
0.0
 10
-171.4586860228091
 20
844.9586860227884
 30
0.0
 10
-171.488275463461
 20
844.9882754634403
 30
0.0
  0
SPLINE
  5
94
330
1F
100
AcDbEntity
  8
0
  6
Continuous
 62
     7
370
    25
100
AcDbSpline
210
0.0
220
0.0
230
1.0
 70
    24
 71
     3
 72
    10
 73
     6
 74
     0
 42
0.000000001
 43
0.00000001
 40
0.0
 40
0.0
 40
0.0
 40
0.0
 40
0.5
 40
0.5
 40
1.0
 40
1.0
 40
1.0
 40
1.0
 10
-171.011324220477
 20
21.48867577950231
 30
0.0
 10
-171.1099173291263
 20
21.39008267085282
 30
0.0
 10
-171.219085445806
 20
21.2809145541729
 30
0.0
 10
-171.395121647044
 20
21.10487835293485
 30
0.0
 10
-171.458686022809
 20
21.04131397717005
 30
0.0
 10
-171.488275463461
 20
21.01172453651834
 30
0.0
  0
SPLINE
  5
95
330
1F
100
AcDbEntity
  8
0
  6
Continuous
 62
     7
370
    25
100
AcDbSpline
210
0.0
220
0.0
230
1.0
 70
     8
 71
     3
 72
    11
 73
     7
 74
     0
 42
0.000000001
 43
0.00000001
 40
0.0
 40
0.0
 40
0.0
 40
0.0
 40
0.2450890083268379
 40
0.4923764711672408
 40
0.7434940738842953
 40
1.0
 40
1.0
 40
1.0
 40
1.0
 10
-171.5000000000002
 20
21.28678821815433
 30
0.0
 10
-171.4998822901959
 20
21.26390864607767
 30
0.0
 10
-171.4996458147274
 20
21.21794427159255
 30
0.0
 10
-171.497633951345
 20
21.14904947501828
 30
0.0
 10
-171.4942956757636
 20
21.07991873219784
 30
0.0
 10
-171.4902963515738
 20
21.0346162274552
 30
0.0
 10
-171.488275463461
 20
21.01172453651823
 30
0.0
  0
SPLINE
  5
98
330
1F
100
AcDbEntity
  8
0
  6
Continuous
 62
     7
370
    25
100
AcDbSpline
210
0.0
220
0.0
230
1.0
 70
    24
 71
     3
 72
    10
 73
     6
 74
     0
 42
0.000000001
 43
0.00000001
 40
0.0
 40
0.0
 40
0.0
 40
0.0
 40
0.5
 40
0.5
 40
1.0
 40
1.0
 40
1.0
 40
1.0
 10
171.488275463461
 20
844.9882754634403
 30
0.0
 10
171.458686022809
 20
844.9586860227884
 30
0.0
 10
171.3951216470441
 20
844.8951216470236
 30
0.0
 10
171.2190854458061
 20
844.719085445785
 30
0.0
 10
171.1099173291263
 20
844.6099173291057
 30
0.0
 10
171.011324220477
 20
844.5113242204563
 30
0.0
  0
SPLINE
  5
99
330
1F
100
AcDbEntity
  8
0
  6
Continuous
 62
     7
370
    25
100
AcDbSpline
210
0.0
220
0.0
230
1.0
 70
     8
 71
     3
 72
    11
 73
     7
 74
     0
 42
0.000000001
 43
0.00000001
 40
0.0
 40
0.0
 40
0.0
 40
0.0
 40
0.2450890083269517
 40
0.4923764711674687
 40
0.7434940738850239
 40
1.0
 40
1.0
 40
1.0
 40
1.0
 10
171.5000000000002
 20
844.7132117818037
 30
0.0
 10
171.4998822901959
 20
844.7360913538806
 30
0.0
 10
171.4996458147274
 20
844.7820557283657
 30
0.0
 10
171.4976339513451
 20
844.8509505249401
 30
0.0
 10
171.4942956757635
 20
844.9200812677605
 30
0.0
 10
171.4902963515738
 20
844.9653837725032
 30
0.0
 10
171.488275463461
 20
844.9882754634401
 30
0.0
  0
SPLINE
  5
9B
330
1F
100
AcDbEntity
  8
0
  6
Continuous
 62
     7
370
    25
100
AcDbSpline
210
0.0
220
0.0
230
1.0
 70
     8
 71
     3
 72
    10
 73
     6
 74
     0
 42
0.000000001
 43
0.00000001
 40
0.0
 40
0.0
 40
0.0
 40
0.0
 40
0.3407406776493401
 40
0.672812581320388
 40
1.0
 40
1.0
 40
1.0
 40
1.0
 10
171.4882754634611
 20
21.01172453651823
 30
0.0
 10
171.4908473916641
 20
21.0422036438856
 30
0.0
 10
171.4959258157171
 20
21.10238644050869
 30
0.0
 10
171.4993208360627
 20
21.19473861519915
 30
0.0
 10
171.4997747330027
 20
21.25625694796134
 30
0.0
 10
171.5000000000002
 20
21.28678821815433
 30
0.0
  0
SPLINE
  5
9C
330
1F
100
AcDbEntity
  8
0
  6
Continuous
 62
     7
370
    25
100
AcDbSpline
210
0.0
220
0.0
230
1.0
 70
    24
 71
     3
 72
    10
 73
     6
 74
     0
 42
0.000000001
 43
0.00000001
 40
0.0
 40
0.0
 40
0.0
 40
0.0
 40
0.5
 40
0.5
 40
1.0
 40
1.0
 40
1.0
 40
1.0
 10
171.488275463461
 20
21.01172453651834
 30
0.0
 10
171.458686022809
 20
21.04131397717039
 30
0.0
 10
171.395121647044
 20
21.10487835293529
 30
0.0
 10
171.219085445806
 20
21.28091455417317
 30
0.0
 10
171.1099173291264
 20
21.39008267085291
 30
0.0
 10
171.011324220477
 20
21.48867577950231
 30
0.0
  0
SPLINE
  5
9E
330
1F
100
AcDbEntity
  8
0
  6
Continuous
 62
     7
370
    25
100
AcDbSpline
210
0.0
220
0.0
230
1.0
 70
     8
 71
     3
 72
    11
 73
     7
 74
     0
 42
0.000000001
 43
0.00000001
 40
0.0
 40
0.0
 40
0.0
 40
0.0
 40
0.2450890083293513
 40
0.4923764711703004
 40
0.7434940738867882
 40
1.0
 40
1.0
 40
1.0
 40
1.0
 10
171.2132117818245
 20
20.99999999997915
 30
0.0
 10
171.2360913539014
 20
21.00011770978349
 30
0.0
 10
171.2820557283869
 20
21.00035418525204
 30
0.0
 10
171.3509505249614
 20
21.00236604863434
 30
0.0
 10
171.4200812677817
 20
21.00570432421575
 30
0.0
 10
171.4653837725241
 20
21.00970364840557
 30
0.0
 10
171.488275463461
 20
21.01172453651827
 30
0.0
  0
SPLINE
  5
A0
330
1F
100
AcDbEntity
  8
0
  6
Continuous
 62
     7
370
    25
100
AcDbSpline
210
0.0
220
0.0
230
1.0
 70
     8
 71
     3
 72
    10
 73
     6
 74
     0
 42
0.000000001
 43
0.00000001
 40
0.0
 40
0.0
 40
0.0
 40
0.0
 40
0.3407406776570868
 40
0.6728125813276853
 40
1.0
 40
1.0
 40
1.0
 40
1.0
 10
-171.4882754634608
 20
21.01172453651829
 30
0.0
 10
-171.4577963560928
 20
21.00915260831522
 30
0.0
 10
-171.3976135594689
 20
21.00407418426207
 30
0.0
 10
-171.3052613847784
 20
21.00067916391642
 30
0.0
 10
-171.2437430520167
 20
21.0002252669766
 30
0.0
 10
-171.2132117818244
 20
20.99999999997915
 30
0.0
  0
SPLINE
  5
A2
330
1F
100
AcDbEntity
  8
0
  6
Continuous
 62
     7
370
    25
100
AcDbSpline
210
0.0
220
0.0
230
1.0
 70
     8
 71
     3
 72
    11
 73
     7
 74
     0
 42
0.000000001
 43
0.00000001
 40
0.0
 40
0.0
 40
0.0
 40
0.0
 40
0.2450890083291423
 40
0.4923764711701607
 40
0.7434940738868387
 40
1.0
 40
1.0
 40
1.0
 40
1.0
 10
-171.2132117818245
 20
844.9999999999795
 30
0.0
 10
-171.2360913539014
 20
844.9998822901753
 30
0.0
 10
-171.2820557283868
 20
844.9996458147068
 30
0.0
 10
-171.3509505249613
 20
844.9976339513244
 30
0.0
 10
-171.4200812677817
 20
844.9942956757428
 30
0.0
 10
-171.4653837725241
 20
844.9902963515532
 30
0.0
 10
-171.4882754634609
 20
844.9882754634405
 30
0.0
  0
SPLINE
  5
A4
330
1F
100
AcDbEntity
  8
0
  6
Continuous
 62
     7
370
    25
100
AcDbSpline
210
0.0
220
0.0
230
1.0
 70
     8
 71
     3
 72
    10
 73
     6
 74
     0
 42
0.000000001
 43
0.00000001
 40
0.0
 40
0.0
 40
0.0
 40
0.0
 40
0.3407406776411832
 40
0.6728125813120777
 40
1.0
 40
1.0
 40
1.0
 40
1.0
 10
171.488275463461
 20
844.9882754634405
 30
0.0
 10
171.4577963560943
 20
844.9908473916435
 30
0.0
 10
171.3976135594718
 20
844.9959258156964
 30
0.0
 10
171.3052613847813
 20
844.9993208360419
 30
0.0
 10
171.2437430520183
 20
844.9997747329818
 30
0.0
 10
171.2132117818245
 20
844.9999999999795
 30
0.0
  0
SPLINE
  5
A6
330
1F
100
AcDbEntity
  8
0
  6
Continuous
 62
     7
370
    25
100
AcDbSpline
210
0.0
220
0.0
230
1.0
 70
    24
 71
     3
 72
    10
 73
     6
 74
     0
 42
0.000000001
 43
0.00000001
 40
0.0
 40
0.0
 40
0.0
 40
0.0
 40
0.5
 40
0.5
 40
1.0
 40
1.0
 40
1.0
 40
1.0
 10
171.488275463461
 20
-844.9882754634816
 30
0.0
 10
171.458686022809
 20
-844.9586860228297
 30
0.0
 10
171.395121647044
 20
-844.8951216470648
 30
0.0
 10
171.219085445806
 20
-844.7190854458265
 30
0.0
 10
171.1099173291264
 20
-844.6099173291472
 30
0.0
 10
171.011324220477
 20
-844.5113242204977
 30
0.0
  0
SPLINE
  5
A7
330
1F
100
AcDbEntity
  8
0
  6
Continuous
 62
     7
370
    25
100
AcDbSpline
210
0.0
220
0.0
230
1.0
 70
     8
 71
     3
 72
    11
 73
     7
 74
     0
 42
0.000000001
 43
0.00000001
 40
0.0
 40
0.0
 40
0.0
 40
0.0
 40
0.2450890083293563
 40
0.4923764711703
 40
0.743494073886792
 40
1.0
 40
1.0
 40
1.0
 40
1.0
 10
171.2132117818245
 20
-845.0000000000208
 30
0.0
 10
171.2360913539014
 20
-844.9998822902163
 30
0.0
 10
171.2820557283869
 20
-844.9996458147476
 30
0.0
 10
171.3509505249614
 20
-844.9976339513659
 30
0.0
 10
171.4200812677817
 20
-844.9942956757842
 30
0.0
 10
171.4653837725242
 20
-844.9902963515943
 30
0.0
 10
171.488275463461
 20
-844.9882754634817
 30
0.0
  0
SPLINE
  5
A9
330
1F
100
AcDbEntity
  8
0
  6
Continuous
 62
     7
370
    25
100
AcDbSpline
210
0.0
220
0.0
230
1.0
 70
     8
 71
     3
 72
    10
 73
     6
 74
     0
 42
0.000000001
 43
0.00000001
 40
0.0
 40
0.0
 40
0.0
 40
0.0
 40
0.3407406776570889
 40
0.6728125813276917
 40
1.0
 40
1.0
 40
1.0
 40
1.0
 10
-171.4882754634608
 20
-844.9882754634816
 30
0.0
 10
-171.4577963560927
 20
-844.9908473916848
 30
0.0
 10
-171.3976135594689
 20
-844.9959258157377
 30
0.0
 10
-171.3052613847783
 20
-844.9993208360836
 30
0.0
 10
-171.2437430520168
 20
-844.9997747330236
 30
0.0
 10
-171.2132117818244
 20
-845.0000000000208
 30
0.0
  0
SPLINE
  5
AA
330
1F
100
AcDbEntity
  8
0
  6
Continuous
 62
     7
370
    25
100
AcDbSpline
210
0.0
220
0.0
230
1.0
 70
    24
 71
     3
 72
    10
 73
     6
 74
     0
 42
0.000000001
 43
0.00000001
 40
0.0
 40
0.0
 40
0.0
 40
0.0
 40
0.5
 40
0.5
 40
1.0
 40
1.0
 40
1.0
 40
1.0
 10
-171.011324220477
 20
-844.5113242204977
 30
0.0
 10
-171.1099173291263
 20
-844.609917329147
 30
0.0
 10
-171.219085445806
 20
-844.7190854458271
 30
0.0
 10
-171.395121647044
 20
-844.8951216470651
 30
0.0
 10
-171.458686022809
 20
-844.95868602283
 30
0.0
 10
-171.488275463461
 20
-844.9882754634816
 30
0.0
  0
SPLINE
  5
AB
330
1F
100
AcDbEntity
  8
0
  6
Continuous
 62
     7
370
    25
100
AcDbSpline
210
0.0
220
0.0
230
1.0
 70
     8
 71
     3
 72
    10
 73
     6
 74
     0
 42
0.000000001
 43
0.00000001
 40
0.0
 40
0.0
 40
0.0
 40
0.0
 40
0.3407406776468999
 40
0.6728125813175819
 40
1.0
 40
1.0
 40
1.0
 40
1.0
 10
-171.488275463461
 20
-21.01172453655981
 30
0.0
 10
-171.490847391664
 20
-21.04220364392701
 30
0.0
 10
-171.495925815717
 20
-21.10238644054994
 30
0.0
 10
-171.4993208360627
 20
-21.19473861524053
 30
0.0
 10
-171.4997747330027
 20
-21.25625694800301
 30
0.0
 10
-171.5000000000002
 20
-21.2867882181963
 30
0.0
  0
SPLINE
  5
AC
330
1F
100
AcDbEntity
  8
0
  6
Continuous
 62
     7
370
    25
100
AcDbSpline
210
0.0
220
0.0
230
1.0
 70
    24
 71
     3
 72
    10
 73
     6
 74
     0
 42
0.000000001
 43
0.00000001
 40
0.0
 40
0.0
 40
0.0
 40
0.0
 40
0.5
 40
0.5
 40
1.0
 40
1.0
 40
1.0
 40
1.0
 10
-171.011324220477
 20
-21.48867577954361
 30
0.0
 10
-171.1099173291263
 20
-21.3900826708943
 30
0.0
 10
-171.2190854458061
 20
-21.28091455421463
 30
0.0
 10
-171.3951216470442
 20
-21.10487835297673
 30
0.0
 10
-171.4586860228091
 20
-21.04131397721177
 30
0.0
 10
-171.488275463461
 20
-21.01172453655964
 30
0.0
  0
SPLINE
  5
AE
330
1F
100
AcDbEntity
  8
0
  6
Continuous
 62
     7
370
    25
100
AcDbSpline
210
0.0
220
0.0
230
1.0
 70
     8
 71
     3
 72
    11
 73
     7
 74
     0
 42
0.000000001
 43
0.00000001
 40
0.0
 40
0.0
 40
0.0
 40
0.0
 40
0.2450890083268379
 40
0.4923764711672408
 40
0.7434940738842953
 40
1.0
 40
1.0
 40
1.0
 40
1.0
 10
-171.5000000000002
 20
-844.7132117818456
 30
0.0
 10
-171.4998822901959
 20
-844.7360913539223
 30
0.0
 10
-171.4996458147274
 20
-844.7820557284074
 30
0.0
 10
-171.497633951345
 20
-844.8509505249814
 30
0.0
 10
-171.4942956757636
 20
-844.9200812678023
 30
0.0
 10
-171.4902963515738
 20
-844.9653837725448
 30
0.0
 10
-171.488275463461
 20
-844.9882754634817
 30
0.0
  0
SPLINE
  5
B1
330
1F
100
AcDbEntity
  8
0
  6
Continuous
 62
     7
370
    25
100
AcDbSpline
210
0.0
220
0.0
230
1.0
 70
     8
 71
     3
 72
    11
 73
     7
 74
     0
 42
0.000000001
 43
0.00000001
 40
0.0
 40
0.0
 40
0.0
 40
0.0
 40
0.2450890083291427
 40
0.4923764711701567
 40
0.7434940738868322
 40
1.0
 40
1.0
 40
1.0
 40
1.0
 10
-171.2132117818245
 20
-21.00000000002045
 30
0.0
 10
-171.2360913539014
 20
-21.00011770982479
 30
0.0
 10
-171.2820557283868
 20
-21.00035418529334
 30
0.0
 10
-171.3509505249613
 20
-21.00236604867564
 30
0.0
 10
-171.4200812677817
 20
-21.00570432425705
 30
0.0
 10
-171.4653837725241
 20
-21.00970364844687
 30
0.0
 10
-171.4882754634609
 20
-21.01172453655957
 30
0.0
  0
SPLINE
  5
B3
330
1F
100
AcDbEntity
  8
0
  6
Continuous
 62
     7
370
    25
100
AcDbSpline
210
0.0
220
0.0
230
1.0
 70
     8
 71
     3
 72
    10
 73
     6
 74
     0
 42
0.000000001
 43
0.00000001
 40
0.0
 40
0.0
 40
0.0
 40
0.0
 40
0.3407406776411925
 40
0.6728125813120801
 40
1.0
 40
1.0
 40
1.0
 40
1.0
 10
171.488275463461
 20
-21.01172453655957
 30
0.0
 10
171.4577963560943
 20
-21.00915260835664
 30
0.0
 10
171.3976135594718
 20
-21.00407418430365
 30
0.0
 10
171.3052613847813
 20
-21.00067916395804
 30
0.0
 10
171.2437430520183
 20
-21.000225267018
 30
0.0
 10
171.2132117818245
 20
-21.00000000002045
 30
0.0
  0
SPLINE
  5
B4
330
1F
100
AcDbEntity
  8
0
  6
Continuous
 62
     7
370
    25
100
AcDbSpline
210
0.0
220
0.0
230
1.0
 70
    24
 71
     3
 72
    10
 73
     6
 74
     0
 42
0.000000001
 43
0.00000001
 40
0.0
 40
0.0
 40
0.0
 40
0.0
 40
0.5
 40
0.5
 40
1.0
 40
1.0
 40
1.0
 40
1.0
 10
171.488275463461
 20
-21.01172453655964
 30
0.0
 10
171.458686022809
 20
-21.04131397721165
 30
0.0
 10
171.3951216470441
 20
-21.10487835297668
 30
0.0
 10
171.2190854458061
 20
-21.28091455421471
 30
0.0
 10
171.1099173291263
 20
-21.39008267089444
 30
0.0
 10
171.011324220477
 20
-21.48867577954361
 30
0.0
  0
SPLINE
  5
B6
330
1F
100
AcDbEntity
  8
0
  6
Continuous
 62
     7
370
    25
100
AcDbSpline
210
0.0
220
0.0
230
1.0
 70
     8
 71
     3
 72
    11
 73
     7
 74
     0
 42
0.000000001
 43
0.00000001
 40
0.0
 40
0.0
 40
0.0
 40
0.0
 40
0.2450890083270174
 40
0.4923764711672916
 40
0.7434940738847028
 40
1.0
 40
1.0
 40
1.0
 40
1.0
 10
171.5000000000002
 20
-21.2867882181963
 30
0.0
 10
171.4998822901958
 20
-21.26390864611959
 30
0.0
 10
171.4996458147274
 20
-21.2179442716344
 30
0.0
 10
171.497633951345
 20
-21.14904947506001
 30
0.0
 10
171.4942956757637
 20
-21.07991873223949
 30
0.0
 10
171.4902963515738
 20
-21.03461622749677
 30
0.0
 10
171.488275463461
 20
-21.01172453655981
 30
0.0
  0
SPLINE
  5
B8
330
1F
100
AcDbEntity
  8
0
  6
Continuous
 62
     7
370
    25
100
AcDbSpline
210
0.0
220
0.0
230
1.0
 70
     8
 71
     3
 72
    10
 73
     6
 74
     0
 42
0.000000001
 43
0.00000001
 40
0.0
 40
0.0
 40
0.0
 40
0.0
 40
0.3407406776493401
 40
0.672812581320388
 40
1.0
 40
1.0
 40
1.0
 40
1.0
 10
171.4882754634611
 20
-844.9882754634817
 30
0.0
 10
171.4908473916641
 20
-844.9577963561145
 30
0.0
 10
171.4959258157171
 20
-844.8976135594912
 30
0.0
 10
171.4993208360627
 20
-844.8052613848008
 30
0.0
 10
171.4997747330027
 20
-844.7437430520386
 30
0.0
 10
171.5000000000002
 20
-844.7132117818456
 30
0.0
  0
LINE
  5
C1
330
1F
100
AcDbEntity
  8
0
  6
Continuous
 62
     7
370
    25
100
AcDbLine
 10
171.5812277554
 20
845.0
 30
0.0
 11
174.5
 21
845.0
 31
0.0
  0
LINE
  5
C2
330
1F
100
AcDbEntity
  8
0
  6
Continuous
 62
     7
370
    25
100
AcDbLine
 10
173.4391294619
 20
844.7867882182
 30
0.0
 11
173.4391294619
 21
-844.7867882182
 31
0.0
  0
LINE
  5
C3
330
1F
100
AcDbEntity
  8
0
  6
Continuous
 62
     7
370
    25
100
AcDbLine
 10
173.1523412437
 20
-844.5
 30
0.0
 11
173.1523412437
 21
844.5
 31
0.0
  0
LINE
  5
C4
330
1F
100
AcDbEntity
  8
0
  6
Continuous
 62
     7
370
    25
100
AcDbLine
 10
-175.0
 20
-844.5
 30
0.0
 11
-175.0
 21
844.5
 31
0.0
  0
LINE
  5
C5
330
1F
100
AcDbEntity
  8
0
  6
Continuous
 62
     7
370
    25
100
AcDbLine
 10
-174.5
 20
845.0
 30
0.0
 11
-174.5
 21
-845.0
 31
0.0
  0
LINE
  5
C6
330
1F
100
AcDbEntity
  8
0
  6
Continuous
 62
     7
370
    25
100
AcDbLine
 10
175.0
 20
844.5
 30
0.0
 11
175.0
 21
-844.5
 31
0.0
  0
LINE
  5
C7
330
1F
100
AcDbEntity
  8
0
  6
Continuous
 62
     7
370
    25
100
AcDbLine
 10
174.5
 20
-845.0
 30
0.0
 11
174.5
 21
845.0
 31
0.0
  0
LINE
  5
C8
330
1F
100
AcDbEntity
  8
0
  6
Continuous
 62
     7
370
    25
100
AcDbLine
 10
-171.4937227554
 20
-845.0
 30
0.0
 11
-174.5
 21
-845.0
 31
0.0
  0
LINE
  5
C9
330
1F
100
AcDbEntity
  8
0
  6
Continuous
 62
     7
370
    25
100
AcDbLine
 10
-174.5
 20
845.0
 30
0.0
 11
-171.4937227554
 21
845.0
 31
0.0
  0
LINE
  5
CA
330
1F
100
AcDbEntity
  8
0
  6
Continuous
 62
     7
370
    25
100
AcDbLine
 10
-173.4391294619
 20
-844.7867882182
 30
0.0
 11
-173.4391294619
 21
844.7867882182
 31
0.0
  0
LINE
  5
CB
330
1F
100
AcDbEntity
  8
0
  6
Continuous
 62
     7
370
    25
100
AcDbLine
 10
-173.1523412437
 20
844.5
 30
0.0
 11
-173.1523412437
 21
-844.5
 31
0.0
  0
LINE
  5
CC
330
1F
100
AcDbEntity
  8
0
  6
Continuous
 62
     7
370
    25
100
AcDbLine
 10
174.5
 20
-845.0
 30
0.0
 11
171.4937227554
 21
-845.0
 31
0.0
  0
LINE
  5
CD
330
1F
100
AcDbEntity
  8
0
  6
Continuous
 62
     7
370
    25
100
AcDbLine
 10
-159.0
 20
21.0
 30
0.0
 11
-159.0
 21
-21.0
 31
0.0
  0
LINE
  5
CE
330
1F
100
AcDbEntity
  8
0
  6
Continuous
 62
     7
370
    25
100
AcDbLine
 10
159.0
 20
-21.0
 30
0.0
 11
159.0
 21
21.0
 31
0.0
  0
LINE
  5
CF
330
1F
100
AcDbEntity
  8
0
  6
Continuous
 62
     7
370
    25
100
AcDbLine
 10
-171.0113242205
 20
844.5113242205
 30
0.0
 11
-171.0113242205
 21
21.4886757795
 31
0.0
  0
LINE
  5
D0
330
1F
100
AcDbEntity
  8
0
  6
Continuous
 62
     7
370
    25
100
AcDbLine
 10
-171.5
 20
844.7132117818
 30
0.0
 11
-171.5
 21
21.2867882182
 31
0.0
  0
LINE
  5
D1
330
1F
100
AcDbEntity
  8
0
  6
Continuous
 62
     7
370
    25
100
AcDbLine
 10
171.0113242205
 20
21.4886757795
 30
0.0
 11
171.0113242205
 21
844.5113242205
 31
0.0
  0
LINE
  5
D2
330
1F
100
AcDbEntity
  8
0
  6
Continuous
 62
     7
370
    25
100
AcDbLine
 10
171.5
 20
21.2867882182
 30
0.0
 11
171.5
 21
844.7132117818
 31
0.0
  0
LINE
  5
D3
330
1F
100
AcDbEntity
  8
0
  6
Continuous
 62
     7
370
    25
100
AcDbLine
 10
-171.0113242205
 20
21.4886757795
 30
0.0
 11
171.0113242205
 21
21.4886757795
 31
0.0
  0
LINE
  5
D4
330
1F
100
AcDbEntity
  8
0
  6
Continuous
 62
     7
370
    25
100
AcDbLine
 10
-171.2132117818
 20
21.0
 30
0.0
 11
171.2132117818
 21
21.0
 31
0.0
  0
LINE
  5
D5
330
1F
100
AcDbEntity
  8
0
  6
Continuous
 62
     7
370
    25
100
AcDbLine
 10
171.0113242205
 20
844.5113242205
 30
0.0
 11
-171.0113242205
 21
844.5113242205
 31
0.0
  0
LINE
  5
D6
330
1F
100
AcDbEntity
  8
0
  6
Continuous
 62
     7
370
    25
100
AcDbLine
 10
171.2132117818
 20
845.0
 30
0.0
 11
-171.2132117818
 21
845.0
 31
0.0
  0
LINE
  5
D7
330
1F
100
AcDbEntity
  8
0
  6
Continuous
 62
     7
370
    25
100
AcDbLine
 10
-171.0113242205
 20
-844.5113242205
 30
0.0
 11
171.0113242205
 21
-844.5113242205
 31
0.0
  0
LINE
  5
D8
330
1F
100
AcDbEntity
  8
0
  6
Continuous
 62
     7
370
    25
100
AcDbLine
 10
-171.2132117818
 20
-845.0
 30
0.0
 11
171.2132117818
 21
-845.0
 31
0.0
  0
LINE
  5
D9
330
1F
100
AcDbEntity
  8
0
  6
Continuous
 62
     7
370
    25
100
AcDbLine
 10
-171.0113242205
 20
-21.4886757795
 30
0.0
 11
-171.0113242205
 21
-844.5113242205
 31
0.0
  0
LINE
  5
DA
330
1F
100
AcDbEntity
  8
0
  6
Continuous
 62
     7
370
    25
100
AcDbLine
 10
-171.5
 20
-21.2867882182
 30
0.0
 11
-171.5
 21
-844.7132117818
 31
0.0
  0
LINE
  5
DB
330
1F
100
AcDbEntity
  8
0
  6
Continuous
 62
     7
370
    25
100
AcDbLine
 10
171.0113242205
 20
-21.4886757795
 30
0.0
 11
-171.0113242205
 21
-21.4886757795
 31
0.0
  0
LINE
  5
DC
330
1F
100
AcDbEntity
  8
0
  6
Continuous
 62
     7
370
    25
100
AcDbLine
 10
171.2132117818
 20
-21.0
 30
0.0
 11
-171.2132117818
 21
-21.0
 31
0.0
  0
LINE
  5
DD
330
1F
100
AcDbEntity
  8
0
  6
Continuous
 62
     7
370
    25
100
AcDbLine
 10
171.0113242205
 20
-844.5113242205
 30
0.0
 11
171.0113242205
 21
-21.4886757795
 31
0.0
  0
LINE
  5
DE
330
1F
100
AcDbEntity
  8
0
  6
Continuous
 62
     7
370
    25
100
AcDbLine
 10
171.5
 20
-844.7132117818
 30
0.0
 11
171.5
 21
-21.2867882182
 31
0.0
  0
LINE
  5
DF
330
1F
100
AcDbEntity
  8
0
  6
Continuous
 62
     8
370
    25
100
AcDbLine
 10
-158.5
 20
21.0
 30
0.0
 11
-158.5
 21
-21.0
 31
0.0
  0
LINE
  5
E0
330
1F
100
AcDbEntity
  8
0
  6
Continuous
 62
     8
370
    25
100
AcDbLine
 10
158.5
 20
-21.0
 30
0.0
 11
158.5
 21
21.0
 31
0.0
  0
LINE
  5
E1
330
1F
100
AcDbEntity
  8
0
  6
Continuous
 62
     8
370
    25
100
AcDbLine
 10
173.1523412437
 20
844.5
 30
0.0
 11
171.5
 21
844.5
 31
0.0
  0
LINE
  5
E2
330
1F
100
AcDbEntity
  8
0
  6
Continuous
 62
     8
370
    25
100
AcDbLine
 10
-173.1523412437
 20
-844.5
 30
0.0
 11
-171.5
 21
-844.5
 31
0.0
  0
LINE
  5
E3
330
1F
100
AcDbEntity
  8
0
  6
Continuous
 62
     8
370
    25
100
AcDbLine
 10
-171.5
 20
844.5
 30
0.0
 11
-173.1523412437
 21
844.5
 31
0.0
  0
LINE
  5
E4
330
1F
100
AcDbEntity
  8
0
  6
Continuous
 62
     8
370
    25
100
AcDbLine
 10
171.5
 20
-844.5
 30
0.0
 11
173.1523412437
 21
-844.5
 31
0.0
  0
LINE
  5
E5
330
1F
100
AcDbEntity
  8
0
  6
Continuous
 62
     8
370
    25
100
AcDbLine
 10
-159.2132117818
 20
-21.0
 30
0.0
 11
-159.2132117818
 21
21.0
 31
0.0
  0
LINE
  5
E6
330
1F
100
AcDbEntity
  8
0
  6
Continuous
 62
     8
370
    25
100
AcDbLine
 10
159.2132117818
 20
21.0
 30
0.0
 11
159.2132117818
 21
-21.0
 31
0.0
  0
SPLINE
  5
F0
330
1B
100
AcDbEntity
 67
     1
  8
0
  6
Continuous
 62
     7
370
    25
100
AcDbSpline
210
0.0
220
0.0
230
1.0
 70
     8
 71
     3
 72
    14
 73
    10
 74
     0
 42
0.000000001
 43
0.00000001
 40
0.0
 40
0.0
 40
0.0
 40
0.0
 40
0.25
 40
0.25
 40
0.5
 40
0.5
 40
0.75
 40
0.75
 40
1.0
 40
1.0
 40
1.0
 40
1.0
 10
-174.5
 20
-845.0000000000206
 30
0.0
 10
-174.5589255650989
 20
-845.0000000000209
 30
0.0
 10
-174.6224988795891
 20
-844.9892606306145
 30
0.0
 10
-174.745595829973
 20
-844.9405276704904
 30
0.0
 10
-174.8047378541245
 20
-844.9023689270832
 30
0.0
 10
-174.9023689270624
 20
-844.8047378541453
 30
0.0
 10
-174.9405276704693
 20
-844.7455958299937
 30
0.0
 10
-174.9892606305933
 20
-844.6224988796097
 30
0.0
 10
-175.0000000000001
 20
-844.5589255651197
 30
0.0
 10
-175.0
 20
-844.5000000000207
 30
0.0
  0
SPLINE
  5
F2
330
1B
100
AcDbEntity
 67
     1
  8
0
  6
Continuous
 62
     7
370
    25
100
AcDbSpline
210
0.0
220
0.0
230
1.0
 70
     8
 71
     3
 72
    14
 73
    10
 74
     0
 42
0.000000001
 43
0.00000001
 40
0.0
 40
0.0
 40
0.0
 40
0.0
 40
0.25
 40
0.25
 40
0.5
 40
0.5
 40
0.75
 40
0.75
 40
1.0
 40
1.0
 40
1.0
 40
1.0
 10
-174.5
 20
844.9999999999793
 30
0.0
 10
-174.5589255650989
 20
844.9999999999791
 30
0.0
 10
-174.622498879589
 20
844.9892606305724
 30
0.0
 10
-174.7455958299729
 20
844.9405276704481
 30
0.0
 10
-174.8047378541244
 20
844.9023689270414
 30
0.0
 10
-174.9023689270622
 20
844.8047378541037
 30
0.0
 10
-174.9405276704693
 20
844.7455958299522
 30
0.0
 10
-174.9892606305933
 20
844.6224988795683
 30
0.0
 10
-175.0000000000001
 20
844.5589255650785
 30
0.0
 10
-175.0
 20
844.4999999999794
 30
0.0
  0
SPLINE
  5
F4
330
1B
100
AcDbEntity
 67
     1
  8
0
  6
Continuous
 62
     7
370
    25
100
AcDbSpline
210
0.0
220
0.0
230
1.0
 70
     8
 71
     3
 72
    14
 73
    10
 74
     0
 42
0.000000001
 43
0.00000001
 40
0.0
 40
0.0
 40
0.0
 40
0.0
 40
0.25
 40
0.25
 40
0.5
 40
0.5
 40
0.75
 40
0.75
 40
1.0
 40
1.0
 40
1.0
 40
1.0
 10
174.5
 20
-845.0000000000206
 30
0.0
 10
174.5589255650989
 20
-845.0000000000208
 30
0.0
 10
174.622498879589
 20
-844.9892606306144
 30
0.0
 10
174.745595829973
 20
-844.9405276704902
 30
0.0
 10
174.8047378541245
 20
-844.9023689270833
 30
0.0
 10
174.9023689270624
 20
-844.8047378541454
 30
0.0
 10
174.9405276704693
 20
-844.7455958299937
 30
0.0
 10
174.9892606305933
 20
-844.6224988796097
 30
0.0
 10
175.0000000000001
 20
-844.5589255651197
 30
0.0
 10
175.0
 20
-844.5000000000207
 30
0.0
  0
SPLINE
  5
F6
330
1B
100
AcDbEntity
 67
     1
  8
0
  6
Continuous
 62
     7
370
    25
100
AcDbSpline
210
0.0
220
0.0
230
1.0
 70
     8
 71
     3
 72
    14
 73
    10
 74
     0
 42
0.000000001
 43
0.00000001
 40
0.0
 40
0.0
 40
0.0
 40
0.0
 40
0.25
 40
0.25
 40
0.5
 40
0.5
 40
0.75
 40
0.75
 40
1.0
 40
1.0
 40
1.0
 40
1.0
 10
175.0
 20
844.4999999999794
 30
0.0
 10
175.0000000000001
 20
844.5589255650781
 30
0.0
 10
174.9892606305933
 20
844.6224988795686
 30
0.0
 10
174.9405276704692
 20
844.7455958299522
 30
0.0
 10
174.9023689270622
 20
844.8047378541038
 30
0.0
 10
174.8047378541244
 20
844.9023689270417
 30
0.0
 10
174.7455958299729
 20
844.9405276704485
 30
0.0
 10
174.6224988795889
 20
844.9892606305725
 30
0.0
 10
174.5589255650989
 20
844.9999999999793
 30
0.0
 10
174.5
 20
844.9999999999793
 30
0.0
  0
LINE
  5
129
330
1B
100
AcDbEntity
 67
     1
  8
0
  6
Continuous
 62
     7
370
    25
100
AcDbLine
 10
159.0
 20
829.0
 30
0.0
 11
-159.0
 21
829.0
 31
0.0
  0
LINE
  5
12A
330
1B
100
AcDbEntity
 67
     1
  8
0
  6
Continuous
 62
     7
370
    25
100
AcDbLine
 10
-174.5
 20
845.0
 30
0.0
 11
174.5
 21
845.0
 31
0.0
  0
LINE
  5
12B
330
1B
100
AcDbEntity
 67
     1
  8
0
  6
Continuous
 62
     7
370
    25
100
AcDbLine
 10
-159.0
 20
845.0
 30
0.0
 11
-159.0
 21
-845.0
 31
0.0
  0
LINE
  5
12C
330
1B
100
AcDbEntity
 67
     1
  8
0
  6
Continuous
 62
     7
370
    25
100
AcDbLine
 10
159.0
 20
-845.0
 30
0.0
 11
159.0
 21
845.0
 31
0.0
  0
LINE
  5
12D
330
1B
100
AcDbEntity
 67
     1
  8
0
  6
Continuous
 62
     7
370
    25
100
AcDbLine
 10
174.5
 20
-845.0
 30
0.0
 11
-174.5
 21
-845.0
 31
0.0
  0
LINE
  5
12E
330
1B
100
AcDbEntity
 67
     1
  8
0
  6
Continuous
 62
     7
370
    25
100
AcDbLine
 10
-159.0
 20
-829.0
 30
0.0
 11
159.0
 21
-829.0
 31
0.0
  0
LINE
  5
12F
330
1B
100
AcDbEntity
 67
     1
  8
0
  6
Continuous
 62
     7
370
    25
100
AcDbLine
 10
-174.5
 20
845.0
 30
0.0
 11
-174.5
 21
-845.0
 31
0.0
  0
LINE
  5
130
330
1B
100
AcDbEntity
 67
     1
  8
0
  6
Continuous
 62
     7
370
    25
100
AcDbLine
 10
-175.0
 20
-844.5
 30
0.0
 11
-175.0
 21
844.5
 31
0.0
  0
LINE
  5
131
330
1B
100
AcDbEntity
 67
     1
  8
0
  6
Continuous
 62
     7
370
    25
100
AcDbLine
 10
175.0
 20
844.5
 30
0.0
 11
175.0
 21
-844.5
 31
0.0
  0
LINE
  5
132
330
1B
100
AcDbEntity
 67
     1
  8
0
  6
Continuous
 62
     7
370
    25
100
AcDbLine
 10
174.5
 20
-845.0
 30
0.0
 11
174.5
 21
845.0
 31
0.0
  0
LINE
  5
133
330
1B
100
AcDbEntity
 67
     1
  8
0
  6
Continuous
 62
     7
370
    25
100
AcDbLine
 10
-159.0
 20
779.0
 30
0.0
 11
-139.0
 21
779.0
 31
0.0
  0
LINE
  5
134
330
1B
100
AcDbEntity
 67
     1
  8
0
  6
Continuous
 62
     7
370
    25
100
AcDbLine
 10
-139.0
 20
779.0
 30
0.0
 11
-139.0
 21
829.0
 31
0.0
  0
LINE
  5
135
330
1B
100
AcDbEntity
 67
     1
  8
0
  6
Continuous
 62
     7
370
    25
100
AcDbLine
 10
139.0
 20
829.0
 30
0.0
 11
139.0
 21
779.0
 31
0.0
  0
LINE
  5
136
330
1B
100
AcDbEntity
 67
     1
  8
0
  6
Continuous
 62
     7
370
    25
100
AcDbLine
 10
139.0
 20
779.0
 30
0.0
 11
159.0
 21
779.0
 31
0.0
  0
LINE
  5
137
330
1B
100
AcDbEntity
 67
     1
  8
0
  6
Continuous
 62
     7
370
    25
100
AcDbLine
 10
159.0
 20
-779.0
 30
0.0
 11
139.0
 21
-779.0
 31
0.0
  0
LINE
  5
138
330
1B
100
AcDbEntity
 67
     1
  8
0
  6
Continuous
 62
     7
370
    25
100
AcDbLine
 10
139.0
 20
-779.0
 30
0.0
 11
139.0
 21
-829.0
 31
0.0
  0
LINE
  5
139
330
1B
100
AcDbEntity
 67
     1
  8
0
  6
Continuous
 62
     7
370
    25
100
AcDbLine
 10
-139.0
 20
-829.0
 30
0.0
 11
-139.0
 21
-779.0
 31
0.0
  0
LINE
  5
13A
330
1B
100
AcDbEntity
 67
     1
  8
0
  6
Continuous
 62
     7
370
    25
100
AcDbLine
 10
-139.0
 20
-779.0
 30
0.0
 11
-159.0
 21
-779.0
 31
0.0
  0
LINE
  5
13B
330
1B
100
AcDbEntity
 67
     1
  8
0
  6
Continuous
 62
     7
370
    25
100
AcDbLine
 10
143.3423506056
 20
779.0
 30
0.0
 11
143.3423506056
 21
817.1291388237
 31
0.0
  0
LINE
  5
13C
330
1B
100
AcDbEntity
 67
     1
  8
0
  6
Continuous
 62
     7
370
    25
100
AcDbLine
 10
-143.3423506056
 20
817.1291388237
 30
0.0
 11
-143.3423506056
 21
779.0
 31
0.0
  0
LINE
  5
13D
330
1B
100
AcDbEntity
 67
     1
  8
0
  6
Continuous
 62
     7
370
    25
100
AcDbLine
 10
-139.0
 20
816.8423506055
 30
0.0
 11
-143.6291388237
 21
816.8423506055
 31
0.0
  0
LINE
  5
13E
330
1B
100
AcDbEntity
 67
     1
  8
0
  6
Continuous
 62
     7
370
    25
100
AcDbLine
 10
143.6291388237
 20
816.8423506055
 30
0.0
 11
139.0
 21
816.8423506055
 31
0.0
  0
LINE
  5
13F
330
1B
100
AcDbEntity
 67
     1
  8
0
  6
Continuous
 62
     7
370
    25
100
AcDbLine
 10
143.3423506056
 20
-817.1291388238
 30
0.0
 11
143.3423506056
 21
-779.0
 31
0.0
  0
LINE
  5
140
330
1B
100
AcDbEntity
 67
     1
  8
0
  6
Continuous
 62
     7
370
    25
100
AcDbLine
 10
139.0
 20
-816.8423506056
 30
0.0
 11
143.6291388237
 21
-816.8423506056
 31
0.0
  0
LINE
  5
141
330
1B
100
AcDbEntity
 67
     1
  8
0
  6
Continuous
 62
     7
370
    25
100
AcDbLine
 10
-143.6291388237
 20
-816.8423506056
 30
0.0
 11
-139.0
 21
-816.8423506056
 31
0.0
  0
LINE
  5
142
330
1B
100
AcDbEntity
 67
     1
  8
0
  6
Continuous
 62
     7
370
    25
100
AcDbLine
 10
-143.3423506056
 20
-779.0
 30
0.0
 11
-143.3423506056
 21
-817.1291388238
 31
0.0
  0
LINE
  5
143
330
1B
100
AcDbEntity
 67
     1
  8
0
  6
Continuous
 62
     8
370
    25
100
AcDbLine
 10
-143.3423506056
 20
817.1291388237
 30
0.0
 11
-139.0
 21
817.1291388237
 31
0.0
  0
LINE
  5
144
330
1B
100
AcDbEntity
 67
     1
  8
0
  6
Continuous
 62
     8
370
    25
100
AcDbLine
 10
139.0
 20
817.1291388237
 30
0.0
 11
143.3423506056
 21
817.1291388237
 31
0.0
  0
LINE
  5
145
330
1B
100
AcDbEntity
 67
     1
  8
0
  6
Continuous
 62
     8
370
    25
100
AcDbLine
 10
-143.6291388237
 20
779.0
 30
0.0
 11
-143.6291388237
 21
816.8423506055
 31
0.0
  0
LINE
  5
146
330
1B
100
AcDbEntity
 67
     1
  8
0
  6
Continuous
 62
     8
370
    25
100
AcDbLine
 10
143.6291388237
 20
816.8423506055
 30
0.0
 11
143.6291388237
 21
779.0
 31
0.0
  0
LINE
  5
147
330
1B
100
AcDbEntity
 67
     1
  8
0
  6
Continuous
 62
     8
370
    25
100
AcDbLine
 10
-155.2132117818
 20
829.0
 30
0.0
 11
-143.3423506056
 21
817.1291388237
 31
0.0
  0
LINE
  5
148
330
1B
100
AcDbEntity
 67
     1
  8
0
  6
Continuous
 62
     8
370
    25
100
AcDbLine
 10
-143.6291388237
 20
816.8423506055
 30
0.0
 11
-155.7867882182
 21
829.0
 31
0.0
  0
LINE
  5
149
330
1B
100
AcDbEntity
 67
     1
  8
0
  6
Continuous
 62
     8
370
    25
100
AcDbLine
 10
155.7867882182
 20
829.0
 30
0.0
 11
143.6291388237
 21
816.8423506055
 31
0.0
  0
LINE
  5
14A
330
1B
100
AcDbEntity
 67
     1
  8
0
  6
Continuous
 62
     8
370
    25
100
AcDbLine
 10
143.3423506056
 20
817.1291388237
 30
0.0
 11
155.2132117818
 21
829.0
 31
0.0
  0
LINE
  5
14B
330
1B
100
AcDbEntity
 67
     1
  8
0
  6
Continuous
 62
     8
370
    25
100
AcDbLine
 10
143.6291388237
 20
-779.0
 30
0.0
 11
143.6291388237
 21
-816.8423506056
 31
0.0
  0
LINE
  5
14C
330
1B
100
AcDbEntity
 67
     1
  8
0
  6
Continuous
 62
     8
370
    25
100
AcDbLine
 10
-143.6291388237
 20
-816.8423506056
 30
0.0
 11
-143.6291388237
 21
-779.0
 31
0.0
  0
LINE
  5
14D
330
1B
100
AcDbEntity
 67
     1
  8
0
  6
Continuous
 62
     8
370
    25
100
AcDbLine
 10
143.3423506056
 20
-817.1291388238
 30
0.0
 11
139.0
 21
-817.1291388238
 31
0.0
  0
LINE
  5
14E
330
1B
100
AcDbEntity
 67
     1
  8
0
  6
Continuous
 62
     8
370
    25
100
AcDbLine
 10
-139.0
 20
-817.1291388238
 30
0.0
 11
-143.3423506056
 21
-817.1291388238
 31
0.0
  0
LINE
  5
14F
330
1B
100
AcDbEntity
 67
     1
  8
0
  6
Continuous
 62
     8
370
    25
100
AcDbLine
 10
-155.7867882182
 20
-829.0
 30
0.0
 11
-143.6291388237
 21
-816.8423506056
 31
0.0
  0
LINE
  5
150
330
1B
100
AcDbEntity
 67
     1
  8
0
  6
Continuous
 62
     8
370
    25
100
AcDbLine
 10
-143.3423506056
 20
-817.1291388238
 30
0.0
 11
-155.2132117818
 21
-829.0
 31
0.0
  0
LINE
  5
151
330
1B
100
AcDbEntity
 67
     1
  8
0
  6
Continuous
 62
     8
370
    25
100
AcDbLine
 10
155.2132117818
 20
-829.0
 30
0.0
 11
143.3423506056
 21
-817.1291388238
 31
0.0
  0
LINE
  5
152
330
1B
100
AcDbEntity
 67
     1
  8
0
  6
Continuous
 62
     8
370
    25
100
AcDbLine
 10
143.6291388237
 20
-816.8423506056
 30
0.0
 11
155.7867882182
 21
-829.0
 31
0.0
  0
ARC
  5
153
330
1B
100
AcDbEntity
 67
     1
  8
0
  6
Continuous
 62
     7
370
    25
100
AcDbCircle
 10
-142.734550786
 20
816.2345507859
 30
0.0
 40
1.081530571949352
100
AcDbArc
 50
124.1929200937
 51
145.8070799063
  0
ARC
  5
154
330
1B
100
AcDbEntity
 67
     1
  8
0
  6
Continuous
 62
     7
370
    25
100
AcDbCircle
 10
142.734550786
 20
816.2345507859
 30
0.0
 40
1.081530571948275
100
AcDbArc
 50
34.1929200937
 51
55.8070799063
  0
ARC
  5
155
330
1B
100
AcDbEntity
 67
     1
  8
0
  6
Continuous
 62
     7
370
    25
100
AcDbCircle
 10
142.7345507859
 20
-816.234550786
 30
0.0
 40
1.081530571954106
100
AcDbArc
 50
304.1929200938
 51
325.8070799062
  0
ARC
  5
156
330
1B
100
AcDbEntity
 67
     1
  8
0
  6
Continuous
 62
     7
370
    25
100
AcDbCircle
 10
-142.7345507859
 20
-816.234550786
 30
0.0
 40
1.081530571955006
100
AcDbArc
 50
214.1929200938
 51
235.8070799062
  0
VIEWPORT
  5
416
330
1B
100
AcDbEntity
 67
     1
  8
0
100
AcDbViewport
 10
0.0
 20
0.0
 30
0.0
 40
205.6
 41
156.0
 68
     1
 69
     1
 12
0.0
 22
0.0
 13
0.0
 23
0.0
 14
10.0
 24
10.0
 15
10.0
 25
10.0
 16
0.0
 26
0.0
 36
1.0
 17
0.0
 27
0.0
 37
0.0
 42
50.0
 43
0.0
 44
0.0
 45
1723.8
 50
0.0
 51
0.0
 72
   100
 90
   557152
  1

281
     0
 71
     1
 74
     0
110
0.0
120
0.0
130
0.0
111
1.0
121
0.0
131
0.0
112
0.0
122
1.0
132
0.0
 79
     0
146
0.0
  0
ENDSEC
  0
SECTION
  2
OBJECTS
  0
DICTIONARY
  5
C
330
0
100
AcDbDictionary
281
     1
  3
ACAD_GROUP
350
D
  3
ACAD_LAYOUT
350
1A
  3
ACAD_MLINESTYLE
350
17
  3
ACAD_PLOTSETTINGS
350
19
  3
ACAD_PLOTSTYLENAME
350
E
  3
ACAD_SCALELIST
350
47
  0
DICTIONARY
  5
D
102
{ACAD_REACTORS
330
C
102
}
330
C
100
AcDbDictionary
281
     1
  0
DICTIONARY
  5
1A
102
{ACAD_REACTORS
330
C
102
}
330
C
100
AcDbDictionary
281
     1
  3
_Back
350
1E
  3
_Bottom
350
1CA
  3
_Dimetric
350
368
  3
_Isometric
350
210
  3
_Left
350
26
  3
_Right
350
16C
  3
_Top
350
184
  3
_Trimetric
350
2BB
  3
Model
350
22
  0
DICTIONARY
  5
17
102
{ACAD_REACTORS
330
C
102
}
330
C
100
AcDbDictionary
281
     1
  3
Standard
350
18
  0
DICTIONARY
  5
19
102
{ACAD_REACTORS
330
C
102
}
330
C
100
AcDbDictionary
281
     1
  0
ACDBDICTIONARYWDFLT
  5
E
102
{ACAD_REACTORS
330
C
102
}
330
C
100
AcDbDictionary
281
     1
  3
Normal
350
F
100
AcDbDictionaryWithDefault
340
F
  0
DICTIONARY
  5
47
102
{ACAD_REACTORS
330
C
102
}
330
C
100
AcDbDictionary
281
     1
  3
A0
350
48
  3
A1
350
49
  3
A2
350
4A
  3
A3
350
4B
  3
A4
350
4C
  3
A5
350
4D
  3
A6
350
4E
  3
A7
350
4F
  3
A8
350
50
  3
A9
350
51
  3
B0
350
52
  3
B1
350
53
  3
B2
350
54
  3
B3
350
55
  3
B4
350
56
  3
B5
350
57
  3
B6
350
58
  3
B7
350
59
  3
B8
350
5A
  3
B9
350
5B
  3
C0
350
5C
  3
C1
350
5D
  3
C2
350
5E
  3
C3
350
5F
  3
C4
350
60
  3
C5
350
61
  3
C6
350
62
  3
C7
350
63
  3
C8
350
64
  3
C9
350
65
  3
D0
350
66
  3
D1
350
67
  3
D2
350
68
  0
LAYOUT
  5
1E
102
{ACAD_REACTORS
330
1A
102
}
330
1A
100
AcDbPlotSettings
  1

  2
none_device
  4
ISO_A4_(210.00_x_297.00_MM)
  6

 40
7.5
 41
20.0
 42
7.5
 43
20.0
 44
210.0
 45
297.0
 46
0.0
 47
0.0
 48
0.0
 49
0.0
140
0.0
141
0.0
142
1.0
143
8.6666666667
 70
   688
 72
     1
 73
     1
 74
     1
  7

 75
     0
147
0.1153846154
148
175.0
149
845.0
100
AcDbLayout
  1
_Back
 70
     1
 71
     1
 10
-348.3333333333
 20
-910.0
 11
2225.6666666667
 21
910.0
 12
0.0
 22
0.0
 32
0.0
 14
-175.0
 24
-845.0
 34
0.0
 15
175.0
 25
845.0
 35
0.0
146
0.0
 13
0.0
 23
0.0
 33
0.0
 16
1.0
 26
0.0
 36
0.0
 17
0.0
 27
1.0
 37
0.0
 76
     0
330
1B
331
416
  0
LAYOUT
  5
1CA
102
{ACAD_REACTORS
330
1A
102
}
330
1A
100
AcDbPlotSettings
  1

  2
none_device
  4
ISO_A4_(210.00_x_297.00_MM)
  6

 40
7.5
 41
20.0
 42
7.5
 43
20.0
 44
210.0
 45
297.0
 46
0.0
 47
0.0
 48
0.0
 49
0.0
140
0.0
141
0.0
142
1.0
143
8.6666666667
 70
   688
 72
     1
 73
     1
 74
     1
  7

 75
     0
147
0.1153846154
148
175.0
149
845.0
100
AcDbLayout
  1
_Bottom
 70
     1
 71
     5
 10
0.0
 20
0.0
 11
0.0
 21
0.0
 12
0.0
 22
0.0
 32
0.0
 14
0.0
 24
0.0
 34
0.0
 15
0.0
 25
0.0
 35
0.0
146
0.0
 13
0.0
 23
0.0
 33
0.0
 16
1.0
 26
0.0
 36
0.0
 17
0.0
 27
1.0
 37
0.0
 76
     0
330
1C9
331
41E
  0
LAYOUT
  5
368
102
{ACAD_REACTORS
330
1A
102
}
330
1A
100
AcDbPlotSettings
  1

  2
none_device
  4
ISO_A4_(210.00_x_297.00_MM)
  6

 40
7.5
 41
20.0
 42
7.5
 43
20.0
 44
210.0
 45
297.0
 46
0.0
 47
0.0
 48
0.0
 49
0.0
140
0.0
141
0.0
142
1.0
143
8.6666666667
 70
   688
 72
     1
 73
     1
 74
     1
  7

 75
     0
147
0.1153846154
148
175.0
149
845.0
100
AcDbLayout
  1
_Dimetric
 70
     1
 71
     8
 10
0.0
 20
0.0
 11
0.0
 21
0.0
 12
0.0
 22
0.0
 32
0.0
 14
0.0
 24
0.0
 34
0.0
 15
0.0
 25
0.0
 35
0.0
146
0.0
 13
0.0
 23
0.0
 33
0.0
 16
1.0
 26
0.0
 36
0.0
 17
0.0
 27
1.0
 37
0.0
 76
     0
330
367
331
424
  0
LAYOUT
  5
210
102
{ACAD_REACTORS
330
1A
102
}
330
1A
100
AcDbPlotSettings
  1

  2
none_device
  4
ISO_A4_(210.00_x_297.00_MM)
  6

 40
7.5
 41
20.0
 42
7.5
 43
20.0
 44
210.0
 45
297.0
 46
0.0
 47
0.0
 48
0.0
 49
0.0
140
0.0
141
0.0
142
1.0
143
8.6666666667
 70
   688
 72
     1
 73
     1
 74
     1
  7

 75
     0
147
0.1153846154
148
175.0
149
845.0
100
AcDbLayout
  1
_Isometric
 70
     1
 71
     6
 10
0.0
 20
0.0
 11
0.0
 21
0.0
 12
0.0
 22
0.0
 32
0.0
 14
0.0
 24
0.0
 34
0.0
 15
0.0
 25
0.0
 35
0.0
146
0.0
 13
0.0
 23
0.0
 33
0.0
 16
1.0
 26
0.0
 36
0.0
 17
0.0
 27
1.0
 37
0.0
 76
     0
330
20F
331
420
  0
LAYOUT
  5
26
102
{ACAD_REACTORS
330
1A
102
}
330
1A
100
AcDbPlotSettings
  1

  2
none_device
  4
ISO_A4_(210.00_x_297.00_MM)
  6

 40
7.5
 41
20.0
 42
7.5
 43
20.0
 44
210.0
 45
297.0
 46
0.0
 47
0.0
 48
0.0
 49
0.0
140
0.0
141
0.0
142
1.0
143
8.6666666667
 70
   688
 72
     1
 73
     1
 74
     1
  7

 75
     0
147
0.1153846154
148
175.0
149
845.0
100
AcDbLayout
  1
_Left
 70
     1
 71
     2
 10
0.0
 20
0.0
 11
0.0
 21
0.0
 12
0.0
 22
0.0
 32
0.0
 14
0.0
 24
0.0
 34
0.0
 15
0.0
 25
0.0
 35
0.0
146
0.0
 13
0.0
 23
0.0
 33
0.0
 16
1.0
 26
0.0
 36
0.0
 17
0.0
 27
1.0
 37
0.0
 76
     0
330
23
331
418
  0
LAYOUT
  5
16C
102
{ACAD_REACTORS
330
1A
102
}
330
1A
100
AcDbPlotSettings
  1

  2
none_device
  4
ISO_A4_(210.00_x_297.00_MM)
  6

 40
7.5
 41
20.0
 42
7.5
 43
20.0
 44
210.0
 45
297.0
 46
0.0
 47
0.0
 48
0.0
 49
0.0
140
0.0
141
0.0
142
1.0
143
8.6666666667
 70
   688
 72
     1
 73
     1
 74
     1
  7

 75
     0
147
0.1153846154
148
175.0
149
845.0
100
AcDbLayout
  1
_Right
 70
     1
 71
     3
 10
0.0
 20
0.0
 11
0.0
 21
0.0
 12
0.0
 22
0.0
 32
0.0
 14
0.0
 24
0.0
 34
0.0
 15
0.0
 25
0.0
 35
0.0
146
0.0
 13
0.0
 23
0.0
 33
0.0
 16
1.0
 26
0.0
 36
0.0
 17
0.0
 27
1.0
 37
0.0
 76
     0
330
16B
331
41A
  0
LAYOUT
  5
184
102
{ACAD_REACTORS
330
1A
102
}
330
1A
100
AcDbPlotSettings
  1

  2
none_device
  4
ISO_A4_(210.00_x_297.00_MM)
  6

 40
7.5
 41
20.0
 42
7.5
 43
20.0
 44
210.0
 45
297.0
 46
0.0
 47
0.0
 48
0.0
 49
0.0
140
0.0
141
0.0
142
1.0
143
8.6666666667
 70
   688
 72
     1
 73
     1
 74
     1
  7

 75
     0
147
0.1153846154
148
175.0
149
845.0
100
AcDbLayout
  1
_Top
 70
     1
 71
     4
 10
0.0
 20
0.0
 11
0.0
 21
0.0
 12
0.0
 22
0.0
 32
0.0
 14
0.0
 24
0.0
 34
0.0
 15
0.0
 25
0.0
 35
0.0
146
0.0
 13
0.0
 23
0.0
 33
0.0
 16
1.0
 26
0.0
 36
0.0
 17
0.0
 27
1.0
 37
0.0
 76
     0
330
183
331
41C
  0
LAYOUT
  5
2BB
102
{ACAD_REACTORS
330
1A
102
}
330
1A
100
AcDbPlotSettings
  1

  2
none_device
  4
ISO_A4_(210.00_x_297.00_MM)
  6

 40
7.5
 41
20.0
 42
7.5
 43
20.0
 44
210.0
 45
297.0
 46
0.0
 47
0.0
 48
0.0
 49
0.0
140
0.0
141
0.0
142
1.0
143
8.6666666667
 70
   688
 72
     1
 73
     1
 74
     1
  7

 75
     0
147
0.1153846154
148
175.0
149
845.0
100
AcDbLayout
  1
_Trimetric
 70
     1
 71
     7
 10
0.0
 20
0.0
 11
0.0
 21
0.0
 12
0.0
 22
0.0
 32
0.0
 14
0.0
 24
0.0
 34
0.0
 15
0.0
 25
0.0
 35
0.0
146
0.0
 13
0.0
 23
0.0
 33
0.0
 16
1.0
 26
0.0
 36
0.0
 17
0.0
 27
1.0
 37
0.0
 76
     0
330
2BA
331
422
  0
LAYOUT
  5
22
102
{ACAD_REACTORS
330
1A
102
}
330
1A
100
AcDbPlotSettings
  1

  2
none_device
  4
ANSI_A_(11.00_x_8.50_Inches)
  6

 40
6.35
 41
19.05
 42
6.35000508
 43
19.05000254
 44
279.4
 45
215.9
 46
133.34999746
 47
88.89999873
 48
0.0
 49
0.0
140
0.0
141
0.0
142
0.0049792899
143
1.0
 70
  1696
 72
     0
 73
     0
 74
     0
  7

 75
     0
147
0.0179189148
148
-1300.4909072572
149
0.0
100
AcDbLayout
  1
Model
 70
     1
 71
     0
 10
0.0
 20
0.0
 11
420.0
 21
297.0
 12
0.0
 22
0.0
 32
0.0
 14
-175.0
 24
-845.0
 34
0.0
 15
175.0
 25
845.0
 35
0.0
146
0.0
 13
0.0
 23
0.0
 33
0.0
 16
1.0
 26
0.0
 36
0.0
 17
0.0
 27
1.0
 37
0.0
 76
     0
330
1F
331
29
  0
MLINESTYLE
  5
18
102
{ACAD_REACTORS
330
17
102
}
330
17
100
AcDbMlineStyle
  2
Standard
 70
     0
  3

 62
   256
 51
90.0
 52
90.0
 71
     2
 49
0.5
 62
   256
  6
BYLAYER
 49
-0.5
 62
   256
  6
BYLAYER
  0
ACDBPLACEHOLDER
  5
F
102
{ACAD_REACTORS
330
E
102
}
330
E
  0
SCALE
  5
48
102
{ACAD_REACTORS
330
47
102
}
330
47
100
AcDbScale
 70
     0
300
1:1
140
1.0
141
1.0
290
     1
  0
SCALE
  5
49
102
{ACAD_REACTORS
330
47
102
}
330
47
100
AcDbScale
 70
     0
300
1:2
140
1.0
141
2.0
290
     0
  0
SCALE
  5
4A
102
{ACAD_REACTORS
330
47
102
}
330
47
100
AcDbScale
 70
     0
300
1:4
140
1.0
141
4.0
290
     0
  0
SCALE
  5
4B
102
{ACAD_REACTORS
330
47
102
}
330
47
100
AcDbScale
 70
     0
300
1:5
140
1.0
141
5.0
290
     0
  0
SCALE
  5
4C
102
{ACAD_REACTORS
330
47
102
}
330
47
100
AcDbScale
 70
     0
300
1:8
140
1.0
141
8.0
290
     0
  0
SCALE
  5
4D
102
{ACAD_REACTORS
330
47
102
}
330
47
100
AcDbScale
 70
     0
300
1:10
140
1.0
141
10.0
290
     0
  0
SCALE
  5
4E
102
{ACAD_REACTORS
330
47
102
}
330
47
100
AcDbScale
 70
     0
300
1:16
140
1.0
141
16.0
290
     0
  0
SCALE
  5
4F
102
{ACAD_REACTORS
330
47
102
}
330
47
100
AcDbScale
 70
     0
300
1:20
140
1.0
141
20.0
290
     0
  0
SCALE
  5
50
102
{ACAD_REACTORS
330
47
102
}
330
47
100
AcDbScale
 70
     0
300
1:30
140
1.0
141
30.0
290
     0
  0
SCALE
  5
51
102
{ACAD_REACTORS
330
47
102
}
330
47
100
AcDbScale
 70
     0
300
1:40
140
1.0
141
40.0
290
     0
  0
SCALE
  5
52
102
{ACAD_REACTORS
330
47
102
}
330
47
100
AcDbScale
 70
     0
300
1:50
140
1.0
141
50.0
290
     0
  0
SCALE
  5
53
102
{ACAD_REACTORS
330
47
102
}
330
47
100
AcDbScale
 70
     0
300
1:100
140
1.0
141
100.0
290
     0
  0
SCALE
  5
54
102
{ACAD_REACTORS
330
47
102
}
330
47
100
AcDbScale
 70
     0
300
2:1
140
2.0
141
1.0
290
     0
  0
SCALE
  5
55
102
{ACAD_REACTORS
330
47
102
}
330
47
100
AcDbScale
 70
     0
300
4:1
140
4.0
141
1.0
290
     0
  0
SCALE
  5
56
102
{ACAD_REACTORS
330
47
102
}
330
47
100
AcDbScale
 70
     0
300
8:1
140
8.0
141
1.0
290
     0
  0
SCALE
  5
57
102
{ACAD_REACTORS
330
47
102
}
330
47
100
AcDbScale
 70
     0
300
10:1
140
10.0
141
1.0
290
     0
  0
SCALE
  5
58
102
{ACAD_REACTORS
330
47
102
}
330
47
100
AcDbScale
 70
     0
300
100:1
140
100.0
141
1.0
290
     0
  0
SCALE
  5
59
102
{ACAD_REACTORS
330
47
102
}
330
47
100
AcDbScale
 70
     0
300
1/128" = 1'-0"
140
0.0078125
141
12.0
290
     0
  0
SCALE
  5
5A
102
{ACAD_REACTORS
330
47
102
}
330
47
100
AcDbScale
 70
     0
300
1/64" = 1'-0"
140
0.015625
141
12.0
290
     0
  0
SCALE
  5
5B
102
{ACAD_REACTORS
330
47
102
}
330
47
100
AcDbScale
 70
     0
300
1/32" = 1'-0"
140
0.03125
141
12.0
290
     0
  0
SCALE
  5
5C
102
{ACAD_REACTORS
330
47
102
}
330
47
100
AcDbScale
 70
     0
300
1/16" = 1'-0"
140
0.0625
141
12.0
290
     0
  0
SCALE
  5
5D
102
{ACAD_REACTORS
330
47
102
}
330
47
100
AcDbScale
 70
     0
300
3/32" = 1'-0"
140
0.09375
141
12.0
290
     0
  0
SCALE
  5
5E
102
{ACAD_REACTORS
330
47
102
}
330
47
100
AcDbScale
 70
     0
300
1/8" = 1'-0"
140
0.125
141
12.0
290
     0
  0
SCALE
  5
5F
102
{ACAD_REACTORS
330
47
102
}
330
47
100
AcDbScale
 70
     0
300
3/16" = 1'-0"
140
0.1875
141
12.0
290
     0
  0
SCALE
  5
60
102
{ACAD_REACTORS
330
47
102
}
330
47
100
AcDbScale
 70
     0
300
1/4" = 1'-0"
140
0.25
141
12.0
290
     0
  0
SCALE
  5
61
102
{ACAD_REACTORS
330
47
102
}
330
47
100
AcDbScale
 70
     0
300
3/8" = 1'-0"
140
0.375
141
12.0
290
     0
  0
SCALE
  5
62
102
{ACAD_REACTORS
330
47
102
}
330
47
100
AcDbScale
 70
     0
300
1/2" = 1'-0"
140
0.5
141
12.0
290
     0
  0
SCALE
  5
63
102
{ACAD_REACTORS
330
47
102
}
330
47
100
AcDbScale
 70
     0
300
3/4" = 1'-0"
140
0.75
141
12.0
290
     0
  0
SCALE
  5
64
102
{ACAD_REACTORS
330
47
102
}
330
47
100
AcDbScale
 70
     0
300
1" = 1'-0"
140
1.0
141
12.0
290
     0
  0
SCALE
  5
65
102
{ACAD_REACTORS
330
47
102
}
330
47
100
AcDbScale
 70
     0
300
1-1/2" = 1'-0"
140
1.5
141
12.0
290
     0
  0
SCALE
  5
66
102
{ACAD_REACTORS
330
47
102
}
330
47
100
AcDbScale
 70
     0
300
3" = 1'-0"
140
3.0
141
12.0
290
     0
  0
SCALE
  5
67
102
{ACAD_REACTORS
330
47
102
}
330
47
100
AcDbScale
 70
     0
300
6" = 1'-0"
140
6.0
141
12.0
290
     0
  0
SCALE
  5
68
102
{ACAD_REACTORS
330
47
102
}
330
47
100
AcDbScale
 70
     0
300
1'-0" = 1'-0"
140
12.0
141
12.0
290
     0
  0
ENDSEC
  0
EOF
