  0
SECTION
  2
HEADER
  9
$ACADVER
  1
AC1015
  9
$ACADMAINTVER
 70
     6
  9
$DWGCODEPAGE
  3
ANSI_1252
  9
$INSBASE
 10
0.0
 20
0.0
 30
0.0
  9
$EXTMIN
 10
-17.5
 20
-32.5404770609
 30
0.0
  9
$EXTMAX
 10
75.0
 20
30.0
 30
0.0
  9
$LIMMIN
 10
0.0
 20
0.0
  9
$LIMMAX
 10
420.0
 20
297.0
  9
$ORTHOMODE
 70
     0
  9
$REGENMODE
 70
     1
  9
$FILLMODE
 70
     1
  9
$QTEXTMODE
 70
     0
  9
$MIRRTEXT
 70
     1
  9
$LTSCALE
 40
1.0
  9
$ATTMODE
 70
     1
  9
$TEXTSIZE
 40
3.5
  9
$TRACEWID
 40
1.0
  9
$TEXTSTYLE
  7
Standard
  9
$CLAYER
  8
0
  9
$CELTYPE
  6
ByLayer
  9
$CECOLOR
 62
   256
  9
$CELTSCALE
 40
1.0
  9
$DISPSILH
 70
     0
  9
$DIMSCALE
 40
1.0
  9
$DIMASZ
 40
3.302
  9
$DIMEXO
 40
1.0
  9
$DIMDLI
 40
3.75
  9
$DIMRND
 40
0.0
  9
$DIMDLE
 40
0.0
  9
$DIMEXE
 40
1.0
  9
$DIMTP
 40
0.0
  9
$DIMTM
 40
0.0
  9
$DIMTXT
 40
3.5
  9
$DIMCEN
 40
2.5
  9
$DIMTSZ
 40
0.0
  9
$DIMTOL
 70
     0
  9
$DIMLIM
 70
     0
  9
$DIMTIH
 70
     1
  9
$DIMTOH
 70
     1
  9
$DIMSE1
 70
     0
  9
$DIMSE2
 70
     0
  9
$DIMTAD
 70
     1
  9
$DIMZIN
 70
     1
  9
$DIMBLK
  1

  9
$DIMASO
 70
     1
  9
$DIMSHO
 70
     1
  9
$DIMPOST
  1

  9
$DIMAPOST
  1

  9
$DIMALT
 70
     0
  9
$DIMALTD
 70
     3
  9
$DIMALTF
 40
0.0393700787
  9
$DIMLFAC
 40
1.0
  9
$DIMTOFL
 70
     1
  9
$DIMTVP
 40
0.0
  9
$DIMTIX
 70
     0
  9
$DIMSOXD
 70
     0
  9
$DIMSAH
 70
     0
  9
$DIMBLK1
  1

  9
$DIMBLK2
  1

  9
$DIMSTYLE
  2
ISO-25
  9
$DIMCLRD
 70
     0
  9
$DIMCLRE
 70
     0
  9
$DIMCLRT
 70
     0
  9
$DIMTFAC
 40
1.0
  9
$DIMGAP
 40
1.524
  9
$DIMJUST
 70
     0
  9
$DIMSD1
 70
     0
  9
$DIMSD2
 70
     0
  9
$DIMTOLJ
 70
     0
  9
$DIMTZIN
 70
     1
  9
$DIMALTZ
 70
     0
  9
$DIMALTTZ
 70
     0
  9
$DIMUPT
 70
     0
  9
$DIMDEC
 70
     2
  9
$DIMTDEC
 70
     2
  9
$DIMALTU
 70
     2
  9
$DIMALTTD
 70
     3
  9
$DIMTXSTY
  7
Standard
  9
$DIMAUNIT
 70
     0
  9
$DIMADEC
 70
     2
  9
$DIMALTRND
 40
0.0
  9
$DIMAZIN
 70
     0
  9
$DIMDSEP
 70
    44
  9
$DIMATFIT
 70
     3
  9
$DIMFRAC
 70
     0
  9
$DIMLDRBLK
  1

  9
$DIMLUNIT
 70
     2
  9
$DIMLWD
 70
    -2
  9
$DIMLWE
 70
    -2
  9
$DIMTMOVE
 70
     0
  9
$LUNITS
 70
     2
  9
$LUPREC
 70
     2
  9
$SKETCHINC
 40
1.0
  9
$FILLETRAD
 40
10.0
  9
$AUNITS
 70
     0
  9
$AUPREC
 70
     2
  9
$MENU
  1
.
  9
$ELEVATION
 40
0.0
  9
$PELEVATION
 40
0.0
  9
$THICKNESS
 40
0.0
  9
$LIMCHECK
 70
     0
  9
$CHAMFERA
 40
0.0
  9
$CHAMFERB
 40
0.0
  9
$CHAMFERC
 40
0.0
  9
$CHAMFERD
 40
0.0
  9
$SKPOLY
 70
     0
  9
$TDCREATE
 40
2459326.472688947
  9
$TDUCREATE
 40
2459326.43102228
  9
$TDUPDATE
 40
2459326.472766586
  9
$TDUUPDATE
 40
2459326.431099919
  9
$TDINDWG
 40
0.0000000116
  9
$TDUSRTIMER
 40
0.0000000116
  9
$USRTIMER
 70
     1
  9
$ANGBASE
 50
0.0
  9
$ANGDIR
 70
     0
  9
$PDMODE
 70
     0
  9
$PDSIZE
 40
-1.0
  9
$PLINEWID
 40
0.0
  9
$SPLFRAME
 70
     0
  9
$SPLINETYPE
 70
     6
  9
$SPLINESEGS
 70
     8
  9
$HANDSEED
  5
4D3
  9
$SURFTAB1
 70
     6
  9
$SURFTAB2
 70
     6
  9
$SURFTYPE
 70
     6
  9
$SURFU
 70
     6
  9
$SURFV
 70
     6
  9
$UCSBASE
  2

  9
$UCSNAME
  2

  9
$UCSORG
 10
0.0
 20
0.0
 30
0.0
  9
$UCSXDIR
 10
1.0
 20
0.0
 30
0.0
  9
$UCSYDIR
 10
0.0
 20
1.0
 30
0.0
  9
$UCSORTHOREF
  2

  9
$UCSORTHOVIEW
 70
     0
  9
$UCSORGTOP
 10
0.0
 20
0.0
 30
0.0
  9
$UCSORGBOTTOM
 10
0.0
 20
0.0
 30
0.0
  9
$UCSORGLEFT
 10
0.0
 20
0.0
 30
0.0
  9
$UCSORGRIGHT
 10
0.0
 20
0.0
 30
0.0
  9
$UCSORGFRONT
 10
0.0
 20
0.0
 30
0.0
  9
$UCSORGBACK
 10
0.0
 20
0.0
 30
0.0
  9
$PUCSBASE
  2

  9
$PUCSNAME
  2

  9
$PUCSORG
 10
0.0
 20
0.0
 30
0.0
  9
$PUCSXDIR
 10
1.0
 20
0.0
 30
0.0
  9
$PUCSYDIR
 10
0.0
 20
1.0
 30
0.0
  9
$PUCSORTHOREF
  2

  9
$PUCSORTHOVIEW
 70
     0
  9
$PUCSORGTOP
 10
0.0
 20
0.0
 30
0.0
  9
$PUCSORGBOTTOM
 10
0.0
 20
0.0
 30
0.0
  9
$PUCSORGLEFT
 10
0.0
 20
0.0
 30
0.0
  9
$PUCSORGRIGHT
 10
0.0
 20
0.0
 30
0.0
  9
$PUCSORGFRONT
 10
0.0
 20
0.0
 30
0.0
  9
$PUCSORGBACK
 10
0.0
 20
0.0
 30
0.0
  9
$USERI1
 70
     0
  9
$USERI2
 70
     0
  9
$USERI3
 70
     0
  9
$USERI4
 70
     0
  9
$USERI5
 70
     0
  9
$USERR1
 40
0.0
  9
$USERR2
 40
0.0
  9
$USERR3
 40
0.0
  9
$USERR4
 40
0.0
  9
$USERR5
 40
0.0
  9
$WORLDVIEW
 70
     1
  9
$SHADEDGE
 70
     3
  9
$SHADEDIF
 70
    70
  9
$TILEMODE
 70
     0
  9
$MAXACTVP
 70
    64
  9
$PINSBASE
 10
0.0
 20
0.0
 30
0.0
  9
$PLIMCHECK
 70
     0
  9
$PEXTMIN
 10
-17.5
 20
-32.5404770609
 30
0.0
  9
$PEXTMAX
 10
75.0
 20
30.0
 30
0.0
  9
$PLIMMIN
 10
0.0
 20
0.0
  9
$PLIMMAX
 10
0.0
 20
0.0
  9
$UNITMODE
 70
     0
  9
$VISRETAIN
 70
     1
  9
$PLINEGEN
 70
     0
  9
$PSLTSCALE
 70
     1
  9
$TREEDEPTH
 70
  3020
  9
$CMLSTYLE
  2
Standard
  9
$CMLJUST
 70
     0
  9
$CMLSCALE
 40
20.0
  9
$PROXYGRAPHICS
 70
     1
  9
$MEASUREMENT
 70
     1
  9
$CELWEIGHT
370
    -1
  9
$ENDCAPS
280
     0
  9
$JOINSTYLE
280
     0
  9
$LWDISPLAY
290
     1
  9
$INSUNITS
 70
     4
  9
$HYPERLINKBASE
  1

  9
$STYLESHEET
  1

  9
$XEDIT
290
     1
  9
$CEPSNTYPE
380
     0
  9
$PSTYLEMODE
290
     1
  9
$FINGERPRINTGUID
  2
{f9ca2bce-7deb-4edf-846a-f8662e5abc11}
  9
$VERSIONGUID
  2
{FAEB1C32-E019-11D5-929B-00C0DF256EC4}
  9
$EXTNAMES
290
     1
  9
$PSVPSCALE
 40
0.0
  9
$OLESTARTUP
290
     0
  0
ENDSEC
  0
SECTION
  2
CLASSES
  0
CLASS
  1
ACDBDICTIONARYWDFLT
  2
AcDbDictionaryWithDefault
  3
ObjectDBX Classes
 90
        0
280
     0
281
     0
  0
CLASS
  1
VISUALSTYLE
  2
AcDbVisualStyle
  3
ObjectDBX Classes
 90
     4095
280
     0
281
     0
  0
CLASS
  1
MATERIAL
  2
AcDbMaterial
  3
ObjectDBX Classes
 90
     1153
280
     0
281
     0
  0
CLASS
  1
SCALE
  2
AcDbScale
  3
ObjectDBX Classes
 90
     1153
280
     0
281
     0
  0
CLASS
  1
TABLESTYLE
  2
AcDbTableStyle
  3
ObjectDBX Classes
 90
     4095
280
     0
281
     0
  0
CLASS
  1
MLEADERSTYLE
  2
AcDbMLeaderStyle
  3
ACDB_MLEADERSTYLE_CLASS
 90
     4095
280
     0
281
     0
  0
CLASS
  1
SUN
  2
AcDbSun
  3
SCENEOE
 90
     1153
280
     0
281
     0
  0
CLASS
  1
ACDBPLACEHOLDER
  2
AcDbPlaceHolder
  3
ObjectDBX Classes
 90
        0
280
     0
281
     0
  0
CLASS
  1
LAYOUT
  2
AcDbLayout
  3
ObjectDBX Classes
 90
        0
280
     0
281
     0
  0
ENDSEC
  0
SECTION
  2
TABLES
  0
TABLE
  2
VPORT
  5
8
330
0
100
AcDbSymbolTable
 70
     1
  0
VPORT
  5
29
330
8
100
AcDbSymbolTableRecord
100
AcDbViewportTableRecord
  2
*Active
 70
     0
 10
0.0
 20
0.0
 11
1.0
 21
1.0
 12
28.75
 22
-1.2702385305
 13
0.0
 23
0.0
 14
10.0
 24
10.0
 15
10.0
 25
10.0
 16
0.0
 26
0.0
 36
1.0
 17
0.0
 27
0.0
 37
0.0
 40
63.7912866022
 41
1.4790421235
 42
50.0
 43
0.0
 44
0.0
 50
0.0
 51
0.0
 71
     0
 72
   100
 73
     1
 74
     3
 75
     0
 76
     0
 77
     0
 78
     0
281
     0
 65
     1
110
0.0
120
0.0
130
0.0
111
1.0
121
0.0
131
0.0
112
0.0
122
1.0
132
0.0
 79
     0
146
0.0
  0
ENDTAB
  0
TABLE
  2
LTYPE
  5
5
330
0
100
AcDbSymbolTable
 70
     6
  0
LTYPE
  5
14
330
5
100
AcDbSymbolTableRecord
100
AcDbLinetypeTableRecord
  2
ByBlock
 70
     0
  3

 72
    65
 73
     0
 40
0.0
  0
LTYPE
  5
15
330
5
100
AcDbSymbolTableRecord
100
AcDbLinetypeTableRecord
  2
ByLayer
 70
     0
  3

 72
    65
 73
     0
 40
0.0
  0
LTYPE
  5
16
330
5
100
AcDbSymbolTableRecord
100
AcDbLinetypeTableRecord
  2
Continuous
 70
     0
  3
Solid line
 72
    65
 73
     0
 40
0.0
  0
LTYPE
  5
6E
330
5
100
AcDbSymbolTableRecord
100
AcDbLinetypeTableRecord
  2
HIDDEN
 70
     0
  3
Hidden __ __ __ __ __ __ __ __ __ __ __ __ __ __
 72
    65
 73
     2
 40
1.905
 49
1.27
 74
     0
 49
-0.635
 74
     0
  0
LTYPE
  5
6F
330
5
100
AcDbSymbolTableRecord
100
AcDbLinetypeTableRecord
  2
PHANTOM
 70
     0
  3
Phantom ______  __  __  ______  __  __  ______
 72
    65
 73
     6
 40
12.7
 49
6.35
 74
     0
 49
-1.27
 74
     0
 49
1.27
 74
     0
 49
-1.27
 74
     0
 49
1.27
 74
     0
 49
-1.27
 74
     0
  0
LTYPE
  5
70
330
5
100
AcDbSymbolTableRecord
100
AcDbLinetypeTableRecord
  2
CENTER
 70
     0
  3
Center ____ _ ____ _ ____ _ ____ _ ____ _ ____
 72
    65
 73
     4
 40
10.16
 49
6.35
 74
     0
 49
-1.27
 74
     0
 49
1.27
 74
     0
 49
-1.27
 74
     0
  0
LTYPE
  5
71
330
5
100
AcDbSymbolTableRecord
100
AcDbLinetypeTableRecord
  2
CENTERX2
 70
     0
  3
Center (2x) ________  __  ________  __  _____
 72
    65
 73
     4
 40
20.32
 49
12.7
 74
     0
 49
-2.54
 74
     0
 49
2.54
 74
     0
 49
-2.54
 74
     0
  0
LTYPE
  5
72
330
5
100
AcDbSymbolTableRecord
100
AcDbLinetypeTableRecord
  2
DOT2
 70
     0
  3
Dot (.5x) ........................................
 72
    65
 73
     2
 40
0.635
 49
0.0
 74
     0
 49
-0.635
 74
     0
  0
ENDTAB
  0
TABLE
  2
LAYER
  5
2
330
0
100
AcDbSymbolTable
 70
     1
  0
LAYER
  5
10
330
2
100
AcDbSymbolTableRecord
100
AcDbLayerTableRecord
  2
0
 70
     0
 62
     7
  6
Continuous
370
    -3
390
F
  0
ENDTAB
  0
TABLE
  2
STYLE
  5
3
330
0
100
AcDbSymbolTable
 70
     1
  0
STYLE
  5
11
330
3
100
AcDbSymbolTableRecord
100
AcDbTextStyleTableRecord
  2
Standard
 70
     0
 40
0.0
 41
1.0
 50
0.0
 71
     0
 42
3.5
  3
txt
  4

  0
ENDTAB
  0
TABLE
  2
VIEW
  5
6
330
0
100
AcDbSymbolTable
 70
     0
  0
ENDTAB
  0
TABLE
  2
UCS
  5
7
330
0
100
AcDbSymbolTable
 70
     0
  0
ENDTAB
  0
TABLE
  2
APPID
  5
9
330
0
100
AcDbSymbolTable
 70
     1
  0
APPID
  5
12
330
9
100
AcDbSymbolTableRecord
100
AcDbRegAppTableRecord
  2
ACAD
 70
     0
  0
ENDTAB
  0
TABLE
  2
DIMSTYLE
  5
A
330
0
100
AcDbSymbolTable
 70
     1
100
AcDbDimStyleTable
  0
DIMSTYLE
105
27
330
A
100
AcDbSymbolTableRecord
100
AcDbDimStyleTableRecord
  2
ISO-25
 70
     0
 41
2.5
 42
0.625
 43
3.75
 44
1.25
 73
     0
 74
     0
 77
     1
 78
     8
140
2.5
141
2.5
143
0.0393700787
147
0.625
171
     3
172
     1
178
     0
271
     2
272
     2
274
     3
278
    44
283
     0
284
     8
340
11
  0
ENDTAB
  0
TABLE
  2
BLOCK_RECORD
  5
1
330
0
100
AcDbSymbolTable
 70
     1
  0
BLOCK_RECORD
  5
1F
330
1
100
AcDbSymbolTableRecord
100
AcDbBlockTableRecord
  2
*Model_Space
340
22
  0
BLOCK_RECORD
  5
23
330
1
100
AcDbSymbolTableRecord
100
AcDbBlockTableRecord
  2
*Paper_Space
340
26
  0
BLOCK_RECORD
  5
1B
330
1
100
AcDbSymbolTableRecord
100
AcDbBlockTableRecord
  2
*Paper_Space0
340
1E
  0
ENDTAB
  0
ENDSEC
  0
SECTION
  2
BLOCKS
  0
BLOCK
  5
20
330
1F
100
AcDbEntity
  8
0
100
AcDbBlockBegin
  2
*Model_Space
 70
     0
 10
0.0
 20
0.0
 30
0.0
  3
*Model_Space
  1

  0
ENDBLK
  5
21
330
1F
100
AcDbEntity
  8
0
100
AcDbBlockEnd
  0
BLOCK
  5
24
330
23
100
AcDbEntity
 67
     1
  8
0
100
AcDbBlockBegin
  2
*Paper_Space
 70
     0
 10
0.0
 20
0.0
 30
0.0
  3
*Paper_Space
  1

  0
ENDBLK
  5
25
330
23
100
AcDbEntity
 67
     1
  8
0
100
AcDbBlockEnd
  0
BLOCK
  5
1C
330
1B
100
AcDbEntity
  8
0
100
AcDbBlockBegin
  2
*Paper_Space0
 70
     0
 10
0.0
 20
0.0
 30
0.0
  3
*Paper_Space0
  1

  0
SPLINE
  5
1E8
330
1B
100
AcDbEntity
  8
0
  6
Continuous
 62
     7
370
    25
100
AcDbSpline
210
0.0
220
0.0
230
1.0
 70
     8
 71
     3
 72
    32
 73
    28
 74
     0
 42
0.000000001
 43
0.00000001
 40
0.0
 40
0.0
 40
0.0
 40
0.0
 40
0.0625
 40
0.0625
 40
0.125
 40
0.125
 40
0.2499999999999999
 40
0.2499999999999999
 40
0.3124999999999999
 40
0.3124999999999999
 40
0.3749999999999999
 40
0.3749999999999999
 40
0.4374999999999998
 40
0.4374999999999998
 40
0.4999999999999998
 40
0.4999999999999998
 40
0.6249999999999999
 40
0.6249999999999999
 40
0.6874999999999999
 40
0.6874999999999999
 40
0.7499999999999998
 40
0.7499999999999998
 40
0.8124999999999998
 40
0.8124999999999998
 40
0.8749999999999998
 40
0.8749999999999998
 40
1.0
 40
1.0
 40
1.0
 40
1.0
 10
11.16838358660368
 20
4.610290831633029
 30
0.0
 10
11.32969933167836
 20
4.161793298446233
 30
0.0
 10
11.463404023544
 20
3.706642955080629
 30
0.0
 10
11.67655555429984
 20
2.783268982306221
 30
0.0
 10
11.75618911252384
 20
2.313112716169266
 30
0.0
 10
11.91037281413006
 20
0.8960059732653971
 30
0.0
 10
11.90202610957218
 20
-0.044145156454168
 30
0.0
 10
11.71987656439202
 20
-1.447371054602929
 30
0.0
 10
11.62967251940509
 20
-1.917168185902658
 30
0.0
 10
11.39427005168665
 20
-2.835544887316598
 30
0.0
 10
11.2496756131871
 20
-3.283867560958741
 30
0.0
 10
10.90809856769166
 20
-4.159346486148248
 30
0.0
 10
10.71111426341706
 20
-4.58650205194306
 30
0.0
 10
10.26382402180387
 20
-5.419269613207447
 30
0.0
 10
10.01174675978352
 20
-5.826907158978385
 30
0.0
 10
9.193590848169382
 20
-6.985626526406219
 30
0.0
 10
8.562588123474091
 20
-7.682102685950855
 30
0.0
 10
7.482159712145316
 20
-8.607858788961199
 30
0.0
 10
7.099918220519376
 20
-8.89562579786734
 30
0.0
 10
6.312285220966355
 20
-9.41487137117146
 30
0.0
 10
5.904340728948539
 20
-9.648671234784807
 30
0.0
 10
5.06040615469461
 20
-10.06500967127702
 30
0.0
 10
4.624419604233782
 20
-10.24755469947947
 30
0.0
 10
3.72327857054501
 20
-10.55933206500947
 30
0.0
 10
3.267472628259996
 20
-10.68552744433526
 30
0.0
 10
1.888821092898008
 20
-10.97380346386583
 30
0.0
 10
0.9531253801058202
 20
-11.04856636643931
 30
0.0
 10
-0.0000000000000447
 20
-11.0
 30
0.0
  0
SPLINE
  5
1E9
330
1B
100
AcDbEntity
  8
0
  6
Continuous
 62
     7
370
    25
100
AcDbSpline
210
0.0
220
0.0
230
1.0
 70
     8
 71
     3
 72
    33
 73
    29
 74
     0
 42
0.000000001
 43
0.00000001
 40
0.0
 40
0.0
 40
0.0
 40
0.0
 40
0.0362197800749102
 40
0.0720173004513022
 40
0.1078217858987474
 40
0.1440422378960547
 40
0.1844967800313009
 40
0.2248364271928502
 40
0.2656552910751552
 40
0.3059778807437545
 40
0.3464509485165249
 40
0.3872559271737822
 40
0.4274841117264118
 40
0.4680735936896459
 40
0.5088404364089212
 40
0.5490181744013027
 40
0.5897005788139424
 40
0.6304051700640043
 40
0.670576597474445
 40
0.7113281067866127
 40
0.7519465508978915
 40
0.7921558259230764
 40
0.8329523788509492
 40
0.8734610827711465
 40
0.9137522304327339
 40
0.9545696061625376
 40
0.994946035192888
 40
1.0
 40
1.0
 40
1.0
 40
1.0
 10
11.16838358660369
 20
4.610290831633005
 30
0.0
 10
11.42969467621529
 20
3.858308859040399
 30
0.0
 10
11.94927042219979
 20
2.363111716977163
 30
0.0
 10
12.15426962437637
 20
-0.0130621256253759
 30
0.0
 10
11.92712881871576
 20
-2.37619009647208
 30
0.0
 10
11.20529230663581
 20
-4.750045962805157
 30
0.0
 10
9.958611571287
 20
-7.013891613944542
 30
0.0
 10
8.179896154098499
 20
-9.02643906643988
 30
0.0
 10
6.005019225582629
 20
-10.59843691706453
 30
0.0
 10
3.536083354397149
 20
-11.65598915827664
 30
0.0
 10
0.8959170158832419
 20
-12.14876752921647
 30
0.0
 10
-1.786318959451241
 20
-12.04945949061769
 30
0.0
 10
-4.383483801754419
 20
-11.36452462601246
 30
0.0
 10
-6.767906125614641
 20
-10.12893839309034
 30
0.0
 10
-8.821504532668142
 20
-8.399768361894017
 30
0.0
 10
-10.44779768095633
 20
-6.262065059198525
 30
0.0
 10
-11.56717518566999
 20
-3.821289836372588
 30
0.0
 10
-12.12208355245211
 20
-1.194151958869807
 30
0.0
 10
-12.08919663783431
 20
1.491657334907248
 30
0.0
 10
-11.46986761132312
 20
4.104013395338582
 30
0.0
 10
-10.29072948532793
 20
6.516828313260971
 30
0.0
 10
-8.612704821973145
 20
8.613846909920849
 30
0.0
 10
-6.517069346312772
 20
10.29244778959927
 30
0.0
 10
-4.104218813150893
 20
11.46624898524947
 30
0.0
 10
-1.486335180703793
 20
12.09881485400775
 30
0.0
 10
1.179062138373377
 20
12.08917348834588
 30
0.0
 10
3.089818129831312
 20
11.80634243659086
 30
0.0
 10
3.990972547031013
 20
11.38199576896701
 30
0.0
 10
4.091222673116101
 20
11.33478875747028
 30
0.0
  0
CIRCLE
  5
20C
330
1B
100
AcDbEntity
  8
0
  6
Continuous
 62
     7
370
    25
100
AcDbCircle
 10
0.0
 20
0.0
 30
0.0
 40
7.499999999999998
  0
SPLINE
  5
20E
330
1B
100
AcDbEntity
  8
0
  6
Continuous
 62
     7
370
    25
100
AcDbSpline
210
0.0
220
0.0
230
1.0
 70
     8
 71
     3
 72
    16
 73
    12
 74
     0
 42
0.000000001
 43
0.00000001
 40
0.0
 40
0.0
 40
0.0
 40
0.0
 40
0.2499999999999997
 40
0.2499999999999997
 40
0.4999999999999993
 40
0.4999999999999993
 40
0.6249999999999993
 40
0.6249999999999993
 40
0.7499999999999997
 40
0.7499999999999997
 40
1.0
 40
1.0
 40
1.0
 40
1.0
 10
4.643090338427944
 20
11.1547875640442
 30
0.0
 10
5.3771307528253
 20
10.84924916301809
 30
0.0
 10
6.077405739042523
 20
10.47300492299964
 30
0.0
 10
7.396363672147844
 20
9.587100555613945
 30
0.0
 10
8.004056515292634
 20
9.084996717390878
 30
0.0
 10
8.834169440202137
 20
8.25219073536643
 30
0.0
 10
9.09761636860393
 20
7.96093856373381
 30
0.0
 10
9.597485176651135
 20
7.350608457114014
 30
0.0
 10
9.83477428043466
 20
7.030041471089658
 30
0.0
 10
10.4933519866444
 20
6.041847113629234
 30
0.0
 10
10.86500355600117
 20
5.345225931830223
 30
0.0
 10
11.16838358660368
 20
4.610290831633029
 30
0.0
  0
SPLINE
  5
20F
330
1B
100
AcDbEntity
  8
0
  6
Continuous
 62
     7
370
    25
100
AcDbSpline
210
0.0
220
0.0
230
1.0
 70
     8
 71
     3
 72
    33
 73
    29
 74
     0
 42
0.000000001
 43
0.00000001
 40
0.0
 40
0.0
 40
0.0
 40
0.0
 40
0.0625000000000001
 40
0.0625000000000001
 40
0.1250000000000001
 40
0.1250000000000001
 40
0.2500000000000003
 40
0.2500000000000003
 40
0.3125000000000004
 40
0.3125000000000004
 40
0.3750000000000005
 40
0.3750000000000005
 40
0.4375000000000004
 40
0.4375000000000004
 40
0.5000000000000004
 40
0.5000000000000004
 40
0.5625000000000004
 40
0.5625000000000004
 40
0.6250000000000003
 40
0.6250000000000003
 40
0.7500000000000002
 40
0.7500000000000002
 40
0.8125000000000002
 40
0.8125000000000002
 40
0.8750000000000001
 40
0.9375000000000001
 40
0.9375000000000001
 40
1.0
 40
1.0
 40
1.0
 40
1.0
 10
-11.0
 20
0.0000001952316434
 30
0.0
 10
-11.02309780443656
 20
0.4766273660524317
 30
0.0
 10
-11.01558320570481
 20
0.9511388328373622
 30
0.0
 10
-10.94056431703457
 20
1.896015720404338
 30
0.0
 10
-10.8725917544792
 20
2.368478491023666
 30
0.0
 10
-10.57932777553733
 20
3.76488183333426
 30
0.0
 10
-10.27035897728229
 20
4.653741495605042
 30
0.0
 10
-9.639503508291018
 20
5.924950665866437
 30
0.0
 10
-9.399221940708117
 20
6.340108362647215
 30
0.0
 10
-8.874295234186183
 20
7.127349011719096
 30
0.0
 10
-8.589281923475031
 20
7.502402947769084
 30
0.0
 10
-7.974797187176943
 20
8.21590646556146
 30
0.0
 10
-7.645328623230945
 20
8.554358403420718
 30
0.0
 10
-6.940532545194135
 20
9.193504554503914
 30
0.0
 10
-6.568494730860227
 20
9.490807357861627
 30
0.0
 10
-5.797515201382725
 20
10.03307684740658
 30
0.0
 10
-5.396903000499417
 20
10.27958049837966
 30
0.0
 10
-4.565449170699645
 20
10.72335076799413
 30
0.0
 10
-4.132658788020928
 20
10.92135382795236
 30
0.0
 10
-2.799998119927788
 20
11.43319445372883
 30
0.0
 10
-1.88670135966976
 20
11.66256013719484
 30
0.0
 10
-0.4804007239916894
 20
11.84299725670385
 30
0.0
 10
-0.0023801400444327
 20
11.87538634336581
 30
0.0
 10
0.945051428622648
 20
11.88241473430199
 30
0.0
 10
1.886039063488922
 20
11.83279912447093
 30
0.0
 10
2.814419289609822
 20
11.67236082577253
 30
0.0
 10
3.736363912602706
 20
11.45535175527644
 30
0.0
 10
4.194904730206625
 20
11.31804952853645
 30
0.0
 10
4.643090338427937
 20
11.15478756404419
 30
0.0
  0
CIRCLE
  5
210
330
1B
100
AcDbEntity
  8
0
  6
Continuous
 62
     7
370
    25
100
AcDbCircle
 10
110.0
 20
0.0
 30
0.0
 40
3.750000000000002
  0
CIRCLE
  5
211
330
1B
100
AcDbEntity
  8
0
  6
Continuous
 62
     7
370
    25
100
AcDbCircle
 10
110.0
 20
0.0
 30
0.0
 40
4.000000000000024
  0
CIRCLE
  5
212
330
1B
100
AcDbEntity
  8
0
  6
Continuous
 62
     7
370
    25
100
AcDbCircle
 10
0.0
 20
0.0
 30
0.0
 40
13.0
  0
CIRCLE
  5
213
330
1B
100
AcDbEntity
  8
0
  6
Continuous
 62
     7
370
    25
100
AcDbCircle
 10
0.0
 20
0.0
 30
0.0
 40
13.19999999999999
  0
CIRCLE
  5
22C
330
1B
100
AcDbEntity
  8
0
  6
Continuous
 62
     7
370
    25
100
AcDbCircle
 10
110.0
 20
0.0
 30
0.0
 40
4.100000000000013
  0
CIRCLE
  5
22D
330
1B
100
AcDbEntity
  8
0
  6
Continuous
 62
     7
370
    25
100
AcDbCircle
 10
110.0
 20
0.0
 30
0.0
 40
4.300000000000024
  0
LINE
  5
29A
330
1B
100
AcDbEntity
  8
0
  6
Continuous
 62
     7
370
    25
100
AcDbLine
 10
90.0
 20
12.5
 30
0.0
 11
89.5
 21
12.5
 31
0.0
  0
LINE
  5
29B
330
1B
100
AcDbEntity
  8
0
  6
Continuous
 62
     7
370
    25
100
AcDbLine
 10
89.5
 20
-12.5
 30
0.0
 11
90.0
 21
-12.5
 31
0.0
  0
LINE
  5
29C
330
1B
100
AcDbEntity
  8
0
  6
Continuous
 62
     7
370
    25
100
AcDbLine
 10
-90.0
 20
-12.5
 30
0.0
 11
-89.5
 21
-12.5
 31
0.0
  0
LINE
  5
29D
330
1B
100
AcDbEntity
  8
0
  6
Continuous
 62
     7
370
    25
100
AcDbLine
 10
-89.5
 20
12.5
 30
0.0
 11
-90.0
 21
12.5
 31
0.0
  0
LINE
  5
29E
330
1B
100
AcDbEntity
  8
0
  6
Continuous
 62
     7
370
    25
100
AcDbLine
 10
85.0
 20
30.7
 30
0.0
 11
85.0
 21
40.0
 31
0.0
  0
LINE
  5
29F
330
1B
100
AcDbEntity
  8
0
  6
Continuous
 62
     7
370
    25
100
AcDbLine
 10
65.0
 20
40.0
 30
0.0
 11
65.0
 21
30.7
 31
0.0
  0
LINE
  5
2A0
330
1B
100
AcDbEntity
  8
0
  6
Continuous
 62
     7
370
    25
100
AcDbLine
 10
-65.0
 20
30.7
 30
0.0
 11
-65.0
 21
40.0
 31
0.0
  0
LINE
  5
2A1
330
1B
100
AcDbEntity
  8
0
  6
Continuous
 62
     7
370
    25
100
AcDbLine
 10
-85.0
 20
40.0
 30
0.0
 11
-85.0
 21
30.7
 31
0.0
  0
LINE
  5
2A2
330
1B
100
AcDbEntity
  8
0
  6
Continuous
 62
     7
370
    25
100
AcDbLine
 10
92.289567968
 20
40.2
 30
0.0
 11
92.289567968
 21
54.8
 31
0.0
  0
LINE
  5
2A3
330
1B
100
AcDbEntity
  8
0
  6
Continuous
 62
     7
370
    25
100
AcDbLine
 10
57.710432032
 20
54.8
 30
0.0
 11
57.710432032
 21
40.2
 31
0.0
  0
LINE
  5
2A4
330
1B
100
AcDbEntity
  8
0
  6
Continuous
 62
     7
370
    25
100
AcDbLine
 10
-92.289567968
 20
54.8
 30
0.0
 11
-92.289567968
 21
40.2
 31
0.0
  0
LINE
  5
2A5
330
1B
100
AcDbEntity
  8
0
  6
Continuous
 62
     7
370
    25
100
AcDbLine
 10
-57.710432032
 20
40.2
 30
0.0
 11
-57.710432032
 21
54.8
 31
0.0
  0
LINE
  5
2A6
330
1B
100
AcDbEntity
  8
0
  6
Continuous
 62
     7
370
    25
100
AcDbLine
 10
45.0
 20
75.0
 30
0.0
 11
105.0
 21
75.0
 31
0.0
  0
LINE
  5
2A7
330
1B
100
AcDbEntity
  8
0
  6
Continuous
 62
     7
370
    25
100
AcDbLine
 10
52.5
 20
75.0
 30
0.0
 11
52.5
 21
55.0
 31
0.0
  0
LINE
  5
2A8
330
1B
100
AcDbEntity
  8
0
  6
Continuous
 62
     7
370
    25
100
AcDbLine
 10
45.0
 20
57.0
 30
0.0
 11
105.0
 21
57.0
 31
0.0
  0
LINE
  5
2A9
330
1B
100
AcDbEntity
  8
0
  6
Continuous
 62
     7
370
    25
100
AcDbLine
 10
45.0
 20
57.0
 30
0.0
 11
45.0
 21
75.0
 31
0.0
  0
LINE
  5
2AA
330
1B
100
AcDbEntity
  8
0
  6
Continuous
 62
     7
370
    25
100
AcDbLine
 10
-105.0
 20
57.0
 30
0.0
 11
-45.0
 21
57.0
 31
0.0
  0
LINE
  5
2AB
330
1B
100
AcDbEntity
  8
0
  6
Continuous
 62
     7
370
    25
100
AcDbLine
 10
-52.5
 20
55.0
 30
0.0
 11
-52.5
 21
75.0
 31
0.0
  0
LINE
  5
2AC
330
1B
100
AcDbEntity
  8
0
  6
Continuous
 62
     7
370
    25
100
AcDbLine
 10
-47.0
 20
55.0
 30
0.0
 11
-103.0
 21
55.0
 31
0.0
  0
LINE
  5
2AD
330
1B
100
AcDbEntity
  8
0
  6
Continuous
 62
     7
370
    25
100
AcDbLine
 10
-97.5
 20
75.0
 30
0.0
 11
-97.5
 21
55.0
 31
0.0
  0
LINE
  5
2AE
330
1B
100
AcDbEntity
  8
0
  6
Continuous
 62
     7
370
    25
100
AcDbLine
 10
97.5
 20
55.0
 30
0.0
 11
97.5
 21
75.0
 31
0.0
  0
LINE
  5
2AF
330
1B
100
AcDbEntity
  8
0
  6
Continuous
 62
     7
370
    25
100
AcDbLine
 10
103.0
 20
55.0
 30
0.0
 11
47.0
 21
55.0
 31
0.0
  0
LINE
  5
2B0
330
1B
100
AcDbEntity
  8
0
  6
Continuous
 62
     7
370
    25
100
AcDbLine
 10
-45.0
 20
75.0
 30
0.0
 11
-45.0
 21
57.0
 31
0.0
  0
LINE
  5
2B1
330
1B
100
AcDbEntity
  8
0
  6
Continuous
 62
     7
370
    25
100
AcDbLine
 10
105.0
 20
75.0
 30
0.0
 11
105.0
 21
57.0
 31
0.0
  0
LINE
  5
2B2
330
1B
100
AcDbEntity
  8
0
  6
Continuous
 62
     7
370
    25
100
AcDbLine
 10
-105.0
 20
57.0
 30
0.0
 11
-105.0
 21
75.0
 31
0.0
  0
LINE
  5
2B3
330
1B
100
AcDbEntity
  8
0
  6
Continuous
 62
     7
370
    25
100
AcDbLine
 10
-105.0
 20
75.0
 30
0.0
 11
-45.0
 21
75.0
 31
0.0
  0
LINE
  5
2B4
330
1B
100
AcDbEntity
  8
0
  6
Continuous
 62
     7
370
    25
100
AcDbLine
 10
-130.0
 20
-17.3
 30
0.0
 11
-90.0
 21
-17.3
 31
0.0
  0
LINE
  5
2B5
330
1B
100
AcDbEntity
  8
0
  6
Continuous
 62
     7
370
    25
100
AcDbLine
 10
-90.2
 20
-17.5
 30
0.0
 11
-90.2
 21
17.5
 31
0.0
  0
LINE
  5
2B6
330
1B
100
AcDbEntity
  8
0
  6
Continuous
 62
     7
370
    25
100
AcDbLine
 10
-90.2
 20
-17.5
 30
0.0
 11
-129.8
 21
-17.5
 31
0.0
  0
LINE
  5
2B7
330
1B
100
AcDbEntity
  8
0
  6
Continuous
 62
     7
370
    25
100
AcDbLine
 10
-129.8
 20
17.5
 30
0.0
 11
-129.8
 21
-17.5
 31
0.0
  0
LINE
  5
2B8
330
1B
100
AcDbEntity
  8
0
  6
Continuous
 62
     7
370
    25
100
AcDbLine
 10
89.3
 20
-17.5
 30
0.0
 11
89.3
 21
30.5
 31
0.0
  0
LINE
  5
2B9
330
1B
100
AcDbEntity
  8
0
  6
Continuous
 62
     7
370
    25
100
AcDbLine
 10
89.5
 20
30.3
 30
0.0
 11
-89.5
 21
30.3
 31
0.0
  0
LINE
  5
2BA
330
1B
100
AcDbEntity
  8
0
  6
Continuous
 62
     7
370
    25
100
AcDbLine
 10
89.5
 20
30.3
 30
0.0
 11
89.5
 21
-17.3
 31
0.0
  0
LINE
  5
2BB
330
1B
100
AcDbEntity
  8
0
  6
Continuous
 62
     7
370
    25
100
AcDbLine
 10
-89.5
 20
-17.3
 30
0.0
 11
89.5
 21
-17.3
 31
0.0
  0
LINE
  5
2BC
330
1B
100
AcDbEntity
  8
0
  6
Continuous
 62
     7
370
    25
100
AcDbLine
 10
-89.3
 20
30.5
 30
0.0
 11
-89.3
 21
-17.5
 31
0.0
  0
LINE
  5
2BD
330
1B
100
AcDbEntity
  8
0
  6
Continuous
 62
     7
370
    25
100
AcDbLine
 10
129.8
 20
-17.5
 30
0.0
 11
129.8
 21
17.5
 31
0.0
  0
LINE
  5
2BE
330
1B
100
AcDbEntity
  8
0
  6
Continuous
 62
     7
370
    25
100
AcDbLine
 10
90.0
 20
-17.3
 30
0.0
 11
90.0
 21
17.3
 31
0.0
  0
LINE
  5
2BF
330
1B
100
AcDbEntity
  8
0
  6
Continuous
 62
     7
370
    25
100
AcDbLine
 10
130.0
 20
17.3
 30
0.0
 11
90.0
 21
17.3
 31
0.0
  0
LINE
  5
2C0
330
1B
100
AcDbEntity
  8
0
  6
Continuous
 62
     7
370
    25
100
AcDbLine
 10
90.2
 20
17.5
 30
0.0
 11
90.2
 21
-17.5
 31
0.0
  0
LINE
  5
2C1
330
1B
100
AcDbEntity
  8
0
  6
Continuous
 62
     7
370
    25
100
AcDbLine
 10
90.0
 20
-17.3
 30
0.0
 11
130.0
 21
-17.3
 31
0.0
  0
LINE
  5
2C2
330
1B
100
AcDbEntity
  8
0
  6
Continuous
 62
     7
370
    25
100
AcDbLine
 10
-90.0
 20
17.3
 30
0.0
 11
-130.0
 21
17.3
 31
0.0
  0
LINE
  5
2C3
330
1B
100
AcDbEntity
  8
0
  6
Continuous
 62
     7
370
    25
100
AcDbLine
 10
-130.0
 20
-17.3
 30
0.0
 11
-130.0
 21
17.3
 31
0.0
  0
LINE
  5
2C4
330
1B
100
AcDbEntity
  8
0
  6
Continuous
 62
     7
370
    25
100
AcDbLine
 10
-89.5
 20
-17.3
 30
0.0
 11
-89.5
 21
30.3
 31
0.0
  0
LINE
  5
2C5
330
1B
100
AcDbEntity
  8
0
  6
Continuous
 62
     7
370
    25
100
AcDbLine
 10
129.8
 20
-17.5
 30
0.0
 11
90.2
 21
-17.5
 31
0.0
  0
LINE
  5
2C6
330
1B
100
AcDbEntity
  8
0
  6
Continuous
 62
     7
370
    25
100
AcDbLine
 10
-90.0
 20
17.3
 30
0.0
 11
-90.0
 21
-17.3
 31
0.0
  0
LINE
  5
2C7
330
1B
100
AcDbEntity
  8
0
  6
Continuous
 62
     7
370
    25
100
AcDbLine
 10
-129.8
 20
17.5
 30
0.0
 11
-90.2
 21
17.5
 31
0.0
  0
LINE
  5
2C8
330
1B
100
AcDbEntity
  8
0
  6
Continuous
 62
     7
370
    25
100
AcDbLine
 10
130.0
 20
17.3
 30
0.0
 11
130.0
 21
-17.3
 31
0.0
  0
LINE
  5
2C9
330
1B
100
AcDbEntity
  8
0
  6
Continuous
 62
     7
370
    25
100
AcDbLine
 10
90.2
 20
17.5
 30
0.0
 11
129.8
 21
17.5
 31
0.0
  0
LINE
  5
2CA
330
1B
100
AcDbEntity
  8
0
  6
Continuous
 62
     7
370
    25
100
AcDbLine
 10
-89.3
 20
30.5
 30
0.0
 11
89.3
 21
30.5
 31
0.0
  0
LINE
  5
2CB
330
1B
100
AcDbEntity
  8
0
  6
Continuous
 62
     7
370
    25
100
AcDbLine
 10
89.3
 20
-17.5
 30
0.0
 11
-89.3
 21
-17.5
 31
0.0
  0
LINE
  5
2CC
330
1B
100
AcDbEntity
  8
0
  6
Continuous
 62
     7
370
    25
100
AcDbLine
 10
66.455216016
 20
55.0
 30
0.0
 11
66.455216016
 21
40.0
 31
0.0
  0
LINE
  5
2CD
330
1B
100
AcDbEntity
  8
0
  6
Continuous
 62
     7
370
    25
100
AcDbLine
 10
66.2820109352
 20
40.2
 30
0.0
 11
66.2820109352
 21
54.8
 31
0.0
  0
LINE
  5
2CE
330
1B
100
AcDbEntity
  8
0
  6
Continuous
 62
     7
370
    25
100
AcDbLine
 10
83.544783984
 20
40.0
 30
0.0
 11
83.544783984
 21
55.0
 31
0.0
  0
LINE
  5
2CF
330
1B
100
AcDbEntity
  8
0
  6
Continuous
 62
     7
370
    25
100
AcDbLine
 10
57.710432032
 20
40.2
 30
0.0
 11
92.289567968
 21
40.2
 31
0.0
  0
LINE
  5
2D0
330
1B
100
AcDbEntity
  8
0
  6
Continuous
 62
     7
370
    25
100
AcDbLine
 10
83.7179890648
 20
54.8
 30
0.0
 11
83.7179890648
 21
40.2
 31
0.0
  0
LINE
  5
2D1
330
1B
100
AcDbEntity
  8
0
  6
Continuous
 62
     7
370
    25
100
AcDbLine
 10
92.289567968
 20
54.8
 30
0.0
 11
57.710432032
 21
54.8
 31
0.0
  0
LINE
  5
2D2
330
1B
100
AcDbEntity
  8
0
  6
Continuous
 62
     7
370
    25
100
AcDbLine
 10
92.089567968
 20
40.0
 30
0.0
 11
57.910432032
 21
40.0
 31
0.0
  0
LINE
  5
2D3
330
1B
100
AcDbEntity
  8
0
  6
Continuous
 62
     7
370
    25
100
AcDbLine
 10
57.7372269512
 20
54.8
 30
0.0
 11
57.7372269512
 21
40.2
 31
0.0
  0
LINE
  5
2D4
330
1B
100
AcDbEntity
  8
0
  6
Continuous
 62
     7
370
    25
100
AcDbLine
 10
92.2627730488
 20
40.2
 30
0.0
 11
92.2627730488
 21
54.8
 31
0.0
  0
LINE
  5
2D5
330
1B
100
AcDbEntity
  8
0
  6
Continuous
 62
     7
370
    25
100
AcDbLine
 10
-83.544783984
 20
55.0
 30
0.0
 11
-83.544783984
 21
40.0
 31
0.0
  0
LINE
  5
2D6
330
1B
100
AcDbEntity
  8
0
  6
Continuous
 62
     7
370
    25
100
AcDbLine
 10
-66.455216016
 20
40.0
 30
0.0
 11
-66.455216016
 21
55.0
 31
0.0
  0
LINE
  5
2D7
330
1B
100
AcDbEntity
  8
0
  6
Continuous
 62
     7
370
    25
100
AcDbLine
 10
-57.710432032
 20
54.8
 30
0.0
 11
-92.289567968
 21
54.8
 31
0.0
  0
LINE
  5
2D8
330
1B
100
AcDbEntity
  8
0
  6
Continuous
 62
     7
370
    25
100
AcDbLine
 10
-66.2820109352
 20
54.8
 30
0.0
 11
-66.2820109352
 21
40.2
 31
0.0
  0
LINE
  5
2D9
330
1B
100
AcDbEntity
  8
0
  6
Continuous
 62
     7
370
    25
100
AcDbLine
 10
-92.289567968
 20
40.2
 30
0.0
 11
-57.710432032
 21
40.2
 31
0.0
  0
LINE
  5
2DA
330
1B
100
AcDbEntity
  8
0
  6
Continuous
 62
     7
370
    25
100
AcDbLine
 10
-57.910432032
 20
40.0
 30
0.0
 11
-92.089567968
 21
40.0
 31
0.0
  0
LINE
  5
2DB
330
1B
100
AcDbEntity
  8
0
  6
Continuous
 62
     7
370
    25
100
AcDbLine
 10
-83.7179890648
 20
40.2
 30
0.0
 11
-83.7179890648
 21
54.8
 31
0.0
  0
LINE
  5
2DC
330
1B
100
AcDbEntity
  8
0
  6
Continuous
 62
     7
370
    25
100
AcDbLine
 10
-57.7372269512
 20
40.2
 30
0.0
 11
-57.7372269512
 21
54.8
 31
0.0
  0
LINE
  5
2DD
330
1B
100
AcDbEntity
  8
0
  6
Continuous
 62
     7
370
    25
100
AcDbLine
 10
-92.2627730488
 20
54.8
 30
0.0
 11
-92.2627730488
 21
40.2
 31
0.0
  0
LINE
  5
2DE
330
1B
100
AcDbEntity
  8
0
  6
Continuous
 62
     8
370
    25
100
AcDbLine
 10
-85.0
 20
30.7
 30
0.0
 11
-65.0
 21
30.7
 31
0.0
  0
LINE
  5
2DF
330
1B
100
AcDbEntity
  8
0
  6
Continuous
 62
     8
370
    25
100
AcDbLine
 10
65.0
 20
30.7
 30
0.0
 11
85.0
 21
30.7
 31
0.0
  0
ARC
  5
2E0
330
1B
100
AcDbEntity
  8
0
  6
Continuous
 62
     7
370
    25
100
AcDbCircle
 10
-64.8
 20
30.7
 30
0.0
 40
0.2000000000000099
100
AcDbArc
 50
180.0
 51
270.0
  0
ARC
  5
2E1
330
1B
100
AcDbEntity
  8
0
  6
Continuous
 62
     7
370
    25
100
AcDbCircle
 10
-85.2
 20
30.7
 30
0.0
 40
0.2000000000000064
100
AcDbArc
 50
270.0
 51
0.0
  0
ARC
  5
2E2
330
1B
100
AcDbEntity
  8
0
  6
Continuous
 62
     7
370
    25
100
AcDbCircle
 10
85.2
 20
30.7
 30
0.0
 40
0.2000000000000206
100
AcDbArc
 50
180.0
 51
270.0
  0
ARC
  5
2E3
330
1B
100
AcDbEntity
  8
0
  6
Continuous
 62
     7
370
    25
100
AcDbCircle
 10
64.8
 20
30.7
 30
0.0
 40
0.1999999999999922
100
AcDbArc
 50
270.0
 51
0.0
  0
ARC
  5
2E4
330
1B
100
AcDbEntity
  8
0
  6
Continuous
 62
     7
370
    25
100
AcDbCircle
 10
92.089567968
 20
54.8
 30
0.0
 40
0.1999999999999744
100
AcDbArc
 50
360.0
 51
90.0
  0
ARC
  5
2E5
330
1B
100
AcDbEntity
  8
0
  6
Continuous
 62
     7
370
    25
100
AcDbCircle
 10
57.910432032
 20
40.2
 30
0.0
 40
0.2000000000000099
100
AcDbArc
 50
180.0
 51
270.0
  0
ARC
  5
2E6
330
1B
100
AcDbEntity
  8
0
  6
Continuous
 62
     7
370
    25
100
AcDbCircle
 10
92.089567968
 20
40.2
 30
0.0
 40
0.2000000000000099
100
AcDbArc
 50
270.0
 51
0.0
  0
ARC
  5
2E7
330
1B
100
AcDbEntity
  8
0
  6
Continuous
 62
     7
370
    25
100
AcDbCircle
 10
57.910432032
 20
54.8
 30
0.0
 40
0.1999999999999957
100
AcDbArc
 50
90.0
 51
180.0
  0
ARC
  5
2E8
330
1B
100
AcDbEntity
  8
0
  6
Continuous
 62
     7
370
    25
100
AcDbCircle
 10
-92.089567968
 20
54.8
 30
0.0
 40
0.2000000000000028
100
AcDbArc
 50
90.0
 51
180.0
  0
ARC
  5
2E9
330
1B
100
AcDbEntity
  8
0
  6
Continuous
 62
     7
370
    25
100
AcDbCircle
 10
-92.089567968
 20
40.2
 30
0.0
 40
0.1999999999999957
100
AcDbArc
 50
180.0
 51
270.0
  0
ARC
  5
2EA
330
1B
100
AcDbEntity
  8
0
  6
Continuous
 62
     7
370
    25
100
AcDbCircle
 10
-57.910432032
 20
54.8
 30
0.0
 40
0.2000000000000171
100
AcDbArc
 50
0.0
 51
90.0
  0
ARC
  5
2EB
330
1B
100
AcDbEntity
  8
0
  6
Continuous
 62
     7
370
    25
100
AcDbCircle
 10
-57.910432032
 20
40.2
 30
0.0
 40
0.2000000000000099
100
AcDbArc
 50
270.0
 51
0.0
  0
ARC
  5
2EC
330
1B
100
AcDbEntity
  8
0
  6
Continuous
 62
     7
370
    25
100
AcDbCircle
 10
-103.0
 20
57.0
 30
0.0
 40
2.000000000000043
100
AcDbArc
 50
180.0
 51
270.0
  0
ARC
  5
2ED
330
1B
100
AcDbEntity
  8
0
  6
Continuous
 62
     7
370
    25
100
AcDbCircle
 10
103.0
 20
57.0
 30
0.0
 40
2.000000000000021
100
AcDbArc
 50
270.0
 51
0.0
  0
ARC
  5
2EE
330
1B
100
AcDbEntity
  8
0
  6
Continuous
 62
     7
370
    25
100
AcDbCircle
 10
-47.0
 20
57.0
 30
0.0
 40
2.0
100
AcDbArc
 50
270.0
 51
0.0
  0
ARC
  5
2EF
330
1B
100
AcDbEntity
  8
0
  6
Continuous
 62
     7
370
    25
100
AcDbCircle
 10
47.0
 20
57.0
 30
0.0
 40
2.0
100
AcDbArc
 50
180.0
 51
270.0
  0
ARC
  5
2F0
330
1B
100
AcDbEntity
  8
0
  6
Continuous
 62
     7
370
    25
100
AcDbCircle
 10
0.0
 20
0.0
 30
0.0
 40
11.00000000000003
100
AcDbArc
 50
179.9999989831
 51
270.0
  0
ARC
  5
2F1
330
1B
100
AcDbEntity
  8
0
  6
Continuous
 62
     7
370
    25
100
AcDbCircle
 10
129.8
 20
-17.3
 30
0.0
 40
0.2000000000000171
100
AcDbArc
 50
270.0
 51
0.0
  0
ARC
  5
2F2
330
1B
100
AcDbEntity
  8
0
  6
Continuous
 62
     7
370
    25
100
AcDbCircle
 10
-90.2
 20
17.3
 30
0.0
 40
0.1999999999999886
100
AcDbArc
 50
360.0
 51
90.0
  0
ARC
  5
2F3
330
1B
100
AcDbEntity
  8
0
  6
Continuous
 62
     7
370
    25
100
AcDbCircle
 10
-90.2
 20
-17.3
 30
0.0
 40
0.1999999999999886
100
AcDbArc
 50
270.0
 51
0.0
  0
ARC
  5
2F4
330
1B
100
AcDbEntity
  8
0
  6
Continuous
 62
     7
370
    25
100
AcDbCircle
 10
-129.8
 20
17.3
 30
0.0
 40
0.1999999999999424
100
AcDbArc
 50
90.0
 51
180.0
  0
ARC
  5
2F5
330
1B
100
AcDbEntity
  8
0
  6
Continuous
 62
     7
370
    25
100
AcDbCircle
 10
-89.3
 20
30.3
 30
0.0
 40
0.2000000000000064
100
AcDbArc
 50
90.0
 51
180.0
  0
ARC
  5
2F6
330
1B
100
AcDbEntity
  8
0
  6
Continuous
 62
     7
370
    25
100
AcDbCircle
 10
-89.3
 20
-17.3
 30
0.0
 40
0.1999999999999886
100
AcDbArc
 50
180.0
 51
270.0
  0
ARC
  5
2F7
330
1B
100
AcDbEntity
  8
0
  6
Continuous
 62
     7
370
    25
100
AcDbCircle
 10
90.2
 20
17.3
 30
0.0
 40
0.1999999999999744
100
AcDbArc
 50
90.0
 51
180.0
  0
ARC
  5
2F8
330
1B
100
AcDbEntity
  8
0
  6
Continuous
 62
     7
370
    25
100
AcDbCircle
 10
129.8
 20
17.3
 30
0.0
 40
0.1999999999999815
100
AcDbArc
 50
360.0
 51
90.0
  0
ARC
  5
2F9
330
1B
100
AcDbEntity
  8
0
  6
Continuous
 62
     7
370
    25
100
AcDbCircle
 10
89.3
 20
30.3
 30
0.0
 40
0.2000000000000064
100
AcDbArc
 50
0.0
 51
90.0
  0
ARC
  5
2FA
330
1B
100
AcDbEntity
  8
0
  6
Continuous
 62
     7
370
    25
100
AcDbCircle
 10
-129.8
 20
-17.3
 30
0.0
 40
0.1999999999999993
100
AcDbArc
 50
180.0
 51
270.0
  0
ARC
  5
2FB
330
1B
100
AcDbEntity
  8
0
  6
Continuous
 62
     7
370
    25
100
AcDbCircle
 10
90.2
 20
-17.3
 30
0.0
 40
0.1999999999999744
100
AcDbArc
 50
180.0
 51
270.0
  0
ARC
  5
2FC
330
1B
100
AcDbEntity
  8
0
  6
Continuous
 62
     7
370
    25
100
AcDbCircle
 10
89.3
 20
-17.3
 30
0.0
 40
0.2000000000000028
100
AcDbArc
 50
270.0
 51
360.0
  0
ARC
  5
2FD
330
1B
100
AcDbEntity
  8
0
  6
Continuous
 62
     7
370
    25
100
AcDbCircle
 10
66.4696497727
 20
54.8125
 30
0.0
 40
0.1880547349399218
100
AcDbArc
 50
94.4019496523
 51
183.8112610495
  0
ARC
  5
2FE
330
1B
100
AcDbEntity
  8
0
  6
Continuous
 62
     7
370
    25
100
AcDbCircle
 10
83.5303502273
 20
40.1875
 30
0.0
 40
0.1880547349399624
100
AcDbArc
 50
274.4019496523
 51
3.8112610495
  0
ARC
  5
2FF
330
1B
100
AcDbEntity
  8
0
  6
Continuous
 62
     7
370
    25
100
AcDbCircle
 10
66.4696497727
 20
40.1875
 30
0.0
 40
0.1880547349399501
100
AcDbArc
 50
176.1887389505
 51
265.5980503477
  0
ARC
  5
300
330
1B
100
AcDbEntity
  8
0
  6
Continuous
 62
     7
370
    25
100
AcDbCircle
 10
83.5303502273
 20
54.8125
 30
0.0
 40
0.1880547349399533
100
AcDbArc
 50
356.1887389505
 51
85.5980503477
  0
ARC
  5
301
330
1B
100
AcDbEntity
  8
0
  6
Continuous
 62
     7
370
    25
100
AcDbCircle
 10
57.9248657887
 20
54.8125
 30
0.0
 40
0.1880547349399614
100
AcDbArc
 50
94.4019496523
 51
183.8112610495
  0
ARC
  5
302
330
1B
100
AcDbEntity
  8
0
  6
Continuous
 62
     7
370
    25
100
AcDbCircle
 10
57.9248657887
 20
40.1875
 30
0.0
 40
0.1880547349399832
100
AcDbArc
 50
176.1887389505
 51
265.5980503477
  0
ARC
  5
303
330
1B
100
AcDbEntity
  8
0
  6
Continuous
 62
     7
370
    25
100
AcDbCircle
 10
92.0751342113
 20
40.1875
 30
0.0
 40
0.1880547349399624
100
AcDbArc
 50
274.4019496523
 51
3.8112610495
  0
ARC
  5
304
330
1B
100
AcDbEntity
  8
0
  6
Continuous
 62
     7
370
    25
100
AcDbCircle
 10
92.0751342113
 20
54.8125
 30
0.0
 40
0.1880547349399381
100
AcDbArc
 50
356.1887389505
 51
85.5980503477
  0
ARC
  5
305
330
1B
100
AcDbEntity
  8
0
  6
Continuous
 62
     7
370
    25
100
AcDbCircle
 10
-83.5303502273
 20
40.1875
 30
0.0
 40
0.1880547349399675
100
AcDbArc
 50
176.1887389505
 51
265.5980503477
  0
ARC
  5
306
330
1B
100
AcDbEntity
  8
0
  6
Continuous
 62
     7
370
    25
100
AcDbCircle
 10
-66.4696497727
 20
40.1875
 30
0.0
 40
0.1880547349399496
100
AcDbArc
 50
274.4019496523
 51
3.8112610495
  0
ARC
  5
307
330
1B
100
AcDbEntity
  8
0
  6
Continuous
 62
     7
370
    25
100
AcDbCircle
 10
-83.5303502273
 20
54.8125
 30
0.0
 40
0.1880547349399615
100
AcDbArc
 50
94.4019496523
 51
183.8112610495
  0
ARC
  5
308
330
1B
100
AcDbEntity
  8
0
  6
Continuous
 62
     7
370
    25
100
AcDbCircle
 10
-66.4696497727
 20
54.8125
 30
0.0
 40
0.1880547349399478
100
AcDbArc
 50
356.1887389505
 51
85.5980503477
  0
ARC
  5
309
330
1B
100
AcDbEntity
  8
0
  6
Continuous
 62
     7
370
    25
100
AcDbCircle
 10
-92.0751342113
 20
54.8125
 30
0.0
 40
0.1880547349399381
100
AcDbArc
 50
94.4019496523
 51
183.8112610495
  0
ARC
  5
30A
330
1B
100
AcDbEntity
  8
0
  6
Continuous
 62
     7
370
    25
100
AcDbCircle
 10
-57.9248657887
 20
40.1875
 30
0.0
 40
0.1880547349399766
100
AcDbArc
 50
274.4019496523
 51
3.8112610495
  0
ARC
  5
30B
330
1B
100
AcDbEntity
  8
0
  6
Continuous
 62
     7
370
    25
100
AcDbCircle
 10
-57.9248657887
 20
54.8125
 30
0.0
 40
0.1880547349399685
100
AcDbArc
 50
356.1887389505
 51
85.5980503477
  0
ARC
  5
30C
330
1B
100
AcDbEntity
  8
0
  6
Continuous
 62
     7
370
    25
100
AcDbCircle
 10
-92.0751342113
 20
40.1875
 30
0.0
 40
0.1880547349399511
100
AcDbArc
 50
176.1887389505
 51
265.5980503477
  0
VIEWPORT
  5
4CF
330
1B
100
AcDbEntity
  8
0
100
AcDbViewport
 10
0.0
 20
0.0
 30
0.0
 40
205.6
 41
156.0
 68
     1
 69
     1
 12
28.75
 22
-1.2702385305
 13
0.0
 23
0.0
 14
10.0
 24
10.0
 15
10.0
 25
10.0
 16
0.0
 26
0.0
 36
1.0
 17
0.0
 27
0.0
 37
0.0
 42
50.0
 43
0.0
 44
0.0
 45
71.5885214008
 50
0.0
 51
0.0
 72
   100
 90
   557152
  1

281
     0
 71
     1
 74
     0
110
0.0
120
0.0
130
0.0
111
1.0
121
0.0
131
0.0
112
0.0
122
1.0
132
0.0
 79
     0
146
0.0
  0
ENDBLK
  5
1D
330
1B
100
AcDbEntity
  8
0
100
AcDbBlockEnd
  0
ENDSEC
  0
SECTION
  2
ENTITIES
  0
SPLINE
  5
80
330
1F
100
AcDbEntity
  8
0
  6
Continuous
 62
     7
370
    25
100
AcDbSpline
210
0.0
220
0.0
230
1.0
 70
     8
 71
     3
 72
     9
 73
     5
 74
     0
 42
0.000000001
 43
0.00000001
 40
0.0
 40
0.0
 40
0.0
 40
0.0
 40
0.5059965210238939
 40
1.0
 40
1.0
 40
1.0
 40
1.0
 10
12.0709822664754
 20
25.88914592067705
 30
0.0
 10
11.89034215193829
 20
25.99355394692718
 30
0.0
 10
11.53334342362374
 20
26.19989533844277
 30
0.0
 10
11.1763540115313
 20
26.40626187486198
 30
0.0
 10
11.0
 20
26.50820766179733
 30
0.0
  0
SPLINE
  5
81
330
1F
100
AcDbEntity
  8
0
  6
Continuous
 62
     7
370
    25
100
AcDbSpline
210
0.0
220
0.0
230
1.0
 70
     8
 71
     3
 72
     9
 73
     5
 74
     0
 42
0.000000001
 43
0.00000001
 40
0.0
 40
0.0
 40
0.0
 40
0.0
 40
0.5059965210238946
 40
1.0
 40
1.0
 40
1.0
 40
1.0
 10
12.0709822664754
 20
23.88914592067705
 30
0.0
 10
11.89034215193829
 20
23.99355394692718
 30
0.0
 10
11.53334342362374
 20
24.19989533844277
 30
0.0
 10
11.1763540115313
 20
24.40626187486198
 30
0.0
 10
11.0
 20
24.50820766179733
 30
0.0
  0
SPLINE
  5
82
330
1F
100
AcDbEntity
  8
0
  6
Continuous
 62
     7
370
    25
100
AcDbSpline
210
0.0
220
0.0
230
1.0
 70
     8
 71
     3
 72
     9
 73
     5
 74
     0
 42
0.000000001
 43
0.00000001
 40
0.0
 40
0.0
 40
0.0
 40
0.0
 40
0.5059965210238918
 40
1.0
 40
1.0
 40
1.0
 40
1.0
 10
12.0709822664754
 20
21.88914592067706
 30
0.0
 10
11.89034215193829
 20
21.99355394692718
 30
0.0
 10
11.53334342362374
 20
22.19989533844277
 30
0.0
 10
11.1763540115313
 20
22.40626187486198
 30
0.0
 10
11.0
 20
22.50820766179733
 30
0.0
  0
SPLINE
  5
83
330
1F
100
AcDbEntity
  8
0
  6
Continuous
 62
     7
370
    25
100
AcDbSpline
210
0.0
220
0.0
230
1.0
 70
     8
 71
     3
 72
     9
 73
     5
 74
     0
 42
0.000000001
 43
0.00000001
 40
0.0
 40
0.0
 40
0.0
 40
0.0
 40
0.4999796002063336
 40
1.0
 40
1.0
 40
1.0
 40
1.0
 10
-10.98719999520031
 20
27.51560684008411
 30
0.0
 10
-11.16782064727354
 20
27.41119458555647
 30
0.0
 10
-11.52907669051748
 20
27.20236155619975
 30
0.0
 10
-11.89034216132872
 20
26.99355397227237
 30
0.0
 10
-12.0709822664754
 20
26.88914592067705
 30
0.0
  0
SPLINE
  5
84
330
1F
100
AcDbEntity
  8
0
  6
Continuous
 62
     7
370
    25
100
AcDbSpline
210
0.0
220
0.0
230
1.0
 70
     8
 71
     3
 72
     9
 73
     5
 74
     0
 42
0.000000001
 43
0.00000001
 40
0.0
 40
0.0
 40
0.0
 40
0.0
 40
0.4999796002063315
 40
1.0
 40
1.0
 40
1.0
 40
1.0
 10
-10.98719999520031
 20
25.51560684008411
 30
0.0
 10
-11.16782064727354
 20
25.41119458555646
 30
0.0
 10
-11.52907669051748
 20
25.20236155619974
 30
0.0
 10
-11.89034216132871
 20
24.99355397227236
 30
0.0
 10
-12.0709822664754
 20
24.88914592067705
 30
0.0
  0
SPLINE
  5
85
330
1F
100
AcDbEntity
  8
0
  6
Continuous
 62
     7
370
    25
100
AcDbSpline
210
0.0
220
0.0
230
1.0
 70
     8
 71
     3
 72
     9
 73
     5
 74
     0
 42
0.000000001
 43
0.00000001
 40
0.0
 40
0.0
 40
0.0
 40
0.0
 40
0.4999796002063335
 40
1.0
 40
1.0
 40
1.0
 40
1.0
 10
-10.98719999520032
 20
23.51560684008412
 30
0.0
 10
-11.16782064727354
 20
23.41119458555647
 30
0.0
 10
-11.52907669051748
 20
23.20236155619975
 30
0.0
 10
-11.89034216132872
 20
22.99355397227236
 30
0.0
 10
-12.0709822664754
 20
22.88914592067705
 30
0.0
  0
SPLINE
  5
86
330
1F
100
AcDbEntity
  8
0
  6
Continuous
 62
     7
370
    25
100
AcDbSpline
210
0.0
220
0.0
230
1.0
 70
     8
 71
     3
 72
     9
 73
     5
 74
     0
 42
0.000000001
 43
0.00000001
 40
0.0
 40
0.0
 40
0.0
 40
0.0
 40
0.4999796002063329
 40
1.0
 40
1.0
 40
1.0
 40
1.0
 10
-10.98719999520032
 20
29.51560684008412
 30
0.0
 10
-11.16782064727354
 20
29.41119458555647
 30
0.0
 10
-11.52907669051748
 20
29.20236155619975
 30
0.0
 10
-11.89034216132872
 20
28.99355397227237
 30
0.0
 10
-12.0709822664754
 20
28.88914592067705
 30
0.0
  0
SPLINE
  5
87
330
1F
100
AcDbEntity
  8
0
  6
Continuous
 62
     7
370
    25
100
AcDbSpline
210
0.0
220
0.0
230
1.0
 70
     8
 71
     3
 72
     9
 73
     5
 74
     0
 42
0.000000001
 43
0.00000001
 40
0.0
 40
0.0
 40
0.0
 40
0.0
 40
0.5059965210238946
 40
1.0
 40
1.0
 40
1.0
 40
1.0
 10
12.0709822664754
 20
27.88914592067705
 30
0.0
 10
11.89034215193829
 20
27.99355394692717
 30
0.0
 10
11.53334342362374
 20
28.19989533844276
 30
0.0
 10
11.1763540115313
 20
28.40626187486198
 30
0.0
 10
11.0
 20
28.50820766179733
 30
0.0
  0
SPLINE
  5
88
330
1F
100
AcDbEntity
  8
0
  6
Continuous
 62
     7
370
    25
100
AcDbSpline
210
0.0
220
0.0
230
1.0
 70
     8
 71
     3
 72
     9
 73
     5
 74
     0
 42
0.000000001
 43
0.00000001
 40
0.0
 40
0.0
 40
0.0
 40
0.0
 40
0.4999782522860208
 40
1.0
 40
1.0
 40
1.0
 40
1.0
 10
10.98490375829444
 20
26.9830518805781
 30
0.0
 10
11.16553631531658
 20
27.08747212718917
 30
0.0
 10
11.52681714342509
 20
27.29632170441307
 30
0.0
 10
11.88811455278997
 20
27.50514416358785
 30
0.0
 10
12.06877111486513
 20
27.60955993458634
 30
0.0
  0
SPLINE
  5
89
330
1F
100
AcDbEntity
  8
0
  6
Continuous
 62
     7
370
    25
100
AcDbSpline
210
0.0
220
0.0
230
1.0
 70
     8
 71
     3
 72
     9
 73
     5
 74
     0
 42
0.000000001
 43
0.00000001
 40
0.0
 40
0.0
 40
0.0
 40
0.0
 40
0.4999782522860201
 40
1.0
 40
1.0
 40
1.0
 40
1.0
 10
10.98490375829444
 20
24.9830518805781
 30
0.0
 10
11.16553631531658
 20
25.08747212718918
 30
0.0
 10
11.52681714342509
 20
25.29632170441309
 30
0.0
 10
11.88811455278997
 20
25.50514416358784
 30
0.0
 10
12.06877111486513
 20
25.60955993458634
 30
0.0
  0
SPLINE
  5
8A
330
1F
100
AcDbEntity
  8
0
  6
Continuous
 62
     7
370
    25
100
AcDbSpline
210
0.0
220
0.0
230
1.0
 70
     8
 71
     3
 72
     9
 73
     5
 74
     0
 42
0.000000001
 43
0.00000001
 40
0.0
 40
0.0
 40
0.0
 40
0.0
 40
0.499978252286013
 40
0.9999999999999999
 40
0.9999999999999999
 40
0.9999999999999999
 40
0.9999999999999999
 10
10.98490375829444
 20
22.9830518805781
 30
0.0
 10
11.16553631531658
 20
23.08747212718917
 30
0.0
 10
11.52681714342509
 20
23.29632170441306
 30
0.0
 10
11.88811455278997
 20
23.50514416358784
 30
0.0
 10
12.06877111486513
 20
23.60955993458634
 30
0.0
  0
SPLINE
  5
8B
330
1F
100
AcDbEntity
  8
0
  6
Continuous
 62
     7
370
    25
100
AcDbSpline
210
0.0
220
0.0
230
1.0
 70
     8
 71
     3
 72
     9
 73
     5
 74
     0
 42
0.000000001
 43
0.00000001
 40
0.0
 40
0.0
 40
0.0
 40
0.0
 40
0.4999782522860137
 40
1.0
 40
1.0
 40
1.0
 40
1.0
 10
10.98490375829444
 20
20.9830518805781
 30
0.0
 10
11.16553631531658
 20
21.08747212718918
 30
0.0
 10
11.52681714342509
 20
21.29632170441307
 30
0.0
 10
11.88811455278997
 20
21.50514416358784
 30
0.0
 10
12.06877111486513
 20
21.60955993458634
 30
0.0
  0
SPLINE
  5
8C
330
1F
100
AcDbEntity
  8
0
  6
Continuous
 62
     7
370
    25
100
AcDbSpline
210
0.0
220
0.0
230
1.0
 70
     8
 71
     3
 72
     9
 73
     5
 74
     0
 42
0.000000001
 43
0.00000001
 40
0.0
 40
0.0
 40
0.0
 40
0.0
 40
0.5070845941667895
 40
1.0
 40
1.0
 40
1.0
 40
1.0
 10
-12.06877111486513
 20
26.60955993458634
 30
0.0
 10
-11.88811453327065
 20
26.505144195511
 30
0.0
 10
-11.53184935844053
 20
26.29923034942599
 30
0.0
 10
-11.17560053391742
 20
26.09328976300124
 30
0.0
 10
-11.0
 20
25.99177847526616
 30
0.0
  0
SPLINE
  5
8D
330
1F
100
AcDbEntity
  8
0
  6
Continuous
 62
     7
370
    25
100
AcDbSpline
210
0.0
220
0.0
230
1.0
 70
     8
 71
     3
 72
     9
 73
     5
 74
     0
 42
0.000000001
 43
0.00000001
 40
0.0
 40
0.0
 40
0.0
 40
0.0
 40
0.5070845941667881
 40
1.0
 40
1.0
 40
1.0
 40
1.0
 10
-12.06877111486513
 20
24.60955993458634
 30
0.0
 10
-11.88811453327064
 20
24.505144195511
 30
0.0
 10
-11.53184935844053
 20
24.29923034942599
 30
0.0
 10
-11.17560053391741
 20
24.09328976300124
 30
0.0
 10
-11.0
 20
23.99177847526616
 30
0.0
  0
SPLINE
  5
8E
330
1F
100
AcDbEntity
  8
0
  6
Continuous
 62
     7
370
    25
100
AcDbSpline
210
0.0
220
0.0
230
1.0
 70
     8
 71
     3
 72
     9
 73
     5
 74
     0
 42
0.000000001
 43
0.00000001
 40
0.0
 40
0.0
 40
0.0
 40
0.0
 40
0.507084594166796
 40
1.0
 40
1.0
 40
1.0
 40
1.0
 10
-12.06877111486513
 20
22.60955993458634
 30
0.0
 10
-11.88811453327064
 20
22.505144195511
 30
0.0
 10
-11.53184935844053
 20
22.29923034942598
 30
0.0
 10
-11.17560053391741
 20
22.09328976300124
 30
0.0
 10
-11.0
 20
21.99177847526616
 30
0.0
  0
SPLINE
  5
8F
330
1F
100
AcDbEntity
  8
0
  6
Continuous
 62
     7
370
    25
100
AcDbSpline
210
0.0
220
0.0
230
1.0
 70
     8
 71
     3
 72
     9
 73
     5
 74
     0
 42
0.000000001
 43
0.00000001
 40
0.0
 40
0.0
 40
0.0
 40
0.0
 40
0.5070845941667895
 40
1.0
 40
1.0
 40
1.0
 40
1.0
 10
-12.06877111486513
 20
28.60955993458634
 30
0.0
 10
-11.88811453327065
 20
28.505144195511
 30
0.0
 10
-11.53184935844053
 20
28.29923034942598
 30
0.0
 10
-11.17560053391742
 20
28.09328976300124
 30
0.0
 10
-11.0
 20
27.99177847526616
 30
0.0
  0
SPLINE
  5
90
330
1F
100
AcDbEntity
  8
0
  6
Continuous
 62
     7
370
    25
100
AcDbSpline
210
0.0
220
0.0
230
1.0
 70
     8
 71
     3
 72
     9
 73
     5
 74
     0
 42
0.000000001
 43
0.00000001
 40
0.0
 40
0.0
 40
0.0
 40
0.0
 40
0.625143875994255
 40
1.0
 40
1.0
 40
1.0
 40
1.0
 10
10.98490375829444
 20
28.9830518805781
 30
0.0
 10
11.16553596943108
 20
29.0874726928725
 30
0.0
 10
11.45448099164592
 20
29.2545075408558
 30
0.0
 10
11.7434392752361
 20
29.42152070033613
 30
0.0
 10
11.85175705742208
 20
29.48412660595689
 30
0.0
  0
SPLINE
  5
A4
330
1F
100
AcDbEntity
  8
0
  6
Continuous
 62
     7
370
    25
100
AcDbSpline
210
0.0
220
0.0
230
1.0
 70
     8
 71
     3
 72
     9
 73
     5
 74
     0
 42
0.000000001
 43
0.00000001
 40
0.0
 40
0.0
 40
0.0
 40
0.0
 40
0.499691555787081
 40
1.0
 40
1.0
 40
1.0
 40
1.0
 10
9.680180307667996
 20
-31.04047706093176
 30
0.0
 10
9.81551502191979
 20
-30.96227752661606
 30
0.0
 10
10.08635152632823
 20
-30.80578191765479
 30
0.0
 10
10.35719227072215
 20
-30.64929660978415
 30
0.0
 10
10.49269618217934
 20
-30.57100568886122
 30
0.0
  0
SPLINE
  5
A5
330
1F
100
AcDbEntity
  8
0
  6
Continuous
 62
     7
370
    25
100
AcDbSpline
210
0.0
220
0.0
230
1.0
 70
     8
 71
     3
 72
     9
 73
     5
 74
     0
 42
0.000000001
 43
0.00000001
 40
0.0
 40
0.0
 40
0.0
 40
0.0
 40
0.4993912509128703
 40
0.9999999999999999
 40
0.9999999999999999
 40
0.9999999999999999
 40
0.9999999999999999
 10
9.680180307667996
 20
-29.54047706093176
 30
0.0
 10
9.815433567125883
 20
-29.46232395912323
 30
0.0
 10
10.08626982869564
 20
-29.30582722101324
 30
0.0
 10
10.35711081488271
 20
-29.14934303931372
 30
0.0
 10
10.49269618217934
 20
-29.07100568886122
 30
0.0
  0
SPLINE
  5
A6
330
1F
100
AcDbEntity
  8
0
  6
Continuous
 62
     7
370
    25
100
AcDbSpline
210
0.0
220
0.0
230
1.0
 70
     8
 71
     3
 72
     9
 73
     5
 74
     0
 42
0.000000001
 43
0.00000001
 40
0.0
 40
0.0
 40
0.0
 40
0.0
 40
0.4990880967955045
 40
1.0
 40
1.0
 40
1.0
 40
1.0
 10
9.680180307667996
 20
-28.04047706093176
 30
0.0
 10
9.815350619042963
 20
-27.96237019317727
 30
0.0
 10
10.08618519162215
 20
-27.80587103349785
 30
0.0
 10
10.35702786379316
 20
-27.6493892678891
 30
0.0
 10
10.49269618217934
 20
-27.57100568886122
 30
0.0
  0
SPLINE
  5
A7
330
1F
100
AcDbEntity
  8
0
  6
Continuous
 62
     7
370
    25
100
AcDbSpline
210
0.0
220
0.0
230
1.0
 70
     8
 71
     3
 72
     9
 73
     5
 74
     0
 42
0.000000001
 43
0.00000001
 40
0.0
 40
0.0
 40
0.0
 40
0.0
 40
0.498782410466213
 40
1.0
 40
1.0
 40
1.0
 40
1.0
 10
9.680180307667996
 20
-26.54047706093176
 30
0.0
 10
9.81526613528879
 20
-26.46241625422112
 30
0.0
 10
10.08609731294505
 20
-26.30591352863847
 30
0.0
 10
10.35694337288268
 20
-26.1494353196067
 30
0.0
 10
10.49269618217934
 20
-26.07100568886122
 30
0.0
  0
SPLINE
  5
A8
330
1F
100
AcDbEntity
  8
0
  6
Continuous
 62
     7
370
    25
100
AcDbSpline
210
0.0
220
0.0
230
1.0
 70
     8
 71
     3
 72
     9
 73
     5
 74
     0
 42
0.000000001
 43
0.00000001
 40
0.0
 40
0.0
 40
0.0
 40
0.0
 40
0.4984745129061217
 40
0.9999999999999999
 40
0.9999999999999999
 40
0.9999999999999999
 40
0.9999999999999999
 10
9.680180307667996
 20
-25.04047706093176
 30
0.0
 10
9.815180073172979
 20
-24.96246216789183
 30
0.0
 10
10.08600588674954
 20
-24.80595488212289
 30
0.0
 10
10.35685729681579
 20
-24.6494812189842
 30
0.0
 10
10.49269618217934
 20
-24.57100568886122
 30
0.0
  0
SPLINE
  5
A9
330
1F
100
AcDbEntity
  8
0
  6
Continuous
 62
     7
370
    25
100
AcDbSpline
210
0.0
220
0.0
230
1.0
 70
     8
 71
     3
 72
     9
 73
     5
 74
     0
 42
0.000000001
 43
0.00000001
 40
0.0
 40
0.0
 40
0.0
 40
0.0
 40
0.4981647279341216
 40
0.9999999999999999
 40
0.9999999999999999
 40
0.9999999999999999
 40
0.9999999999999999
 10
9.680180307667996
 20
-23.54047706093176
 30
0.0
 10
9.815092389849198
 20
-23.46250795992795
 30
0.0
 10
10.08591060441987
 20
-23.30599527118913
 30
0.0
 10
10.35676958963993
 20
-23.14952699087988
 30
0.0
 10
10.49269618217934
 20
-23.07100568886122
 30
0.0
  0
SPLINE
  5
AA
330
1F
100
AcDbEntity
  8
0
  6
Continuous
 62
     7
370
    25
100
AcDbSpline
210
0.0
220
0.0
230
1.0
 70
     8
 71
     3
 72
     9
 73
     5
 74
     0
 42
0.000000001
 43
0.00000001
 40
0.0
 40
0.0
 40
0.0
 40
0.0
 40
0.4978533810890619
 40
1.0
 40
1.0
 40
1.0
 40
1.0
 10
9.680180307667996
 20
-22.04047706093176
 30
0.0
 10
9.815003042465943
 20
-21.96255365607776
 30
0.0
 10
10.08581115569604
 20
-21.80603487401477
 30
0.0
 10
10.35668020493591
 20
-21.64957266041011
 30
0.0
 10
10.49269618217934
 20
-21.57100568886122
 30
0.0
  0
SPLINE
  5
AB
330
1F
100
AcDbEntity
  8
0
  6
Continuous
 62
     7
370
    25
100
AcDbSpline
210
0.0
220
0.0
230
1.0
 70
     8
 71
     3
 72
     9
 73
     5
 74
     0
 42
0.000000001
 43
0.00000001
 40
0.0
 40
0.0
 40
0.0
 40
0.0
 40
0.5052338927906612
 40
0.9999999999999999
 40
0.9999999999999999
 40
0.9999999999999999
 40
0.9999999999999999
 10
-10.49269398575489
 20
-29.82100697705627
 30
0.0
 10
-10.357190034751
 20
-29.89929789956161
 30
0.0
 10
-10.08898959741406
 20
-30.05425765903636
 30
0.0
 10
-9.82079339839343
 20
-30.20922764031492
 30
0.0
 10
-9.688099009035646
 20
-30.28590153468642
 30
0.0
  0
SPLINE
  5
AC
330
1F
100
AcDbEntity
  8
0
  6
Continuous
 62
     7
370
    25
100
AcDbSpline
210
0.0
220
0.0
230
1.0
 70
     8
 71
     3
 72
     9
 73
     5
 74
     0
 42
0.000000001
 43
0.00000001
 40
0.0
 40
0.0
 40
0.0
 40
0.0
 40
0.5055370417661021
 40
1.0
 40
1.0
 40
1.0
 40
1.0
 10
-10.49269398575489
 20
-28.32100697705627
 30
0.0
 10
-10.35710856357674
 20
-28.39934432574635
 30
0.0
 10
-10.08890779691387
 20
-28.55430299784762
 30
0.0
 10
-9.820711784449106
 20
-28.70927414416075
 30
0.0
 10
-9.688098790739245
 20
-28.78590163560764
 30
0.0
  0
SPLINE
  5
AD
330
1F
100
AcDbEntity
  8
0
  6
Continuous
 62
     7
370
    25
100
AcDbSpline
210
0.0
220
0.0
230
1.0
 70
     8
 71
     3
 72
     9
 73
     5
 74
     0
 42
0.000000001
 43
0.00000001
 40
0.0
 40
0.0
 40
0.0
 40
0.0
 40
0.50584303247583
 40
0.9999999999999999
 40
0.9999999999999999
 40
0.9999999999999999
 40
0.9999999999999999
 10
-10.49269398575489
 20
-26.82100697705627
 30
0.0
 10
-10.35702559475336
 20
-26.89939054884519
 30
0.0
 10
-10.08882304516498
 20
-27.05434686287266
 30
0.0
 10
-9.820628627910729
 20
-27.2093204606526
 30
0.0
 10
-9.688098487973452
 20
-27.28590174377785
 30
0.0
  0
SPLINE
  5
AE
330
1F
100
AcDbEntity
  8
0
  6
Continuous
 62
     7
370
    25
100
AcDbSpline
210
0.0
220
0.0
230
1.0
 70
     8
 71
     3
 72
     9
 73
     5
 74
     0
 42
0.000000001
 43
0.00000001
 40
0.0
 40
0.0
 40
0.0
 40
0.0
 40
0.5061515479816483
 40
1.0
 40
1.0
 40
1.0
 40
1.0
 10
-10.49269398575489
 20
-25.32100697705627
 30
0.0
 10
-10.35694108327185
 20
-25.39943659319399
 30
0.0
 10
-10.08873504295769
 20
-25.5543894258989
 30
0.0
 10
-9.820543887736315
 20
-25.70936661439198
 30
0.0
 10
-9.688098100885224
 20
-25.78590185902744
 30
0.0
  0
SPLINE
  5
AF
330
1F
100
AcDbEntity
  8
0
  6
Continuous
 62
     7
370
    25
100
AcDbSpline
210
0.0
220
0.0
230
1.0
 70
     8
 71
     3
 72
     9
 73
     5
 74
     0
 42
0.000000001
 43
0.00000001
 40
0.0
 40
0.0
 40
0.0
 40
0.0
 40
0.5064622674103653
 40
0.9999999999999999
 40
0.9999999999999999
 40
0.9999999999999999
 40
0.9999999999999999
 10
-10.49269398575489
 20
-23.82100697705627
 30
0.0
 10
-10.35685498335124
 20
-23.89948248355401
 30
0.0
 10
-10.08864348736315
 20
-24.05443086085169
 30
0.0
 10
-9.820457522587999
 20
-24.20941263016692
 30
0.0
 10
-9.688097629620515
 20
-24.28590198118749
 30
0.0
  0
SPLINE
  5
B0
330
1F
100
AcDbEntity
  8
0
  6
Continuous
 62
     7
370
    25
100
AcDbSpline
210
0.0
220
0.0
230
1.0
 70
     8
 71
     3
 72
     9
 73
     5
 74
     0
 42
0.000000001
 43
0.00000001
 40
0.0
 40
0.0
 40
0.0
 40
0.0
 40
0.506774867066458
 40
0.9999999999999999
 40
0.9999999999999999
 40
0.9999999999999999
 40
0.9999999999999999
 10
-10.49269398575489
 20
-22.32100697705627
 30
0.0
 10
-10.35676724858753
 20
-22.39952824503039
 30
0.0
 10
-10.08854807277442
 20
-22.55447134319279
 30
0.0
 10
-9.820369490979905
 20
-22.70945853286212
 30
0.0
 10
-9.68809707432438
 20
-22.78590211008977
 30
0.0
  0
SPLINE
  5
B1
330
1F
100
AcDbEntity
  8
0
  6
Continuous
 62
     7
370
    25
100
AcDbSpline
210
0.0
220
0.0
230
1.0
 70
     8
 71
     3
 72
     9
 73
     5
 74
     0
 42
0.000000001
 43
0.00000001
 40
0.0
 40
0.0
 40
0.0
 40
0.0
 40
0.5049338974535708
 40
1.0
 40
1.0
 40
1.0
 40
1.0
 10
-10.49269398575489
 20
-31.32100697705627
 30
0.0
 10
-10.35727005236819
 20
-31.39925124645993
 30
0.0
 10
-10.08906874112794
 20
-31.55421067738396
 30
0.0
 10
-9.82087351034166
 20
-31.70918092479043
 30
0.0
 10
-9.688099142714748
 20
-31.7859014411846
 30
0.0
  0
SPLINE
  5
B2
330
1F
100
AcDbEntity
  8
0
  6
Continuous
 62
     7
370
    25
100
AcDbSpline
210
0.0
220
0.0
230
1.0
 70
     8
 71
     3
 72
     9
 73
     5
 74
     0
 42
0.000000001
 43
0.00000001
 40
0.0
 40
0.0
 40
0.0
 40
0.0
 40
0.4999886994353652
 40
1.0
 40
1.0
 40
1.0
 40
1.0
 10
9.680180307667996
 20
-32.54047706093176
 30
0.0
 10
9.815595025346203
 20
-32.46223087049967
 30
0.0
 10
10.08643058189204
 20
-32.30573495265102
 30
0.0
 10
10.3572722749742
 20
-32.1492499557037
 30
0.0
 10
10.49269618217934
 20
-32.07100568886122
 30
0.0
  0
SPLINE
  5
B3
330
1F
100
AcDbEntity
  8
0
  6
Continuous
 62
     7
370
    25
100
AcDbSpline
210
0.0
220
0.0
230
1.0
 70
     8
 71
     3
 72
     9
 73
     5
 74
     0
 42
0.000000001
 43
0.00000001
 40
0.0
 40
0.0
 40
0.0
 40
0.0
 40
0.4999878194690752
 40
0.9999999999999999
 40
0.9999999999999999
 40
0.9999999999999999
 40
0.9999999999999999
 10
-9.677065588402499
 20
-23.1453433836857
 30
0.0
 10
-9.812483942393202
 20
-23.2235945772151
 30
0.0
 10
-10.08332724840514
 20
-23.38010077693113
 30
0.0
 10
-10.35418474500134
 20
-23.536595211005
 30
0.0
 10
-10.48961679248755
 20
-23.61484433422723
 30
0.0
  0
SPLINE
  5
B4
330
1F
100
AcDbEntity
  8
0
  6
Continuous
 62
     7
370
    25
100
AcDbSpline
210
0.0
220
0.0
230
1.0
 70
     8
 71
     3
 72
     9
 73
     5
 74
     0
 42
0.000000001
 43
0.00000001
 40
0.0
 40
0.0
 40
0.0
 40
0.0
 40
0.4999873346884115
 40
1.0
 40
1.0
 40
1.0
 40
1.0
 10
-9.68004262758839
 20
-24.6469424604356
 30
0.0
 10
-9.815469636599246
 20
-24.72519586987384
 30
0.0
 10
-10.08633051569582
 20
-24.88170665326601
 30
0.0
 10
-10.35719554030871
 20
-25.03820519581273
 30
0.0
 10
-10.4926314832051
 20
-25.11645644918888
 30
0.0
  0
SPLINE
  5
B5
330
1F
100
AcDbEntity
  8
0
  6
Continuous
 62
     7
370
    25
100
AcDbSpline
210
0.0
220
0.0
230
1.0
 70
     8
 71
     3
 72
     9
 73
     5
 74
     0
 42
0.000000001
 43
0.00000001
 40
0.0
 40
0.0
 40
0.0
 40
0.0
 40
0.4999877830083951
 40
1.0
 40
1.0
 40
1.0
 40
1.0
 10
-9.681838805614365
 20
-26.14805281633791
 30
0.0
 10
-9.817260928377612
 20
-26.22630369159805
 30
0.0
 10
-10.08811179186957
 20
-26.38280926617293
 30
0.0
 10
-10.35896123563997
 20
-26.5393030293041
 30
0.0
 10
-10.49438926649055
 20
-26.61755182275267
 30
0.0
  0
SPLINE
  5
B6
330
1F
100
AcDbEntity
  8
0
  6
Continuous
 62
     7
370
    25
100
AcDbSpline
210
0.0
220
0.0
230
1.0
 70
     8
 71
     3
 72
     9
 73
     5
 74
     0
 42
0.000000001
 43
0.00000001
 40
0.0
 40
0.0
 40
0.0
 40
0.0
 40
0.4999890365502977
 40
1.0
 40
1.0
 40
1.0
 40
1.0
 10
-9.677728319584585
 20
-27.64567892436162
 30
0.0
 10
-9.81313534978038
 20
-27.72392350963163
 30
0.0
 10
-10.08395534841484
 20
-27.8804161115692
 30
0.0
 10
-10.35478936906406
 20
-28.03689812339199
 30
0.0
 10
-10.49020934866383
 20
-28.11514084488605
 30
0.0
  0
SPLINE
  5
B7
330
1F
100
AcDbEntity
  8
0
  6
Continuous
 62
     7
370
    25
100
AcDbSpline
210
0.0
220
0.0
230
1.0
 70
     8
 71
     3
 72
     9
 73
     5
 74
     0
 42
0.000000001
 43
0.00000001
 40
0.0
 40
0.0
 40
0.0
 40
0.0
 40
0.4999875983267547
 40
1.0
 40
1.0
 40
1.0
 40
1.0
 10
-9.678568854378753
 20
-29.14612003243557
 30
0.0
 10
-9.813992284533557
 20
-29.22437223614341
 30
0.0
 10
-10.08484586291832
 20
-29.38088052548843
 30
0.0
 10
-10.35570882772158
 20
-29.53737683229559
 30
0.0
 10
-10.49114366927719
 20
-29.61562692651523
 30
0.0
  0
SPLINE
  5
B8
330
1F
100
AcDbEntity
  8
0
  6
Continuous
 62
     7
370
    25
100
AcDbSpline
210
0.0
220
0.0
230
1.0
 70
     8
 71
     3
 72
     9
 73
     5
 74
     0
 42
0.000000001
 43
0.00000001
 40
0.0
 40
0.0
 40
0.0
 40
0.0
 40
0.4999870125789245
 40
1.0
 40
1.0
 40
1.0
 40
1.0
 10
-9.681223230013213
 20
-30.64765646468349
 30
0.0
 10
-9.816652340805309
 20
-30.72591137905844
 30
0.0
 10
-10.08751759807181
 20
-30.88242527323203
 30
0.0
 10
-10.35838216930891
 20
-31.03892661196945
 30
0.0
 10
-10.49381797275969
 20
-31.11717931388695
 30
0.0
  0
SPLINE
  5
B9
330
1F
100
AcDbEntity
  8
0
  6
Continuous
 62
     7
370
    25
100
AcDbSpline
210
0.0
220
0.0
230
1.0
 70
     8
 71
     3
 72
     9
 73
     5
 74
     0
 42
0.000000001
 43
0.00000001
 40
0.0
 40
0.0
 40
0.0
 40
0.0
 40
0.6911493697040622
 40
1.0
 40
1.0
 40
1.0
 40
1.0
 10
-9.680778969291378
 20
-32.14738118825431
 30
0.0
 10
-9.816188787348038
 20
-32.22562457575171
 30
0.0
 10
-10.01210854650899
 20
-32.33883221353181
 30
0.0
 10
-10.20803203910516
 20
-32.45203234092982
 30
0.0
 10
-10.26854313328327
 20
-32.48699427162627
 30
0.0
  0
SPLINE
  5
BA
330
1F
100
AcDbEntity
  8
0
  6
Continuous
 62
     7
370
    25
100
AcDbSpline
210
0.0
220
0.0
230
1.0
 70
     8
 71
     3
 72
     9
 73
     5
 74
     0
 42
0.000000001
 43
0.00000001
 40
0.0
 40
0.0
 40
0.0
 40
0.0
 40
0.5000124266409461
 40
1.0
 40
1.0
 40
1.0
 40
1.0
 10
10.49018382861967
 20
-31.86512789589129
 30
0.0
 10
10.35474889044203
 20
-31.7868775815417
 30
0.0
 10
10.08388574592484
 20
-31.63038084230008
 30
0.0
 10
9.813034840810115
 20
-31.47387209835511
 30
0.0
 10
9.6776127540197
 20
-31.39561967126059
 30
0.0
  0
SPLINE
  5
BB
330
1F
100
AcDbEntity
  8
0
  6
Continuous
 62
     7
370
    25
100
AcDbSpline
210
0.0
220
0.0
230
1.0
 70
     8
 71
     3
 72
     9
 73
     5
 74
     0
 42
0.000000001
 43
0.00000001
 40
0.0
 40
0.0
 40
0.0
 40
0.0
 40
0.5000101417779957
 40
1.0
 40
1.0
 40
1.0
 40
1.0
 10
10.49164618248245
 20
-30.36589882885032
 30
0.0
 10
10.35623330549401
 20
-30.28766072450683
 30
0.0
 10
10.08541304471507
 20
-30.1311876896494
 30
0.0
 10
9.814603780577503
 20
-29.97470485653115
 30
0.0
 10
9.679201894996153
 20
-29.89646502698616
 30
0.0
  0
SPLINE
  5
BC
330
1F
100
AcDbEntity
  8
0
  6
Continuous
 62
     7
370
    25
100
AcDbSpline
210
0.0
220
0.0
230
1.0
 70
     8
 71
     3
 72
     9
 73
     5
 74
     0
 42
0.000000001
 43
0.00000001
 40
0.0
 40
0.0
 40
0.0
 40
0.0
 40
0.5000127318512736
 40
1.0
 40
1.0
 40
1.0
 40
1.0
 10
10.49426421078955
 20
-28.86746873617808
 30
0.0
 10
10.35883185041011
 20
-28.78921735098751
 30
0.0
 10
10.08797402669429
 20
-28.63271856564491
 30
0.0
 10
9.817114288295441
 20
-28.47620747097921
 30
0.0
 10
9.681687867641918
 20
-28.39795391632233
 30
0.0
  0
SPLINE
  5
BD
330
1F
100
AcDbEntity
  8
0
  6
Continuous
 62
     7
370
    25
100
AcDbSpline
210
0.0
220
0.0
230
1.0
 70
     8
 71
     3
 72
     9
 73
     5
 74
     0
 42
0.000000001
 43
0.00000001
 40
0.0
 40
0.0
 40
0.0
 40
0.0
 40
0.5000121809834097
 40
1.0
 40
1.0
 40
1.0
 40
1.0
 10
10.49212966785841
 20
-27.36616814892642
 30
0.0
 10
10.35669736043635
 20
-27.28791927234074
 30
0.0
 10
10.08583934422622
 20
-27.13142533166957
 30
0.0
 10
9.81498792802444
 20
-26.97491961977243
 30
0.0
 10
9.67956551916015
 20
-26.89666867021732
 30
0.0
  0
SPLINE
  5
BE
330
1F
100
AcDbEntity
  8
0
  6
Continuous
 62
     7
370
    25
100
AcDbSpline
210
0.0
220
0.0
230
1.0
 70
     8
 71
     3
 72
     9
 73
     5
 74
     0
 42
0.000000001
 43
0.00000001
 40
0.0
 40
0.0
 40
0.0
 40
0.0
 40
0.500011664031594
 40
1.0
 40
1.0
 40
1.0
 40
1.0
 10
10.48954425202656
 20
-25.86480861362668
 30
0.0
 10
10.35411767948527
 20
-25.78656213752498
 30
0.0
 10
10.08327085273458
 20
-25.6300728359139
 30
0.0
 10
9.81243904840761
 20
-25.4735722681181
 30
0.0
 10
9.677026305234847
 20
-25.39532380964777
 30
0.0
  0
SPLINE
  5
BF
330
1F
100
AcDbEntity
  8
0
  6
Continuous
 62
     7
370
    25
100
AcDbSpline
210
0.0
220
0.0
230
1.0
 70
     8
 71
     3
 72
     9
 73
     5
 74
     0
 42
0.000000001
 43
0.00000001
 40
0.0
 40
0.0
 40
0.0
 40
0.0
 40
0.5000115018569976
 40
1.0
 40
1.0
 40
1.0
 40
1.0
 10
10.49406514222722
 20
-24.3673382991631
 30
0.0
 10
10.35864174671679
 20
-24.28909313478774
 30
0.0
 10
10.08780118603472
 20
-24.13260640581298
 30
0.0
 10
9.816961732743392
 20
-23.97610855814832
 30
0.0
 10
9.681545121254388
 20
-23.89786143433185
 30
0.0
  0
SPLINE
  5
C0
330
1F
100
AcDbEntity
  8
0
  6
Continuous
 62
     7
370
    25
100
AcDbSpline
210
0.0
220
0.0
230
1.0
 70
     8
 71
     3
 72
     9
 73
     5
 74
     0
 42
0.000000001
 43
0.00000001
 40
0.0
 40
0.0
 40
0.0
 40
0.0
 40
0.5000108740994423
 40
1.0
 40
1.0
 40
1.0
 40
1.0
 10
10.4903510255422
 20
-22.86521303636087
 30
0.0
 10
10.35493181916129
 20
-22.78697080718079
 30
0.0
 10
10.08409929651901
 20
-22.63048975200174
 30
0.0
 10
9.813280511106075
 20
-22.47399819283545
 30
0.0
 10
9.677874063310009
 20
-22.39575411495708
 30
0.0
  0
SPLINE
  5
D0
330
1F
100
AcDbEntity
  8
0
  6
Continuous
 62
     7
370
    25
100
AcDbSpline
210
0.0
220
0.0
230
1.0
 70
     8
 71
     3
 72
     9
 73
     5
 74
     0
 42
0.000000001
 43
0.00000001
 40
0.0
 40
0.0
 40
0.0
 40
0.0
 40
0.4996128948698459
 40
1.0
 40
1.0
 40
1.0
 40
1.0
 10
9.61906547962705
 20
-31.37861049579025
 30
0.0
 10
9.619420008032849
 20
-31.31615895743893
 30
0.0
 10
9.620129614228853
 20
-31.19115910456766
 30
0.0
 10
9.619420374194616
 20
-31.06615895751483
 30
0.0
 10
9.61906547962705
 20
-31.00361049579024
 30
0.0
  0
SPLINE
  5
D1
330
1F
100
AcDbEntity
  8
0
  6
Continuous
 62
     7
370
    25
100
AcDbSpline
210
0.0
220
0.0
230
1.0
 70
     8
 71
     3
 72
     9
 73
     5
 74
     0
 42
0.000000001
 43
0.00000001
 40
0.0
 40
0.0
 40
0.0
 40
0.0
 40
0.4992282329677319
 40
0.9999999999999999
 40
0.9999999999999999
 40
0.9999999999999999
 40
0.9999999999999999
 10
9.61906547962705
 20
-29.87861049579025
 30
0.0
 10
9.619772319947241
 20
-29.81620755252393
 30
0.0
 10
9.621188186025142
 20
-29.69120872604459
 30
0.0
 10
9.619773776156352
 20
-29.56620755373088
 30
0.0
 10
9.61906547962705
 20
-29.50361049579024
 30
0.0
  0
SPLINE
  5
D2
330
1F
100
AcDbEntity
  8
0
  6
Continuous
 62
     7
370
    25
100
AcDbSpline
210
0.0
220
0.0
230
1.0
 70
     8
 71
     3
 72
     9
 73
     5
 74
     0
 42
0.000000001
 43
0.00000001
 40
0.0
 40
0.0
 40
0.0
 40
0.0
 40
0.4988483089270563
 40
1.0
 40
1.0
 40
1.0
 40
1.0
 10
9.61906547962705
 20
-28.37861049579025
 30
0.0
 10
9.62012242597418
 20
-28.3162564230998
 30
0.0
 10
9.622241199012429
 20
-28.19126036402812
 30
0.0
 10
9.620125677040692
 20
-28.0662564291468
 30
0.0
 10
9.61906547962705
 20
-28.00361049579024
 30
0.0
  0
SPLINE
  5
D3
330
1F
100
AcDbEntity
  8
0
  6
Continuous
 62
     7
370
    25
100
AcDbSpline
210
0.0
220
0.0
230
1.0
 70
     8
 71
     3
 72
     9
 73
     5
 74
     0
 42
0.000000001
 43
0.00000001
 40
0.0
 40
0.0
 40
0.0
 40
0.0
 40
0.4984753233852054
 40
1.0
 40
1.0
 40
1.0
 40
1.0
 10
9.61906547962705
 20
-26.87861049579025
 30
0.0
 10
9.620470340703031
 20
-26.81630570455795
 30
0.0
 10
9.62328865689658
 20
-26.69131498122751
 30
0.0
 10
9.620476064246386
 20
-26.56630572339736
 30
0.0
 10
9.61906547962705
 20
-26.50361049579024
 30
0.0
  0
SPLINE
  5
D4
330
1F
100
AcDbEntity
  8
0
  6
Continuous
 62
     7
370
    25
100
AcDbSpline
210
0.0
220
0.0
230
1.0
 70
     8
 71
     3
 72
     9
 73
     5
 74
     0
 42
0.000000001
 43
0.00000001
 40
0.0
 40
0.0
 40
0.0
 40
0.0
 40
0.4981113418797629
 40
1.0
 40
1.0
 40
1.0
 40
1.0
 10
9.61906547962705
 20
-25.37861049579025
 30
0.0
 10
9.620816082312217
 20
-25.31635552318571
 30
0.0
 10
9.62433056298748
 20
-25.19137348127997
 30
0.0
 10
9.620824921386179
 20
-25.0663555683511
 30
0.0
 10
9.61906547962705
 20
-25.00361049579024
 30
0.0
  0
SPLINE
  5
D5
330
1F
100
AcDbEntity
  8
0
  6
Continuous
 62
     7
370
    25
100
AcDbSpline
210
0.0
220
0.0
230
1.0
 70
     8
 71
     3
 72
     9
 73
     5
 74
     0
 42
0.000000001
 43
0.00000001
 40
0.0
 40
0.0
 40
0.0
 40
0.0
 40
0.497758259166018
 40
1.0
 40
1.0
 40
1.0
 40
1.0
 10
9.61906547962705
 20
-23.87861049579025
 30
0.0
 10
9.621159672084039
 20
-23.81640599409813
 30
0.0
 10
9.625366920117443
 20
-23.69143669314401
 30
0.0
 10
9.621172228731156
 20
-23.56640608572027
 30
0.0
 10
9.61906547962705
 20
-23.50361049579024
 30
0.0
  0
SPLINE
  5
D6
330
1F
100
AcDbEntity
  8
0
  6
Continuous
 62
     7
370
    25
100
AcDbSpline
210
0.0
220
0.0
230
1.0
 70
     8
 71
     3
 72
     9
 73
     5
 74
     0
 42
0.000000001
 43
0.00000001
 40
0.0
 40
0.0
 40
0.0
 40
0.0
 40
0.4974177701419575
 40
1.0
 40
1.0
 40
1.0
 40
1.0
 10
9.61906547962705
 20
-22.37861049579025
 30
0.0
 10
9.621501133854919
 20
-22.31645721960436
 30
0.0
 10
9.626397730587222
 20
-22.19150535837884
 30
0.0
 10
9.621517963733554
 20
-22.06645738506004
 30
0.0
 10
9.61906547962705
 20
-22.00361049579024
 30
0.0
  0
SPLINE
  5
D7
330
1F
100
AcDbEntity
  8
0
  6
Continuous
 62
     7
370
    25
100
AcDbSpline
210
0.0
220
0.0
230
1.0
 70
     8
 71
     3
 72
     9
 73
     5
 74
     0
 42
0.000000001
 43
0.00000001
 40
0.0
 40
0.0
 40
0.0
 40
0.0
 40
0.5068077133028429
 40
1.0
 40
1.0
 40
1.0
 40
1.0
 10
-9.688099142714748
 20
-30.28139707231863
 30
0.0
 10
-9.688096345141153
 20
-30.34394267771034
 30
0.0
 10
-9.688090825150987
 20
-30.46735359619087
 30
0.0
 10
-9.68809630057968
 20
-30.59076425197183
 30
0.0
 10
-9.688099001018879
 20
-30.65162943549922
 30
0.0
  0
SPLINE
  5
D8
330
1F
100
AcDbEntity
  8
0
  6
Continuous
 62
     7
370
    25
100
AcDbSpline
210
0.0
220
0.0
230
1.0
 70
     8
 71
     3
 72
     9
 73
     5
 74
     0
 42
0.000000001
 43
0.00000001
 40
0.0
 40
0.0
 40
0.0
 40
0.0
 40
0.5071785698355092
 40
0.9999999999999999
 40
0.9999999999999999
 40
0.9999999999999999
 40
0.9999999999999999
 10
-9.688099142714748
 20
-28.78139707231863
 30
0.0
 10
-9.688091767914589
 20
-28.84398843467095
 30
0.0
 10
-9.688077227079074
 20
-28.9673993318873
 30
0.0
 10
-9.688091657335605
 20
-29.09080813299581
 30
0.0
 10
-9.688098768875268
 20
-29.15162663485299
 30
0.0
  0
SPLINE
  5
D9
330
1F
100
AcDbEntity
  8
0
  6
Continuous
 62
     7
370
    25
100
AcDbSpline
210
0.0
220
0.0
230
1.0
 70
     8
 71
     3
 72
     9
 73
     5
 74
     0
 42
0.000000001
 43
0.00000001
 40
0.0
 40
0.0
 40
0.0
 40
0.0
 40
0.5074804953598171
 40
1.0
 40
1.0
 40
1.0
 40
1.0
 10
-9.688099142714748
 20
-27.28139707231863
 30
0.0
 10
-9.688085408442168
 20
-27.34403447610319
 30
0.0
 10
-9.688058344795976
 20
-27.46746267552618
 30
0.0
 10
-9.688085217481289
 20
-27.59088383172182
 30
0.0
 10
-9.688098452802954
 20
-27.65167115843341
 30
0.0
  0
SPLINE
  5
DA
330
1F
100
AcDbEntity
  8
0
  6
Continuous
 62
     7
370
    25
100
AcDbSpline
210
0.0
220
0.0
230
1.0
 70
     8
 71
     3
 72
     9
 73
     5
 74
     0
 42
0.000000001
 43
0.00000001
 40
0.0
 40
0.0
 40
0.0
 40
0.0
 40
0.5078395488025919
 40
1.0
 40
1.0
 40
1.0
 40
1.0
 10
-9.688099142714748
 20
-25.78139707231863
 30
0.0
 10
-9.688077262841391
 20
-25.84408093081131
 30
0.0
 10
-9.688034178616446
 20
-25.96751333902069
 30
0.0
 10
-9.688076978540328
 20
-26.09092915921732
 30
0.0
 10
-9.688098042970182
 20
-26.1516695449702
 30
0.0
  0
SPLINE
  5
DB
330
1F
100
AcDbEntity
  8
0
  6
Continuous
 62
     7
370
    25
100
AcDbSpline
210
0.0
220
0.0
230
1.0
 70
     8
 71
     3
 72
     9
 73
     5
 74
     0
 42
0.000000001
 43
0.00000001
 40
0.0
 40
0.0
 40
0.0
 40
0.0
 40
0.5082884042312106
 40
1.0
 40
1.0
 40
1.0
 40
1.0
 10
-9.688099142714748
 20
-24.28139707231863
 30
0.0
 10
-9.688067326440724
 20
-24.34412792142326
 30
0.0
 10
-9.688004731516743
 20
-24.46754377860675
 30
0.0
 10
-9.688066933259735
 20
-24.59092751103765
 30
0.0
 10
-9.688097518578042
 20
-24.65159672300316
 30
0.0
  0
SPLINE
  5
DC
330
1F
100
AcDbEntity
  8
0
  6
Continuous
 62
     7
370
    25
100
AcDbSpline
210
0.0
220
0.0
230
1.0
 70
     8
 71
     3
 72
     9
 73
     5
 74
     0
 42
0.000000001
 43
0.00000001
 40
0.0
 40
0.0
 40
0.0
 40
0.0
 40
0.5084614540539849
 40
1.0
 40
1.0
 40
1.0
 40
1.0
 10
-9.688099142714748
 20
-22.78139707231863
 30
0.0
 10
-9.688055604762852
 20
-22.84417555903116
 30
0.0
 10
-9.687969977914344
 20
-22.96764310256271
 30
0.0
 10
-9.68805512319624
 20
-23.0910556743898
 30
0.0
 10
-9.688096975384301
 20
-23.15171771049715
 30
0.0
  0
SPLINE
  5
10F
330
1F
100
AcDbEntity
  8
0
  6
Continuous
 62
     7
370
    25
100
AcDbSpline
210
0.0
220
0.0
230
1.0
 70
     8
 71
     3
 72
    22
 73
    18
 74
     0
 42
0.000000001
 43
0.00000001
 40
0.0
 40
0.0
 40
0.0
 40
0.0
 40
0.0319615055758348
 40
0.1030977935823639
 40
0.1743039638421691
 40
0.2462112326056289
 40
0.3171481091639988
 40
0.3885769729471489
 40
0.4604353287442892
 40
0.5312500463620151
 40
0.6028604930573851
 40
0.6746273153679706
 40
0.7453975556564166
 40
0.817147839563575
 40
0.8887808319144465
 40
0.951680086349931
 40
1.0
 40
1.0
 40
1.0
 40
1.0
 10
10.93284724851649
 20
28.4999756295562
 30
0.0
 10
10.94811803070064
 20
28.48929517196739
 30
0.0
 10
10.99737678497703
 20
28.45484336527
 30
0.0
 10
10.51029216553724
 20
28.39853369885824
 30
0.0
 10
9.517401545957565
 20
28.32905404539565
 30
0.0
 10
8.031099158743817
 20
28.25657005158275
 30
0.0
 10
6.161488366958595
 20
28.18818373585076
 30
0.0
 10
3.991263898804179
 20
28.11777660881627
 30
0.0
 10
1.628033845669837
 20
28.04553269716311
 30
0.0
 10
-0.8157200039433827
 20
27.97763622879675
 30
0.0
 10
-3.219334917172516
 20
27.90646800481874
 30
0.0
 10
-5.465827006669935
 20
27.83463315752381
 30
0.0
 10
-7.446757625004012
 20
27.76690725196419
 30
0.0
 10
-9.070265648544309
 20
27.69517268098328
 30
0.0
 10
-10.19200786255079
 20
27.62642960596601
 30
0.0
 10
-10.8351500232995
 20
27.56870288708894
 30
0.0
 10
-10.91394039966384
 20
27.53154595500963
 30
0.0
 10
-10.94817140721331
 20
27.51540287661336
 30
0.0
  0
SPLINE
  5
110
330
1F
100
AcDbEntity
  8
0
  6
Continuous
 62
     7
370
    25
100
AcDbSpline
210
0.0
220
0.0
230
1.0
 70
     8
 71
     3
 72
    22
 73
    18
 74
     0
 42
0.000000001
 43
0.00000001
 40
0.0
 40
0.0
 40
0.0
 40
0.0
 40
0.0319615055758347
 40
0.1030977935823638
 40
0.174303963842169
 40
0.2462112326056288
 40
0.3171481091639988
 40
0.3885769729471489
 40
0.4604353287442892
 40
0.5312500463620151
 40
0.6028604930573852
 40
0.6746273153679707
 40
0.7453975556564167
 40
0.8171478395635751
 40
0.8887808319144468
 40
0.9516800863499312
 40
1.0
 40
1.0
 40
1.0
 40
1.0
 10
10.93284724851649
 20
26.4999756295562
 30
0.0
 10
10.94811803070064
 20
26.48929517196739
 30
0.0
 10
10.99737678497703
 20
26.45484336526999
 30
0.0
 10
10.51029216553724
 20
26.39853369885825
 30
0.0
 10
9.517401545957565
 20
26.32905404539565
 30
0.0
 10
8.031099158743817
 20
26.25657005158276
 30
0.0
 10
6.161488366958592
 20
26.18818373585075
 30
0.0
 10
3.991263898804186
 20
26.11777660881626
 30
0.0
 10
1.628033845669837
 20
26.04553269716311
 30
0.0
 10
-0.8157200039433827
 20
25.97763622879675
 30
0.0
 10
-3.219334917172509
 20
25.90646800481874
 30
0.0
 10
-5.465827006669942
 20
25.83463315752382
 30
0.0
 10
-7.446757625004012
 20
25.76690725196418
 30
0.0
 10
-9.070265648544316
 20
25.69517268098329
 30
0.0
 10
-10.19200786255079
 20
25.62642960596602
 30
0.0
 10
-10.83515002329949
 20
25.56870288708892
 30
0.0
 10
-10.91394039966384
 20
25.53154595500963
 30
0.0
 10
-10.94817140721331
 20
25.51540287661336
 30
0.0
  0
SPLINE
  5
111
330
1F
100
AcDbEntity
  8
0
  6
Continuous
 62
     7
370
    25
100
AcDbSpline
210
0.0
220
0.0
230
1.0
 70
     8
 71
     3
 72
    22
 73
    18
 74
     0
 42
0.000000001
 43
0.00000001
 40
0.0
 40
0.0
 40
0.0
 40
0.0
 40
0.0319615055758346
 40
0.1030977935823637
 40
0.1743039638421689
 40
0.2462112326056286
 40
0.3171481091639987
 40
0.3885769729471487
 40
0.4604353287442889
 40
0.5312500463620149
 40
0.602860493057385
 40
0.6746273153679704
 40
0.7453975556564164
 40
0.8171478395635747
 40
0.8887808319144463
 40
0.9516800863499307
 40
1.0
 40
1.0
 40
1.0
 40
1.0
 10
10.93284724851649
 20
24.4999756295562
 30
0.0
 10
10.94811803070064
 20
24.48929517196739
 30
0.0
 10
10.99737678497703
 20
24.45484336526998
 30
0.0
 10
10.51029216553724
 20
24.39853369885826
 30
0.0
 10
9.517401545957565
 20
24.32905404539564
 30
0.0
 10
8.031099158743817
 20
24.25657005158276
 30
0.0
 10
6.161488366958595
 20
24.18818373585076
 30
0.0
 10
3.991263898804179
 20
24.11777660881627
 30
0.0
 10
1.628033845669837
 20
24.04553269716311
 30
0.0
 10
-0.8157200039433863
 20
23.97763622879676
 30
0.0
 10
-3.219334917172509
 20
23.90646800481873
 30
0.0
 10
-5.465827006669942
 20
23.83463315752382
 30
0.0
 10
-7.446757625004012
 20
23.76690725196419
 30
0.0
 10
-9.070265648544316
 20
23.69517268098328
 30
0.0
 10
-10.19200786255079
 20
23.62642960596602
 30
0.0
 10
-10.8351500232995
 20
23.56870288708893
 30
0.0
 10
-10.91394039966385
 20
23.53154595500963
 30
0.0
 10
-10.94817140721331
 20
23.51540287661336
 30
0.0
  0
SPLINE
  5
112
330
1F
100
AcDbEntity
  8
0
  6
Continuous
 62
     7
370
    25
100
AcDbSpline
210
0.0
220
0.0
230
1.0
 70
     8
 71
     3
 72
    14
 73
    10
 74
     0
 42
0.000000001
 43
0.00000001
 40
0.0
 40
0.0
 40
0.0
 40
0.0
 40
0.0790114672688095
 40
0.2548662147279518
 40
0.4308937168576866
 40
0.6086543920803559
 40
0.7840161780589489
 40
0.9605941968716037
 40
1.0
 40
1.0
 40
1.0
 40
1.0
 10
10.93284724851649
 20
22.4999756295562
 30
0.0
 10
10.94811447008218
 20
22.48929518600802
 30
0.0
 10
10.99736173892005
 20
22.4548434246013
 30
0.0
 10
10.51044561099443
 20
22.39853309377486
 30
0.0
 10
9.51683774940866
 20
22.32905626862161
 30
0.0
 10
8.033210911785511
 20
22.25656172428067
 30
0.0
 10
6.153706150428963
 20
22.18821442356222
 30
0.0
 10
4.577409674533579
 20
22.13607715912028
 30
0.0
 10
3.6153117661166
 20
22.10700830213279
 30
0.0
 10
3.439778985797209
 20
22.101704749092
 30
0.0
  0
SPLINE
  5
113
330
1F
100
AcDbEntity
  8
0
  6
Continuous
 62
     7
370
    25
100
AcDbSpline
210
0.0
220
0.0
230
1.0
 70
     8
 71
     3
 72
    17
 73
    13
 74
     0
 42
0.000000001
 43
0.00000001
 40
0.0
 40
0.0
 40
0.0
 40
0.0
 40
0.1028867473269414
 40
0.2045740139607936
 40
0.3062810657370205
 40
0.4091697217423068
 40
0.5240858323947677
 40
0.6386755697201837
 40
0.7546265811770619
 40
0.8691678645923891
 40
0.984136599600467
 40
1.0
 40
1.0
 40
1.0
 40
1.0
 10
4.610290831633005
 20
29.5
 30
0.0
 10
3.858307928704098
 20
29.47862896682992
 30
0.0
 10
2.363108936814361
 20
29.4361360496012
 30
0.0
 10
-0.0130511551727011
 20
29.37470676838832
 30
0.0
 10
-2.376231462602962
 20
29.31337130889693
 30
0.0
 10
-4.749881789556369
 20
29.24655405104915
 30
0.0
 10
-7.014583464655693
 20
29.17939333034272
 30
0.0
 10
-9.023861805898717
 20
29.11047046070132
 30
0.0
 10
-10.60813086250013
 20
29.03793340378437
 30
0.0
 10
-11.62025832262629
 20
28.96912414050819
 30
0.0
 10
-12.09117527041193
 20
28.91947505461198
 30
0.0
 10
-12.04169906824159
 20
28.89244602302744
 30
0.0
 10
-12.03570007722283
 20
28.88916875212529
 30
0.0
  0
SPLINE
  5
114
330
1F
100
AcDbEntity
  8
0
  6
Continuous
 62
     7
370
    25
100
AcDbSpline
210
0.0
220
0.0
230
1.0
 70
     8
 71
     3
 72
    23
 73
    19
 74
     0
 42
0.000000001
 43
0.00000001
 40
0.0
 40
0.0
 40
0.0
 40
0.0
 40
0.04545631334525
 40
0.115497765655906
 40
0.1856080049146355
 40
0.2564083496911005
 40
0.3262535159166603
 40
0.3893201257257476
 40
0.4521509916478509
 40
0.5142493588511042
 40
0.5763598084426153
 40
0.6391918399561702
 40
0.7093687959615013
 40
0.7793464423445058
 40
0.8501553914429647
 40
0.9201034479982483
 40
0.990312540638451
 40
1.0
 40
1.0
 40
1.0
 40
1.0
 10
12.00223363743924
 20
27.8891676876961
 30
0.0
 10
12.03081881491925
 20
27.87372673525935
 30
0.0
 10
12.10344952090595
 20
27.83449356004564
 30
0.0
 10
11.55087113420653
 20
27.77351489317723
 30
0.0
 10
10.45232019908726
 20
27.70405771300522
 30
0.0
 10
8.821974435094374
 20
27.63157486297954
 30
0.0
 10
6.838182032287709
 20
27.5655158339922
 30
0.0
 10
4.643152337359475
 20
27.50037214630972
 30
0.0
 10
2.355177151143424
 20
27.43605895998524
 30
0.0
 10
-0.0109372951349121
 20
27.37472731315154
 30
0.0
 10
-2.376803154948915
 20
27.31336575257642
 30
0.0
 10
-4.749707702703547
 20
27.24655574301223
 30
0.0
 10
-7.014632099290534
 20
27.17939285765909
 30
0.0
 10
-9.023848609222986
 20
27.1104705889608
 30
0.0
 10
-10.6081343799664
 20
27.03793336959785
 30
0.0
 10
-11.6202573359411
 20
26.96912415009785
 30
0.0
 10
-12.0911752958991
 20
26.91947505436425
 30
0.0
 10
-12.04169907099773
 20
26.89244602300066
 30
0.0
 10
-12.03570007722283
 20
26.88916875212529
 30
0.0
  0
SPLINE
  5
115
330
1F
100
AcDbEntity
  8
0
  6
Continuous
 62
     7
370
    25
100
AcDbSpline
210
0.0
220
0.0
230
1.0
 70
     8
 71
     3
 72
    23
 73
    19
 74
     0
 42
0.000000001
 43
0.00000001
 40
0.0
 40
0.0
 40
0.0
 40
0.0
 40
0.0454563133452501
 40
0.1154977656559061
 40
0.1856080049146355
 40
0.2564083496911005
 40
0.3262535159166602
 40
0.3893201257257475
 40
0.4521509916478508
 40
0.514249358851104
 40
0.576359808442615
 40
0.63919183995617
 40
0.7093687959615009
 40
0.7793464423445055
 40
0.8501553914429643
 40
0.9201034479982477
 40
0.9903125406384504
 40
1.0
 40
1.0
 40
1.0
 40
1.0
 10
12.00223363743924
 20
25.8891676876961
 30
0.0
 10
12.03081881491925
 20
25.87372673525935
 30
0.0
 10
12.10344952090595
 20
25.83449356004564
 30
0.0
 10
11.55087113420653
 20
25.77351489317724
 30
0.0
 10
10.45232019908725
 20
25.70405771300521
 30
0.0
 10
8.821974435094374
 20
25.63157486297955
 30
0.0
 10
6.838182032287709
 20
25.56551583399219
 30
0.0
 10
4.643152337359475
 20
25.50037214630972
 30
0.0
 10
2.355177151143424
 20
25.43605895998524
 30
0.0
 10
-0.0109372951349121
 20
25.37472731315155
 30
0.0
 10
-2.376803154948915
 20
25.31336575257642
 30
0.0
 10
-4.749707702703547
 20
25.24655574301224
 30
0.0
 10
-7.014632099290534
 20
25.17939285765909
 30
0.0
 10
-9.023848609222986
 20
25.11047058896079
 30
0.0
 10
-10.6081343799664
 20
25.03793336959785
 30
0.0
 10
-11.62025733594109
 20
24.96912415009785
 30
0.0
 10
-12.09117529589911
 20
24.91947505436425
 30
0.0
 10
-12.04169907099773
 20
24.89244602300066
 30
0.0
 10
-12.03570007722283
 20
24.88916875212529
 30
0.0
  0
SPLINE
  5
116
330
1F
100
AcDbEntity
  8
0
  6
Continuous
 62
     7
370
    25
100
AcDbSpline
210
0.0
220
0.0
230
1.0
 70
     8
 71
     3
 72
    15
 73
    11
 74
     0
 42
0.000000001
 43
0.00000001
 40
0.0
 40
0.0
 40
0.0
 40
0.0
 40
0.0910042294602904
 40
0.2312282803946153
 40
0.371590043843345
 40
0.5133334090161481
 40
0.6531644922279856
 40
0.7794248025782211
 40
0.9052131500875195
 40
1.0
 40
1.0
 40
1.0
 40
1.0
 10
12.00223363743925
 20
23.8891676876961
 30
0.0
 10
12.03081896749308
 20
23.87372673082688
 30
0.0
 10
12.1034500611473
 20
23.83449354435089
 30
0.0
 10
11.55086754864781
 20
23.77351499734266
 30
0.0
 10
10.45233352385105
 20
23.70405732590242
 30
0.0
 10
8.821924484265294
 20
23.63157631412006
 30
0.0
 10
6.838358065363811
 20
23.56551071998846
 30
0.0
 10
4.642566616454729
 20
23.50038916231011
 30
0.0
 10
2.536679068413653
 20
23.44104897100292
 30
0.0
 10
1.144053836713902
 20
23.40488478563963
 30
0.0
 10
0.5456068655023336
 20
23.38934410268749
 30
0.0
  0
SPLINE
  5
117
330
1F
100
AcDbEntity
  8
0
  6
Continuous
 62
     7
370
    25
100
AcDbSpline
210
0.0
220
0.0
230
1.0
 70
     8
 71
     3
 72
    15
 73
    11
 74
     0
 42
0.000000001
 43
0.00000001
 40
0.0
 40
0.0
 40
0.0
 40
0.0
 40
0.0923174145838386
 40
0.226940006933998
 40
0.3772996803856293
 40
0.5272323172224711
 40
0.6789460858146665
 40
0.8288153241075006
 40
0.9792438528387024
 40
1.0
 40
1.0
 40
1.0
 40
1.0
 10
-0.7280193260180146
 20
23.35586952491769
 30
0.0
 10
-1.2724394086258
 20
23.34171799062908
 30
0.0
 10
-2.610764337665224
 20
23.30692987070545
 30
0.0
 10
-4.74879638707771
 20
23.24652858658404
 30
0.0
 10
-7.014886693488605
 20
23.179400444349
 30
0.0
 10
-9.02377952682755
 20
23.11046853036434
 30
0.0
 10
-10.60815279331542
 20
23.03793391829994
 30
0.0
 10
-11.62025217080872
 20
22.96912399618131
 30
0.0
 10
-12.09117542932024
 20
22.91947505834009
 30
0.0
 10
-12.04169908542566
 20
22.89244602343059
 30
0.0
 10
-12.03570007722283
 20
22.88916875212529
 30
0.0
  0
SPLINE
  5
118
330
1F
100
AcDbEntity
  8
0
  6
Continuous
 62
     7
370
    25
100
AcDbSpline
210
0.0
220
0.0
230
1.0
 70
     8
 71
     3
 72
    14
 73
    10
 74
     0
 42
0.000000001
 43
0.00000001
 40
0.0
 40
0.0
 40
0.0
 40
0.0
 40
0.1113756118727795
 40
0.282988948579342
 40
0.4547708248762658
 40
0.6282435757434787
 40
0.7993759785330369
 40
0.9538997781839145
 40
1.0
 40
1.0
 40
1.0
 40
1.0
 10
12.00223363743925
 20
21.8891676876961
 30
0.0
 10
12.03081243899056
 20
21.8737267397236
 30
0.0
 10
12.10342694468596
 20
21.83449357585287
 30
0.0
 10
11.5510209716132
 20
21.77351478826532
 30
0.0
 10
10.45176336869848
 20
21.70405810288212
 30
0.0
 10
8.824061837166369
 20
21.63157340143954
 30
0.0
 10
6.830825761841058
 20
21.56552098464512
 30
0.0
 10
5.154057110208297
 20
21.51500857929862
 30
0.0
 10
4.156900999194607
 20
21.48728265657951
 30
0.0
 10
3.927770321986213
 20
21.48091167877705
 30
0.0
  0
SPLINE
  5
119
330
1F
100
AcDbEntity
  8
0
  6
Continuous
 62
     7
370
    25
100
AcDbSpline
210
0.0
220
0.0
230
1.0
 70
    24
 71
     3
 72
    18
 73
    14
 74
     0
 42
0.000000001
 43
0.00000001
 40
0.0
 40
0.0
 40
0.0
 40
0.0
 40
0.1181452520367593
 40
0.2079307647655983
 40
0.3003430072518343
 40
0.3894252459076111
 40
0.481176155689315
 40
0.5688969346302325
 40
0.6592565961998382
 40
0.7453103011808089
 40
0.8339179701344605
 40
0.9271815444567424
 40
1.0
 40
1.0
 40
1.0
 40
1.0
 10
4.610290831633029
 20
29.5
 30
0.0
 10
3.770726373991992
 20
29.5
 30
0.0
 10
2.293127598435616
 20
29.49999999999999
 30
0.0
 10
0.0641294224314019
 20
29.50000000000001
 30
0.0
 10
-1.928403971619218
 20
29.5
 30
0.0
 10
-3.863888187187615
 20
29.50000000000001
 30
0.0
 10
-5.638811868261998
 20
29.50000000000001
 30
0.0
 10
-7.24433556594354
 20
29.49999999999998
 30
0.0
 10
-8.591524899186528
 20
29.50000000000001
 30
0.0
 10
-9.681232667662208
 20
29.5
 30
0.0
 10
-10.47471967069337
 20
29.50000000000001
 30
0.0
 10
-10.956725139246
 20
29.50000000000001
 30
0.0
 10
-10.96969416101214
 20
29.50000000000001
 30
0.0
 10
-10.97538041217176
 20
29.50000000000001
 30
0.0
  0
SPLINE
  5
11A
330
1F
100
AcDbEntity
  8
0
  6
Continuous
 62
     7
370
    25
100
AcDbSpline
210
0.0
220
0.0
230
1.0
 70
     8
 71
     3
 72
    20
 73
    16
 74
     0
 42
0.000000001
 43
0.00000001
 40
0.0
 40
0.0
 40
0.0
 40
0.0
 40
0.0833404835682546
 40
0.1667269976788556
 40
0.2490759818744966
 40
0.3299592685711049
 40
0.4104468247769308
 40
0.4902692527549825
 40
0.5712213301732046
 40
0.6514713592851974
 40
0.7314934702328175
 40
0.812466207581375
 40
0.8924544814310189
 40
0.9727412600122225
 40
1.0
 40
1.0
 40
1.0
 40
1.0
 10
11.15478756404304
 20
29.49999999999994
 30
0.0
 10
10.74376980780528
 20
29.47558972587589
 30
0.0
 10
9.921507282365305
 20
29.42675569536672
 30
0.0
 10
8.021141163113068
 20
29.35261924195159
 30
0.0
 10
5.770393972204132
 20
29.28338925534995
 30
0.0
 10
3.248600723458256
 20
29.21045110402617
 30
0.0
 10
0.5975009638915785
 20
29.13981121880304
 30
0.0
 10
-2.083625753852111
 20
29.07159612288473
 30
0.0
 10
-4.66132086674545
 20
28.99916453735914
 30
0.0
 10
-7.014335707729677
 20
28.92939905321114
 30
0.0
 10
-9.024621286803182
 20
28.86047018933322
 30
0.0
 10
-10.60531907749731
 20
28.78792864571024
 30
0.0
 10
-11.63061060240685
 20
28.71914317913451
 30
0.0
 10
-12.10767279151521
 20
28.66473495829852
 30
0.0
 10
-12.03443142060091
 20
28.63289129038993
 30
0.0
 10
-12.01586749053049
 20
28.62482011945388
 30
0.0
  0
SPLINE
  5
11B
330
1F
100
AcDbEntity
  8
0
  6
Continuous
 62
     7
370
    25
100
AcDbSpline
210
0.0
220
0.0
230
1.0
 70
     8
 71
     3
 72
    23
 73
    19
 74
     0
 42
0.000000001
 43
0.00000001
 40
0.0
 40
0.0
 40
0.0
 40
0.0
 40
0.0165035798116083
 40
0.0645756583692625
 40
0.1121028577931056
 40
0.1861006349834995
 40
0.260139282560897
 40
0.3332567102918473
 40
0.4050727494020668
 40
0.4765374205404364
 40
0.5474115262261642
 40
0.6192886444215148
 40
0.6905424159320733
 40
0.7615938195558283
 40
0.8334892816442819
 40
0.9045106414054432
 40
0.9757970426646916
 40
1.0
 40
1.0
 40
1.0
 40
1.0
 10
12.01588123202852
 20
27.60953704111824
 30
0.0
 10
12.02289852481901
 20
27.60403376751536
 30
0.0
 10
12.05035597993411
 20
27.58250040807764
 30
0.0
 10
11.74039577587563
 20
27.54557422226549
 30
0.0
 10
11.09906466402327
 20
27.49198314667216
 30
0.0
 10
9.892652597669107
 20
27.42652967228297
 30
0.0
 10
8.02877221700815
 20
27.35267901714414
 30
0.0
 10
5.768399982614477
 20
27.28337363612968
 30
0.0
 10
3.249128190387515
 20
27.21045523575394
 30
0.0
 10
0.59736128262863
 20
27.13981012465872
 30
0.0
 10
-2.08358785843047
 20
27.07159641972525
 30
0.0
 10
-4.661330983226367
 20
26.99916445811523
 30
0.0
 10
-7.01433301650748
 20
26.9293990742919
 30
0.0
 10
-9.024622016976256
 20
26.86047018361366
 30
0.0
 10
-10.60531888314582
 20
26.78792864723263
 30
0.0
 10
-11.63061065593418
 20
26.71914317871523
 30
0.0
 10
-12.10767278771212
 20
26.6647349583283
 30
0.0
 10
-12.03443141983188
 20
26.63289129039595
 30
0.0
 10
-12.01586749053049
 20
26.62482011945388
 30
0.0
  0
SPLINE
  5
11C
330
1F
100
AcDbEntity
  8
0
  6
Continuous
 62
     7
370
    25
100
AcDbSpline
210
0.0
220
0.0
230
1.0
 70
     8
 71
     3
 72
    23
 73
    19
 74
     0
 42
0.000000001
 43
0.00000001
 40
0.0
 40
0.0
 40
0.0
 40
0.0
 40
0.0165035798116082
 40
0.0645756583692624
 40
0.1121028577931055
 40
0.1861006349834994
 40
0.2601392825608969
 40
0.3332567102918471
 40
0.4050727494020666
 40
0.4765374205404362
 40
0.547411526226164
 40
0.6192886444215145
 40
0.690542415932073
 40
0.761593819555828
 40
0.8334892816442816
 40
0.9045106414054428
 40
0.9757970426646911
 40
1.0
 40
1.0
 40
1.0
 40
1.0
 10
12.01588123202852
 20
25.60953704111824
 30
0.0
 10
12.02289852481901
 20
25.60403376751536
 30
0.0
 10
12.05035597993412
 20
25.58250040807765
 30
0.0
 10
11.74039577587563
 20
25.54557422226549
 30
0.0
 10
11.09906466402327
 20
25.49198314667215
 30
0.0
 10
9.892652597669104
 20
25.42652967228296
 30
0.0
 10
8.028772217008154
 20
25.35267901714415
 30
0.0
 10
5.768399982614477
 20
25.28337363612968
 30
0.0
 10
3.249128190387515
 20
25.21045523575395
 30
0.0
 10
0.5973612826286334
 20
25.13981012465872
 30
0.0
 10
-2.083587858430474
 20
25.07159641972526
 30
0.0
 10
-4.661330983226359
 20
24.99916445811522
 30
0.0
 10
-7.014333016507488
 20
24.9293990742919
 30
0.0
 10
-9.02462201697625
 20
24.86047018361366
 30
0.0
 10
-10.60531888314582
 20
24.78792864723264
 30
0.0
 10
-11.63061065593418
 20
24.71914317871521
 30
0.0
 10
-12.10767278771212
 20
24.6647349583283
 30
0.0
 10
-12.03443141983188
 20
24.63289129039595
 30
0.0
 10
-12.01586749053049
 20
24.62482011945388
 30
0.0
  0
SPLINE
  5
11D
330
1F
100
AcDbEntity
  8
0
  6
Continuous
 62
     7
370
    25
100
AcDbSpline
210
0.0
220
0.0
230
1.0
 70
     8
 71
     3
 72
    15
 73
    11
 74
     0
 42
0.000000001
 43
0.00000001
 40
0.0
 40
0.0
 40
0.0
 40
0.0
 40
0.0369231711823041
 40
0.1444739938483587
 40
0.250805767934588
 40
0.4163597038381788
 40
0.5820050783455664
 40
0.7455894237625876
 40
0.9062621951231641
 40
1.0
 40
1.0
 40
1.0
 40
1.0
 10
12.01588123202852
 20
23.60953704111824
 30
0.0
 10
12.02289862743673
 20
23.60403376512556
 30
0.0
 10
12.05035648407726
 20
23.58250039633695
 30
0.0
 10
11.74038879481243
 20
23.5455743848434
 30
0.0
 10
11.09909559293244
 20
23.49198242638681
 30
0.0
 10
9.892464082759442
 20
23.42653406249693
 30
0.0
 10
8.029462392403138
 20
23.35266294405125
 30
0.0
 10
5.765881621939598
 20
23.28343228476498
 30
0.0
 10
3.60093387724604
 20
23.22024122065507
 30
0.0
 10
2.193301745705079
 20
23.18295782386366
 30
0.0
 10
1.674658424990226
 20
23.16922072289378
 30
0.0
  0
SPLINE
  5
11E
330
1F
100
AcDbEntity
  8
0
  6
Continuous
 62
     7
370
    25
100
AcDbSpline
210
0.0
220
0.0
230
1.0
 70
     8
 71
     3
 72
    15
 73
    11
 74
     0
 42
0.000000001
 43
0.00000001
 40
0.0
 40
0.0
 40
0.0
 40
0.0
 40
0.003705627690239
 40
0.1619305328866897
 40
0.3187832493729904
 40
0.4751904883483919
 40
0.6334557744173653
 40
0.7897968770836049
 40
0.9467214222550653
 40
1.0
 40
1.0
 40
1.0
 40
1.0
 10
-1.991800447770621
 20
23.07284562818801
 30
0.0
 10
-2.01270601620018
 20
23.07230104543724
 30
0.0
 10
-2.926248908006294
 20
23.04850357240314
 30
0.0
 10
-4.65715216445945
 20
22.99901731898722
 30
0.0
 10
-7.015444680723328
 20
22.92943821676552
 30
0.0
 10
-9.024320404098154
 20
22.86045956361351
 30
0.0
 10
-10.6053991639938
 20
22.78793147397738
 30
0.0
 10
-11.63058854537895
 20
22.71914240018713
 30
0.0
 10
-12.10767435865793
 20
22.66473501364239
 30
0.0
 10
-12.0344317374925
 20
22.63289130158101
 30
0.0
 10
-12.01586749053049
 20
22.62482011945388
 30
0.0
  0
SPLINE
  5
11F
330
1F
100
AcDbEntity
  8
0
  6
Continuous
 62
     7
370
    25
100
AcDbSpline
210
0.0
220
0.0
230
1.0
 70
     8
 71
     3
 72
    14
 73
    10
 74
     0
 42
0.000000001
 43
0.00000001
 40
0.0
 40
0.0
 40
0.0
 40
0.0
 40
0.0431014051623553
 40
0.1686483567063218
 40
0.2927722802418808
 40
0.4860278170529553
 40
0.6793900925915964
 40
0.8703464737546793
 40
1.0
 40
1.0
 40
1.0
 40
1.0
 10
12.01588123202852
 20
21.60953704111824
 30
0.0
 10
12.02289778363579
 20
21.6040337649243
 30
0.0
 10
12.0503523386289
 20
21.58250039534822
 30
0.0
 10
11.74044619842449
 20
21.54557439853464
 30
0.0
 10
11.09884127191407
 20
21.49198236572921
 30
0.0
 10
9.894014195747609
 20
21.42653443221121
 30
0.0
 10
8.023787245297779
 20
21.35266159048354
 30
0.0
 10
6.013112121481344
 20
21.29044638739192
 30
0.0
 10
4.570040892493851
 20
21.2493290927612
 30
0.0
 10
3.986467930030581
 20
21.23270140248915
 30
0.0
  0
SPLINE
  5
120
330
1F
100
AcDbEntity
  8
0
  6
Continuous
 62
     7
370
    25
100
AcDbSpline
210
0.0
220
0.0
230
1.0
 70
     8
 71
     3
 72
    22
 73
    18
 74
     0
 42
0.000000001
 43
0.00000001
 40
0.0
 40
0.0
 40
0.0
 40
0.0
 40
0.0469864339174121
 40
0.117860414658389
 40
0.1896968365555454
 40
0.2614549465214424
 40
0.3323512012280963
 40
0.4042914305196982
 40
0.4758795812964787
 40
0.5468759764449351
 40
0.6188774085440787
 40
0.6902542341785913
 40
0.7614282842462299
 40
0.8334480974080658
 40
0.9045920431120364
 40
0.9760015642820967
 40
1.0
 40
1.0
 40
1.0
 40
1.0
 10
10.92385149788531
 20
28.98325746924294
 30
0.0
 10
10.89794472874287
 20
28.96757142453154
 30
0.0
 10
10.83296038541189
 20
28.92822466888534
 30
0.0
 10
10.12460455729291
 20
28.86848626200254
 30
0.0
 10
8.911622136254453
 20
28.7967572485968
 30
0.0
 10
7.242348227986053
 20
28.72541251598443
 30
0.0
 10
5.227227241577662
 20
28.65759611808015
 30
0.0
 10
2.957894664506845
 20
28.58545201687226
 30
0.0
 10
0.5438794911967089
 20
28.51481111288632
 30
0.0
 10
-1.896925605965758
 20
28.44659598800757
 30
0.0
 10
-4.243692665115866
 20
28.37416464840775
 30
0.0
 10
-6.385887913801847
 20
28.30439910445872
 30
0.0
 10
-8.216056832747391
 20
28.23547000159649
 30
0.0
 10
-9.655171121609948
 20
28.16292889881156
 30
0.0
 10
-10.58843502922395
 20
28.09414285446942
 30
0.0
 10
-11.02261029494796
 20
28.03981600066265
 30
0.0
 10
-10.95629758210631
 20
28.00805481421648
 30
0.0
 10
-10.93961761716084
 20
28.00006576575434
 30
0.0
  0
SPLINE
  5
121
330
1F
100
AcDbEntity
  8
0
  6
Continuous
 62
     7
370
    25
100
AcDbSpline
210
0.0
220
0.0
230
1.0
 70
     8
 71
     3
 72
    22
 73
    18
 74
     0
 42
0.000000001
 43
0.00000001
 40
0.0
 40
0.0
 40
0.0
 40
0.0
 40
0.0469864339174119
 40
0.1178604146583888
 40
0.1896968365555453
 40
0.2614549465214422
 40
0.3323512012280961
 40
0.404291430519698
 40
0.4758795812964785
 40
0.5468759764449349
 40
0.6188774085440786
 40
0.6902542341785911
 40
0.7614282842462297
 40
0.8334480974080656
 40
0.9045920431120362
 40
0.9760015642820965
 40
1.0
 40
1.0
 40
1.0
 40
1.0
 10
10.92385149788531
 20
26.98325746924293
 30
0.0
 10
10.89794472874286
 20
26.96757142453154
 30
0.0
 10
10.83296038541189
 20
26.92822466888533
 30
0.0
 10
10.12460455729291
 20
26.86848626200255
 30
0.0
 10
8.911622136254453
 20
26.79675724859681
 30
0.0
 10
7.242348227986049
 20
26.72541251598443
 30
0.0
 10
5.227227241577665
 20
26.65759611808016
 30
0.0
 10
2.957894664506845
 20
26.58545201687227
 30
0.0
 10
0.5438794911967089
 20
26.51481111288632
 30
0.0
 10
-1.896925605965764
 20
26.44659598800758
 30
0.0
 10
-4.243692665115859
 20
26.37416464840774
 30
0.0
 10
-6.385887913801847
 20
26.30439910445873
 30
0.0
 10
-8.216056832747391
 20
26.23547000159648
 30
0.0
 10
-9.655171121609948
 20
26.16292889881154
 30
0.0
 10
-10.58843502922396
 20
26.09414285446942
 30
0.0
 10
-11.02261029494796
 20
26.03981600066263
 30
0.0
 10
-10.95629758210631
 20
26.00805481421649
 30
0.0
 10
-10.93961761716084
 20
26.00006576575434
 30
0.0
  0
SPLINE
  5
122
330
1F
100
AcDbEntity
  8
0
  6
Continuous
 62
     7
370
    25
100
AcDbSpline
210
0.0
220
0.0
230
1.0
 70
     8
 71
     3
 72
    22
 73
    18
 74
     0
 42
0.000000001
 43
0.00000001
 40
0.0
 40
0.0
 40
0.0
 40
0.0
 40
0.0469864339174128
 40
0.1178604146583896
 40
0.189696836555546
 40
0.2614549465214428
 40
0.3323512012280966
 40
0.4042914305196984
 40
0.4758795812964788
 40
0.5468759764449351
 40
0.6188774085440787
 40
0.6902542341785911
 40
0.7614282842462297
 40
0.8334480974080655
 40
0.9045920431120359
 40
0.9760015642820961
 40
1.0
 40
1.0
 40
1.0
 40
1.0
 10
10.92385149788531
 20
24.98325746924294
 30
0.0
 10
10.89794472874286
 20
24.96757142453154
 30
0.0
 10
10.83296038541189
 20
24.92822466888532
 30
0.0
 10
10.12460455729291
 20
24.86848626200256
 30
0.0
 10
8.911622136254453
 20
24.79675724859679
 30
0.0
 10
7.242348227986049
 20
24.72541251598444
 30
0.0
 10
5.227227241577662
 20
24.65759611808015
 30
0.0
 10
2.957894664506845
 20
24.58545201687226
 30
0.0
 10
0.5438794911967089
 20
24.51481111288632
 30
0.0
 10
-1.896925605965761
 20
24.44659598800757
 30
0.0
 10
-4.243692665115866
 20
24.37416464840776
 30
0.0
 10
-6.385887913801847
 20
24.30439910445871
 30
0.0
 10
-8.216056832747391
 20
24.23547000159649
 30
0.0
 10
-9.655171121609955
 20
24.16292889881155
 30
0.0
 10
-10.58843502922395
 20
24.09414285446942
 30
0.0
 10
-11.02261029494796
 20
24.03981600066263
 30
0.0
 10
-10.95629758210631
 20
24.00805481421648
 30
0.0
 10
-10.93961761716084
 20
24.00006576575434
 30
0.0
  0
SPLINE
  5
123
330
1F
100
AcDbEntity
  8
0
  6
Continuous
 62
     7
370
    25
100
AcDbSpline
210
0.0
220
0.0
230
1.0
 70
     8
 71
     3
 72
    14
 73
    10
 74
     0
 42
0.000000001
 43
0.00000001
 40
0.0
 40
0.0
 40
0.0
 40
0.0
 40
0.1144487133247727
 40
0.2870822849268832
 40
0.4620601534417829
 40
0.6368472711585609
 40
0.8095350972869216
 40
0.9847658179920673
 40
1.0
 40
1.0
 40
1.0
 40
1.0
 10
10.92385149788531
 20
22.98325746924294
 30
0.0
 10
10.89793905362875
 20
22.96757152816246
 30
0.0
 10
10.83294047488454
 20
22.92822503246326
 30
0.0
 10
10.12473415135212
 20
22.86848389553883
 30
0.0
 10
8.911135737201883
 20
22.79676613052948
 30
0.0
 10
7.244150133302652
 20
22.72537961213393
 30
0.0
 10
5.220551320989281
 20
22.65771802431514
 30
0.0
 10
3.664890078826463
 20
22.6071500189663
 30
0.0
 10
2.790531967921086
 20
22.5814800544076
 30
0.0
 10
2.720597137871525
 20
22.57942686294474
 30
0.0
  0
SPLINE
  5
124
330
1F
100
AcDbEntity
  8
0
  6
Continuous
 62
     7
370
    25
100
AcDbSpline
210
0.0
220
0.0
230
1.0
 70
     8
 71
     3
 72
    14
 73
    10
 74
     0
 42
0.000000001
 43
0.00000001
 40
0.0
 40
0.0
 40
0.0
 40
0.0
 40
0.0913806665225308
 40
0.2615473404161431
 40
0.4312305850810795
 40
0.6029301801701503
 40
0.7725416542094032
 40
0.9427862762393449
 40
1.0
 40
1.0
 40
1.0
 40
1.0
 10
-2.967210286321631
 20
22.41263463395997
 30
0.0
 10
-3.388302023913659
 20
22.39986069843456
 30
0.0
 10
-4.593539720568591
 20
22.36329947612729
 30
0.0
 10
-6.381355187917659
 20
22.30437130048201
 30
0.0
 10
-8.217286642356116
 20
22.2354775453127
 30
0.0
 10
-9.654843775279067
 20
22.16292689085211
 30
0.0
 10
-10.5885252091814
 20
22.09414340763797
 30
0.0
 10
-11.0226039625373
 20
22.0398159618193
 30
0.0
 10
-10.95629630941105
 20
22.00805480640971
 30
0.0
 10
-10.93961761716084
 20
22.00006576575434
 30
0.0
  0
SPLINE
  5
125
330
1F
100
AcDbEntity
  8
0
  6
Continuous
 62
     7
370
    25
100
AcDbSpline
210
0.0
220
0.0
230
1.0
 70
     8
 71
     3
 72
    13
 73
     9
 74
     0
 42
0.000000001
 43
0.00000001
 40
0.0
 40
0.0
 40
0.0
 40
0.0
 40
0.1268848628425009
 40
0.3182770281050836
 40
0.512268224703189
 40
0.7060479432675654
 40
0.8975002584254319
 40
1.0
 40
1.0
 40
1.0
 40
1.0
 10
10.92385149788531
 20
20.98325746924294
 30
0.0
 10
10.89796426127557
 20
20.96757155713899
 30
0.0
 10
10.83302891320156
 20
20.92822513412429
 30
0.0
 10
10.12415852217414
 20
20.86848323384541
 30
0.0
 10
8.913296218079653
 20
20.79676861403105
 30
0.0
 10
7.236146454102421
 20
20.725370411798
 30
0.0
 10
5.56470361039332
 20
20.66846033157336
 30
0.0
 10
4.404542787776487
 20
20.63210057969568
 30
0.0
 10
4.000000000000021
 20
20.61942210003949
 30
0.0
  0
SPLINE
  5
126
330
1F
100
AcDbEntity
  8
0
  6
Continuous
 62
     7
370
    25
100
AcDbSpline
210
0.0
220
0.0
230
1.0
 70
    24
 71
     3
 72
    10
 73
     6
 74
     0
 42
0.000000001
 43
0.00000001
 40
0.0
 40
0.0
 40
0.0
 40
0.0
 40
0.312258250299654
 40
0.7996826624852668
 40
1.0
 40
1.0
 40
1.0
 40
1.0
 10
11.84258178824069
 20
29.50000000000001
 30
0.0
 10
11.84245572909538
 20
29.5
 30
0.0
 10
11.84213289595054
 20
29.49999999999999
 30
0.0
 10
11.54829074161564
 20
29.50000000000006
 30
0.0
 10
11.2435491227836
 20
29.49999999999996
 30
0.0
 10
11.15478756404304
 20
29.49999999999994
 30
0.0
  0
SPLINE
  5
127
330
1F
100
AcDbEntity
  8
0
  6
Continuous
 62
     7
370
    25
100
AcDbSpline
210
0.0
220
0.0
230
1.0
 70
    24
 71
     3
 72
    16
 73
    12
 74
     0
 42
0.000000001
 43
0.00000001
 40
0.0
 40
0.0
 40
0.0
 40
0.0
 40
0.2499999999999997
 40
0.2499999999999997
 40
0.4999999999999993
 40
0.4999999999999993
 40
0.6249999999999993
 40
0.6249999999999993
 40
0.7499999999999997
 40
0.7499999999999997
 40
1.0
 40
1.0
 40
1.0
 40
1.0
 10
11.1547875640442
 20
29.50000000000001
 30
0.0
 10
10.84924916301809
 20
29.50000000000001
 30
0.0
 10
10.47300492299964
 20
29.5
 30
0.0
 10
9.587100555613945
 20
29.5
 30
0.0
 10
9.084996717390878
 20
29.50000000000001
 30
0.0
 10
8.25219073536643
 20
29.50000000000001
 30
0.0
 10
7.96093856373381
 20
29.50000000000001
 30
0.0
 10
7.350608457114014
 20
29.50000000000001
 30
0.0
 10
7.030041471089658
 20
29.50000000000001
 30
0.0
 10
6.041847113629234
 20
29.5
 30
0.0
 10
5.345225931830223
 20
29.50000000000001
 30
0.0
 10
4.610290831633029
 20
29.50000000000001
 30
0.0
  0
SPLINE
  5
128
330
1F
100
AcDbEntity
  8
0
  6
Continuous
 62
     7
370
    25
100
AcDbSpline
210
0.0
220
0.0
230
1.0
 70
     8
 71
     3
 72
    16
 73
    12
 74
     0
 42
0.000000001
 43
0.00000001
 40
0.0
 40
0.0
 40
0.0
 40
0.0
 40
0.1133382613935843
 40
0.2288833973535652
 40
0.3447757952853888
 40
0.4591224142072164
 40
0.5717463763678592
 40
0.6866964603655976
 40
0.8026838282145985
 40
0.9178062462735886
 40
1.0
 40
1.0
 40
1.0
 40
1.0
 10
0.0
 20
-32.43750000409678
 30
0.0
 10
0.6231062889088153
 20
-32.42378146891173
 30
0.0
 10
1.881451728164823
 20
-32.39607727704166
 30
0.0
 10
3.716539892918143
 20
-32.35183697699159
 30
0.0
 10
5.435006141315961
 20
-32.30741189903591
 30
0.0
 10
6.962929718667646
 20
-32.26451397175367
 30
0.0
 10
8.263920481994116
 20
-32.22418341163483
 30
0.0
 10
9.309595138160361
 20
-32.18050956150807
 30
0.0
 10
10.04603592679262
 20
-32.13604628494234
 30
0.0
 10
10.45399587979851
 20
-32.09609192012643
 30
0.0
 10
10.46354682853353
 20
-32.07245164496965
 30
0.0
 10
10.46752535863107
 20
-32.06260408439375
 30
0.0
  0
SPLINE
  5
129
330
1F
100
AcDbEntity
  8
0
  6
Continuous
 62
     7
370
    25
100
AcDbSpline
210
0.0
220
0.0
230
1.0
 70
     8
 71
     3
 72
    25
 73
    21
 74
     0
 42
0.000000001
 43
0.00000001
 40
0.0
 40
0.0
 40
0.0
 40
0.0
 40
0.0462222044237364
 40
0.1038598697769743
 40
0.161844971532265
 40
0.2192271610224442
 40
0.2755130235069627
 40
0.3327922973687293
 40
0.390761202701009
 40
0.4458076001994271
 40
0.5000067892149664
 40
0.5566751504339381
 40
0.6144469339531622
 40
0.6723923461006714
 40
0.7295648792378088
 40
0.7858760956898407
 40
0.8433503572678792
 40
0.9013432537292061
 40
0.9589036811678575
 40
1.0
 40
1.0
 40
1.0
 40
1.0
 10
-10.4755673982171
 20
-31.31239095111257
 30
0.0
 10
-10.46401524239421
 20
-31.30129187027813
 30
0.0
 10
-10.43805790404641
 20
-31.27635257747544
 30
0.0
 10
-9.993553271909393
 20
-31.23496289669019
 30
0.0
 10
-9.227069179887332
 20
-31.19050433043747
 30
0.0
 10
-8.157114436151684
 20
-31.14705380233069
 30
0.0
 10
-6.834419898643848
 20
-31.10680044520161
 30
0.0
 10
-5.287762402747226
 20
-31.06361686085883
 30
0.0
 10
-3.581851161706076
 20
-31.01984683998871
 30
0.0
 10
-1.796990049836165
 20
-30.97702278366558
 30
0.0
 10
0.0270959916753299
 20
-30.93691474529928
 30
0.0
 10
1.881466842320302
 20
-30.89607379402737
 30
0.0
 10
3.716535794515734
 20
-30.85183792145681
 30
0.0
 10
5.435007225057367
 20
-30.80741164929077
 30
0.0
 10
6.962929434971
 20
-30.76451403713076
 30
0.0
 10
8.263920559242784
 20
-30.72418339383309
 30
0.0
 10
9.309595117058516
 20
-30.68050956637093
 30
0.0
 10
10.04603593245752
 20
-30.63604628363688
 30
0.0
 10
10.4539958788467
 20
-30.59609192034576
 30
0.0
 10
10.46354682825363
 20
-30.57245164503415
 30
0.0
 10
10.46752535863107
 20
-30.56260408439375
 30
0.0
  0
SPLINE
  5
12A
330
1F
100
AcDbEntity
  8
0
  6
Continuous
 62
     7
370
    25
100
AcDbSpline
210
0.0
220
0.0
230
1.0
 70
     8
 71
     3
 72
    25
 73
    21
 74
     0
 42
0.000000001
 43
0.00000001
 40
0.0
 40
0.0
 40
0.0
 40
0.0
 40
0.0462222044237361
 40
0.103859869776974
 40
0.1618449715322648
 40
0.2192271610224439
 40
0.2755130235069624
 40
0.3327922973687291
 40
0.3907612027010087
 40
0.4458076001994268
 40
0.5000067892149661
 40
0.5566751504339378
 40
0.6144469339531619
 40
0.6723923461006711
 40
0.7295648792378084
 40
0.7858760956898403
 40
0.8433503572678789
 40
0.9013432537292057
 40
0.9589036811678571
 40
1.0
 40
1.0
 40
1.0
 40
1.0
 10
-10.47556739821709
 20
-29.81239095111258
 30
0.0
 10
-10.46401524239421
 20
-29.80129187027813
 30
0.0
 10
-10.43805790404641
 20
-29.77635257747544
 30
0.0
 10
-9.993553271909393
 20
-29.7349628966902
 30
0.0
 10
-9.227069179887332
 20
-29.69050433043747
 30
0.0
 10
-8.157114436151684
 20
-29.6470538023307
 30
0.0
 10
-6.834419898643848
 20
-29.60680044520161
 30
0.0
 10
-5.287762402747226
 20
-29.56361686085883
 30
0.0
 10
-3.581851161706076
 20
-29.51984683998871
 30
0.0
 10
-1.796990049836165
 20
-29.47702278366559
 30
0.0
 10
0.0270959916753299
 20
-29.43691474529929
 30
0.0
 10
1.881466842320302
 20
-29.39607379402736
 30
0.0
 10
3.716535794515734
 20
-29.35183792145682
 30
0.0
 10
5.435007225057367
 20
-29.30741164929076
 30
0.0
 10
6.962929434970992
 20
-29.26451403713076
 30
0.0
 10
8.263920559242791
 20
-29.22418339383309
 30
0.0
 10
9.309595117058512
 20
-29.18050956637093
 30
0.0
 10
10.04603593245752
 20
-29.13604628363689
 30
0.0
 10
10.4539958788467
 20
-29.09609192034576
 30
0.0
 10
10.46354682825364
 20
-29.07245164503416
 30
0.0
 10
10.46752535863107
 20
-29.06260408439376
 30
0.0
  0
SPLINE
  5
12B
330
1F
100
AcDbEntity
  8
0
  6
Continuous
 62
     7
370
    25
100
AcDbSpline
210
0.0
220
0.0
230
1.0
 70
     8
 71
     3
 72
    25
 73
    21
 74
     0
 42
0.000000001
 43
0.00000001
 40
0.0
 40
0.0
 40
0.0
 40
0.0
 40
0.0462222044237361
 40
0.103859869776974
 40
0.1618449715322647
 40
0.2192271610224439
 40
0.2755130235069623
 40
0.332792297368729
 40
0.3907612027010086
 40
0.4458076001994267
 40
0.500006789214966
 40
0.5566751504339376
 40
0.6144469339531616
 40
0.6723923461006709
 40
0.7295648792378082
 40
0.7858760956898402
 40
0.8433503572678787
 40
0.9013432537292054
 40
0.9589036811678568
 40
1.0
 40
1.0
 40
1.0
 40
1.0
 10
-10.47556739821709
 20
-28.31239095111258
 30
0.0
 10
-10.46401524239421
 20
-28.30129187027813
 30
0.0
 10
-10.43805790404642
 20
-28.27635257747545
 30
0.0
 10
-9.993553271909393
 20
-28.23496289669018
 30
0.0
 10
-9.227069179887339
 20
-28.19050433043747
 30
0.0
 10
-8.157114436151684
 20
-28.14705380233069
 30
0.0
 10
-6.834419898643848
 20
-28.10680044520162
 30
0.0
 10
-5.287762402747226
 20
-28.06361686085882
 30
0.0
 10
-3.581851161706083
 20
-28.01984683998873
 30
0.0
 10
-1.796990049836161
 20
-27.97702278366558
 30
0.0
 10
0.0270959916753299
 20
-27.93691474529928
 30
0.0
 10
1.881466842320306
 20
-27.89607379402738
 30
0.0
 10
3.716535794515734
 20
-27.85183792145681
 30
0.0
 10
5.435007225057367
 20
-27.80741164929077
 30
0.0
 10
6.962929434971
 20
-27.76451403713076
 30
0.0
 10
8.263920559242784
 20
-27.72418339383309
 30
0.0
 10
9.309595117058516
 20
-27.68050956637094
 30
0.0
 10
10.04603593245752
 20
-27.63604628363688
 30
0.0
 10
10.4539958788467
 20
-27.59609192034576
 30
0.0
 10
10.46354682825364
 20
-27.57245164503415
 30
0.0
 10
10.46752535863107
 20
-27.56260408439376
 30
0.0
  0
SPLINE
  5
12C
330
1F
100
AcDbEntity
  8
0
  6
Continuous
 62
     7
370
    25
100
AcDbSpline
210
0.0
220
0.0
230
1.0
 70
     8
 71
     3
 72
    25
 73
    21
 74
     0
 42
0.000000001
 43
0.00000001
 40
0.0
 40
0.0
 40
0.0
 40
0.0
 40
0.0462222044237368
 40
0.1038598697769748
 40
0.1618449715322655
 40
0.2192271610224446
 40
0.2755130235069631
 40
0.3327922973687297
 40
0.3907612027010094
 40
0.4458076001994274
 40
0.5000067892149668
 40
0.5566751504339383
 40
0.6144469339531624
 40
0.6723923461006718
 40
0.729564879237809
 40
0.785876095689841
 40
0.8433503572678794
 40
0.9013432537292062
 40
0.9589036811678576
 40
1.0
 40
1.0
 40
1.0
 40
1.0
 10
-10.4755673982171
 20
-26.81239095111258
 30
0.0
 10
-10.46401524239421
 20
-26.80129187027813
 30
0.0
 10
-10.43805790404642
 20
-26.77635257747544
 30
0.0
 10
-9.9935532719094
 20
-26.7349628966902
 30
0.0
 10
-9.227069179887339
 20
-26.69050433043749
 30
0.0
 10
-8.157114436151684
 20
-26.64705380233069
 30
0.0
 10
-6.834419898643848
 20
-26.60680044520162
 30
0.0
 10
-5.287762402747226
 20
-26.56361686085882
 30
0.0
 10
-3.581851161706083
 20
-26.51984683998871
 30
0.0
 10
-1.796990049836161
 20
-26.47702278366558
 30
0.0
 10
0.0270959916753299
 20
-26.43691474529927
 30
0.0
 10
1.881466842320306
 20
-26.39607379402737
 30
0.0
 10
3.716535794515738
 20
-26.35183792145681
 30
0.0
 10
5.435007225057364
 20
-26.30741164929076
 30
0.0
 10
6.962929434971
 20
-26.26451403713076
 30
0.0
 10
8.263920559242784
 20
-26.22418339383309
 30
0.0
 10
9.30959511705852
 20
-26.18050956637093
 30
0.0
 10
10.04603593245751
 20
-26.13604628363688
 30
0.0
 10
10.4539958788467
 20
-26.09609192034577
 30
0.0
 10
10.46354682825363
 20
-26.07245164503415
 30
0.0
 10
10.46752535863107
 20
-26.06260408439376
 30
0.0
  0
SPLINE
  5
12D
330
1F
100
AcDbEntity
  8
0
  6
Continuous
 62
     7
370
    25
100
AcDbSpline
210
0.0
220
0.0
230
1.0
 70
     8
 71
     3
 72
    25
 73
    21
 74
     0
 42
0.000000001
 43
0.00000001
 40
0.0
 40
0.0
 40
0.0
 40
0.0
 40
0.0462222044237369
 40
0.1038598697769748
 40
0.1618449715322656
 40
0.2192271610224448
 40
0.2755130235069633
 40
0.33279229736873
 40
0.3907612027010097
 40
0.4458076001994278
 40
0.5000067892149671
 40
0.5566751504339388
 40
0.6144469339531629
 40
0.6723923461006722
 40
0.7295648792378095
 40
0.7858760956898415
 40
0.8433503572678801
 40
0.9013432537292069
 40
0.9589036811678584
 40
1.0
 40
1.0
 40
1.0
 40
1.0
 10
-10.4755673982171
 20
-25.31239095111258
 30
0.0
 10
-10.46401524239421
 20
-25.30129187027813
 30
0.0
 10
-10.43805790404642
 20
-25.27635257747544
 30
0.0
 10
-9.993553271909393
 20
-25.23496289669019
 30
0.0
 10
-9.227069179887332
 20
-25.19050433043747
 30
0.0
 10
-8.157114436151684
 20
-25.14705380233069
 30
0.0
 10
-6.834419898643842
 20
-25.10680044520161
 30
0.0
 10
-5.287762402747226
 20
-25.06361686085883
 30
0.0
 10
-3.581851161706076
 20
-25.01984683998872
 30
0.0
 10
-1.796990049836165
 20
-24.97702278366557
 30
0.0
 10
0.0270959916753299
 20
-24.93691474529928
 30
0.0
 10
1.881466842320302
 20
-24.89607379402737
 30
0.0
 10
3.716535794515738
 20
-24.85183792145681
 30
0.0
 10
5.435007225057367
 20
-24.80741164929077
 30
0.0
 10
6.962929434970996
 20
-24.76451403713076
 30
0.0
 10
8.263920559242791
 20
-24.7241833938331
 30
0.0
 10
9.309595117058509
 20
-24.68050956637093
 30
0.0
 10
10.04603593245752
 20
-24.63604628363689
 30
0.0
 10
10.4539958788467
 20
-24.59609192034577
 30
0.0
 10
10.46354682825363
 20
-24.57245164503415
 30
0.0
 10
10.46752535863106
 20
-24.56260408439376
 30
0.0
  0
SPLINE
  5
12E
330
1F
100
AcDbEntity
  8
0
  6
Continuous
 62
     7
370
    25
100
AcDbSpline
210
0.0
220
0.0
230
1.0
 70
     8
 71
     3
 72
    25
 73
    21
 74
     0
 42
0.000000001
 43
0.00000001
 40
0.0
 40
0.0
 40
0.0
 40
0.0
 40
0.0462222044237372
 40
0.1038598697769751
 40
0.1618449715322659
 40
0.219227161022445
 40
0.2755130235069635
 40
0.3327922973687302
 40
0.3907612027010099
 40
0.445807600199428
 40
0.5000067892149673
 40
0.5566751504339389
 40
0.6144469339531631
 40
0.6723923461006723
 40
0.7295648792378097
 40
0.7858760956898416
 40
0.8433503572678802
 40
0.901343253729207
 40
0.9589036811678583
 40
1.0
 40
1.0
 40
1.0
 40
1.0
 10
-10.4755673982171
 20
-23.81239095111258
 30
0.0
 10
-10.46401524239421
 20
-23.80129187027813
 30
0.0
 10
-10.43805790404642
 20
-23.77635257747544
 30
0.0
 10
-9.9935532719094
 20
-23.73496289669018
 30
0.0
 10
-9.227069179887339
 20
-23.69050433043748
 30
0.0
 10
-8.157114436151684
 20
-23.64705380233068
 30
0.0
 10
-6.834419898643842
 20
-23.60680044520161
 30
0.0
 10
-5.287762402747226
 20
-23.56361686085883
 30
0.0
 10
-3.581851161706076
 20
-23.51984683998872
 30
0.0
 10
-1.796990049836165
 20
-23.47702278366557
 30
0.0
 10
0.0270959916753299
 20
-23.43691474529928
 30
0.0
 10
1.881466842320306
 20
-23.39607379402737
 30
0.0
 10
3.716535794515734
 20
-23.35183792145681
 30
0.0
 10
5.435007225057367
 20
-23.30741164929076
 30
0.0
 10
6.962929434970996
 20
-23.26451403713076
 30
0.0
 10
8.263920559242788
 20
-23.22418339383309
 30
0.0
 10
9.309595117058512
 20
-23.18050956637092
 30
0.0
 10
10.04603593245752
 20
-23.13604628363689
 30
0.0
 10
10.4539958788467
 20
-23.09609192034576
 30
0.0
 10
10.46354682825363
 20
-23.07245164503415
 30
0.0
 10
10.46752535863106
 20
-23.06260408439375
 30
0.0
  0
SPLINE
  5
12F
330
1F
100
AcDbEntity
  8
0
  6
Continuous
 62
     7
370
    25
100
AcDbSpline
210
0.0
220
0.0
230
1.0
 70
     8
 71
     3
 72
    25
 73
    21
 74
     0
 42
0.000000001
 43
0.00000001
 40
0.0
 40
0.0
 40
0.0
 40
0.0
 40
0.0462222044237372
 40
0.1038598697769751
 40
0.1618449715322659
 40
0.219227161022445
 40
0.2755130235069635
 40
0.3327922973687302
 40
0.3907612027010099
 40
0.445807600199428
 40
0.5000067892149673
 40
0.5566751504339389
 40
0.6144469339531631
 40
0.6723923461006723
 40
0.7295648792378097
 40
0.7858760956898416
 40
0.8433503572678802
 40
0.901343253729207
 40
0.9589036811678583
 40
1.0
 40
1.0
 40
1.0
 40
1.0
 10
-10.4755673982171
 20
-22.31239095111258
 30
0.0
 10
-10.46401524239421
 20
-22.30129187027813
 30
0.0
 10
-10.43805790404642
 20
-22.27635257747544
 30
0.0
 10
-9.9935532719094
 20
-22.2349628966902
 30
0.0
 10
-9.227069179887339
 20
-22.19050433043748
 30
0.0
 10
-8.157114436151684
 20
-22.14705380233069
 30
0.0
 10
-6.834419898643842
 20
-22.10680044520161
 30
0.0
 10
-5.287762402747226
 20
-22.06361686085883
 30
0.0
 10
-3.581851161706076
 20
-22.01984683998871
 30
0.0
 10
-1.796990049836165
 20
-21.97702278366558
 30
0.0
 10
0.0270959916753299
 20
-21.93691474529928
 30
0.0
 10
1.881466842320306
 20
-21.89607379402737
 30
0.0
 10
3.716535794515734
 20
-21.85183792145682
 30
0.0
 10
5.435007225057367
 20
-21.80741164929076
 30
0.0
 10
6.962929434970996
 20
-21.76451403713076
 30
0.0
 10
8.263920559242788
 20
-21.72418339383309
 30
0.0
 10
9.309595117058512
 20
-21.68050956637092
 30
0.0
 10
10.04603593245752
 20
-21.63604628363688
 30
0.0
 10
10.4539958788467
 20
-21.59609192034576
 30
0.0
 10
10.46354682825363
 20
-21.57245164503415
 30
0.0
 10
10.46752535863106
 20
-21.56260408439376
 30
0.0
  0
SPLINE
  5
130
330
1F
100
AcDbEntity
  8
0
  6
Continuous
 62
     7
370
    25
100
AcDbSpline
210
0.0
220
0.0
230
1.0
 70
     8
 71
     3
 72
    25
 73
    21
 74
     0
 42
0.000000001
 43
0.00000001
 40
0.0
 40
0.0
 40
0.0
 40
0.0
 40
0.0470607905012437
 40
0.1054364700952958
 40
0.1641641010255639
 40
0.2222809852243785
 40
0.2792873085513699
 40
0.3372999409048021
 40
0.3960111649876833
 40
0.4544598720484244
 40
0.5117260811844344
 40
0.5692565240964194
 40
0.6278232474902234
 40
0.6864790848759722
 40
0.7442682832825627
 40
0.8013511961222712
 40
0.8596472028120553
 40
0.9183827980704724
 40
0.9765945118699166
 40
1.0
 40
1.0
 40
1.0
 40
1.0
 10
-9.66597639663052
 20
-31.78131825870702
 30
0.0
 10
-9.655304544500144
 20
-31.77016092098289
 30
0.0
 10
-9.631394992492597
 20
-31.74516367183423
 30
0.0
 10
-9.220864400725372
 20
-31.70371318851119
 30
0.0
 10
-8.513585494077844
 20
-31.65925432142054
 30
0.0
 10
-7.526380742570421
 20
-31.61580370792245
 30
0.0
 10
-6.305957833399538
 20
-31.57555106627504
 30
0.0
 10
-4.878874471006108
 20
-31.53236403038451
 30
0.0
 10
-3.28033525107977
 20
-31.48792274015322
 30
0.0
 10
-1.581426811043958
 20
-31.44377139847644
 30
0.0
 10
0.1562207638285823
 20
-31.40273259237695
 30
0.0
 10
1.890181964030978
 20
-31.36090245427207
 30
0.0
 10
3.577124381347656
 20
-31.31659646445741
 30
0.0
 10
5.14911916193822
 20
-31.27219716475629
 30
0.0
 10
6.54145654810908
 20
-31.22961863226783
 30
0.0
 10
7.721246728284767
 20
-31.18913570890481
 30
0.0
 10
8.664756637677442
 20
-31.14526305148376
 30
0.0
 10
9.31110614857773
 20
-31.10083337871686
 30
0.0
 10
9.64114414553277
 20
-31.06551340437607
 30
0.0
 10
9.643016147303767
 20
-31.04618280873078
 30
0.0
 10
9.643552984075855
 20
-31.04063934465426
 30
0.0
  0
SPLINE
  5
131
330
1F
100
AcDbEntity
  8
0
  6
Continuous
 62
     7
370
    25
100
AcDbSpline
210
0.0
220
0.0
230
1.0
 70
     8
 71
     3
 72
    25
 73
    21
 74
     0
 42
0.000000001
 43
0.00000001
 40
0.0
 40
0.0
 40
0.0
 40
0.0
 40
0.0523077814559459
 40
0.1107534488485727
 40
0.1694646485900033
 40
0.2274802168656453
 40
0.2844854069679147
 40
0.3425981984346596
 40
0.40132469887697
 40
0.4597022623056154
 40
0.5168652452588219
 40
0.5745247472661463
 40
0.6331382474855174
 40
0.691754019921365
 40
0.7494201195972612
 40
0.8065784289167071
 40
0.8649520988185707
 40
0.9236792206743023
 40
0.9817970882749308
 40
1.0
 40
1.0
 40
1.0
 40
1.0
 10
-9.676042678602933
 20
-30.28138553301824
 30
0.0
 10
-9.656791523196782
 20
-30.26894253020949
 30
0.0
 10
-9.616030248369121
 20
-30.24259644102842
 30
0.0
 10
-9.169847231167406
 20
-30.19972037930687
 30
0.0
 10
-8.435291350952113
 20
-30.15527371899946
 30
0.0
 10
-7.425917027546282
 20
-30.11207836002878
 30
0.0
 10
-6.185715646511554
 20
-30.0718271656456
 30
0.0
 10
-4.741563050909551
 20
-30.02838330163889
 30
0.0
 10
-3.13069417554579
 20
-29.98393116204557
 30
0.0
 10
-1.426445337528049
 20
-29.93990180886474
 30
0.0
 10
0.3125455530547383
 20
-29.89917248536875
 30
0.0
 10
2.044144008960806
 20
-29.8569628895398
 30
0.0
 10
3.724148006609238
 20
-29.81260441247375
 30
0.0
 10
5.281972859524166
 20
-29.7682437628007
 30
0.0
 10
6.656567252500366
 20
-29.72601447539647
 30
0.0
 10
7.815804970324431
 20
-29.68530153725291
 30
0.0
 10
8.736672179012483
 20
-29.64127088772265
 30
0.0
 10
9.353653242464707
 20
-29.59685060921657
 30
0.0
 10
9.656799965879845
 20
-29.56300137639368
 30
0.0
 10
9.649098468962888
 20
-29.54491756477955
 30
0.0
 10
9.647261620993453
 20
-29.54060447954414
 30
0.0
  0
SPLINE
  5
132
330
1F
100
AcDbEntity
  8
0
  6
Continuous
 62
     7
370
    25
100
AcDbSpline
210
0.0
220
0.0
230
1.0
 70
     8
 71
     3
 72
    26
 73
    22
 74
     0
 42
0.000000001
 43
0.00000001
 40
0.0
 40
0.0
 40
0.0
 40
0.0
 40
0.0000323057160758
 40
0.0574282352326229
 40
0.1159448626716186
 40
0.1746404217618286
 40
0.2325558966494104
 40
0.2895935520791242
 40
0.3478076891529596
 40
0.406550250418573
 40
0.4648576686551248
 40
0.5219509152834927
 40
0.5797409460429711
 40
0.6384020846525731
 40
0.6969786416225077
 40
0.7545230773969531
 40
0.8117902977295912
 40
0.8702426499468483
 40
0.9289620795570948
 40
0.9869872605659341
 40
1.0
 40
1.0
 40
1.0
 40
1.0
 10
-9.688013005211126
 20
-28.78139772510812
 30
0.0
 10
-9.68804192693467
 20
-28.78138992619933
 30
0.0
 10
-9.739454610032318
 20
-28.76752620104075
 30
0.0
 10
-9.56130366525517
 20
-28.74002933057929
 30
0.0
 10
-9.126593019834434
 20
-28.69570833809788
 30
0.0
 10
-8.352150970906322
 20
-28.65130516525101
 30
0.0
 10
-7.324294411448864
 20
-28.60839059610785
 30
0.0
 10
-6.063649331016316
 20
-28.5680658309443
 30
0.0
 10
-4.602919085343229
 20
-28.52439738622649
 30
0.0
 10
-2.980286963219211
 20
-28.47993985723921
 30
0.0
 10
-1.271092221071257
 20
-28.43606560849336
 30
0.0
 10
0.4689170394006209
 20
-28.39557055384292
 30
0.0
 10
2.197796780088489
 20
-28.35301011752936
 30
0.0
 10
3.870180478216984
 20
-28.30861232233251
 30
0.0
 10
5.413246279260893
 20
-28.26430347449056
 30
0.0
 10
6.769886810450497
 20
-28.22245212570235
 30
0.0
 10
7.908320658081502
 20
-28.18143378482041
 30
0.0
 10
8.806393908356476
 20
-28.13727880406571
 30
0.0
 10
9.393354175340013
 20
-28.09287130904445
 30
0.0
 10
9.671842639135782
 20
-28.06051516355103
 30
0.0
 10
9.65629871377946
 20
-28.04366103769599
 30
0.0
 10
9.65345137465152
 20
-28.04057369579784
 30
0.0
  0
SPLINE
  5
133
330
1F
100
AcDbEntity
  8
0
  6
Continuous
 62
     7
370
    25
100
AcDbSpline
210
0.0
220
0.0
230
1.0
 70
     8
 71
     3
 72
    26
 73
    22
 74
     0
 42
0.000000001
 43
0.00000001
 40
0.0
 40
0.0
 40
0.0
 40
0.0
 40
0.0052927781064226
 40
0.0628176817076817
 40
0.1213817054746125
 40
0.1800378701628209
 40
0.2378303185134374
 40
0.2949101503371749
 40
0.3532023880133382
 40
0.4119372060406863
 40
0.4701511367188624
 40
0.527184301258489
 40
0.5850820565165478
 40
0.6437671162687136
 40
0.7022808308166768
 40
0.7596810512965526
 40
0.8170666575904411
 40
0.8755741964297923
 40
0.9342621545308277
 40
0.9921716018772033
 40
1.0
 40
1.0
 40
1.0
 40
1.0
 10
-9.675297421836753
 20
-27.28161094088949
 30
0.0
 10
-9.679548351194576
 20
-27.28033890919408
 30
0.0
 10
-9.730000783167457
 20
-27.26524171816173
 30
0.0
 10
-9.536009110498538
 20
-27.23607364952838
 30
0.0
 10
-9.068676247386504
 20
-27.19172651562618
 30
0.0
 10
-8.27014409728615
 20
-27.14733760184192
 30
0.0
 10
-7.220000872770416
 20
-27.10474487139636
 30
0.0
 10
-5.940226333834834
 20
-27.06426746772605
 30
0.0
 10
-4.462878818363499
 20
-27.02040812689025
 30
0.0
 10
-2.829205786101643
 20
-26.97595031054872
 30
0.0
 10
-1.115418079469563
 20
-26.93226429982606
 30
0.0
 10
0.6252741806236188
 20
-26.8919277518409
 30
0.0
 10
2.351078444442694
 20
-26.84904575644314
 30
0.0
 10
4.015163592475078
 20
-26.80462174042987
 30
0.0
 10
5.542894329670957
 20
-26.76037790815154
 30
0.0
 10
6.881378930198984
 20
-26.71893249362466
 30
0.0
 10
7.998752863983133
 20
-26.67753388881041
 30
0.0
 10
8.873914920435649
 20
-26.63328880499726
 30
0.0
 10
9.430112739645189
 20
-26.58889532712883
 30
0.0
 10
9.686340512438461
 20
-26.55805656209616
 30
0.0
 10
9.664700865794815
 20
-26.54242124902622
 30
0.0
 10
9.66212390623744
 20
-26.54055931615312
 30
0.0
  0
SPLINE
  5
134
330
1F
100
AcDbEntity
  8
0
  6
Continuous
 62
     7
370
    25
100
AcDbSpline
210
0.0
220
0.0
230
1.0
 70
     8
 71
     3
 72
    26
 73
    22
 74
     0
 42
0.000000001
 43
0.00000001
 40
0.0
 40
0.0
 40
0.0
 40
0.0
 40
0.0104323468592403
 40
0.0680874542305172
 40
0.1266994425666786
 40
0.1853167327404835
 40
0.2429872346697253
 40
0.3001424807748909
 40
0.3585135581467515
 40
0.4172410970978642
 40
0.4753623521834321
 40
0.5323687149490139
 40
0.5903751785322744
 40
0.6490846519404331
 40
0.7075361397019263
 40
0.7648077221135603
 40
0.8223305000641447
 40
0.8808938293300234
 40
0.939550813967222
 40
0.9973455341603321
 40
1.0
 40
1.0
 40
1.0
 40
1.0
 10
-9.665401989370624
 20
-25.7816756422834
 30
0.0
 10
-9.672679668283953
 20
-25.77917972615751
 30
0.0
 10
-9.720177957652746
 20
-25.76288995193145
 30
0.0
 10
-9.507463179151133
 20
-25.7321159424333
 30
0.0
 10
-9.0085319291381
 20
-25.68773954799969
 30
0.0
 10
-8.186021161320028
 20
-25.64338241970952
 30
0.0
 10
-7.113938593040332
 20
-25.60113968406725
 30
0.0
 10
-5.815259146089755
 20
-25.5604341638442
 30
0.0
 10
-4.321559034208257
 20
-25.51641691285922
 30
0.0
 10
-2.677495275328297
 20
-25.47196413254964
 30
0.0
 10
-0.9594862590702851
 20
-25.42849932129033
 30
0.0
 10
0.7815591477857882
 20
-25.38824494400826
 30
0.0
 10
2.503926185391699
 20
-25.3450721247251
 30
0.0
 10
4.159040355561368
 20
-25.30063155208419
 30
0.0
 10
5.670996624490394
 20
-25.25647484957791
 30
0.0
 10
6.991111322795638
 20
-25.21541735975547
 30
0.0
 10
8.087128644128823
 20
-25.17360948056313
 30
0.0
 10
8.939239751233396
 20
-25.12930039802895
 30
0.0
 10
9.463800085608119
 20
-25.08492259432595
 30
0.0
 10
9.700390125769797
 20
-25.05562774299416
 30
0.0
 10
9.674420950950106
 20
-25.04120666882032
 30
0.0
 10
9.673280583445305
 20
-25.04057340555777
 30
0.0
  0
SPLINE
  5
135
330
1F
100
AcDbEntity
  8
0
  6
Continuous
 62
     7
370
    25
100
AcDbSpline
210
0.0
220
0.0
230
1.0
 70
     8
 71
     3
 72
    25
 73
    21
 74
     0
 42
0.000000001
 43
0.00000001
 40
0.0
 40
0.0
 40
0.0
 40
0.0
 40
0.0155848077312003
 40
0.0733485671830321
 40
0.1319860077236132
 40
0.1905419267553023
 40
0.2480689768529025
 40
0.3053103365363994
 40
0.3637379840572413
 40
0.4224356241787665
 40
0.4804422333300403
 40
0.5374326687446824
 40
0.595525938318131
 40
0.6542372168057702
 40
0.7126041594797949
 40
0.7697576925419748
 40
0.8273962649786707
 40
0.8859929211490942
 40
0.9445963922717348
 40
1.0
 40
1.0
 40
1.0
 40
1.0
 10
-9.657970810736112
 20
-24.28170248967535
 30
0.0
 10
-9.66706466084663
 20
-24.27798817560333
 30
0.0
 10
-9.70986409009133
 20
-24.26050707349739
 30
0.0
 10
-9.475912682654068
 20
-24.22815359731615
 30
0.0
 10
-8.946115679255719
 20
-24.18375014042088
 30
0.0
 10
-8.099842250749514
 20
-24.13944092489897
 30
0.0
 10
-7.006146666503392
 20
-24.09757608104673
 30
0.0
 10
-5.688796231743794
 20
-24.05656737466617
 30
0.0
 10
-4.179013417686319
 20
-24.01242530713055
 30
0.0
 10
-2.52521783452548
 20
-23.96798289983824
 30
0.0
 10
-0.8033546884275051
 20
-23.9247720485746
 30
0.0
 10
0.9377088168646026
 20
-23.88452304276517
 30
0.0
 10
2.656292951090173
 20
-23.84109167775724
 30
0.0
 10
4.301696677849056
 20
-23.79664013230555
 30
0.0
 10
5.797869802041729
 20
-23.75260307539888
 30
0.0
 10
7.098389692108142
 20
-23.71186122216734
 30
0.0
 10
8.176441377529208
 20
-23.66966398879628
 30
0.0
 10
8.991133448404451
 20
-23.6253337233503
 30
0.0
 10
9.528914517344827
 20
-23.58144794023969
 30
0.0
 10
9.626863974443491
 20
-23.553874139292
 30
0.0
 10
9.674464117811677
 20
-23.54047419898407
 30
0.0
  0
SPLINE
  5
136
330
1F
100
AcDbEntity
  8
0
  6
Continuous
 62
     7
370
    25
100
AcDbSpline
210
0.0
220
0.0
230
1.0
 70
     8
 71
     3
 72
    25
 73
    21
 74
     0
 42
0.000000001
 43
0.00000001
 40
0.0
 40
0.0
 40
0.0
 40
0.0
 40
0.0207562458230624
 40
0.0786353446599262
 40
0.1373044765288055
 40
0.1958053310730221
 40
0.2531958037499491
 40
0.3105619739385647
 40
0.3690525382625582
 40
0.4277264994797482
 40
0.4856250801564418
 40
0.54263844118665
 40
0.6008250361403431
 40
0.6595443238408177
 40
0.7178331376211999
 40
0.7749074162916636
 40
0.8326685334839214
 40
0.8913047762545052
 40
0.9498610122045833
 40
1.0
 40
1.0
 40
1.0
 40
1.0
 10
-9.653015953543918
 20
-22.78170255901191
 30
0.0
 10
-9.662614868828259
 20
-22.77677260078525
 30
0.0
 10
-9.698980501524082
 20
-22.75809538104052
 30
0.0
 10
-9.441459828238921
 20
-22.72418532027181
 30
0.0
 10
-8.881425037263044
 20
-22.67976063526367
 30
0.0
 10
-8.011658152756347
 20
-22.63551452128097
 30
0.0
 10
-6.896668156305595
 20
-22.59405499799843
 30
0.0
 10
-5.560886350055985
 20
-22.55266864474313
 30
0.0
 10
-4.035297177671988
 20
-22.50843484251101
 30
0.0
 10
-2.37243519809522
 20
-22.46400822308436
 30
0.0
 10
-0.6470844424667915
 20
-22.42108371604491
 30
0.0
 10
1.093671316124093
 20
-22.38076324597733
 30
0.0
 10
2.808088704986122
 20
-22.33710610318078
 30
0.0
 10
4.443181936287815
 20
-22.29264873454282
 30
0.0
 10
5.923080661195641
 20
-22.2487651428407
 30
0.0
 10
7.204577353276176
 20
-22.20826129121381
 30
0.0
 10
8.26131321502159
 20
-22.16571247069849
 30
0.0
 10
9.049874892209063
 20
-22.12133926453966
 30
0.0
 10
9.549146594235607
 20
-22.07882018652545
 30
0.0
 10
9.62706753492935
 20
-22.05265744793051
 30
0.0
 10
9.663010945870745
 20
-22.04058908663639
 30
0.0
  0
SPLINE
  5
137
330
1F
100
AcDbEntity
  8
0
  6
Continuous
 62
     7
370
    25
100
AcDbSpline
210
0.0
220
0.0
230
1.0
 70
    24
 71
     3
 72
    17
 73
    13
 74
     0
 42
0.000000001
 43
0.00000001
 40
0.0
 40
0.0
 40
0.0
 40
0.0
 40
0.0197761590368854
 40
0.1279257313040464
 40
0.2360751997832701
 40
0.3442205051571749
 40
0.452366006880947
 40
0.5604176140933581
 40
0.6684791788218314
 40
0.7797134664772681
 40
0.8909478442727122
 40
1.0
 40
1.0
 40
1.0
 40
1.0
 10
9.723598016639915
 20
-32.5
 30
0.0
 10
9.732329106867727
 20
-32.5
 30
0.0
 10
9.788807773953238
 20
-32.50000000000001
 30
0.0
 10
9.579801826218384
 20
-32.5
 30
0.0
 10
9.139436468459868
 20
-32.50000000000002
 30
0.0
 10
8.398753684052338
 20
-32.50000000000001
 30
0.0
 10
7.428682833029339
 20
-32.50000000000001
 30
0.0
 10
6.239560781166543
 20
-32.5
 30
0.0
 10
4.865772595158878
 20
-32.49999999999997
 30
0.0
 10
3.330888834150378
 20
-32.50000000000001
 30
0.0
 10
1.690239296332909
 20
-32.50000000000001
 30
0.0
 10
0.5596798826758773
 20
-32.50000000000001
 30
0.0
 10
0.0
 20
-32.5
 30
0.0
  0
SPLINE
  5
138
330
1F
100
AcDbEntity
  8
0
  6
Continuous
 62
     7
370
    25
100
AcDbSpline
210
0.0
220
0.0
230
1.0
 70
     8
 71
     3
 72
    25
 73
    21
 74
     0
 42
0.000000001
 43
0.00000001
 40
0.0
 40
0.0
 40
0.0
 40
0.0
 40
0.0338176400043333
 40
0.091311829323498
 40
0.1491526547291305
 40
0.206391955153751
 40
0.2625374652298515
 40
0.3196740897866399
 40
0.3774987563718197
 40
0.4350648692079352
 40
0.491466339716907
 40
0.5481280564494985
 40
0.6058104046984389
 40
0.6635805203829038
 40
0.7204970826863546
 40
0.7767180265705865
 40
0.8341337464329498
 40
0.8919824159530105
 40
0.9493151137552968
 40
1.0
 40
1.0
 40
1.0
 40
1.0
 10
-9.64440460715648
 20
-32.14718027980597
 30
0.0
 10
-9.634747415673294
 20
-32.13902707117218
 30
0.0
 10
-9.60867179891401
 20
-32.11701239495254
 30
0.0
 10
-9.217891823380931
 20
-32.07869301389153
 30
0.0
 10
-8.51437450861011
 20
-32.03425963970012
 30
0.0
 10
-7.526173839199152
 20
-31.99080227922783
 30
0.0
 10
-6.306012589841085
 20
-31.9505514115482
 30
0.0
 10
-4.878857930275912
 20
-31.90736389020893
 30
0.0
 10
-3.28033798216576
 20
-31.86292273036047
 30
0.0
 10
-1.581424039486842
 20
-31.81877135201414
 30
0.0
 10
0.1562213601664537
 20
-31.77773256309212
 30
0.0
 10
1.890186252219518
 20
-31.73590239642918
 30
0.0
 10
3.577115974666059
 20
-31.69159648543866
 30
0.0
 10
5.14915759275766
 20
-31.64719688639883
 30
0.0
 10
6.541322877009335
 20
-31.60461944987959
 30
0.0
 10
7.721749404859372
 20
-31.56413247561392
 30
0.0
 10
8.662834270819292
 20
-31.52027523381298
 30
0.0
 10
9.318312400931026
 20
-31.47578751105013
 30
0.0
 10
9.68180500336747
 20
-31.43361386886237
 30
0.0
 10
9.66983511321962
 20
-31.40773035229927
 30
0.0
 10
9.664218504351181
 20
-31.39558507887747
 30
0.0
  0
SPLINE
  5
139
330
1F
100
AcDbEntity
  8
0
  6
Continuous
 62
     7
370
    25
100
AcDbSpline
210
0.0
220
0.0
230
1.0
 70
     8
 71
     3
 72
    25
 73
    21
 74
     0
 42
0.000000001
 43
0.00000001
 40
0.0
 40
0.0
 40
0.0
 40
0.0
 40
0.0393807734662565
 40
0.0969890803737479
 40
0.1548591137614565
 40
0.2120434805689683
 40
0.2682319472191864
 40
0.3255121480215833
 40
0.3833972634785796
 40
0.440938439533835
 40
0.4972824363044722
 40
0.5541158426989219
 40
0.611889577560712
 40
0.6696655503121659
 40
0.7265054547029206
 40
0.7828448484446233
 40
0.8403821897938492
 40
0.8982679172769594
 40
0.9555531175275738
 40
1.0
 40
1.0
 40
1.0
 40
1.0
 10
-9.64918640097108
 20
-30.64748044368865
 30
0.0
 10
-9.632601464319094
 20
-30.63796379496997
 30
0.0
 10
-9.59175519309715
 20
-30.61452568225091
 30
0.0
 10
-9.167279364794133
 20
-30.57470316098179
 30
0.0
 10
-8.435970301791697
 20
-30.530278190649
 30
0.0
 10
-7.425737372386609
 20
-30.48707710337306
 30
0.0
 10
-6.185761639599718
 20
-30.44682741716956
 30
0.0
 10
-4.741547178365606
 20
-30.40338313663981
 30
0.0
 10
-3.130694831045888
 20
-30.35893110791411
 30
0.0
 10
-1.426441130016221
 20
-30.31490172502872
 30
0.0
 10
0.3125476931934018
 20
-30.27417241937983
 30
0.0
 10
2.04415010501945
 20
-30.23196279166599
 30
0.0
 10
3.724140052643703
 20
-30.18760439402113
 30
0.0
 10
5.282016279097416
 20
-30.14324344250869
 30
0.0
 10
6.656421300465697
 20
-30.10101526588004
 30
0.0
 10
7.816360558598797
 20
-30.06029822072733
 30
0.0
 10
8.734552679885502
 20
-30.01628318986994
 30
0.0
 10
9.361583037416182
 20
-29.9718042071666
 30
0.0
 10
9.690686452576678
 20
-29.93141605627142
 30
0.0
 10
9.665269413747616
 20
-29.90704842032931
 30
0.0
 10
9.654164675621812
 20
-29.89640216772287
 30
0.0
  0
SPLINE
  5
13A
330
1F
100
AcDbEntity
  8
0
  6
Continuous
 62
     7
370
    25
100
AcDbSpline
210
0.0
220
0.0
230
1.0
 70
     8
 71
     3
 72
    25
 73
    21
 74
     0
 42
0.000000001
 43
0.00000001
 40
0.0
 40
0.0
 40
0.0
 40
0.0
 40
0.0425871693700307
 40
0.1005005848252646
 40
0.1585910850160925
 40
0.2159095400473066
 40
0.2723592287866202
 40
0.3299732730227566
 40
0.3881102917641122
 40
0.445816650579233
 40
0.5023213544598527
 40
0.5595156652305664
 40
0.6175721016178751
 40
0.6755448256218652
 40
0.7324960654189859
 40
0.789172955078694
 40
0.8470227583511345
 40
0.9051368831451851
 40
0.9625639132243835
 40
1.0
 40
1.0
 40
1.0
 40
1.0
 10
-9.650016010767045
 20
-29.14597420439854
 30
0.0
 10
-9.62584614118487
 20
-29.13567822614614
 30
0.0
 10
-9.568808163218929
 20
-29.11138095889355
 30
0.0
 10
-9.113486967652136
 20
-29.070708810106
 30
0.0
 10
-8.355614156395713
 20
-29.02630489766467
 30
0.0
 10
-7.323384337404586
 20
-28.98339053112154
 30
0.0
 10
-6.063892747870995
 20
-28.94306571017679
 30
0.0
 10
-4.60284754153898
 20
-28.89939727218936
 30
0.0
 10
-2.980300562919126
 20
-28.85493973855394
 30
0.0
 10
-1.271082651373403
 20
-28.81106549333219
 30
0.0
 10
0.4689196754789279
 20
-28.77057044862674
 30
0.0
 10
2.19780493816172
 20
-28.72800998085371
 30
0.0
 10
3.870172985849518
 20
-28.68361226030237
 30
0.0
 10
5.413294260301068
 20
-28.63930312764452
 30
0.0
 10
6.769730013594335
 20
-28.59745283515142
 30
0.0
 10
7.908924211047587
 20
-28.55643058802988
 30
0.0
 10
8.804097806250862
 20
-28.51229043856698
 30
0.0
 10
9.401927554382985
 20
-28.46782731157672
 30
0.0
 10
9.698172475618088
 20
-28.42946542988782
 30
0.0
 10
9.66213446573079
 20
-28.40680131518852
 30
0.0
 10
9.64791268902672
 20
-28.39785731468857
 30
0.0
  0
SPLINE
  5
13B
330
1F
100
AcDbEntity
  8
0
  6
Continuous
 62
     7
370
    25
100
AcDbSpline
210
0.0
220
0.0
230
1.0
 70
     8
 71
     3
 72
    25
 73
    21
 74
     0
 42
0.000000001
 43
0.00000001
 40
0.0
 40
0.0
 40
0.0
 40
0.0
 40
0.0471092358763316
 40
0.1050089812989753
 40
0.162999819226238
 40
0.2201367345824603
 40
0.2765691234403242
 40
0.3342001668417104
 40
0.3922687671550143
 40
0.4498223850709792
 40
0.5062086320004517
 40
0.5634496688017393
 40
0.6214690765084915
 40
0.6793190790412011
 40
0.7360682143268992
 40
0.7928029125927156
 40
0.8506468142988797
 40
0.9086690852120091
 40
0.9659216723334106
 40
1.0
 40
1.0
 40
1.0
 40
1.0
 10
-9.656081235131452
 20
-27.64560941767728
 30
0.0
 10
-9.622564696221136
 20
-27.63414918067798
 30
0.0
 10
-9.547854556220585
 20
-27.60860370556349
 30
0.0
 10
-9.057521506213243
 20
-27.56671576632028
 30
0.0
 10
-8.27308328357574
 20
-27.52234024499204
 30
0.0
 10
-7.219224640630705
 20
-27.47974399695543
 30
0.0
 10
-5.940432121359001
 20
-27.43926751867231
 30
0.0
 10
-4.462815815570225
 20
-27.39540791502357
 30
0.0
 10
-2.829215151726828
 20
-27.35095016713862
 30
0.0
 10
-1.115407590214414
 20
-27.30726414365933
 30
0.0
 10
0.6252783956933392
 20
-27.26692760961057
 30
0.0
 10
2.351088772534024
 20
-27.22404557919679
 30
0.0
 10
4.015154942229839
 20
-27.17962163823002
 30
0.0
 10
5.5429530166466
 20
-27.13537752346462
 30
0.0
 10
6.881188555996419
 20
-27.09393316541651
 30
0.0
 10
7.999490429890656
 20
-27.05253065158023
 30
0.0
 10
8.871115515208063
 20
-27.0083003757831
 30
0.0
 10
9.440542516142163
 20
-26.96385147568497
 30
0.0
 10
9.709414180766641
 20
-26.92658665270524
 30
0.0
 10
9.661332718042585
 20
-26.90468899901603
 30
0.0
 10
9.64339206952064
 20
-26.89651832187695
 30
0.0
  0
SPLINE
  5
13C
330
1F
100
AcDbEntity
  8
0
  6
Continuous
 62
     7
370
    25
100
AcDbSpline
210
0.0
220
0.0
230
1.0
 70
     8
 71
     3
 72
    25
 73
    21
 74
     0
 42
0.000000001
 43
0.00000001
 40
0.0
 40
0.0
 40
0.0
 40
0.0
 40
0.0553343966153981
 40
0.1129820063341829
 40
0.1706348265294979
 40
0.2273564326185293
 40
0.283571270983819
 40
0.3409819351532913
 40
0.3987431916228059
 40
0.4559081356225539
 40
0.5119765353832038
 40
0.5690285865635761
 40
0.626772076303835
 40
0.6842618208620209
 40
0.740591071265666
 40
0.7971673967793528
 40
0.8547671486087571
 40
0.9124590103958307
 40
0.9693027908139731
 40
1.0
 40
1.0
 40
1.0
 40
1.0
 10
-9.678404897192454
 20
-26.1481621718747
 30
0.0
 10
-9.631483280566316
 20
-26.13456904502504
 30
0.0
 10
-9.535678524191884
 20
-26.10681454081487
 30
0.0
 10
-8.999747233545477
 20
-26.06272496102602
 30
0.0
 10
-8.188328479453187
 20
-26.01838601655561
 30
0.0
 10
-7.113324837159595
 20
-25.97613851138173
 30
0.0
 10
-5.815419231472712
 20
-25.93543424707462
 30
0.0
 10
-4.321506722792579
 20
-25.89141664116133
 30
0.0
 10
-2.677499834291851
 20
-25.84696395435364
 30
0.0
 10
-0.9594749800089335
 20
-25.80349912766977
 30
0.0
 10
0.7815649309531776
 20
-25.76324476285286
 30
0.0
 10
2.503938845736652
 20
-25.72007190867491
 30
0.0
 10
4.159029840629179
 20
-25.67563140334433
 30
0.0
 10
5.671068481483604
 20
-25.63147445074769
 30
0.0
 10
6.990878154610525
 20
-25.59041790812941
 30
0.0
 10
8.088036099879924
 20
-25.54860651501121
 30
0.0
 10
8.935803393474176
 20
-25.50431071235681
 30
0.0
 10
9.47657412220218
 20
-25.4598833163719
 30
0.0
 10
9.719333064526138
 20
-25.42371954486059
 30
0.0
 10
9.660230955943996
 20
-25.40254975784012
 30
0.0
 10
9.639506152641163
 20
-25.39512633958165
 30
0.0
  0
SPLINE
  5
13D
330
1F
100
AcDbEntity
  8
0
  6
Continuous
 62
     7
370
    25
100
AcDbSpline
210
0.0
220
0.0
230
1.0
 70
     8
 71
     3
 72
    26
 73
    22
 74
     0
 42
0.000000001
 43
0.00000001
 40
0.0
 40
0.0
 40
0.0
 40
0.0
 40
0.0019055702796982
 40
0.0590355006335124
 40
0.1170295204968244
 40
0.1749429083653226
 40
0.2318387121964073
 40
0.2884519747770449
 40
0.3462385055286497
 40
0.404292061193782
 40
0.461662163478257
 40
0.518027249216433
 40
0.5754830730056711
 40
0.633550119269269
 40
0.6912766028704612
 40
0.747802990407875
 40
0.8048091082894402
 40
0.8627627919219686
 40
0.920723210393099
 40
0.9777488837329121
 40
1.0
 40
1.0
 40
1.0
 40
1.0
 10
-9.675041935364975
 20
-24.64691717999551
 30
0.0
 10
-9.67589484704033
 20
-24.64645720547317
 30
0.0
 10
-9.702318468507865
 20
-24.63220696947074
 30
0.0
 10
-9.468240561912069
 20
-24.60313123237041
 30
0.0
 10
-8.948178262808339
 20
-24.55875587041507
 30
0.0
 10
-8.099294552243855
 20
-24.51443912831158
 30
0.0
 10
-7.006283664990357
 20
-24.4725762860436
 30
0.0
 10
-5.68874946126479
 20
-24.43156703145314
 30
0.0
 10
-4.179015611829491
 20
-24.38742510041928
 30
0.0
 10
-2.525205687314139
 20
-24.34298265335634
 30
0.0
 10
-0.8033467657616102
 20
-24.29977182924857
 30
0.0
 10
0.9377211236129696
 20
-24.25952281113497
 30
0.0
 10
2.656291849263127
 20
-24.21609145600052
 30
0.0
 10
4.301744040234368
 20
-24.17163981454016
 30
0.0
 10
5.797735401948209
 20
-24.1276031125592
 30
0.0
 10
7.098916335010842
 20
-24.08686000191645
 30
0.0
 10
8.174472295890991
 20
-24.04466754146273
 30
0.0
 10
8.99864081569786
 20
-24.00031904651054
 30
0.0
 10
9.508140994585954
 20
-23.95592786509613
 30
0.0
 10
9.72463334107956
 20
-23.92220242970392
 30
0.0
 10
9.662725593221657
 20
-23.90304450679521
 30
0.0
 10
9.64534955538952
 20
-23.89766733180879
 30
0.0
  0
SPLINE
  5
13E
330
1F
100
AcDbEntity
  8
0
  6
Continuous
 62
     7
370
    25
100
AcDbSpline
210
0.0
220
0.0
230
1.0
 70
     8
 71
     3
 72
    26
 73
    22
 74
     0
 42
0.000000001
 43
0.00000001
 40
0.0
 40
0.0
 40
0.0
 40
0.0
 40
0.0047660292505027
 40
0.0619702465062679
 40
0.1199552791165163
 40
0.1777739907018712
 40
0.234495262297099
 40
0.2911925336928954
 40
0.3490010830943714
 40
0.406990884964866
 40
0.4642143416594601
 40
0.5205629108632414
 40
0.5780710374740917
 40
0.6361056394945436
 40
0.6937147810144396
 40
0.7501235503593122
 40
0.8072111626039525
 40
0.8651636902813676
 40
0.9230371378499816
 40
0.9798951297418641
 40
0.9999999999999999
 40
0.9999999999999999
 40
0.9999999999999999
 40
0.9999999999999999
 10
-9.665288575081997
 20
-23.14530877861146
 30
0.0
 10
-9.666823875073955
 20
-23.14416060210528
 30
0.0
 10
-9.686786597491642
 20
-23.12923144884568
 30
0.0
 10
-9.433605942867768
 20
-23.09915330431398
 30
0.0
 10
-8.883530959208137
 20
-23.0547688952457
 30
0.0
 10
-8.01109916764247
 20
-23.01051201663165
 30
0.0
 10
-6.896807321492386
 20
-22.96905534992552
 30
0.0
 10
-5.560837245509632
 20
-22.92766821105015
 30
0.0
 10
-4.035298096473773
 20
-22.8834346090195
 30
0.0
 10
-2.372421396307001
 20
-22.83900793371629
 30
0.0
 10
-0.6470750660166197
 20
-22.79608346259764
 30
0.0
 10
1.093685599052679
 20
-22.75576297564506
 30
0.0
 10
2.808087488887376
 20
-22.71210583411487
 30
0.0
 10
4.443236568598973
 20
-22.66764840303395
 30
0.0
 10
5.922925908278722
 20
-22.62376504643093
 30
0.0
 10
7.205184564454681
 20
-22.58326038675145
 30
0.0
 10
8.259035058882452
 20
-22.54071464394624
 30
0.0
 10
9.058539610088939
 20
-22.49632965767187
 30
0.0
 10
9.539181852891259
 20
-22.4519765916014
 30
0.0
 10
9.73317610440453
 20
-22.41913704742094
 30
0.0
 10
9.661739707038468
 20
-22.40043151247079
 30
0.0
 10
9.643078505250601
 20
-22.39554509916994
 30
0.0
  0
SPLINE
  5
13F
330
1F
100
AcDbEntity
  8
0
  6
Continuous
 62
     7
370
    25
100
AcDbSpline
210
0.0
220
0.0
230
1.0
 70
     8
 71
     3
 72
    22
 73
    18
 74
     0
 42
0.000000001
 43
0.00000001
 40
0.0
 40
0.0
 40
0.0
 40
0.0
 40
0.0641458290769863
 40
0.1316129526391937
 40
0.2002708302606502
 40
0.2697553354143711
 40
0.3389292113093555
 40
0.4067038560742812
 40
0.4747911657546742
 40
0.5441046871326197
 40
0.6135236548814649
 40
0.6819171472143738
 40
0.7494748984583217
 40
0.8184680872423922
 40
0.8879814301562517
 40
0.9568748774046913
 40
0.9999999999999999
 40
0.9999999999999999
 40
0.9999999999999999
 40
0.9999999999999999
 10
-9.108923826632621
 20
-32.5
 30
0.0
 10
-8.791372682615533
 20
-32.48643756978441
 30
0.0
 10
-8.13982847031946
 20
-32.45861048404369
 30
0.0
 10
-6.830899768062948
 20
-32.41931022910572
 30
0.0
 10
-5.28870841239306
 20
-32.37611159962815
 30
0.0
 10
-3.554980750102653
 20
-32.33167339515477
 30
0.0
 10
-1.714019838866154
 20
-32.28752113427065
 30
0.0
 10
0.1693289646447493
 20
-32.2464826674607
 30
0.0
 10
2.048579101758069
 20
-32.20465251684536
 30
0.0
 10
3.876895688860571
 20
-32.1603465129858
 30
0.0
 10
5.580658040641718
 20
-32.11594697814363
 30
0.0
 10
7.089576827103421
 20
-32.07336904644947
 30
0.0
 10
8.368609008406052
 20
-32.0328840753286
 30
0.0
 10
9.3897591453527
 20
-31.98901974856166
 30
0.0
 10
10.09566696968087
 20
-31.94455838601546
 30
0.0
 10
10.46908822675899
 20
-31.90606119904067
 30
0.0
 10
10.46405895778169
 20
-31.88368716788614
 30
0.0
 10
10.46212278022191
 20
-31.87507357071349
 30
0.0
  0
SPLINE
  5
140
330
1F
100
AcDbEntity
  8
0
  6
Continuous
 62
     7
370
    25
100
AcDbSpline
210
0.0
220
0.0
230
1.0
 70
     8
 71
     3
 72
    25
 73
    21
 74
     0
 42
0.000000001
 43
0.00000001
 40
0.0
 40
0.0
 40
0.0
 40
0.0
 40
0.0408109269545558
 40
0.099160205225939
 40
0.1564502814649748
 40
0.2105604775280625
 40
0.2674723506193303
 40
0.3253886839621222
 40
0.384002318727089
 40
0.4423539222682799
 40
0.4995252047835443
 40
0.5569602357002469
 40
0.6154296371492844
 40
0.6739879878548147
 40
0.7316812990618674
 40
0.788669621108559
 40
0.8468688060881955
 40
0.9055067669376105
 40
0.9636218149729394
 40
1.0
 40
1.0
 40
1.0
 40
1.0
 10
-10.46000340492011
 20
-31.11689724772391
 30
0.0
 10
-10.44179308622213
 20
-31.10716161063711
 30
0.0
 10
-10.39754662886198
 20
-31.08350648090659
 30
0.0
 10
-9.939544309422267
 20
-31.04378567505445
 30
0.0
 10
-9.173466005515087
 20
-31.00068698548012
 30
0.0
 10
-8.127145269255918
 20
-30.95864090179453
 30
0.0
 10
-6.834437211160435
 20
-30.91930174535921
 30
0.0
 10
-5.287740570524238
 20
-30.87611392077505
 30
0.0
 10
-3.555240270480716
 20
-30.83167277275461
 30
0.0
 10
-1.713952007263358
 20
-30.78752129694921
 30
0.0
 10
0.169310864546867
 20
-30.74648262405176
 30
0.0
 10
2.048584058533882
 20
-30.70465252873307
 30
0.0
 10
3.876894347726465
 20
-30.66034650976939
 30
0.0
 10
5.580658394448164
 20
-30.61594697899215
 30
0.0
 10
7.089576734246372
 20
-30.57336904622678
 30
0.0
 10
8.368609033739698
 20
-30.53288407538935
 30
0.0
 10
9.389759138439546
 20
-30.48901974854509
 30
0.0
 10
10.09566697154053
 20
-30.44455838601992
 30
0.0
 10
10.46908822649133
 20
-30.40606119904003
 30
0.0
 10
10.46405895770729
 20
-30.38368716788597
 30
0.0
 10
10.46212278022191
 20
-30.37507357071349
 30
0.0
  0
SPLINE
  5
141
330
1F
100
AcDbEntity
  8
0
  6
Continuous
 62
     7
370
    25
100
AcDbSpline
210
0.0
220
0.0
230
1.0
 70
     8
 71
     3
 72
    25
 73
    21
 74
     0
 42
0.000000001
 43
0.00000001
 40
0.0
 40
0.0
 40
0.0
 40
0.0
 40
0.0387197310006552
 40
0.0971962206613912
 40
0.1546111990484981
 40
0.2088393645779315
 40
0.2658753152698329
 40
0.3239179161081109
 40
0.3826593386047234
 40
0.4411381586047522
 40
0.4984340842774867
 40
0.5559943333682077
 40
0.6145912080956354
 40
0.6732772260041225
 40
0.7310963184803261
 40
0.788208884799427
 40
0.8465349539394129
 40
0.9053007555554913
 40
0.9635425043182652
 40
1.0
 40
1.0
 40
1.0
 40
1.0
 10
-10.45486975863825
 20
-29.61532664409699
 30
0.0
 10
-10.43723312973854
 20
-29.60610751213543
 30
0.0
 10
-10.39296077479291
 20
-29.5829651823391
 30
0.0
 10
-9.938997154351489
 20
-29.54378229387243
 30
0.0
 10
-9.173602266827444
 20
-29.50068782751617
 30
0.0
 10
-8.127107601381564
 20
-29.45864066902336
 30
0.0
 10
-6.834447717022601
 20
-29.41930181028091
 30
0.0
 10
-5.287737696127961
 20
-29.37611390301251
 30
0.0
 10
-3.555241041231005
 20
-29.33167277751752
 30
0.0
 10
-1.71395180581009
 20
-29.28752129570431
 30
0.0
 10
0.1693108107913358
 20
-29.24648262438395
 30
0.0
 10
2.048584073255019
 20
-29.2046525286421
 30
0.0
 10
3.876894343743428
 20
-29.16034650979401
 30
0.0
 10
5.580658395498931
 20
-29.11594697898566
 30
0.0
 10
7.089576733970593
 20
-29.07336904622849
 30
0.0
 10
8.368609033814936
 20
-29.03288407538889
 30
0.0
 10
9.389759138419013
 20
-28.98901974854522
 30
0.0
 10
10.09566697154606
 20
-28.9445583860199
 30
0.0
 10
10.46908822649054
 20
-28.90606119904004
 30
0.0
 10
10.46405895770707
 20
-28.88368716788596
 30
0.0
 10
10.46212278022191
 20
-28.87507357071349
 30
0.0
  0
SPLINE
  5
142
330
1F
100
AcDbEntity
  8
0
  6
Continuous
 62
     7
370
    25
100
AcDbSpline
210
0.0
220
0.0
230
1.0
 70
     8
 71
     3
 72
    25
 73
    21
 74
     0
 42
0.000000001
 43
0.00000001
 40
0.0
 40
0.0
 40
0.0
 40
0.0
 40
0.0380661710413786
 40
0.0965824179856393
 40
0.1540364319507631
 40
0.208301466392207
 40
0.2653761949669107
 40
0.3234582580942459
 40
0.3822396179982233
 40
0.4407581968661394
 40
0.4980930771747455
 40
0.5556924606108442
 40
0.6143291744697881
 40
0.6730550921168961
 40
0.7309134949221919
 40
0.7880648912139049
 40
0.8464306153687717
 40
0.9052363709672107
 40
0.9635177174167124
 40
1.0
 40
1.0
 40
1.0
 40
1.0
 10
-10.45326992187163
 20
-28.11483718508673
 30
0.0
 10
-10.43581729062069
 20
-28.10577904772118
 30
0.0
 10
-10.39153604876435
 20
-28.0827965205776
 30
0.0
 10
-9.938821137030818
 20
-28.04378120616142
 30
0.0
 10
-9.173646101477605
 20
-28.00068809839537
 30
0.0
 10
-8.127095483796122
 20
-27.95864059414191
 30
0.0
 10
-6.834451096711117
 20
-27.91930183116592
 30
0.0
 10
-5.287736771447629
 20
-27.8761138972984
 30
0.0
 10
-3.555241289177904
 20
-27.83167277904973
 30
0.0
 10
-1.713951741003486
 20
-27.78752129530384
 30
0.0
 10
0.1693107934984256
 20
-27.74648262449082
 30
0.0
 10
2.048584077990741
 20
-27.70465252861282
 30
0.0
 10
3.876894342462106
 20
-27.66034650980193
 30
0.0
 10
5.580658395836963
 20
-27.61594697898358
 30
0.0
 10
7.089576733881879
 20
-27.57336904622904
 30
0.0
 10
8.368609033839139
 20
-27.53288407538874
 30
0.0
 10
9.38975913841241
 20
-27.48901974854526
 30
0.0
 10
10.09566697154783
 20
-27.44455838601987
 30
0.0
 10
10.46908822649028
 20
-27.40606119904004
 30
0.0
 10
10.464058957707
 20
-27.38368716788597
 30
0.0
 10
10.46212278022191
 20
-27.37507357071349
 30
0.0
  0
SPLINE
  5
143
330
1F
100
AcDbEntity
  8
0
  6
Continuous
 62
     7
370
    25
100
AcDbSpline
210
0.0
220
0.0
230
1.0
 70
     8
 71
     3
 72
    25
 73
    21
 74
     0
 42
0.000000001
 43
0.00000001
 40
0.0
 40
0.0
 40
0.0
 40
0.0
 40
0.0413134554752573
 40
0.0996321639900433
 40
0.1568922253987685
 40
0.2109740726018174
 40
0.2678561290070965
 40
0.3257421194173664
 40
0.3843250459267878
 40
0.4426460784931499
 40
0.4997874084152955
 40
0.5571923485585165
 40
0.6156311173172512
 40
0.6741587887310947
 40
0.7318218738490999
 40
0.7887803391574484
 40
0.8469490330158288
 40
0.9055562728650253
 40
0.9636408738592646
 40
1.0
 40
1.0
 40
1.0
 40
1.0
 10
-10.46124039245375
 20
-26.61727569551718
 30
0.0
 10
-10.44289551335427
 20
-26.60741562565701
 30
0.0
 10
-10.3986547210557
 20
-26.58363692968594
 30
0.0
 10
-9.939672272543651
 20
-26.54378646581126
 30
0.0
 10
-9.173434138090693
 20
-26.50068678855319
 30
0.0
 10
-8.127154078639286
 20
-26.45864095623273
 30
0.0
 10
-6.834434754155128
 20
-26.41930173017598
 30
0.0
 10
-5.28774124275911
 20
-26.37611392492918
 30
0.0
 10
-3.555240090225391
 20
-26.33167277164072
 30
0.0
 10
-1.713952054377223
 20
-26.28752129724035
 30
0.0
 10
0.1693108771186717
 20
-26.24648262397407
 30
0.0
 10
2.048584055091045
 20
-26.20465252875433
 30
0.0
 10
3.87689434865798
 20
-26.16034650976363
 30
0.0
 10
5.58065839420242
 20
-26.11594697899367
 30
0.0
 10
7.089576734310866
 20
-26.07336904622638
 30
0.0
 10
8.3686090337221
 20
-26.03288407538945
 30
0.0
 10
9.389759138444344
 20
-25.98901974854506
 30
0.0
 10
10.09566697153924
 20
-25.94455838601993
 30
0.0
 10
10.46908822649151
 20
-25.90606119904002
 30
0.0
 10
10.46405895770734
 20
-25.88368716788596
 30
0.0
 10
10.46212278022191
 20
-25.87507357071349
 30
0.0
  0
SPLINE
  5
144
330
1F
100
AcDbEntity
  8
0
  6
Continuous
 62
     7
370
    25
100
AcDbSpline
210
0.0
220
0.0
230
1.0
 70
     8
 71
     3
 72
    25
 73
    21
 74
     0
 42
0.000000001
 43
0.00000001
 40
0.0
 40
0.0
 40
0.0
 40
0.0
 40
0.0398375473266758
 40
0.0982460381145137
 40
0.1555942519977929
 40
0.2097593587807673
 40
0.2667289857178703
 40
0.3247040922270604
 40
0.3833772077759513
 40
0.4417880261932675
 40
0.4990173258015785
 40
0.5565106414617087
 40
0.6150393773275198
 40
0.6736571527150246
 40
0.7314090107668777
 40
0.7884551642393706
 40
0.8467134094216412
 40
0.9054108757409527
 40
0.963584898597222
 40
1.0
 40
1.0
 40
1.0
 40
1.0
 10
-10.45761108766017
 20
-25.11616533477959
 30
0.0
 10
-10.43966500292803
 20
-25.10667037369689
 30
0.0
 10
-10.39540696389408
 20
-25.08325421554894
 30
0.0
 10
-9.939292613122577
 20
-25.04378411968002
 30
0.0
 10
-9.173528686955763
 20
-25.00068737282434
 30
0.0
 10
-8.127127941691764
 20
-24.95864079471769
 30
0.0
 10
-6.834442043952407
 20
-24.91930177522378
 30
0.0
 10
-5.287739248275858
 20
-24.87611391260413
 30
0.0
 10
-3.555240625032846
 20
-24.83167277494559
 30
0.0
 10
-1.713951914593028
 20
-24.78752129637655
 30
0.0
 10
0.1693108398188349
 20
-24.74648262420457
 30
0.0
 10
2.048584065305735
 20
-24.70465252869122
 30
0.0
 10
3.876894345894236
 20
-24.66034650978072
 30
0.0
 10
5.580658394931524
 20
-24.61594697898917
 30
0.0
 10
7.089576734119512
 20
-24.57336904622757
 30
0.0
 10
8.368609033774309
 20
-24.53288407538914
 30
0.0
 10
9.389759138430097
 20
-24.48901974854515
 30
0.0
 10
10.09566697154307
 20
-24.44455838601991
 30
0.0
 10
10.46908822649097
 20
-24.40606119904004
 30
0.0
 10
10.46405895770719
 20
-24.38368716788597
 30
0.0
 10
10.46212278022191
 20
-24.37507357071349
 30
0.0
  0
SPLINE
  5
145
330
1F
100
AcDbEntity
  8
0
  6
Continuous
 62
     7
370
    25
100
AcDbSpline
210
0.0
220
0.0
230
1.0
 70
     8
 71
     3
 72
    25
 73
    21
 74
     0
 42
0.000000001
 43
0.00000001
 40
0.0
 40
0.0
 40
0.0
 40
0.0
 40
0.0376644098039197
 40
0.0962050966411086
 40
0.1536831068469849
 40
0.2079708056201443
 40
0.2650693720232823
 40
0.3231756937023533
 40
0.381981604226325
 40
0.4405246239611205
 40
0.4978834507531217
 40
0.5555068911449792
 40
0.6141680952110572
 40
0.6729185403221493
 40
0.7308011082652213
 40
0.7879763744064034
 40
0.8463664755868575
 40
0.9051967919943954
 40
0.963502480228296
 40
1.0
 40
1.0
 40
1.0
 40
1.0
 10
-10.45228753681014
 20
-23.61453663116153
 30
0.0
 10
-10.43494916345118
 20
-23.60557736093035
 30
0.0
 10
-10.39066226520209
 20
-23.58269295990264
 30
0.0
 10
-9.938711708929535
 20
-23.54378052994302
 30
0.0
 10
-9.173673353014667
 20
-23.5006882667981
 30
0.0
 10
-8.127087950421789
 20
-23.45864054758891
 30
0.0
 10
-6.834453197827613
 20
-23.4193018441499
 30
0.0
 10
-5.287736196583682
 20
-23.37611389374599
 30
0.0
 10
-3.555241443323864
 20
-23.33167278000229
 30
0.0
 10
-1.713951700713902
 20
-23.28752129505487
 30
0.0
 10
0.1693107827476018
 20
-23.24648262455724
 30
0.0
 10
2.048584080934897
 20
-23.20465252859464
 30
0.0
 10
3.876894341665518
 20
-23.16034650980684
 30
0.0
 10
5.580658396047107
 20
-23.11594697898227
 30
0.0
 10
7.089576733826726
 20
-23.07336904622937
 30
0.0
 10
8.36860903385419
 20
-23.03288407538865
 30
0.0
 10
9.389759138408303
 20
-22.98901974854528
 30
0.0
 10
10.09566697154894
 20
-22.94455838601987
 30
0.0
 10
10.46908822649013
 20
-22.90606119904004
 30
0.0
 10
10.46405895770695
 20
-22.88368716788596
 30
0.0
 10
10.46212278022191
 20
-22.87507357071349
 30
0.0
  0
SPLINE
  5
146
330
1F
100
AcDbEntity
  8
0
  6
Continuous
 62
     7
370
    25
100
AcDbSpline
210
0.0
220
0.0
230
1.0
 70
    24
 71
     3
 72
    10
 73
     6
 74
     0
 42
0.000000001
 43
0.00000001
 40
0.0
 40
0.0
 40
0.0
 40
0.0
 40
0.3978673313992363
 40
0.747489364233523
 40
0.9999999999999999
 40
0.9999999999999999
 40
0.9999999999999999
 40
0.9999999999999999
 10
-9.108923826633184
 20
-32.50000000000001
 30
0.0
 10
-9.382894128796115
 20
-32.5
 30
0.0
 10
-9.897613159037734
 20
-32.49999999999998
 30
0.0
 10
-10.24999936197584
 20
-32.49999999999998
 30
0.0
 10
-10.25776954893176
 20
-32.49999999999999
 30
0.0
 10
-10.26102805814506
 20
-32.49999999999999
 30
0.0
  0
LWPOLYLINE
  5
149
330
1F
100
AcDbEntity
  8
0
  6
Continuous
 62
     7
370
    25
100
AcDbPolyline
 90
        9
 70
   128
 43
0.0
 10
54.8
 20
0.1
 10
54.8390180644
 20
0.098078528
 10
54.8765366865
 20
0.0923879533
 10
54.9111140466
 20
0.0831469612
 10
54.9414213562
 20
0.0707106781
 10
54.9662939225
 20
0.0555570233
 10
54.9847759065
 20
0.0382683432
 10
54.9961570561
 20
0.0195090322
 10
55.0
 20
0.0
  0
LWPOLYLINE
  5
14A
330
1F
100
AcDbEntity
  8
0
  6
Continuous
 62
     7
370
    25
100
AcDbPolyline
 90
        9
 70
   128
 43
0.0
 10
54.8
 20
-0.1
 10
54.8390180644
 20
-0.098078528
 10
54.8765366865
 20
-0.0923879533
 10
54.9111140466
 20
-0.0831469612
 10
54.9414213562
 20
-0.0707106781
 10
54.9662939225
 20
-0.0555570233
 10
54.9847759065
 20
-0.0382683432
 10
54.9961570561
 20
-0.0195090322
 10
55.0
 20
0.0
  0
LWPOLYLINE
  5
14C
330
1F
100
AcDbEntity
  8
0
  6
Continuous
 62
     7
370
    25
100
AcDbPolyline
 90
        9
 70
   128
 43
0.0
 10
40.0
 20
0.0
 10
40.0038429439
 20
0.0195090322
 10
40.0152240935
 20
0.0382683432
 10
40.0337060775
 20
0.0555570233
 10
40.0585786438
 20
0.0707106781
 10
40.0888859534
 20
0.0831469612
 10
40.1234633135
 20
0.0923879533
 10
40.1609819356
 20
0.098078528
 10
40.2
 20
0.1
  0
LWPOLYLINE
  5
14E
330
1F
100
AcDbEntity
  8
0
  6
Continuous
 62
     7
370
    25
100
AcDbPolyline
 90
        9
 70
   128
 43
0.0
 10
40.0
 20
0.0
 10
40.0038429439
 20
-0.0195090322
 10
40.0152240935
 20
-0.0382683432
 10
40.0337060775
 20
-0.0555570233
 10
40.0585786438
 20
-0.0707106781
 10
40.0888859534
 20
-0.0831469612
 10
40.1234633135
 20
-0.0923879533
 10
40.1609819356
 20
-0.098078528
 10
40.2
 20
-0.1
  0
LWPOLYLINE
  5
153
330
1F
100
AcDbEntity
  8
0
  6
Continuous
 62
     7
370
    25
100
AcDbPolyline
 90
        9
 70
   128
 43
0.0
 10
40.2
 20
-14.9
 10
40.1609819356
 20
-14.898078528
 10
40.1234633135
 20
-14.8923879533
 10
40.0888859534
 20
-14.8831469612
 10
40.0585786438
 20
-14.8707106781
 10
40.0337060775
 20
-14.8555570233
 10
40.0152240935
 20
-14.8382683432
 10
40.0038429439
 20
-14.8195090322
 10
40.0
 20
-14.8
  0
LWPOLYLINE
  5
158
330
1F
100
AcDbEntity
  8
0
  6
Continuous
 62
     7
370
    25
100
AcDbPolyline
 90
        9
 70
   128
 43
0.0
 10
40.0
 20
14.8
 10
40.0038429439
 20
14.8195090322
 10
40.0152240935
 20
14.8382683432
 10
40.0337060775
 20
14.8555570233
 10
40.0585786438
 20
14.8707106781
 10
40.0888859534
 20
14.8831469612
 10
40.1234633135
 20
14.8923879533
 10
40.1609819356
 20
14.898078528
 10
40.2
 20
14.9
  0
LWPOLYLINE
  5
15B
330
1F
100
AcDbEntity
  8
0
  6
Continuous
 62
     7
370
    25
100
AcDbPolyline
 90
        9
 70
   128
 43
0.0
 10
54.8
 20
14.9
 10
54.8390180644
 20
14.898078528
 10
54.8765366865
 20
14.8923879533
 10
54.9111140466
 20
14.8831469612
 10
54.9414213562
 20
14.8707106781
 10
54.9662939225
 20
14.8555570233
 10
54.9847759065
 20
14.8382683432
 10
54.9961570561
 20
14.8195090322
 10
55.0
 20
14.8
  0
LWPOLYLINE
  5
15C
330
1F
100
AcDbEntity
  8
0
  6
Continuous
 62
     7
370
    25
100
AcDbPolyline
 90
        9
 70
   128
 43
0.0
 10
55.0
 20
-14.8
 10
54.9961570561
 20
-14.8195090322
 10
54.9847759065
 20
-14.8382683432
 10
54.9662939225
 20
-14.8555570233
 10
54.9414213562
 20
-14.8707106781
 10
54.9111140466
 20
-14.8831469612
 10
54.8765366865
 20
-14.8923879533
 10
54.8390180644
 20
-14.898078528
 10
54.8
 20
-14.9
  0
LINE
  5
170
330
1F
100
AcDbEntity
  8
0
  6
Continuous
 62
     7
370
    25
100
AcDbLine
 10
4.0
 20
17.5
 30
0.0
 11
4.0
 21
21.1457513111
 31
0.0
  0
LINE
  5
171
330
1F
100
AcDbEntity
  8
0
  6
Continuous
 62
     7
370
    25
100
AcDbLine
 10
-4.0
 20
21.1457513111
 30
0.0
 11
-4.0
 21
17.5
 31
0.0
  0
LINE
  5
172
330
1F
100
AcDbEntity
  8
0
  6
Continuous
 62
     7
370
    25
100
AcDbLine
 10
30.7
 20
-10.0
 30
0.0
 11
40.0
 21
-10.0
 31
0.0
  0
LINE
  5
173
330
1F
100
AcDbEntity
  8
0
  6
Continuous
 62
     7
370
    25
100
AcDbLine
 10
40.0
 20
10.0
 30
0.0
 11
30.7
 21
10.0
 31
0.0
  0
LINE
  5
174
330
1F
100
AcDbEntity
  8
0
  6
Continuous
 62
     7
370
    25
100
AcDbLine
 10
13.0
 20
17.7
 30
0.0
 11
13.0
 21
19.5
 31
0.0
  0
LINE
  5
175
330
1F
100
AcDbEntity
  8
0
  6
Continuous
 62
     7
370
    25
100
AcDbLine
 10
-13.0
 20
19.5
 30
0.0
 11
-13.0
 21
17.7
 31
0.0
  0
LINE
  5
176
330
1F
100
AcDbEntity
  8
0
  6
Continuous
 62
     7
370
    25
100
AcDbLine
 10
12.0569104732
 20
25.6460631707
 30
0.0
 11
12.0569104732
 21
25.8960631707
 31
0.0
  0
LINE
  5
177
330
1F
100
AcDbEntity
  8
0
  6
Continuous
 62
     7
370
    25
100
AcDbLine
 10
12.0569104732
 20
23.6460631707
 30
0.0
 11
12.0569104732
 21
23.8960631707
 31
0.0
  0
LINE
  5
178
330
1F
100
AcDbEntity
  8
0
  6
Continuous
 62
     7
370
    25
100
AcDbLine
 10
12.0569104732
 20
21.6460631707
 30
0.0
 11
12.0569104732
 21
21.8960631707
 31
0.0
  0
LINE
  5
179
330
1F
100
AcDbEntity
  8
0
  6
Continuous
 62
     7
370
    25
100
AcDbLine
 10
-12.0825282596
 20
26.874754026
 30
0.0
 11
-12.0825282596
 21
26.624754026
 31
0.0
  0
LINE
  5
17A
330
1F
100
AcDbEntity
  8
0
  6
Continuous
 62
     7
370
    25
100
AcDbLine
 10
-12.0825282596
 20
24.874754026
 30
0.0
 11
-12.0825282596
 21
24.624754026
 31
0.0
  0
LINE
  5
17B
330
1F
100
AcDbEntity
  8
0
  6
Continuous
 62
     7
370
    25
100
AcDbLine
 10
-12.0825282596
 20
22.874754026
 30
0.0
 11
-12.0825282596
 21
22.624754026
 31
0.0
  0
LINE
  5
17C
330
1F
100
AcDbEntity
  8
0
  6
Continuous
 62
     7
370
    25
100
AcDbLine
 10
-12.0825282596
 20
28.874754026
 30
0.0
 11
-12.0825282596
 21
28.624754026
 31
0.0
  0
LINE
  5
17D
330
1F
100
AcDbEntity
  8
0
  6
Continuous
 62
     7
370
    25
100
AcDbLine
 10
12.0569104732
 20
27.6460631707
 30
0.0
 11
12.0569104732
 21
27.8960631707
 31
0.0
  0
LINE
  5
17E
330
1F
100
AcDbEntity
  8
0
  6
Continuous
 62
     7
370
    25
100
AcDbLine
 10
11.0
 20
28.4999756296
 30
0.0
 11
11.0
 21
28.9917784753
 31
0.0
  0
LINE
  5
17F
330
1F
100
AcDbEntity
  8
0
  6
Continuous
 62
     7
370
    25
100
AcDbLine
 10
11.0
 20
26.4999756296
 30
0.0
 11
11.0
 21
26.9917784753
 31
0.0
  0
LINE
  5
180
330
1F
100
AcDbEntity
  8
0
  6
Continuous
 62
     7
370
    25
100
AcDbLine
 10
11.0
 20
24.4999756296
 30
0.0
 11
11.0
 21
24.9917784753
 31
0.0
  0
LINE
  5
181
330
1F
100
AcDbEntity
  8
0
  6
Continuous
 62
     7
370
    25
100
AcDbLine
 10
11.0
 20
22.4999756296
 30
0.0
 11
11.0
 21
22.9917784753
 31
0.0
  0
LINE
  5
182
330
1F
100
AcDbEntity
  8
0
  6
Continuous
 62
     7
370
    25
100
AcDbLine
 10
11.0
 20
19.5
 30
0.0
 11
11.0
 21
20.9917784753
 31
0.0
  0
LINE
  5
183
330
1F
100
AcDbEntity
  8
0
  6
Continuous
 62
     7
370
    25
100
AcDbLine
 10
-11.0
 20
22.0000657658
 30
0.0
 11
-11.0
 21
19.5
 31
0.0
  0
LINE
  5
184
330
1F
100
AcDbEntity
  8
0
  6
Continuous
 62
     7
370
    25
100
AcDbLine
 10
-11.0
 20
24.0000657658
 30
0.0
 11
-11.0
 21
23.5082076618
 31
0.0
  0
LINE
  5
185
330
1F
100
AcDbEntity
  8
0
  6
Continuous
 62
     7
370
    25
100
AcDbLine
 10
-11.0
 20
26.0000657658
 30
0.0
 11
-11.0
 21
25.5082076618
 31
0.0
  0
LINE
  5
186
330
1F
100
AcDbEntity
  8
0
  6
Continuous
 62
     7
370
    25
100
AcDbLine
 10
-11.0
 20
28.0000657658
 30
0.0
 11
-11.0
 21
27.5082076618
 31
0.0
  0
LINE
  5
187
330
1F
100
AcDbEntity
  8
0
  6
Continuous
 62
     7
370
    25
100
AcDbLine
 10
-10.5
 20
-31.1249212932
 30
0.0
 11
-10.5
 21
-31.3123909511
 31
0.0
  0
LINE
  5
188
330
1F
100
AcDbEntity
  8
0
  6
Continuous
 62
     7
370
    25
100
AcDbLine
 10
-10.5
 20
-29.6249212932
 30
0.0
 11
-10.5
 21
-29.8123909511
 31
0.0
  0
LINE
  5
189
330
1F
100
AcDbEntity
  8
0
  6
Continuous
 62
     7
370
    25
100
AcDbLine
 10
-10.5
 20
-28.1249212932
 30
0.0
 11
-10.5
 21
-28.3123909511
 31
0.0
  0
LINE
  5
18A
330
1F
100
AcDbEntity
  8
0
  6
Continuous
 62
     7
370
    25
100
AcDbLine
 10
-10.5
 20
-26.6249212932
 30
0.0
 11
-10.5
 21
-26.8123909511
 31
0.0
  0
LINE
  5
18B
330
1F
100
AcDbEntity
  8
0
  6
Continuous
 62
     7
370
    25
100
AcDbLine
 10
-10.5
 20
-25.1249212932
 30
0.0
 11
-10.5
 21
-25.3123909511
 31
0.0
  0
LINE
  5
18C
330
1F
100
AcDbEntity
  8
0
  6
Continuous
 62
     7
370
    25
100
AcDbLine
 10
-10.5
 20
-23.6249212932
 30
0.0
 11
-10.5
 21
-23.8123909511
 31
0.0
  0
LINE
  5
18D
330
1F
100
AcDbEntity
  8
0
  6
Continuous
 62
     7
370
    25
100
AcDbLine
 10
-10.5
 20
-17.7
 30
0.0
 11
-10.5
 21
-22.3123909511
 31
0.0
  0
LINE
  5
18E
330
1F
100
AcDbEntity
  8
0
  6
Continuous
 62
     7
370
    25
100
AcDbLine
 10
10.5
 20
-21.5626040844
 30
0.0
 11
10.5
 21
-17.7
 31
0.0
  0
LINE
  5
18F
330
1F
100
AcDbEntity
  8
0
  6
Continuous
 62
     7
370
    25
100
AcDbLine
 10
10.5
 20
-23.0626040844
 30
0.0
 11
10.5
 21
-22.8750735707
 31
0.0
  0
LINE
  5
190
330
1F
100
AcDbEntity
  8
0
  6
Continuous
 62
     7
370
    25
100
AcDbLine
 10
10.5
 20
-24.5626040844
 30
0.0
 11
10.5
 21
-24.3750735707
 31
0.0
  0
LINE
  5
191
330
1F
100
AcDbEntity
  8
0
  6
Continuous
 62
     7
370
    25
100
AcDbLine
 10
10.5
 20
-26.0626040844
 30
0.0
 11
10.5
 21
-25.8750735707
 31
0.0
  0
LINE
  5
192
330
1F
100
AcDbEntity
  8
0
  6
Continuous
 62
     7
370
    25
100
AcDbLine
 10
10.5
 20
-27.5626040844
 30
0.0
 11
10.5
 21
-27.3750735707
 31
0.0
  0
LINE
  5
193
330
1F
100
AcDbEntity
  8
0
  6
Continuous
 62
     7
370
    25
100
AcDbLine
 10
10.5
 20
-29.0626040844
 30
0.0
 11
10.5
 21
-28.8750735707
 31
0.0
  0
LINE
  5
194
330
1F
100
AcDbEntity
  8
0
  6
Continuous
 62
     7
370
    25
100
AcDbLine
 10
10.5
 20
-30.5626040844
 30
0.0
 11
10.5
 21
-30.3750735707
 31
0.0
  0
LINE
  5
195
330
1F
100
AcDbEntity
  8
0
  6
Continuous
 62
     7
370
    25
100
AcDbLine
 10
10.5
 20
-32.0626040844
 30
0.0
 11
10.5
 21
-31.8750735707
 31
0.0
  0
LINE
  5
196
330
1F
100
AcDbEntity
  8
0
  6
Continuous
 62
     7
370
    25
100
AcDbLine
 10
-9.6880991427
 20
-31.7813970723
 30
0.0
 11
-9.6880991427
 21
-32.1516108956
 31
0.0
  0
LINE
  5
197
330
1F
100
AcDbEntity
  8
0
  6
Continuous
 62
     7
370
    25
100
AcDbLine
 10
17.3
 20
-17.5
 30
0.0
 11
17.3
 21
17.5
 31
0.0
  0
LINE
  5
198
330
1F
100
AcDbEntity
  8
0
  6
Continuous
 62
     7
370
    25
100
AcDbLine
 10
-17.3
 20
17.5
 30
0.0
 11
-17.3
 21
-17.5
 31
0.0
  0
LINE
  5
199
330
1F
100
AcDbEntity
  8
0
  6
Continuous
 62
     7
370
    25
100
AcDbLine
 10
-17.3
 20
17.5
 30
0.0
 11
30.3
 21
17.5
 31
0.0
  0
LINE
  5
19A
330
1F
100
AcDbEntity
  8
0
  6
Continuous
 62
     7
370
    25
100
AcDbLine
 10
-17.5
 20
-17.3
 30
0.0
 11
-17.5
 21
17.3
 31
0.0
  0
LINE
  5
19B
330
1F
100
AcDbEntity
  8
0
  6
Continuous
 62
     7
370
    25
100
AcDbLine
 10
30.3
 20
-17.5
 30
0.0
 11
-17.3
 21
-17.5
 31
0.0
  0
LINE
  5
19C
330
1F
100
AcDbEntity
  8
0
  6
Continuous
 62
     7
370
    25
100
AcDbLine
 10
17.5
 20
17.3
 30
0.0
 11
17.5
 21
-17.3
 31
0.0
  0
LINE
  5
19D
330
1F
100
AcDbEntity
  8
0
  6
Continuous
 62
     7
370
    25
100
AcDbLine
 10
55.0
 20
-28.0
 30
0.0
 11
55.0
 21
28.0
 31
0.0
  0
LINE
  5
19E
330
1F
100
AcDbEntity
  8
0
  6
Continuous
 62
     7
370
    25
100
AcDbLine
 10
75.0
 20
22.5
 30
0.0
 11
55.0
 21
22.5
 31
0.0
  0
LINE
  5
19F
330
1F
100
AcDbEntity
  8
0
  6
Continuous
 62
     7
370
    25
100
AcDbLine
 10
57.0
 20
30.0
 30
0.0
 11
75.0
 21
30.0
 31
0.0
  0
LINE
  5
1A0
330
1F
100
AcDbEntity
  8
0
  6
Continuous
 62
     7
370
    25
100
AcDbLine
 10
75.0
 20
30.0
 30
0.0
 11
75.0
 21
-30.0
 31
0.0
  0
LINE
  5
1A1
330
1F
100
AcDbEntity
  8
0
  6
Continuous
 62
     7
370
    25
100
AcDbLine
 10
75.0
 20
-30.0
 30
0.0
 11
57.0
 21
-30.0
 31
0.0
  0
LINE
  5
1A2
330
1F
100
AcDbEntity
  8
0
  6
Continuous
 62
     7
370
    25
100
AcDbLine
 10
57.0
 20
30.0
 30
0.0
 11
57.0
 21
-30.0
 31
0.0
  0
LINE
  5
1A3
330
1F
100
AcDbEntity
  8
0
  6
Continuous
 62
     7
370
    25
100
AcDbLine
 10
55.0
 20
-22.5
 30
0.0
 11
75.0
 21
-22.5
 31
0.0
  0
LINE
  5
1A4
330
1F
100
AcDbEntity
  8
0
  6
Continuous
 62
     7
370
    25
100
AcDbLine
 10
30.5
 20
17.3
 30
0.0
 11
-17.5
 21
17.3
 31
0.0
  0
LINE
  5
1A5
330
1F
100
AcDbEntity
  8
0
  6
Continuous
 62
     7
370
    25
100
AcDbLine
 10
-17.5
 20
-17.3
 30
0.0
 11
30.5
 21
-17.3
 31
0.0
  0
LINE
  5
1A6
330
1F
100
AcDbEntity
  8
0
  6
Continuous
 62
     7
370
    25
100
AcDbLine
 10
30.3
 20
-17.5
 30
0.0
 11
30.3
 21
17.5
 31
0.0
  0
LINE
  5
1A7
330
1F
100
AcDbEntity
  8
0
  6
Continuous
 62
     7
370
    25
100
AcDbLine
 10
30.5
 20
17.3
 30
0.0
 11
30.5
 21
-17.3
 31
0.0
  0
LINE
  5
1A8
330
1F
100
AcDbEntity
  8
0
  6
Continuous
 62
     7
370
    25
100
AcDbLine
 10
-13.0
 20
19.5
 30
0.0
 11
-4.0
 21
19.5
 31
0.0
  0
LINE
  5
1A9
330
1F
100
AcDbEntity
  8
0
  6
Continuous
 62
     7
370
    25
100
AcDbLine
 10
4.0
 20
19.5
 30
0.0
 11
13.0
 21
19.5
 31
0.0
  0
LINE
  5
1AA
330
1F
100
AcDbEntity
  8
0
  6
Continuous
 62
     7
370
    25
100
AcDbLine
 10
0.0
 20
-32.5
 30
0.0
 11
0.0
 21
-32.4375000041
 31
0.0
  0
LINE
  5
1AB
330
1F
100
AcDbEntity
  8
0
  6
Continuous
 62
     7
370
    25
100
AcDbLine
 10
0.0
 20
-32.5
 30
0.0
 11
-9.1089238266
 21
-32.5
 31
0.0
  0
LINE
  5
1AC
330
1F
100
AcDbEntity
  8
0
  6
Continuous
 62
     7
370
    25
100
AcDbLine
 10
54.8
 20
-15.0
 30
0.0
 11
54.8
 21
15.0
 31
0.0
  0
LINE
  5
1AD
330
1F
100
AcDbEntity
  8
0
  6
Continuous
 62
     7
370
    25
100
AcDbLine
 10
40.2
 20
15.0
 30
0.0
 11
40.2
 21
-15.0
 31
0.0
  0
LINE
  5
1AE
330
1F
100
AcDbEntity
  8
0
  6
Continuous
 62
     7
370
    25
100
AcDbLine
 10
54.8
 20
-0.1
 30
0.0
 11
40.2
 21
-0.1
 31
0.0
  0
LINE
  5
1AF
330
1F
100
AcDbEntity
  8
0
  6
Continuous
 62
     7
370
    25
100
AcDbLine
 10
40.2
 20
0.1
 30
0.0
 11
54.8
 21
0.1
 31
0.0
  0
LINE
  5
1B0
330
1F
100
AcDbEntity
  8
0
  6
Continuous
 62
     7
370
    25
100
AcDbLine
 10
40.0
 20
-14.8
 30
0.0
 11
40.0
 21
14.8
 31
0.0
  0
LINE
  5
1B1
330
1F
100
AcDbEntity
  8
0
  6
Continuous
 62
     7
370
    25
100
AcDbLine
 10
54.8
 20
14.9
 30
0.0
 11
40.2
 21
14.9
 31
0.0
  0
LINE
  5
1B2
330
1F
100
AcDbEntity
  8
0
  6
Continuous
 62
     7
370
    25
100
AcDbLine
 10
40.2
 20
-14.9
 30
0.0
 11
54.8
 21
-14.9
 31
0.0
  0
LINE
  5
1B3
330
1F
100
AcDbEntity
  8
0
  6
Continuous
 62
     7
370
    25
100
AcDbLine
 10
40.2
 20
15.0
 30
0.0
 11
54.8
 21
15.0
 31
0.0
  0
LINE
  5
1B4
330
1F
100
AcDbEntity
  8
0
  6
Continuous
 62
     7
370
    25
100
AcDbLine
 10
54.8
 20
-15.0
 30
0.0
 11
40.2
 21
-15.0
 31
0.0
  0
LINE
  5
1B5
330
1F
100
AcDbEntity
  8
0
  6
Continuous
 62
     8
370
    25
100
AcDbLine
 10
-3.75
 20
21.8071891388
 30
0.0
 11
3.75
 21
21.8071891388
 31
0.0
  0
LINE
  5
1B6
330
1F
100
AcDbEntity
  8
0
  6
Continuous
 62
     8
370
    25
100
AcDbLine
 10
4.0
 20
21.1457513111
 30
0.0
 11
-4.0
 21
21.1457513111
 31
0.0
  0
LINE
  5
1B7
330
1F
100
AcDbEntity
  8
0
  6
Continuous
 62
     8
370
    25
100
AcDbLine
 10
30.7
 20
10.0
 30
0.0
 11
30.7
 21
-10.0
 31
0.0
  0
LINE
  5
1B8
330
1F
100
AcDbEntity
  8
0
  6
Continuous
 62
     8
370
    25
100
AcDbLine
 10
-13.0
 20
17.7
 30
0.0
 11
-4.0
 21
17.7
 31
0.0
  0
LINE
  5
1B9
330
1F
100
AcDbEntity
  8
0
  6
Continuous
 62
     8
370
    25
100
AcDbLine
 10
4.0
 20
17.7
 30
0.0
 11
13.0
 21
17.7
 31
0.0
  0
LINE
  5
1BA
330
1F
100
AcDbEntity
  8
0
  6
Continuous
 62
     8
370
    25
100
AcDbLine
 10
10.5
 20
-17.7
 30
0.0
 11
-10.5
 21
-17.7
 31
0.0
  0
ARC
  5
1BB
330
1F
100
AcDbEntity
  8
0
  6
Continuous
 62
     7
370
    25
100
AcDbCircle
 10
3.0
 20
21.1457513111
 30
0.0
 40
0.9999999999999937
100
AcDbArc
 50
0.0
 51
41.4096221093
  0
ARC
  5
1BC
330
1F
100
AcDbEntity
  8
0
  6
Continuous
 62
     7
370
    25
100
AcDbCircle
 10
-3.0
 20
21.1457513111
 30
0.0
 40
1.000000000000011
100
AcDbArc
 50
138.5903778907
 51
180.0
  0
ARC
  5
1BD
330
1F
100
AcDbEntity
  8
0
  6
Continuous
 62
     7
370
    25
100
AcDbCircle
 10
0.0
 20
18.5
 30
0.0
 40
5.000000000000021
100
AcDbArc
 50
41.4096221093
 51
138.5903778907
  0
ARC
  5
1BE
330
1F
100
AcDbEntity
  8
0
  6
Continuous
 62
     7
370
    25
100
AcDbCircle
 10
30.7
 20
-10.2
 30
0.0
 40
0.2000000000000099
100
AcDbArc
 50
90.0
 51
180.0
  0
ARC
  5
1BF
330
1F
100
AcDbEntity
  8
0
  6
Continuous
 62
     7
370
    25
100
AcDbCircle
 10
30.7
 20
10.2
 30
0.0
 40
0.2000000000000028
100
AcDbArc
 50
180.0
 51
270.0
  0
ARC
  5
1C0
330
1F
100
AcDbEntity
  8
0
  6
Continuous
 62
     7
370
    25
100
AcDbCircle
 10
13.2
 20
17.7
 30
0.0
 40
0.2000000000000028
100
AcDbArc
 50
180.0
 51
270.0
  0
ARC
  5
1C1
330
1F
100
AcDbEntity
  8
0
  6
Continuous
 62
     7
370
    25
100
AcDbCircle
 10
-13.2
 20
17.7
 30
0.0
 40
0.1999999999999886
100
AcDbArc
 50
270.0
 51
0.0
  0
ARC
  5
1C2
330
1F
100
AcDbEntity
  8
0
  6
Continuous
 62
     7
370
    25
100
AcDbCircle
 10
-10.7
 20
-17.7
 30
0.0
 40
0.2000000000000064
100
AcDbArc
 50
0.0
 51
90.0
  0
ARC
  5
1C3
330
1F
100
AcDbEntity
  8
0
  6
Continuous
 62
     7
370
    25
100
AcDbCircle
 10
10.7
 20
-17.7
 30
0.0
 40
0.199999999999994
100
AcDbArc
 50
90.0
 51
180.0
  0
ARC
  5
1C4
330
1F
100
AcDbEntity
  8
0
  6
Continuous
 62
     7
370
    25
100
AcDbCircle
 10
17.3
 20
-17.3
 30
0.0
 40
0.1999999999999815
100
AcDbArc
 50
270.0
 51
0.0
  0
ARC
  5
1C5
330
1F
100
AcDbEntity
  8
0
  6
Continuous
 62
     7
370
    25
100
AcDbCircle
 10
17.3
 20
17.3
 30
0.0
 40
0.1999999999999815
100
AcDbArc
 50
360.0
 51
90.0
  0
ARC
  5
1C6
330
1F
100
AcDbEntity
  8
0
  6
Continuous
 62
     7
370
    25
100
AcDbCircle
 10
-17.3
 20
-17.3
 30
0.0
 40
0.1999999999999815
100
AcDbArc
 50
180.0
 51
270.0
  0
ARC
  5
1C7
330
1F
100
AcDbEntity
  8
0
  6
Continuous
 62
     7
370
    25
100
AcDbCircle
 10
-17.3
 20
17.3
 30
0.0
 40
0.1999999999999815
100
AcDbArc
 50
90.0
 51
180.0
  0
ARC
  5
1C8
330
1F
100
AcDbEntity
  8
0
  6
Continuous
 62
     7
370
    25
100
AcDbCircle
 10
57.0
 20
28.0
 30
0.0
 40
2.000000000000018
100
AcDbArc
 50
90.0
 51
180.0
  0
ARC
  5
1C9
330
1F
100
AcDbEntity
  8
0
  6
Continuous
 62
     7
370
    25
100
AcDbCircle
 10
57.0
 20
-28.0
 30
0.0
 40
2.000000000000018
100
AcDbArc
 50
180.0
 51
270.0
  0
ARC
  5
1CA
330
1F
100
AcDbEntity
  8
0
  6
Continuous
 62
     7
370
    25
100
AcDbCircle
 10
30.3
 20
17.3
 30
0.0
 40
0.1999999999999957
100
AcDbArc
 50
0.0
 51
90.0
  0
ARC
  5
1CB
330
1F
100
AcDbEntity
  8
0
  6
Continuous
 62
     7
370
    25
100
AcDbCircle
 10
30.3
 20
-17.3
 30
0.0
 40
0.1999999999999957
100
AcDbArc
 50
270.0
 51
0.0
  0
ARC
  5
1CC
330
1F
100
AcDbEntity
  8
0
  6
Continuous
 62
     7
370
    25
100
AcDbCircle
 10
54.8
 20
14.8
 30
0.0
 40
0.1999999999999886
100
AcDbArc
 50
360.0
 51
90.0
  0
ARC
  5
1CD
330
1F
100
AcDbEntity
  8
0
  6
Continuous
 62
     7
370
    25
100
AcDbCircle
 10
54.8
 20
-14.8
 30
0.0
 40
0.2000000000000171
100
AcDbArc
 50
270.0
 51
0.0
  0
ARC
  5
1CE
330
1F
100
AcDbEntity
  8
0
  6
Continuous
 62
     7
370
    25
100
AcDbCircle
 10
40.2
 20
14.8
 30
0.0
 40
0.2000000000000099
100
AcDbArc
 50
90.0
 51
180.0
  0
ARC
  5
1CF
330
1F
100
AcDbEntity
  8
0
  6
Continuous
 62
     7
370
    25
100
AcDbCircle
 10
40.2
 20
-14.8
 30
0.0
 40
0.2000000000000099
100
AcDbArc
 50
180.0
 51
270.0
  0
SPLINE
  5
311
330
23
100
AcDbEntity
 67
     1
  8
0
  6
Continuous
 62
     7
370
    25
100
AcDbSpline
210
0.0
220
0.0
230
1.0
 70
     8
 71
     3
 72
     9
 73
     5
 74
     0
 42
0.000000001
 43
0.00000001
 40
0.0
 40
0.0
 40
0.0
 40
0.0
 40
0.4999811481236939
 40
1.0
 40
1.0
 40
1.0
 40
1.0
 10
10.98692933001512
 20
26.48488217475971
 30
0.0
 10
11.16753689226969
 20
26.58927861524752
 30
0.0
 10
11.52876563645803
 20
26.79807936879509
 30
0.0
 10
11.89000823700266
 20
27.00685589506585
 30
0.0
 10
12.0706363473758
 20
27.11124809403049
 30
0.0
  0
SPLINE
  5
312
330
23
100
AcDbEntity
 67
     1
  8
0
  6
Continuous
 62
     7
370
    25
100
AcDbSpline
210
0.0
220
0.0
230
1.0
 70
     8
 71
     3
 72
     9
 73
     5
 74
     0
 42
0.000000001
 43
0.00000001
 40
0.0
 40
0.0
 40
0.0
 40
0.0
 40
0.4999811481236953
 40
1.0
 40
1.0
 40
1.0
 40
1.0
 10
10.98692933001512
 20
24.48488217475971
 30
0.0
 10
11.16753689226969
 20
24.58927861524753
 30
0.0
 10
11.52876563645803
 20
24.79807936879511
 30
0.0
 10
11.89000823700266
 20
25.00685589506586
 30
0.0
 10
12.0706363473758
 20
25.11124809403049
 30
0.0
  0
SPLINE
  5
313
330
23
100
AcDbEntity
 67
     1
  8
0
  6
Continuous
 62
     7
370
    25
100
AcDbSpline
210
0.0
220
0.0
230
1.0
 70
     8
 71
     3
 72
     9
 73
     5
 74
     0
 42
0.000000001
 43
0.00000001
 40
0.0
 40
0.0
 40
0.0
 40
0.0
 40
0.4999811481236928
 40
1.0
 40
1.0
 40
1.0
 40
1.0
 10
10.98692933001512
 20
22.48488217475971
 30
0.0
 10
11.16753689226969
 20
22.58927861524752
 30
0.0
 10
11.52876563645803
 20
22.79807936879509
 30
0.0
 10
11.89000823700266
 20
23.00685589506585
 30
0.0
 10
12.0706363473758
 20
23.11124809403049
 30
0.0
  0
SPLINE
  5
314
330
23
100
AcDbEntity
 67
     1
  8
0
  6
Continuous
 62
     7
370
    25
100
AcDbSpline
210
0.0
220
0.0
230
1.0
 70
     8
 71
     3
 72
     9
 73
     5
 74
     0
 42
0.000000001
 43
0.00000001
 40
0.0
 40
0.0
 40
0.0
 40
0.0
 40
0.5000032925239266
 40
1.0
 40
1.0
 40
1.0
 40
1.0
 10
-11.80805497720236
 20
28.05750059630342
 30
0.0
 10
-11.63097255428113
 20
27.95323667745018
 30
0.0
 10
-11.27681004061577
 20
27.74471021290046
 30
0.0
 10
-10.92284061685418
 20
27.53617958892085
 30
0.0
 10
-10.74585707042619
 20
27.43191496352312
 30
0.0
  0
SPLINE
  5
315
330
23
100
AcDbEntity
 67
     1
  8
0
  6
Continuous
 62
     7
370
    25
100
AcDbSpline
210
0.0
220
0.0
230
1.0
 70
     8
 71
     3
 72
     9
 73
     5
 74
     0
 42
0.000000001
 43
0.00000001
 40
0.0
 40
0.0
 40
0.0
 40
0.0
 40
0.5000032925239274
 40
1.0
 40
1.0
 40
1.0
 40
1.0
 10
-11.80805497720236
 20
26.05750059630341
 30
0.0
 10
-11.63097255428113
 20
25.95323667745018
 30
0.0
 10
-11.27681004061577
 20
25.74471021290045
 30
0.0
 10
-10.92284061685418
 20
25.53617958892085
 30
0.0
 10
-10.74585707042619
 20
25.43191496352312
 30
0.0
  0
SPLINE
  5
316
330
23
100
AcDbEntity
 67
     1
  8
0
  6
Continuous
 62
     7
370
    25
100
AcDbSpline
210
0.0
220
0.0
230
1.0
 70
     8
 71
     3
 72
     9
 73
     5
 74
     0
 42
0.000000001
 43
0.00000001
 40
0.0
 40
0.0
 40
0.0
 40
0.0
 40
0.5000032925239251
 40
1.0
 40
1.0
 40
1.0
 40
1.0
 10
-11.80805497720236
 20
24.05750059630341
 30
0.0
 10
-11.63097255428113
 20
23.95323667745018
 30
0.0
 10
-11.27681004061575
 20
23.74471021290045
 30
0.0
 10
-10.92284061685418
 20
23.53617958892085
 30
0.0
 10
-10.74585707042619
 20
23.43191496352311
 30
0.0
  0
SPLINE
  5
317
330
23
100
AcDbEntity
 67
     1
  8
0
  6
Continuous
 62
     7
370
    25
100
AcDbSpline
210
0.0
220
0.0
230
1.0
 70
     8
 71
     3
 72
     9
 73
     5
 74
     0
 42
0.000000001
 43
0.00000001
 40
0.0
 40
0.0
 40
0.0
 40
0.0
 40
0.5000032925239264
 40
1.0
 40
1.0
 40
1.0
 40
1.0
 10
-11.80805497720236
 20
22.05750059630341
 30
0.0
 10
-11.63097255428113
 20
21.95323667745018
 30
0.0
 10
-11.27681004061576
 20
21.74471021290045
 30
0.0
 10
-10.92284061685418
 20
21.53617958892085
 30
0.0
 10
-10.74585707042619
 20
21.43191496352312
 30
0.0
  0
SPLINE
  5
318
330
23
100
AcDbEntity
 67
     1
  8
0
  6
Continuous
 62
     7
370
    25
100
AcDbSpline
210
0.0
220
0.0
230
1.0
 70
     8
 71
     3
 72
     9
 73
     5
 74
     0
 42
0.000000001
 43
0.00000001
 40
0.0
 40
0.0
 40
0.0
 40
0.0
 40
0.4999811481236939
 40
1.0
 40
1.0
 40
1.0
 40
1.0
 10
10.98692933001512
 20
28.48488217475971
 30
0.0
 10
11.16753689226969
 20
28.58927861524753
 30
0.0
 10
11.52876563645803
 20
28.79807936879509
 30
0.0
 10
11.89000823700266
 20
29.00685589506585
 30
0.0
 10
12.0706363473758
 20
29.11124809403049
 30
0.0
  0
SPLINE
  5
319
330
23
100
AcDbEntity
 67
     1
  8
0
  6
Continuous
 62
     7
370
    25
100
AcDbSpline
210
0.0
220
0.0
230
1.0
 70
     8
 71
     3
 72
     9
 73
     5
 74
     0
 42
0.000000001
 43
0.00000001
 40
0.0
 40
0.0
 40
0.0
 40
0.0
 40
0.5133289822599799
 40
1.0
 40
1.0
 40
1.0
 40
1.0
 10
12.05520284441909
 20
27.39591451586172
 30
0.0
 10
11.87463042913813
 20
27.50029942780063
 30
0.0
 10
11.52286300216377
 20
27.70364838245997
 30
0.0
 10
11.17116246053446
 20
27.90701914751888
 30
0.0
 10
11.0
 20
28.00599380472866
 30
0.0
  0
SPLINE
  5
31A
330
23
100
AcDbEntity
 67
     1
  8
0
  6
Continuous
 62
     7
370
    25
100
AcDbSpline
210
0.0
220
0.0
230
1.0
 70
     8
 71
     3
 72
     9
 73
     5
 74
     0
 42
0.000000001
 43
0.00000001
 40
0.0
 40
0.0
 40
0.0
 40
0.0
 40
0.5133289822599757
 40
1.0
 40
1.0
 40
1.0
 40
1.0
 10
12.05520284441909
 20
25.39591451586172
 30
0.0
 10
11.87463042913813
 20
25.50029942780063
 30
0.0
 10
11.52286300216377
 20
25.70364838245998
 30
0.0
 10
11.17116246053445
 20
25.90701914751887
 30
0.0
 10
11.0
 20
26.00599380472866
 30
0.0
  0
SPLINE
  5
31B
330
23
100
AcDbEntity
 67
     1
  8
0
  6
Continuous
 62
     7
370
    25
100
AcDbSpline
210
0.0
220
0.0
230
1.0
 70
     8
 71
     3
 72
     9
 73
     5
 74
     0
 42
0.000000001
 43
0.00000001
 40
0.0
 40
0.0
 40
0.0
 40
0.0
 40
0.5133289822599758
 40
1.0
 40
1.0
 40
1.0
 40
1.0
 10
12.05520284441909
 20
23.39591451586172
 30
0.0
 10
11.87463042913813
 20
23.50029942780063
 30
0.0
 10
11.52286300216377
 20
23.70364838245998
 30
0.0
 10
11.17116246053446
 20
23.90701914751888
 30
0.0
 10
11.0
 20
24.00599380472865
 30
0.0
  0
SPLINE
  5
31C
330
23
100
AcDbEntity
 67
     1
  8
0
  6
Continuous
 62
     7
370
    25
100
AcDbSpline
210
0.0
220
0.0
230
1.0
 70
     8
 71
     3
 72
     9
 73
     5
 74
     0
 42
0.000000001
 43
0.00000001
 40
0.0
 40
0.0
 40
0.0
 40
0.0
 40
0.5133289822599771
 40
1.0
 40
1.0
 40
1.0
 40
1.0
 10
12.05520284441909
 20
21.39591451586172
 30
0.0
 10
11.87463042913813
 20
21.50029942780063
 30
0.0
 10
11.52286300216377
 20
21.70364838245998
 30
0.0
 10
11.17116246053446
 20
21.90701914751888
 30
0.0
 10
11.0
 20
22.00599380472866
 30
0.0
  0
SPLINE
  5
31D
330
23
100
AcDbEntity
 67
     1
  8
0
  6
Continuous
 62
     7
370
    25
100
AcDbSpline
210
0.0
220
0.0
230
1.0
 70
     8
 71
     3
 72
     9
 73
     5
 74
     0
 42
0.000000001
 43
0.00000001
 40
0.0
 40
0.0
 40
0.0
 40
0.0
 40
0.4999801491415619
 40
1.0
 40
1.0
 40
1.0
 40
1.0
 10
-10.98680790749828
 20
27.01518839996986
 30
0.0
 10
-11.16742588145572
 20
26.91078585018451
 30
0.0
 10
-11.52867617162735
 20
26.70197246036374
 30
0.0
 10
-11.88993849842135
 20
26.49318458286566
 30
0.0
 10
-12.07057683318566
 20
26.38878649949802
 30
0.0
  0
SPLINE
  5
31E
330
23
100
AcDbEntity
 67
     1
  8
0
  6
Continuous
 62
     7
370
    25
100
AcDbSpline
210
0.0
220
0.0
230
1.0
 70
     8
 71
     3
 72
     9
 73
     5
 74
     0
 42
0.000000001
 43
0.00000001
 40
0.0
 40
0.0
 40
0.0
 40
0.0
 40
0.4999801491415611
 40
1.0
 40
1.0
 40
1.0
 40
1.0
 10
-10.98680790749828
 20
25.01518839996986
 30
0.0
 10
-11.16742588145572
 20
24.91078585018451
 30
0.0
 10
-11.52867617162735
 20
24.70197246036375
 30
0.0
 10
-11.88993849842135
 20
24.49318458286566
 30
0.0
 10
-12.07057683318566
 20
24.38878649949801
 30
0.0
  0
SPLINE
  5
31F
330
23
100
AcDbEntity
 67
     1
  8
0
  6
Continuous
 62
     7
370
    25
100
AcDbSpline
210
0.0
220
0.0
230
1.0
 70
     8
 71
     3
 72
     9
 73
     5
 74
     0
 42
0.000000001
 43
0.00000001
 40
0.0
 40
0.0
 40
0.0
 40
0.0
 40
0.4999801491415629
 40
0.9999999999999999
 40
0.9999999999999999
 40
0.9999999999999999
 40
0.9999999999999999
 10
-10.98680790749828
 20
23.01518839996986
 30
0.0
 10
-11.16742588145572
 20
22.91078585018451
 30
0.0
 10
-11.52867617162735
 20
22.70197246036374
 30
0.0
 10
-11.88993849842135
 20
22.49318458286566
 30
0.0
 10
-12.07057683318566
 20
22.38878649949801
 30
0.0
  0
SPLINE
  5
320
330
23
100
AcDbEntity
 67
     1
  8
0
  6
Continuous
 62
     7
370
    25
100
AcDbSpline
210
0.0
220
0.0
230
1.0
 70
     8
 71
     3
 72
     9
 73
     5
 74
     0
 42
0.000000001
 43
0.00000001
 40
0.0
 40
0.0
 40
0.0
 40
0.0
 40
0.4999801491415597
 40
1.0
 40
1.0
 40
1.0
 40
1.0
 10
-10.98680790749828
 20
29.01518839996986
 30
0.0
 10
-11.16742588145572
 20
28.91078585018451
 30
0.0
 10
-11.52867617162735
 20
28.70197246036374
 30
0.0
 10
-11.88993849842135
 20
28.49318458286566
 30
0.0
 10
-12.07057683318566
 20
28.38878649949801
 30
0.0
  0
SPLINE
  5
338
330
23
100
AcDbEntity
 67
     1
  8
0
  6
Continuous
 62
     7
370
    25
100
AcDbSpline
210
0.0
220
0.0
230
1.0
 70
     8
 71
     3
 72
     9
 73
     5
 74
     0
 42
0.000000001
 43
0.00000001
 40
0.0
 40
0.0
 40
0.0
 40
0.0
 40
0.499987159134526
 40
1.0
 40
1.0
 40
1.0
 40
1.0
 10
-9.680343871778238
 20
-23.52211945733501
 30
0.0
 10
-9.81577239334051
 20
-23.60037373124209
 30
0.0
 10
-10.08663639272141
 20
-23.75688629856988
 30
0.0
 10
-10.35750316930502
 20
-23.91338645448378
 30
0.0
 10
-10.49294003576067
 20
-23.99163854203819
 30
0.0
  0
SPLINE
  5
339
330
23
100
AcDbEntity
 67
     1
  8
0
  6
Continuous
 62
     7
370
    25
100
AcDbSpline
210
0.0
220
0.0
230
1.0
 70
     8
 71
     3
 72
     9
 73
     5
 74
     0
 42
0.000000001
 43
0.00000001
 40
0.0
 40
0.0
 40
0.0
 40
0.0
 40
0.4999881196387329
 40
1.0
 40
1.0
 40
1.0
 40
1.0
 10
-9.681755980503814
 20
-25.02299840261351
 30
0.0
 10
-9.817175514560049
 20
-25.10124751935545
 30
0.0
 10
-10.08802101815738
 20
-25.25774947143877
 30
0.0
 10
-10.35886610283631
 20
-25.41423993805734
 30
0.0
 10
-10.49429186291323
 20
-25.4924870305299
 30
0.0
  0
SPLINE
  5
33A
330
23
100
AcDbEntity
 67
     1
  8
0
  6
Continuous
 62
     7
370
    25
100
AcDbSpline
210
0.0
220
0.0
230
1.0
 70
     8
 71
     3
 72
     9
 73
     5
 74
     0
 42
0.000000001
 43
0.00000001
 40
0.0
 40
0.0
 40
0.0
 40
0.0
 40
0.4999886672096093
 40
1.0
 40
1.0
 40
1.0
 40
1.0
 10
-9.677279240483218
 20
-26.52045044687223
 30
0.0
 10
-9.812689073073086
 20
-26.59869709528743
 30
0.0
 10
-10.08351487667695
 20
-26.75519393920971
 30
0.0
 10
-10.35435544963361
 20
-26.91167983673574
 30
0.0
 10
-10.48977880549139
 20
-26.98992455892063
 30
0.0
  0
SPLINE
  5
33B
330
23
100
AcDbEntity
 67
     1
  8
0
  6
Continuous
 62
     7
370
    25
100
AcDbSpline
210
0.0
220
0.0
230
1.0
 70
     8
 71
     3
 72
     9
 73
     5
 74
     0
 42
0.000000001
 43
0.00000001
 40
0.0
 40
0.0
 40
0.0
 40
0.0
 40
0.4999877113857957
 40
1.0
 40
1.0
 40
1.0
 40
1.0
 10
-9.679093776108227
 20
-28.02140526937487
 30
0.0
 10
-9.814516760677515
 20
-28.09965683093245
 30
0.0
 10
-10.08536938662294
 20
-28.25616380055515
 30
0.0
 10
-10.35622994134965
 20
-28.41265889586935
 30
0.0
 10
-10.49166354721387
 20
-28.49090836663429
 30
0.0
  0
SPLINE
  5
33C
330
23
100
AcDbEntity
 67
     1
  8
0
  6
Continuous
 62
     7
370
    25
100
AcDbSpline
210
0.0
220
0.0
230
1.0
 70
     8
 71
     3
 72
     9
 73
     5
 74
     0
 42
0.000000001
 43
0.00000001
 40
0.0
 40
0.0
 40
0.0
 40
0.0
 40
0.4999871048713429
 40
1.0
 40
1.0
 40
1.0
 40
1.0
 10
-9.681486256565108
 20
-29.52282358669688
 30
0.0
 10
-9.816914276389403
 20
-29.60107799968461
 30
0.0
 10
-10.08777730166511
 20
-29.75759086216706
 30
0.0
 10
-10.35863884095141
 20
-29.91409125784072
 30
0.0
 10
-10.49407310338896
 20
-29.99234347377027
 30
0.0
  0
SPLINE
  5
33D
330
23
100
AcDbEntity
 67
     1
  8
0
  6
Continuous
 62
     7
370
    25
100
AcDbSpline
210
0.0
220
0.0
230
1.0
 70
     8
 71
     3
 72
     9
 73
     5
 74
     0
 42
0.000000001
 43
0.00000001
 40
0.0
 40
0.0
 40
0.0
 40
0.0
 40
0.4999897102585618
 40
0.9999999999999999
 40
0.9999999999999999
 40
0.9999999999999999
 40
0.9999999999999999
 10
-9.680094103272495
 20
-31.02197247139909
 30
0.0
 10
-9.815499106649835
 20
-31.10021305764395
 30
0.0
 10
-10.08631468664911
 20
-31.25669745050154
 30
0.0
 10
-10.35713837149592
 20
-31.41317190035399
 30
0.0
 10
-10.49255300062502
 20
-31.49141073536184
 30
0.0
  0
SPLINE
  5
33E
330
23
100
AcDbEntity
 67
     1
  8
0
  6
Continuous
 62
     7
370
    25
100
AcDbSpline
210
0.0
220
0.0
230
1.0
 70
     8
 71
     3
 72
     9
 73
     5
 74
     0
 42
0.000000001
 43
0.00000001
 40
0.0
 40
0.0
 40
0.0
 40
0.0
 40
0.5044710664422537
 40
0.9999999999999999
 40
0.9999999999999999
 40
0.9999999999999999
 40
0.9999999999999999
 10
10.49351731300736
 20
-32.24199009283847
 30
0.0
 10
10.35808049185929
 20
-32.16373727921592
 30
0.0
 10
10.08960757010535
 20
-32.00861874253861
 30
0.0
 10
9.821135051144898
 20
-31.85348774582764
 30
0.0
 10
9.688099150134862
 20
-31.7766158484657
 30
0.0
  0
SPLINE
  5
33F
330
23
100
AcDbEntity
 67
     1
  8
0
  6
Continuous
 62
     7
370
    25
100
AcDbSpline
210
0.0
220
0.0
230
1.0
 70
     8
 71
     3
 72
     9
 73
     5
 74
     0
 42
0.000000001
 43
0.00000001
 40
0.0
 40
0.0
 40
0.0
 40
0.0
 40
0.5062643976819278
 40
0.9999999999999999
 40
0.9999999999999999
 40
0.9999999999999999
 40
0.9999999999999999
 10
10.49063980501555
 20
-30.74036181718354
 30
0.0
 10
10.35520449195819
 20
-30.66211144627537
 30
0.0
 10
10.08768555584992
 20
-30.50754720816884
 30
0.0
 10
9.820177339565586
 20
-30.35297109115195
 30
0.0
 10
9.688099009273403
 20
-30.27665135891262
 30
0.0
  0
SPLINE
  5
340
330
23
100
AcDbEntity
 67
     1
  8
0
  6
Continuous
 62
     7
370
    25
100
AcDbSpline
210
0.0
220
0.0
230
1.0
 70
     8
 71
     3
 72
     9
 73
     5
 74
     0
 42
0.000000001
 43
0.00000001
 40
0.0
 40
0.0
 40
0.0
 40
0.0
 40
0.5060687655698056
 40
1.0
 40
1.0
 40
1.0
 40
1.0
 10
10.4908355184945
 20
-29.24046393749082
 30
0.0
 10
10.35541900961977
 20
-29.16222344256555
 30
0.0
 10
10.08783381549647
 20
-29.00761896932334
 30
0.0
 10
9.820261233221528
 20
-28.85300441327375
 30
0.0
 10
9.68809877735879
 20
-28.77663545474331
 30
0.0
  0
SPLINE
  5
341
330
23
100
AcDbEntity
 67
     1
  8
0
  6
Continuous
 62
     7
370
    25
100
AcDbSpline
210
0.0
220
0.0
230
1.0
 70
     8
 71
     3
 72
     9
 73
     5
 74
     0
 42
0.000000001
 43
0.00000001
 40
0.0
 40
0.0
 40
0.0
 40
0.0
 40
0.5039118149173859
 40
1.0
 40
1.0
 40
1.0
 40
1.0
 10
10.49437477925841
 20
-27.74254215098276
 30
0.0
 10
10.35894453402662
 20
-27.66429192406745
 30
0.0
 10
10.09018670532998
 20
-27.50900636695437
 30
0.0
 10
9.82142698308743
 20
-27.35370881478472
 30
0.0
 10
9.688098460256812
 20
-27.2766675339811
 30
0.0
  0
SPLINE
  5
342
330
23
100
AcDbEntity
 67
     1
  8
0
  6
Continuous
 62
     7
370
    25
100
AcDbSpline
210
0.0
220
0.0
230
1.0
 70
     8
 71
     3
 72
     9
 73
     5
 74
     0
 42
0.000000001
 43
0.00000001
 40
0.0
 40
0.0
 40
0.0
 40
0.0
 40
0.5050918034640247
 40
1.0
 40
1.0
 40
1.0
 40
1.0
 10
10.49246954305888
 20
-26.24136238348301
 30
0.0
 10
10.35704087661828
 20
-26.16311545823356
 30
0.0
 10
10.08891404202742
 20
-26.00819921387397
 30
0.0
 10
9.820793224491489
 20
-25.85327167281082
 30
0.0
 10
9.688098034231032
 20
-25.7765967628695
 30
0.0
  0
SPLINE
  5
343
330
23
100
AcDbEntity
 67
     1
  8
0
  6
Continuous
 62
     7
370
    25
100
AcDbSpline
210
0.0
220
0.0
230
1.0
 70
     8
 71
     3
 72
     9
 73
     5
 74
     0
 42
0.000000001
 43
0.00000001
 40
0.0
 40
0.0
 40
0.0
 40
0.0
 40
0.5069606046735816
 40
1.0
 40
1.0
 40
1.0
 40
1.0
 10
10.48949622871448
 20
-24.73978503283368
 30
0.0
 10
10.35406669310566
 20
-24.66153709348578
 30
0.0
 10
10.08692653594096
 20
-24.50718991418518
 30
0.0
 10
9.819800989000221
 20
-24.35283135131839
 30
0.0
 10
9.68809757086032
 20
-24.27672649881909
 30
0.0
  0
SPLINE
  5
344
330
23
100
AcDbEntity
 67
     1
  8
0
  6
Continuous
 62
     7
370
    25
100
AcDbSpline
210
0.0
220
0.0
230
1.0
 70
     8
 71
     3
 72
     9
 73
     5
 74
     0
 42
0.000000001
 43
0.00000001
 40
0.0
 40
0.0
 40
0.0
 40
0.0
 40
0.5043001217678639
 40
1.0
 40
1.0
 40
1.0
 40
1.0
 10
10.49368872218641
 20
-23.2420974255634
 30
0.0
 10
10.35826792416025
 20
-23.163854391349
 30
0.0
 10
10.08973577003062
 20
-23.0087026655471
 30
0.0
 10
9.821206746125181
 20
-22.85354031169628
 30
0.0
 10
9.688096941673463
 20
-22.77662635178622
 30
0.0
  0
SPLINE
  5
347
330
23
100
AcDbEntity
 67
     1
  8
0
  6
Continuous
 62
     7
370
    25
100
AcDbSpline
210
0.0
220
0.0
230
1.0
 70
     8
 71
     3
 72
     9
 73
     5
 74
     0
 42
0.000000001
 43
0.00000001
 40
0.0
 40
0.0
 40
0.0
 40
0.0
 40
0.4998213390333472
 40
1.0
 40
1.0
 40
1.0
 40
1.0
 10
9.472388537030097
 20
-29.95583257981885
 30
0.0
 10
9.604512323580048
 20
-29.8777157885888
 30
0.0
 10
9.868854351884547
 20
-29.7214263604881
 30
0.0
 10
10.13565223128129
 20
-29.56500455304624
 30
0.0
 10
10.26909883734669
 20
-29.48676570285399
 30
0.0
  0
SPLINE
  5
348
330
23
100
AcDbEntity
 67
     1
  8
0
  6
Continuous
 62
     7
370
    25
100
AcDbSpline
210
0.0
220
0.0
230
1.0
 70
     8
 71
     3
 72
     9
 73
     5
 74
     0
 42
0.000000001
 43
0.00000001
 40
0.0
 40
0.0
 40
0.0
 40
0.0
 40
0.4996412499805245
 40
1.0
 40
1.0
 40
1.0
 40
1.0
 10
9.472388537030099
 20
-28.45583257981885
 30
0.0
 10
9.603876417685516
 20
-28.37777670279079
 30
0.0
 10
9.867040999594115
 20
-28.22155285812002
 30
0.0
 10
10.13501546753211
 20
-28.06506551450105
 30
0.0
 10
10.26909883734669
 20
-27.98676570285399
 30
0.0
  0
SPLINE
  5
349
330
23
100
AcDbEntity
 67
     1
  8
0
  6
Continuous
 62
     7
370
    25
100
AcDbSpline
210
0.0
220
0.0
230
1.0
 70
     8
 71
     3
 72
     9
 73
     5
 74
     0
 42
0.000000001
 43
0.00000001
 40
0.0
 40
0.0
 40
0.0
 40
0.0
 40
0.4994579274506126
 40
1.0
 40
1.0
 40
1.0
 40
1.0
 10
9.472388537030097
 20
-26.95583257981885
 30
0.0
 10
9.603239281347204
 20
-26.8778373613774
 30
0.0
 10
9.865224800297742
 20
-26.72167762468134
 30
0.0
 10
10.13437689169014
 20
-26.56512625159773
 30
0.0
 10
10.26909883734669
 20
-26.48676570285399
 30
0.0
  0
SPLINE
  5
34A
330
23
100
AcDbEntity
 67
     1
  8
0
  6
Continuous
 62
     7
370
    25
100
AcDbSpline
210
0.0
220
0.0
230
1.0
 70
     8
 71
     3
 72
     9
 73
     5
 74
     0
 42
0.000000001
 43
0.00000001
 40
0.0
 40
0.0
 40
0.0
 40
0.0
 40
0.4992715768311061
 40
1.0
 40
1.0
 40
1.0
 40
1.0
 10
9.472388537030097
 20
-25.45583257981885
 30
0.0
 10
9.602600894541784
 20
-25.37789778050227
 30
0.0
 10
9.863405561889664
 20
-25.2218007725147
 30
0.0
 10
10.13373646866384
 20
-25.06518678024792
 30
0.0
 10
10.26909883734669
 20
-24.98676570285399
 30
0.0
  0
SPLINE
  5
34B
330
23
100
AcDbEntity
 67
     1
  8
0
  6
Continuous
 62
     7
370
    25
100
AcDbSpline
210
0.0
220
0.0
230
1.0
 70
     8
 71
     3
 72
     9
 73
     5
 74
     0
 42
0.000000001
 43
0.00000001
 40
0.0
 40
0.0
 40
0.0
 40
0.0
 40
0.4990824091523656
 40
1.0
 40
1.0
 40
1.0
 40
1.0
 10
9.472388537030099
 20
-23.95583257981885
 30
0.0
 10
9.6019612359132
 20
-23.87795797676418
 30
0.0
 10
9.861583086948112
 20
-23.72192241705183
 30
0.0
 10
10.13309416316146
 20
-23.56524711680098
 30
0.0
 10
10.26909883734669
 20
-23.48676570285399
 30
0.0
  0
SPLINE
  5
34C
330
23
100
AcDbEntity
 67
     1
  8
0
  6
Continuous
 62
     7
370
    25
100
AcDbSpline
210
0.0
220
0.0
230
1.0
 70
     8
 71
     3
 72
     9
 73
     5
 74
     0
 42
0.000000001
 43
0.00000001
 40
0.0
 40
0.0
 40
0.0
 40
0.0
 40
0.4988906402998624
 40
1.0
 40
1.0
 40
1.0
 40
1.0
 10
9.472388537030097
 20
-22.45583257981885
 30
0.0
 10
9.601320282864267
 20
-22.37801796714117
 30
0.0
 10
9.859757173475554
 20
-22.22204267638224
 30
0.0
 10
10.13244993981265
 20
-22.06530727798644
 30
0.0
 10
10.26909883734669
 20
-21.98676570285399
 30
0.0
  0
SPLINE
  5
34D
330
23
100
AcDbEntity
 67
     1
  8
0
  6
Continuous
 62
     7
370
    25
100
AcDbSpline
210
0.0
220
0.0
230
1.0
 70
     8
 71
     3
 72
     9
 73
     5
 74
     0
 42
0.000000001
 43
0.00000001
 40
0.0
 40
0.0
 40
0.0
 40
0.0
 40
0.5052331502217656
 40
1.0
 40
1.0
 40
1.0
 40
1.0
 10
-10.49269508327523
 20
-30.19600633338838
 30
0.0
 10
-10.35719115030136
 20
-30.27429725087107
 30
0.0
 10
-10.08899035446207
 20
-30.42925722815744
 30
0.0
 10
-9.820793777145177
 20
-30.58422741668911
 30
0.0
 10
-9.688099001464797
 20
-30.66090152867848
 30
0.0
  0
SPLINE
  5
34E
330
23
100
AcDbEntity
 67
     1
  8
0
  6
Continuous
 62
     7
370
    25
100
AcDbSpline
210
0.0
220
0.0
230
1.0
 70
     8
 71
     3
 72
     9
 73
     5
 74
     0
 42
0.000000001
 43
0.00000001
 40
0.0
 40
0.0
 40
0.0
 40
0.0
 40
0.5055362877395273
 40
0.9999999999999999
 40
0.9999999999999999
 40
0.9999999999999999
 40
0.9999999999999999
 10
-10.49269508327523
 20
-28.69600633338839
 30
0.0
 10
-10.35710968658693
 20
-28.7743436777966
 30
0.0
 10
-10.08890857031383
 20
-28.9293025725547
 30
0.0
 10
-9.8207121704888
 20
-29.08427392142914
 30
0.0
 10
-9.688098783016425
 20
-29.16090162988761
 30
0.0
  0
SPLINE
  5
34F
330
23
100
AcDbEntity
 67
     1
  8
0
  6
Continuous
 62
     7
370
    25
100
AcDbSpline
210
0.0
220
0.0
230
1.0
 70
     8
 71
     3
 72
     9
 73
     5
 74
     0
 42
0.000000001
 43
0.00000001
 40
0.0
 40
0.0
 40
0.0
 40
0.0
 40
0.5058422670085152
 40
1.0
 40
1.0
 40
1.0
 40
1.0
 10
-10.49269508327523
 20
-27.19600633338839
 30
0.0
 10
-10.35702672523288
 20
-27.27438990163715
 30
0.0
 10
-10.08882383494323
 20
-27.42934644315414
 30
0.0
 10
-9.820629021242393
 20
-27.58432023881317
 30
0.0
 10
-9.688098480103912
 20
-27.66090173834912
 30
0.0
  0
SPLINE
  5
350
330
23
100
AcDbEntity
 67
     1
  8
0
  6
Continuous
 62
     7
370
    25
100
AcDbSpline
210
0.0
220
0.0
230
1.0
 70
     8
 71
     3
 72
     9
 73
     5
 74
     0
 42
0.000000001
 43
0.00000001
 40
0.0
 40
0.0
 40
0.0
 40
0.0
 40
0.5061507711016314
 40
1.0
 40
1.0
 40
1.0
 40
1.0
 10
-10.49269508327523
 20
-25.69600633338838
 30
0.0
 10
-10.35694222123191
 20
-25.77443594672761
 30
0.0
 10
-10.08873584915061
 20
-25.92938901173732
 30
0.0
 10
-9.820544288365129
 20
-26.08436639344191
 30
0.0
 10
-9.688098092874169
 20
-26.16090185389341
 30
0.0
  0
SPLINE
  5
351
330
23
100
AcDbEntity
 67
     1
  8
0
  6
Continuous
 62
     7
370
    25
100
AcDbSpline
210
0.0
220
0.0
230
1.0
 70
     8
 71
     3
 72
     9
 73
     5
 74
     0
 42
0.000000001
 43
0.00000001
 40
0.0
 40
0.0
 40
0.0
 40
0.0
 40
0.506461479156658
 40
0.9999999999999999
 40
0.9999999999999999
 40
0.9999999999999999
 40
0.9999999999999999
 10
-10.49269508327523
 20
-24.19600633338839
 30
0.0
 10
-10.35685612880473
 20
-24.27448183782841
 30
0.0
 10
-10.08864431001705
 20
-24.42943045222392
 30
0.0
 10
-9.820457930520297
 20
-24.58441241010271
 30
0.0
 10
-9.688097621473139
 20
-24.66090197635162
 30
0.0
  0
SPLINE
  5
352
330
23
100
AcDbEntity
 67
     1
  8
0
  6
Continuous
 62
     7
370
    25
100
AcDbSpline
210
0.0
220
0.0
230
1.0
 70
     8
 71
     3
 72
     9
 73
     5
 74
     0
 42
0.000000001
 43
0.00000001
 40
0.0
 40
0.0
 40
0.0
 40
0.0
 40
0.5067740674889268
 40
1.0
 40
1.0
 40
1.0
 40
1.0
 10
-10.49269508327523
 20
-22.69600633338838
 30
0.0
 10
-10.35676840154902
 20
-22.77452760004381
 30
0.0
 10
-10.08854891194544
 20
-22.92947094007006
 30
0.0
 10
-9.82036990622312
 20
-23.08445831367955
 30
0.0
 10
-9.688097066045836
 20
-23.16090210555553
 30
0.0
  0
SPLINE
  5
353
330
23
100
AcDbEntity
 67
     1
  8
0
  6
Continuous
 62
     7
370
    25
100
AcDbSpline
210
0.0
220
0.0
230
1.0
 70
     8
 71
     3
 72
     9
 73
     5
 74
     0
 42
0.000000001
 43
0.00000001
 40
0.0
 40
0.0
 40
0.0
 40
0.0
 40
0.5049331663481176
 40
0.9999999999999999
 40
0.9999999999999999
 40
0.9999999999999999
 40
0.9999999999999999
 10
-10.49269508327523
 20
-31.69600633338839
 30
0.0
 10
-10.35727116046655
 20
-31.77425059703032
 30
0.0
 10
-10.08906948184021
 20
-31.92921024091316
 30
0.0
 10
-9.8208738818083
 20
-32.08418070026914
 30
0.0
 10
-9.688099135301133
 20
-32.16090143489208
 30
0.0
  0
SPLINE
  5
354
330
23
100
AcDbEntity
 67
     1
  8
0
  6
Continuous
 62
     7
370
    25
100
AcDbSpline
210
0.0
220
0.0
230
1.0
 70
     8
 71
     3
 72
     9
 73
     5
 74
     0
 42
0.000000001
 43
0.00000001
 40
0.0
 40
0.0
 40
0.0
 40
0.0
 40
0.4999979956268473
 40
1.0
 40
1.0
 40
1.0
 40
1.0
 10
9.472388537030097
 20
-31.45583257981885
 30
0.0
 10
9.605147017636224
 20
-31.37765460312706
 30
0.0
 10
9.870665043242887
 20
-31.22129802294964
 30
0.0
 10
10.13628721770812
 20
-31.06494335181462
 30
0.0
 10
10.26909883734669
 20
-30.98676570285399
 30
0.0
  0
SPLINE
  5
364
330
23
100
AcDbEntity
 67
     1
  8
0
  6
Continuous
 62
     7
370
    25
100
AcDbSpline
210
0.0
220
0.0
230
1.0
 70
     8
 71
     3
 72
     9
 73
     5
 74
     0
 42
0.000000001
 43
0.00000001
 40
0.0
 40
0.0
 40
0.0
 40
0.0
 40
0.4996356918399181
 40
1.0
 40
1.0
 40
1.0
 40
1.0
 10
9.688099150134862
 20
-30.28139680519601
 30
0.0
 10
9.688096370686004
 20
-30.21894241020424
 30
0.0
 10
9.68809080773503
 20
-30.09394254327763
 30
0.0
 10
9.688096367984487
 20
-29.96894241026886
 30
0.0
 10
9.688099150134862
 20
-29.90639680519601
 30
0.0
  0
SPLINE
  5
365
330
23
100
AcDbEntity
 67
     1
  8
0
  6
Continuous
 62
     7
370
    25
100
AcDbSpline
210
0.0
220
0.0
230
1.0
 70
     8
 71
     3
 72
     9
 73
     5
 74
     0
 42
0.000000001
 43
0.00000001
 40
0.0
 40
0.0
 40
0.0
 40
0.0
 40
0.4992733703389166
 40
1.0
 40
1.0
 40
1.0
 40
1.0
 10
9.688099150134862
 20
-28.78139680519601
 30
0.0
 10
9.688091828050382
 20
-28.71898816416753
 30
0.0
 10
9.68807716256868
 20
-28.59398922623878
 30
0.0
 10
9.688091813848766
 20
-28.46898816519602
 30
0.0
 10
9.688099150134862
 20
-28.40639680519601
 30
0.0
  0
SPLINE
  5
366
330
23
100
AcDbEntity
 67
     1
  8
0
  6
Continuous
 62
     7
370
    25
100
AcDbSpline
210
0.0
220
0.0
230
1.0
 70
     8
 71
     3
 72
     9
 73
     5
 74
     0
 42
0.000000001
 43
0.00000001
 40
0.0
 40
0.0
 40
0.0
 40
0.0
 40
0.4989151183218683
 40
1.0
 40
1.0
 40
1.0
 40
1.0
 10
9.688099150134864
 20
-27.28139680519601
 30
0.0
 10
9.688085524069779
 20
-27.2190341961023
 30
0.0
 10
9.68805821268035
 20
-27.09403776523951
 30
0.0
 10
9.688085484592161
 20
-26.96903420126135
 30
0.0
 10
9.688099150134862
 20
-26.90639680519601
 30
0.0
  0
SPLINE
  5
367
330
23
100
AcDbEntity
 67
     1
  8
0
  6
Continuous
 62
     7
370
    25
100
AcDbSpline
210
0.0
220
0.0
230
1.0
 70
     8
 71
     3
 72
     9
 73
     5
 74
     0
 42
0.000000001
 43
0.00000001
 40
0.0
 40
0.0
 40
0.0
 40
0.0
 40
0.4985629408225318
 40
1.0
 40
1.0
 40
1.0
 40
1.0
 10
9.688099150134862
 20
-25.78139680519601
 30
0.0
 10
9.68807746046693
 20
-25.71908062948252
 30
0.0
 10
9.688033956094356
 20
-25.59408903742662
 30
0.0
 10
9.688077377188906
 20
-25.46908064557739
 30
0.0
 10
9.688099150134862
 20
-25.40639680519601
 30
0.0
  0
SPLINE
  5
368
330
23
100
AcDbEntity
 67
     1
  8
0
  6
Continuous
 62
     7
370
    25
100
AcDbSpline
210
0.0
220
0.0
230
1.0
 70
     8
 71
     3
 72
     9
 73
     5
 74
     0
 42
0.000000001
 43
0.00000001
 40
0.0
 40
0.0
 40
0.0
 40
0.0
 40
0.4982187287597494
 40
1.0
 40
1.0
 40
1.0
 40
1.0
 10
9.688099150134864
 20
-24.28139680519601
 30
0.0
 10
9.688067638804192
 20
-24.21912758007254
 30
0.0
 10
9.688004390819216
 20
-24.09414387004928
 30
0.0
 10
9.688067488766606
 20
-23.96912761871581
 30
0.0
 10
9.688099150134862
 20
-23.90639680519601
 30
0.0
  0
SPLINE
  5
369
330
23
100
AcDbEntity
 67
     1
  8
0
  6
Continuous
 62
     7
370
    25
100
AcDbSpline
210
0.0
220
0.0
230
1.0
 70
     8
 71
     3
 72
     9
 73
     5
 74
     0
 42
0.000000001
 43
0.00000001
 40
0.0
 40
0.0
 40
0.0
 40
0.0
 40
0.4978842270383732
 40
1.0
 40
1.0
 40
1.0
 40
1.0
 10
9.688099150134862
 20
-22.78139680519601
 30
0.0
 10
9.688056060448165
 20
-22.71917515406532
 30
0.0
 10
9.687969514853108
 20
-22.59420302650707
 30
0.0
 10
9.688055816644283
 20
-22.46917523258359
 30
0.0
 10
9.688099150134862
 20
-22.40639680519601
 30
0.0
  0
SPLINE
  5
36A
330
23
100
AcDbEntity
 67
     1
  8
0
  6
Continuous
 62
     7
370
    25
100
AcDbSpline
210
0.0
220
0.0
230
1.0
 70
     8
 71
     3
 72
     9
 73
     5
 74
     0
 42
0.000000001
 43
0.00000001
 40
0.0
 40
0.0
 40
0.0
 40
0.0
 40
0.5068513387169205
 40
1.0
 40
1.0
 40
1.0
 40
1.0
 10
-9.688099135301133
 20
-30.65639733872364
 30
0.0
 10
-9.68809633418643
 20
-30.71894294415012
 30
0.0
 10
-9.688090807684883
 20
-30.84234324054634
 30
0.0
 10
-9.68809628925353
 20
-30.96574327426527
 30
0.0
 10
-9.68809899248177
 20
-31.02659783569604
 30
0.0
  0
SPLINE
  5
36B
330
23
100
AcDbEntity
 67
     1
  8
0
  6
Continuous
 62
     7
370
    25
100
AcDbSpline
210
0.0
220
0.0
230
1.0
 70
     8
 71
     3
 72
     9
 73
     5
 74
     0
 42
0.000000001
 43
0.00000001
 40
0.0
 40
0.0
 40
0.0
 40
0.0
 40
0.5071545371389687
 40
1.0
 40
1.0
 40
1.0
 40
1.0
 10
-9.688099135301133
 20
-29.15639733872364
 30
0.0
 10
-9.688091753694195
 20
-29.21898870113322
 30
0.0
 10
-9.688077198748125
 20
-29.34240544657471
 30
0.0
 10
-9.688091643470791
 20
-29.46582009580653
 30
0.0
 10
-9.688098762486819
 20
-29.52664444573101
 30
0.0
  0
SPLINE
  5
36C
330
23
100
AcDbEntity
 67
     1
  8
0
  6
Continuous
 62
     7
370
    25
100
AcDbSpline
210
0.0
220
0.0
230
1.0
 70
     8
 71
     3
 72
     9
 73
     5
 74
     0
 42
0.000000001
 43
0.00000001
 40
0.0
 40
0.0
 40
0.0
 40
0.0
 40
0.5075669638820636
 40
1.0
 40
1.0
 40
1.0
 40
1.0
 10
-9.688099135301133
 20
-27.65639733872364
 30
0.0
 10
-9.68808538984568
 20
-27.71903474271022
 30
0.0
 10
-9.688058308777702
 20
-27.84244191544562
 30
0.0
 10
-9.688085195661886
 20
-27.96584204614523
 30
0.0
 10
-9.688098435651897
 20
-28.02660834716298
 30
0.0
  0
SPLINE
  5
36D
330
23
100
AcDbEntity
 67
     1
  8
0
  6
Continuous
 62
     7
370
    25
100
AcDbSpline
210
0.0
220
0.0
230
1.0
 70
     8
 71
     3
 72
     9
 73
     5
 74
     0
 42
0.000000001
 43
0.00000001
 40
0.0
 40
0.0
 40
0.0
 40
0.0
 40
0.5077954479697396
 40
1.0
 40
1.0
 40
1.0
 40
1.0
 10
-9.688099135301133
 20
-26.15639733872364
 30
0.0
 10
-9.688077242202455
 20
-26.21908119722514
 30
0.0
 10
-9.688034128191163
 20
-26.34252432526442
 30
0.0
 10
-9.688076960223484
 20
-26.46595086383078
 30
0.0
 10
-9.688098042344764
 20
-26.52670196795448
 30
0.0
  0
SPLINE
  5
36E
330
23
100
AcDbEntity
 67
     1
  8
0
  6
Continuous
 62
     7
370
    25
100
AcDbSpline
210
0.0
220
0.0
230
1.0
 70
     8
 71
     3
 72
     9
 73
     5
 74
     0
 42
0.000000001
 43
0.00000001
 40
0.0
 40
0.0
 40
0.0
 40
0.0
 40
0.508198217927744
 40
1.0
 40
1.0
 40
1.0
 40
1.0
 10
-9.688099135301133
 20
-24.65639733872364
 30
0.0
 10
-9.688067303589156
 20
-24.71912818750427
 30
0.0
 10
-9.688004667179074
 20
-24.84256594577981
 30
0.0
 10
-9.688066917632927
 20
-24.96597157356408
 30
0.0
 10
-9.688097532517068
 20
-25.02666268122613
 30
0.0
  0
SPLINE
  5
36F
330
23
100
AcDbEntity
 67
     1
  8
0
  6
Continuous
 62
     7
370
    25
100
AcDbSpline
210
0.0
220
0.0
230
1.0
 70
     8
 71
     3
 72
     9
 73
     5
 74
     0
 42
0.000000001
 43
0.00000001
 40
0.0
 40
0.0
 40
0.0
 40
0.0
 40
0.5086244691999033
 40
0.9999999999999999
 40
0.9999999999999999
 40
0.9999999999999999
 40
0.9999999999999999
 10
-9.688099135301133
 20
-23.15639733872364
 30
0.0
 10
-9.68805557180279
 20
-23.21917582715675
 30
0.0
 10
-9.687969922171323
 20
-23.34260380247981
 30
0.0
 10
-9.688055071598694
 20
-23.4659768236527
 30
0.0
 10
-9.688096911943765
 20
-23.52659930741795
 30
0.0
  0
SPLINE
  5
3B6
330
23
100
AcDbEntity
 67
     1
  8
0
  6
Continuous
 62
     7
370
    25
100
AcDbSpline
210
0.0
220
0.0
230
1.0
 70
     8
 71
     3
 72
    22
 73
    18
 74
     0
 42
0.000000001
 43
0.00000001
 40
0.0
 40
0.0
 40
0.0
 40
0.0
 40
0.0407469596045816
 40
0.1125775737727256
 40
0.1837852445573215
 40
0.2547906783858183
 40
0.3266396245786859
 40
0.3976150339827723
 40
0.4688553134048232
 40
0.540679818966756
 40
0.6114890574524848
 40
0.6829342479404298
 40
0.7546916270148646
 40
0.8254120699818515
 40
0.8970208216136515
 40
0.9686686262894738
 40
1.0
 40
1.0
 40
1.0
 40
1.0
 10
11.99964291885597
 20
29.11079979208154
 30
0.0
 10
11.98597567973989
 20
29.09768871607553
 30
0.0
 10
11.9482152030125
 20
29.06146483236421
 30
0.0
 10
11.23778579557929
 20
28.99914608178241
 30
0.0
 10
9.962970967866836
 20
28.92940427774802
 30
0.0
 10
8.178713416133546
 20
28.86046759464351
 30
0.0
 10
6.005333892376512
 20
28.78793377401524
 30
0.0
 10
3.535997221571936
 20
28.71912547958223
 30
0.0
 10
0.8959476025360215
 20
28.64922543862768
 30
0.0
 10
-1.786354227694468
 20
28.57682433048889
 30
0.0
 10
-4.383374383632169
 20
28.50868586347039
 30
0.0
 10
-6.768313831208955
 20
28.43793309960408
 30
0.0
 10
-8.819986815424484
 20
28.36584279910485
 30
0.0
 10
-10.45339907504661
 20
28.29806104244344
 30
0.0
 10
-11.54596305754756
 20
28.22661862301697
 30
0.0
 10
-12.08030736005078
 20
28.16818119332335
 30
0.0
 10
-12.02727016628018
 20
28.13508523950848
 30
0.0
 10
-12.0111336213531
 20
28.12501580883785
 30
0.0
  0
SPLINE
  5
3B7
330
23
100
AcDbEntity
 67
     1
  8
0
  6
Continuous
 62
     7
370
    25
100
AcDbSpline
210
0.0
220
0.0
230
1.0
 70
     8
 71
     3
 72
    22
 73
    18
 74
     0
 42
0.000000001
 43
0.00000001
 40
0.0
 40
0.0
 40
0.0
 40
0.0
 40
0.0407469596045818
 40
0.1125775737727258
 40
0.1837852445573216
 40
0.2547906783858185
 40
0.3266396245786861
 40
0.3976150339827724
 40
0.4688553134048233
 40
0.5406798189667561
 40
0.6114890574524849
 40
0.6829342479404299
 40
0.7546916270148647
 40
0.8254120699818516
 40
0.8970208216136516
 40
0.9686686262894738
 40
1.0
 40
1.0
 40
1.0
 40
1.0
 10
11.99964291885597
 20
27.11079979208154
 30
0.0
 10
11.98597567973989
 20
27.09768871607553
 30
0.0
 10
11.9482152030125
 20
27.0614648323642
 30
0.0
 10
11.23778579557928
 20
26.9991460817824
 30
0.0
 10
9.96297096786684
 20
26.92940427774804
 30
0.0
 10
8.178713416133549
 20
26.86046759464351
 30
0.0
 10
6.005333892376513
 20
26.78793377401524
 30
0.0
 10
3.535997221571934
 20
26.71912547958223
 30
0.0
 10
0.895947602536022
 20
26.64922543862767
 30
0.0
 10
-1.786354227694468
 20
26.57682433048891
 30
0.0
 10
-4.383374383632169
 20
26.50868586347038
 30
0.0
 10
-6.768313831208955
 20
26.43793309960408
 30
0.0
 10
-8.819986815424484
 20
26.36584279910486
 30
0.0
 10
-10.45339907504661
 20
26.29806104244344
 30
0.0
 10
-11.54596305754756
 20
26.22661862301698
 30
0.0
 10
-12.08030736005078
 20
26.16818119332336
 30
0.0
 10
-12.02727016628018
 20
26.13508523950848
 30
0.0
 10
-12.0111336213531
 20
26.12501580883784
 30
0.0
  0
SPLINE
  5
3B8
330
23
100
AcDbEntity
 67
     1
  8
0
  6
Continuous
 62
     7
370
    25
100
AcDbSpline
210
0.0
220
0.0
230
1.0
 70
     8
 71
     3
 72
    22
 73
    18
 74
     0
 42
0.000000001
 43
0.00000001
 40
0.0
 40
0.0
 40
0.0
 40
0.0
 40
0.0407469596045818
 40
0.1125775737727258
 40
0.1837852445573217
 40
0.2547906783858185
 40
0.3266396245786861
 40
0.3976150339827725
 40
0.4688553134048234
 40
0.5406798189667561
 40
0.6114890574524849
 40
0.68293424794043
 40
0.7546916270148647
 40
0.8254120699818516
 40
0.8970208216136517
 40
0.9686686262894739
 40
1.0
 40
1.0
 40
1.0
 40
1.0
 10
11.99964291885597
 20
25.11079979208154
 30
0.0
 10
11.98597567973989
 20
25.09768871607553
 30
0.0
 10
11.94821520301251
 20
25.06146483236422
 30
0.0
 10
11.23778579557928
 20
24.9991460817824
 30
0.0
 10
9.962970967866836
 20
24.92940427774802
 30
0.0
 10
8.178713416133547
 20
24.86046759464352
 30
0.0
 10
6.005333892376513
 20
24.78793377401524
 30
0.0
 10
3.535997221571932
 20
24.71912547958222
 30
0.0
 10
0.8959476025360259
 20
24.64922543862768
 30
0.0
 10
-1.78635422769447
 20
24.57682433048889
 30
0.0
 10
-4.383374383632172
 20
24.50868586347038
 30
0.0
 10
-6.768313831208951
 20
24.43793309960408
 30
0.0
 10
-8.819986815424484
 20
24.36584279910485
 30
0.0
 10
-10.45339907504662
 20
24.29806104244344
 30
0.0
 10
-11.54596305754756
 20
24.22661862301697
 30
0.0
 10
-12.08030736005079
 20
24.16818119332336
 30
0.0
 10
-12.02727016628018
 20
24.13508523950848
 30
0.0
 10
-12.0111336213531
 20
24.12501580883784
 30
0.0
  0
SPLINE
  5
3B9
330
23
100
AcDbEntity
 67
     1
  8
0
  6
Continuous
 62
     7
370
    25
100
AcDbSpline
210
0.0
220
0.0
230
1.0
 70
     8
 71
     3
 72
    22
 73
    18
 74
     0
 42
0.000000001
 43
0.00000001
 40
0.0
 40
0.0
 40
0.0
 40
0.0
 40
0.0407469596045815
 40
0.1125775737727255
 40
0.1837852445573213
 40
0.254790678385818
 40
0.3266396245786857
 40
0.397615033982772
 40
0.4688553134048229
 40
0.5406798189667557
 40
0.6114890574524845
 40
0.6829342479404295
 40
0.7546916270148641
 40
0.825412069981851
 40
0.8970208216136512
 40
0.9686686262894734
 40
1.0
 40
1.0
 40
1.0
 40
1.0
 10
11.99964291885597
 20
23.11079979208154
 30
0.0
 10
11.98597567973989
 20
23.09768871607553
 30
0.0
 10
11.9482152030125
 20
23.06146483236419
 30
0.0
 10
11.23778579557928
 20
22.9991460817824
 30
0.0
 10
9.962970967866841
 20
22.92940427774803
 30
0.0
 10
8.178713416133544
 20
22.8604675946435
 30
0.0
 10
6.005333892376515
 20
22.78793377401524
 30
0.0
 10
3.535997221571934
 20
22.71912547958223
 30
0.0
 10
0.8959476025360233
 20
22.64922543862767
 30
0.0
 10
-1.786354227694469
 20
22.57682433048889
 30
0.0
 10
-4.38337438363217
 20
22.50868586347039
 30
0.0
 10
-6.768313831208951
 20
22.43793309960407
 30
0.0
 10
-8.819986815424485
 20
22.36584279910485
 30
0.0
 10
-10.45339907504662
 20
22.29806104244344
 30
0.0
 10
-11.54596305754756
 20
22.22661862301698
 30
0.0
 10
-12.08030736005079
 20
22.16818119332336
 30
0.0
 10
-12.02727016628018
 20
22.13508523950848
 30
0.0
 10
-12.0111336213531
 20
22.12501580883784
 30
0.0
  0
LWPOLYLINE
  5
3BA
330
23
100
AcDbEntity
 67
     1
  8
0
  6
Continuous
 62
     7
370
    25
100
AcDbPolyline
 90
       17
 70
   128
 43
0.0
 10
10.9218965148
 20
28.4845657548
 10
10.8398110512
 20
28.4462111811
 10
10.1601007115
 20
28.3744129814
 10
8.9920097277
 20
28.3044734826
 10
7.3935822576
 20
28.2351331816
 10
5.4140767413
 20
28.1632799569
 10
3.1962093213
 20
28.0940286476
 10
0.8155459523
 20
28.0239923886
 10
-1.6243859588
 20
27.9522125201
 10
-3.9519465059
 20
27.8834542049
 10
-6.1083360573
 20
27.8128085554
 10
-7.9742945549
 20
27.7412299898
 10
-9.4299228251
 20
27.6727354366
 10
-10.4446693178
 20
27.601601692
 10
-10.9480400747
 20
27.530351186
 10
-11.0
 20
27.5000000055
 10
-11.0
 20
27.5000000055
  0
LWPOLYLINE
  5
3BB
330
23
100
AcDbEntity
 67
     1
  8
0
  6
Continuous
 62
     7
370
    25
100
AcDbPolyline
 90
       17
 70
   128
 43
0.0
 10
10.9218965148
 20
26.4845657548
 10
10.8398110512
 20
26.4462111811
 10
10.1601007115
 20
26.3744129814
 10
8.9920097277
 20
26.3044734826
 10
7.3935822576
 20
26.2351331816
 10
5.4140767413
 20
26.1632799569
 10
3.1962093213
 20
26.0940286476
 10
0.8155459523
 20
26.0239923886
 10
-1.6243859588
 20
25.9522125201
 10
-3.9519465059
 20
25.8834542049
 10
-6.1083360573
 20
25.8128085554
 10
-7.9742945549
 20
25.7412299898
 10
-9.4299228251
 20
25.6727354366
 10
-10.4446693178
 20
25.601601692
 10
-10.9480400747
 20
25.530351186
 10
-11.0
 20
25.5000000055
 10
-11.0
 20
25.5000000055
  0
LWPOLYLINE
  5
3BC
330
23
100
AcDbEntity
 67
     1
  8
0
  6
Continuous
 62
     7
370
    25
100
AcDbPolyline
 90
       17
 70
   128
 43
0.0
 10
10.9218965148
 20
24.4845657548
 10
10.8398110512
 20
24.4462111811
 10
10.1601007115
 20
24.3744129814
 10
8.9920097277
 20
24.3044734826
 10
7.3935822576
 20
24.2351331816
 10
5.4140767413
 20
24.1632799569
 10
3.1962093213
 20
24.0940286476
 10
0.8155459523
 20
24.0239923886
 10
-1.6243859588
 20
23.9522125201
 10
-3.9519465059
 20
23.8834542049
 10
-6.1083360573
 20
23.8128085554
 10
-7.9742945549
 20
23.7412299898
 10
-9.4299228251
 20
23.6727354366
 10
-10.4446693178
 20
23.601601692
 10
-10.9480400747
 20
23.530351186
 10
-11.0
 20
23.5000000055
 10
-11.0
 20
23.5000000055
  0
LWPOLYLINE
  5
3BD
330
23
100
AcDbEntity
 67
     1
  8
0
  6
Continuous
 62
     7
370
    25
100
AcDbPolyline
 90
       17
 70
   128
 43
0.0
 10
10.9218965148
 20
22.4845657548
 10
10.8398110512
 20
22.4462111811
 10
10.1601007115
 20
22.3744129814
 10
8.9920097277
 20
22.3044734826
 10
7.3935822576
 20
22.2351331816
 10
5.4140767413
 20
22.1632799569
 10
3.1962093213
 20
22.0940286476
 10
0.8155459523
 20
22.0239923886
 10
-1.6243859588
 20
21.9522125201
 10
-3.9519465059
 20
21.8834542049
 10
-6.1083360573
 20
21.8128085554
 10
-7.9742945549
 20
21.7412299898
 10
-9.4299228251
 20
21.6727354366
 10
-10.4446693178
 20
21.601601692
 10
-10.9480400747
 20
21.530351186
 10
-11.0
 20
21.5000000055
 10
-11.0
 20
21.5000000055
  0
SPLINE
  5
3BF
330
23
100
AcDbEntity
 67
     1
  8
0
  6
Continuous
 62
     7
370
    25
100
AcDbSpline
210
0.0
220
0.0
230
1.0
 70
     8
 71
     3
 72
    15
 73
    11
 74
     0
 42
0.000000001
 43
0.00000001
 40
0.0
 40
0.0
 40
0.0
 40
0.0
 40
0.1297120930752871
 40
0.2575698574915047
 40
0.3869800389746159
 40
0.5329801531870445
 40
0.6768698736568105
 40
0.8225674963023947
 40
0.9683446009442989
 40
1.0
 40
1.0
 40
1.0
 40
1.0
 10
0.0000000000000749
 20
29.50000000000001
 30
0.0
 10
-0.7235759281984075
 20
29.47865735372697
 30
0.0
 10
-2.160383740729759
 20
29.43627716982348
 30
0.0
 10
-4.235701959830433
 20
29.37605066135666
 30
0.0
 10
-6.230257147639849
 20
29.31023916107417
 30
0.0
 10
-8.029197229801076
 20
29.24085965063742
 30
0.0
 10
-9.519146235455944
 20
29.17304750581383
 30
0.0
 10
-10.5026741190104
 20
29.10165585985473
 30
0.0
 10
-10.97609330938841
 20
29.04837036226519
 30
0.0
 10
-10.94679174515105
 20
29.02029611054819
 30
0.0
 10
-10.94156410822117
 20
29.01528743613527
 30
0.0
  0
SPLINE
  5
3C0
330
23
100
AcDbEntity
 67
     1
  8
0
  6
Continuous
 62
     7
370
    25
100
AcDbSpline
210
0.0
220
0.0
230
1.0
 70
     8
 71
     3
 72
    23
 73
    19
 74
     0
 42
0.000000001
 43
0.00000001
 40
0.0
 40
0.0
 40
0.0
 40
0.0
 40
0.0235209480153122
 40
0.0951527006796639
 40
0.1669408754850405
 40
0.2377321717592259
 40
0.3095038032405705
 40
0.3811581082683422
 40
0.4440760768667151
 40
0.5079065484552282
 40
0.5717370200437429
 40
0.6346549886421178
 40
0.6983368915131771
 40
0.7701825916419021
 40
0.8409897808296817
 40
0.9126866268392149
 40
0.9844225854186528
 40
1.0
 40
1.0
 40
1.0
 40
1.0
 10
10.94152835389606
 20
28.00011748566207
 30
0.0
 10
10.9576629312815
 20
27.99254687871574
 30
0.0
 10
11.02293447609977
 20
27.96192040497587
 30
0.0
 10
10.5896831718091
 20
27.9064679597051
 30
0.0
 10
9.655187728681886
 20
27.83463267482665
 30
0.0
 10
8.214831379163282
 20
27.76690920601472
 30
0.0
 10
6.386554864640626
 20
27.69516523022203
 30
0.0
 10
4.322345468186833
 20
27.6264559326074
 30
0.0
 10
2.160445492416317
 20
27.56372663697426
 30
0.0
 10
-0.0000166540700432
 20
27.49999897332883
 30
0.0
 10
-2.160379352299902
 20
27.43627744035643
 30
0.0
 10
-4.235703139688667
 20
27.37605058862209
 30
0.0
 10
-6.2302567841049
 20
27.31023918348496
 30
0.0
 10
-8.029197330464346
 20
27.24085964443185
 30
0.0
 10
-9.519146208197435
 20
27.17304750749421
 30
0.0
 10
-10.50267412664989
 20
27.10165585938379
 30
0.0
 10
-10.97609330906251
 20
27.04837036228527
 30
0.0
 10
-10.94679174510171
 20
27.02029611055124
 30
0.0
 10
-10.94156410822117
 20
27.01528743613527
 30
0.0
  0
SPLINE
  5
3C1
330
23
100
AcDbEntity
 67
     1
  8
0
  6
Continuous
 62
     7
370
    25
100
AcDbSpline
210
0.0
220
0.0
230
1.0
 70
     8
 71
     3
 72
    23
 73
    19
 74
     0
 42
0.000000001
 43
0.00000001
 40
0.0
 40
0.0
 40
0.0
 40
0.0
 40
0.0235209480153127
 40
0.0951527006796644
 40
0.166940875485041
 40
0.2377321717592263
 40
0.309503803240571
 40
0.3811581082683427
 40
0.4440760768667155
 40
0.5079065484552286
 40
0.5717370200437434
 40
0.6346549886421181
 40
0.6983368915131776
 40
0.7701825916419024
 40
0.840989780829682
 40
0.9126866268392151
 40
0.984422585418653
 40
1.0
 40
1.0
 40
1.0
 40
1.0
 10
10.94152835389606
 20
26.00011748566207
 30
0.0
 10
10.9576629312815
 20
25.99254687871574
 30
0.0
 10
11.02293447609977
 20
25.96192040497587
 30
0.0
 10
10.5896831718091
 20
25.9064679597051
 30
0.0
 10
9.655187728681888
 20
25.83463267482666
 30
0.0
 10
8.214831379163284
 20
25.76690920601471
 30
0.0
 10
6.386554864640624
 20
25.69516523022202
 30
0.0
 10
4.322345468186834
 20
25.6264559326074
 30
0.0
 10
2.160445492416315
 20
25.56372663697426
 30
0.0
 10
-0.0000166540700423
 20
25.49999897332883
 30
0.0
 10
-2.1603793522999
 20
25.43627744035642
 30
0.0
 10
-4.23570313968867
 20
25.37605058862208
 30
0.0
 10
-6.230256784104895
 20
25.31023918348495
 30
0.0
 10
-8.029197330464346
 20
25.24085964443185
 30
0.0
 10
-9.519146208197437
 20
25.17304750749422
 30
0.0
 10
-10.50267412664988
 20
25.10165585938379
 30
0.0
 10
-10.97609330906251
 20
25.04837036228527
 30
0.0
 10
-10.94679174510171
 20
25.02029611055124
 30
0.0
 10
-10.94156410822117
 20
25.01528743613527
 30
0.0
  0
SPLINE
  5
3C2
330
23
100
AcDbEntity
 67
     1
  8
0
  6
Continuous
 62
     7
370
    25
100
AcDbSpline
210
0.0
220
0.0
230
1.0
 70
     8
 71
     3
 72
    23
 73
    19
 74
     0
 42
0.000000001
 43
0.00000001
 40
0.0
 40
0.0
 40
0.0
 40
0.0
 40
0.0235209480153115
 40
0.0951527006796632
 40
0.1669408754850398
 40
0.2377321717592253
 40
0.30950380324057
 40
0.3811581082683417
 40
0.4440760768667146
 40
0.5079065484552279
 40
0.5717370200437426
 40
0.6346549886421174
 40
0.6983368915131769
 40
0.7701825916419018
 40
0.8409897808296813
 40
0.9126866268392146
 40
0.9844225854186528
 40
1.0
 40
1.0
 40
1.0
 40
1.0
 10
10.94152835389606
 20
24.00011748566207
 30
0.0
 10
10.9576629312815
 20
23.99254687871574
 30
0.0
 10
11.02293447609977
 20
23.96192040497588
 30
0.0
 10
10.58968317180909
 20
23.90646795970509
 30
0.0
 10
9.655187728681888
 20
23.83463267482665
 30
0.0
 10
8.214831379163282
 20
23.76690920601472
 30
0.0
 10
6.386554864640626
 20
23.69516523022203
 30
0.0
 10
4.322345468186833
 20
23.6264559326074
 30
0.0
 10
2.160445492416315
 20
23.56372663697427
 30
0.0
 10
-0.0000166540700409
 20
23.49999897332883
 30
0.0
 10
-2.160379352299902
 20
23.43627744035643
 30
0.0
 10
-4.235703139688668
 20
23.37605058862209
 30
0.0
 10
-6.230256784104902
 20
23.31023918348496
 30
0.0
 10
-8.029197330464338
 20
23.24085964443185
 30
0.0
 10
-9.519146208197446
 20
23.17304750749423
 30
0.0
 10
-10.50267412664989
 20
23.10165585938378
 30
0.0
 10
-10.97609330906251
 20
23.04837036228527
 30
0.0
 10
-10.94679174510171
 20
23.02029611055124
 30
0.0
 10
-10.94156410822117
 20
23.01528743613527
 30
0.0
  0
SPLINE
  5
3C3
330
23
100
AcDbEntity
 67
     1
  8
0
  6
Continuous
 62
     7
370
    25
100
AcDbSpline
210
0.0
220
0.0
230
1.0
 70
    24
 71
     3
 72
    17
 73
    13
 74
     0
 42
0.000000001
 43
0.00000001
 40
0.0
 40
0.0
 40
0.0
 40
0.0
 40
0.0384132242419209
 40
0.1473163625567459
 40
0.2522952603382736
 40
0.3604190516201068
 40
0.4637935382148864
 40
0.5702778140775916
 40
0.6716877386061691
 40
0.776107380075761
 40
0.8860137697585695
 40
1.0
 40
1.0
 40
1.0
 40
1.0
 10
11.83721214078794
 20
29.50000000000001
 30
0.0
 10
11.85264859519689
 20
29.50000000000001
 30
0.0
 10
11.91184805994318
 20
29.50000000000003
 30
0.0
 10
11.66304771180837
 20
29.5
 30
0.0
 10
11.08790327828233
 20
29.50000000000001
 30
0.0
 10
10.18475606560853
 20
29.50000000000002
 30
0.0
 10
8.996207531206842
 20
29.49999999999998
 30
0.0
 10
7.576675826644088
 20
29.50000000000001
 30
0.0
 10
5.942759018636512
 20
29.5
 30
0.0
 10
4.128145296722261
 20
29.5
 30
0.0
 10
2.12020426612506
 20
29.50000000000001
 30
0.0
 10
0.715268480163487
 20
29.50000000000001
 30
0.0
 10
-0.0000000000000413
 20
29.50000000000001
 30
0.0
  0
SPLINE
  5
3C4
330
23
100
AcDbEntity
 67
     1
  8
0
  6
Continuous
 62
     7
370
    25
100
AcDbSpline
210
0.0
220
0.0
230
1.0
 70
     8
 71
     3
 72
    23
 73
    19
 74
     0
 42
0.000000001
 43
0.00000001
 40
0.0
 40
0.0
 40
0.0
 40
0.0
 40
0.000290970377202
 40
0.0633035641544403
 40
0.1270482207138641
 40
0.1982444855995626
 40
0.2692385459230636
 40
0.341075983498852
 40
0.4120400242071934
 40
0.4832688925071622
 40
0.555081893366866
 40
0.6258797897737672
 40
0.6973135363173951
 40
0.7690594214417843
 40
0.839768536553028
 40
0.9113658180416219
 40
0.9830021463188013
 40
1.0
 40
1.0
 40
1.0
 40
1.0
 10
12.08147857416
 20
29.37501055489395
 30
0.0
 10
12.08182951908541
 20
29.37491582596175
 30
0.0
 10
12.15818115602424
 20
29.35430658355489
 30
0.0
 10
11.89031315195314
 20
29.31343218800264
 30
0.0
 10
11.21650307213148
 20
29.24653551925293
 30
0.0
 10
9.95547973016985
 20
29.17939847949641
 30
0.0
 10
8.180745551456972
 20
29.11046916735793
 30
0.0
 10
6.004794357216696
 20
29.03793335708841
 30
0.0
 10
3.536140818899482
 20
28.96912558822428
 30
0.0
 10
0.8959116544111587
 20
28.89922542022287
 30
0.0
 10
-1.786355808100004
 20
28.82682429400628
 30
0.0
 10
-4.383333174574091
 20
28.75868602534246
 30
0.0
 10
-6.76847929104002
 20
28.68793248047745
 30
0.0
 10
-8.81936765480784
 20
28.61584510817599
 30
0.0
 10
-10.45568503438179
 20
28.54805251929442
 30
0.0
 10
-11.53730603923748
 20
28.47665089996114
 30
0.0
 10
-12.0583434215836
 20
28.42289630421777
 30
0.0
 10
-12.02422814167296
 20
28.3943630221465
 30
0.0
 10
-12.01768567099853
 20
28.38889104121346
 30
0.0
  0
SPLINE
  5
3C5
330
23
100
AcDbEntity
 67
     1
  8
0
  6
Continuous
 62
     7
370
    25
100
AcDbSpline
210
0.0
220
0.0
230
1.0
 70
     8
 71
     3
 72
    23
 73
    19
 74
     0
 42
0.000000001
 43
0.00000001
 40
0.0
 40
0.0
 40
0.0
 40
0.0
 40
0.0002909703772017
 40
0.0633035641544401
 40
0.127048220713864
 40
0.1982444855995625
 40
0.2692385459230635
 40
0.341075983498852
 40
0.4120400242071934
 40
0.4832688925071623
 40
0.5550818933668662
 40
0.6258797897737675
 40
0.6973135363173955
 40
0.7690594214417846
 40
0.8397685365530285
 40
0.9113658180416224
 40
0.9830021463188019
 40
1.0
 40
1.0
 40
1.0
 40
1.0
 10
12.08147857416
 20
27.37501055489395
 30
0.0
 10
12.08182951908541
 20
27.37491582596175
 30
0.0
 10
12.1581811560241
 20
27.35430658355491
 30
0.0
 10
11.8903131519532
 20
27.31343218800264
 30
0.0
 10
11.21650307213147
 20
27.24653551925293
 30
0.0
 10
9.955479730169857
 20
27.17939847949641
 30
0.0
 10
8.180745551456969
 20
27.11046916735794
 30
0.0
 10
6.004794357216699
 20
27.03793335708841
 30
0.0
 10
3.536140818899479
 20
26.96912558822429
 30
0.0
 10
0.8959116544111588
 20
26.89922542022289
 30
0.0
 10
-1.7863558081
 20
26.82682429400626
 30
0.0
 10
-4.383333174574096
 20
26.75868602534249
 30
0.0
 10
-6.768479291040015
 20
26.68793248047745
 30
0.0
 10
-8.819367654807845
 20
26.615845108176
 30
0.0
 10
-10.45568503438179
 20
26.54805251929442
 30
0.0
 10
-11.53730603923748
 20
26.47665089996114
 30
0.0
 10
-12.05834342158361
 20
26.42289630421777
 30
0.0
 10
-12.02422814167296
 20
26.3943630221465
 30
0.0
 10
-12.01768567099853
 20
26.38889104121346
 30
0.0
  0
SPLINE
  5
3C6
330
23
100
AcDbEntity
 67
     1
  8
0
  6
Continuous
 62
     7
370
    25
100
AcDbSpline
210
0.0
220
0.0
230
1.0
 70
     8
 71
     3
 72
    23
 73
    19
 74
     0
 42
0.000000001
 43
0.00000001
 40
0.0
 40
0.0
 40
0.0
 40
0.0
 40
0.0002909703772017
 40
0.06330356415444
 40
0.1270482207138639
 40
0.1982444855995623
 40
0.2692385459230633
 40
0.3410759834988519
 40
0.4120400242071933
 40
0.483268892507162
 40
0.5550818933668659
 40
0.6258797897737671
 40
0.6973135363173951
 40
0.7690594214417843
 40
0.8397685365530281
 40
0.911365818041622
 40
0.9830021463188015
 40
1.0
 40
1.0
 40
1.0
 40
1.0
 10
12.08147857416
 20
25.37501055489395
 30
0.0
 10
12.08182951908541
 20
25.37491582596175
 30
0.0
 10
12.1581811560242
 20
25.35430658355514
 30
0.0
 10
11.89031315195315
 20
25.31343218800254
 30
0.0
 10
11.21650307213148
 20
25.24653551925297
 30
0.0
 10
9.955479730169854
 20
25.1793984794964
 30
0.0
 10
8.18074555145697
 20
25.11046916735793
 30
0.0
 10
6.004794357216698
 20
25.0379333570884
 30
0.0
 10
3.536140818899482
 20
24.96912558822429
 30
0.0
 10
0.8959116544111566
 20
24.89922542022286
 30
0.0
 10
-1.786355808100001
 20
24.82682429400628
 30
0.0
 10
-4.383333174574096
 20
24.75868602534248
 30
0.0
 10
-6.768479291040017
 20
24.68793248047745
 30
0.0
 10
-8.819367654807841
 20
24.61584510817599
 30
0.0
 10
-10.45568503438179
 20
24.54805251929442
 30
0.0
 10
-11.53730603923748
 20
24.47665089996114
 30
0.0
 10
-12.0583434215836
 20
24.42289630421777
 30
0.0
 10
-12.02422814167296
 20
24.3943630221465
 30
0.0
 10
-12.01768567099853
 20
24.38889104121346
 30
0.0
  0
SPLINE
  5
3C7
330
23
100
AcDbEntity
 67
     1
  8
0
  6
Continuous
 62
     7
370
    25
100
AcDbSpline
210
0.0
220
0.0
230
1.0
 70
     8
 71
     3
 72
    23
 73
    19
 74
     0
 42
0.000000001
 43
0.00000001
 40
0.0
 40
0.0
 40
0.0
 40
0.0
 40
0.0002909703772011
 40
0.0633035641544395
 40
0.1270482207138634
 40
0.1982444855995618
 40
0.2692385459230628
 40
0.3410759834988514
 40
0.4120400242071928
 40
0.4832688925071616
 40
0.5550818933668654
 40
0.6258797897737668
 40
0.6973135363173947
 40
0.7690594214417839
 40
0.8397685365530277
 40
0.9113658180416216
 40
0.9830021463188011
 40
0.9999999999999999
 40
0.9999999999999999
 40
0.9999999999999999
 40
0.9999999999999999
 10
12.08147857416001
 20
23.37501055489395
 30
0.0
 10
12.08182951908541
 20
23.37491582596175
 30
0.0
 10
12.1581811560244
 20
23.3543065835555
 30
0.0
 10
11.89031315195306
 20
23.31343218800237
 30
0.0
 10
11.21650307213151
 20
23.24653551925302
 30
0.0
 10
9.955479730169843
 20
23.1793984794964
 30
0.0
 10
8.180745551456972
 20
23.11046916735792
 30
0.0
 10
6.004794357216697
 20
23.03793335708841
 30
0.0
 10
3.536140818899481
 20
22.96912558822427
 30
0.0
 10
0.8959116544111603
 20
22.89922542022287
 30
0.0
 10
-1.786355808100007
 20
22.82682429400628
 30
0.0
 10
-4.383333174574088
 20
22.75868602534247
 30
0.0
 10
-6.768479291040022
 20
22.68793248047746
 30
0.0
 10
-8.819367654807841
 20
22.61584510817599
 30
0.0
 10
-10.45568503438179
 20
22.54805251929443
 30
0.0
 10
-11.53730603923748
 20
22.47665089996113
 30
0.0
 10
-12.05834342158361
 20
22.42289630421777
 30
0.0
 10
-12.02422814167296
 20
22.3943630221465
 30
0.0
 10
-12.01768567099853
 20
22.38889104121346
 30
0.0
  0
SPLINE
  5
3CB
330
23
100
AcDbEntity
 67
     1
  8
0
  6
Continuous
 62
     7
370
    25
100
AcDbSpline
210
0.0
220
0.0
230
1.0
 70
    24
 71
     3
 72
    34
 73
    30
 74
     0
 42
0.000000001
 43
0.00000001
 40
0.0
 40
0.0
 40
0.0
 40
0.0
 40
0.0625
 40
0.0625
 40
0.125
 40
0.125
 40
0.2499999999999999
 40
0.2499999999999999
 40
0.3124999999999999
 40
0.3124999999999999
 40
0.3749999999999998
 40
0.3749999999999998
 40
0.4374999999999998
 40
0.4374999999999998
 40
0.4999999999999997
 40
0.4999999999999997
 40
0.6249999999999998
 40
0.6249999999999998
 40
0.6874999999999998
 40
0.6874999999999998
 40
0.7499999999999998
 40
0.7499999999999998
 40
0.8124999999999998
 40
0.8124999999999998
 40
0.8749999999999998
 40
0.8749999999999998
 40
0.9374999999999999
 40
0.9374999999999999
 40
1.0
 40
1.0
 40
1.0
 40
1.0
 10
5.222787255919353
 20
-32.50000000000001
 30
0.0
 10
4.854410744901944
 20
-32.50000000000001
 30
0.0
 10
4.476720908145477
 20
-32.50000000000002
 30
0.0
 10
3.702955046940964
 20
-32.50000000000001
 30
0.0
 10
3.304771120337047
 20
-32.49999999999999
 30
0.0
 10
2.103096382870425
 20
-32.49999999999999
 30
0.0
 10
1.290353333326829
 20
-32.49999999999999
 30
0.0
 10
0.0538607702967687
 20
-32.49999999999998
 30
0.0
 10
-0.363088835143893
 20
-32.50000000000001
 30
0.0
 10
-1.180871008382845
 20
-32.50000000000003
 30
0.0
 10
-1.584186903425968
 20
-32.49999999999999
 30
0.0
 10
-2.379859746211616
 20
-32.49999999999999
 30
0.0
 10
-2.772217095497409
 20
-32.50000000000001
 30
0.0
 10
-3.545671887297263
 20
-32.50000000000002
 30
0.0
 10
-3.926401947048425
 20
-32.50000000000001
 30
0.0
 10
-5.01984410020258
 20
-32.50000000000001
 30
0.0
 10
-5.695633336243104
 20
-32.49999999999999
 30
0.0
 10
-6.627411329743736
 20
-32.5
 30
0.0
 10
-6.919793379869366
 20
-32.50000000000001
 30
0.0
 10
-7.462594462995624
 20
-32.50000000000001
 30
0.0
 10
-7.713755524747034
 20
-32.50000000000002
 30
0.0
 10
-8.175535313392503
 20
-32.50000000000002
 30
0.0
 10
-8.387104338424725
 20
-32.5
 30
0.0
 10
-8.76333022245719
 20
-32.49999999999999
 30
0.0
 10
-8.92628301002283
 20
-32.50000000000001
 30
0.0
 10
-9.203525426895453
 20
-32.50000000000002
 30
0.0
 10
-9.317811291927967
 20
-32.50000000000001
 30
0.0
 10
-9.497016914605231
 20
-32.50000000000001
 30
0.0
 10
-9.561962206454961
 20
-32.50000000000001
 30
0.0
 10
-9.600310689292208
 20
-32.50000000000001
 30
0.0
  0
SPLINE
  5
3CC
330
23
100
AcDbEntity
 67
     1
  8
0
  6
Continuous
 62
     7
370
    25
100
AcDbSpline
210
0.0
220
0.0
230
1.0
 70
     8
 71
     3
 72
    24
 73
    20
 74
     0
 42
0.000000001
 43
0.00000001
 40
0.0
 40
0.0
 40
0.0
 40
0.0
 40
0.053710434121059
 40
0.1078416969340207
 40
0.1680739163552835
 40
0.2270526615736786
 40
0.2865475996740643
 40
0.3470253784099328
 40
0.4075039380130597
 40
0.4670011434605014
 40
0.5259782825431566
 40
0.5862091639197292
 40
0.6468031810714492
 40
0.7067670409810995
 40
0.765585046718134
 40
0.8254413434446375
 40
0.8860184326248634
 40
0.9463246610385704
 40
1.0
 40
1.0
 40
1.0
 40
1.0
 10
-9.600310689292236
 20
-32.50000000000001
 30
0.0
 10
-9.506127244754454
 20
-32.48709257161615
 30
0.0
 10
-9.317022415343601
 20
-32.46117658335895
 30
0.0
 10
-8.699119086642451
 20
-32.41975470115248
 30
0.0
 10
-7.820966880630847
 20
-32.37734125847738
 30
0.0
 10
-6.660040318733097
 20
-32.33660821127403
 30
0.0
 10
-5.286717477712993
 20
-32.29439451177203
 30
0.0
 10
-3.729220278435582
 20
-32.25003465750811
 30
0.0
 10
-2.049518131138229
 20
-32.20567479853618
 30
0.0
 10
-0.3179958764281346
 20
-32.16345242471284
 30
0.0
 10
1.42103259790659
 20
-32.1227325543997
 30
0.0
 10
3.125461967992172
 20
-32.07870804753631
 30
0.0
 10
4.736748684437955
 20
-32.0342556300087
 30
0.0
 10
6.181494350461087
 20
-31.99080338223366
 30
0.0
 10
7.422373526996694
 20
-31.95055090435799
 30
0.0
 10
8.432545413284124
 20
-31.90736482841881
 30
0.0
 10
9.167935747078896
 20
-31.86291946120746
 30
0.0
 10
9.614545964655242
 20
-31.82011027251275
 30
0.0
 10
9.655924178632835
 20
-31.79382692506079
 30
0.0
 10
9.675409694686111
 20
-31.78144976956088
 30
0.0
  0
SPLINE
  5
3CD
330
23
100
AcDbEntity
 67
     1
  8
0
  6
Continuous
 62
     7
370
    25
100
AcDbSpline
210
0.0
220
0.0
230
1.0
 70
     8
 71
     3
 72
    25
 73
    21
 74
     0
 42
0.000000001
 43
0.00000001
 40
0.0
 40
0.0
 40
0.0
 40
0.0
 40
0.023177761907561
 40
0.0814170305108848
 40
0.1401834425016345
 40
0.1985130334905508
 40
0.2556282616931344
 40
0.3134437661081612
 40
0.3721292749045265
 40
0.4307286513005529
 40
0.4882940578194925
 40
0.545586449507353
 40
0.6040636317559149
 40
0.6628064879654825
 40
0.7208533360518412
 40
0.7778892633504574
 40
0.8360333908446886
 40
0.894791556598344
 40
0.9532005954958608
 40
1.0
 40
1.0
 40
1.0
 40
1.0
 10
-9.643598553488351
 20
-31.02182009613151
 30
0.0
 10
-9.64316038352641
 20
-31.016333426516
 30
0.0
 10
-9.641621214330412
 20
-30.99706028231551
 30
0.0
 10
-9.312615836259743
 20
-30.96180541528709
 30
0.0
 10
-8.667306389481467
 20
-30.91737616010995
 30
0.0
 10
-7.724576072761892
 20
-30.87349738791059
 30
0.0
 10
-6.545500081836083
 20
-30.83300772871941
 30
0.0
 10
-5.153777141970968
 20
-30.7904408787757
 30
0.0
 10
-3.582266446603367
 20
-30.74604270575198
 30
0.0
 10
-1.895554342311606
 20
-30.70173466226571
 30
0.0
 10
-0.1616695430086804
 20
-30.65989081982817
 30
0.0
 10
1.576030413753136
 20
-30.61886406130455
 30
0.0
 10
3.275131614943649
 20
-30.5747164128363
 30
0.0
 10
4.874110665395651
 20
-30.53027465673956
 30
0.0
 10
6.301795461914512
 20
-30.48707810433253
 30
0.0
 10
7.522903634441295
 20
-30.44682685911313
 30
0.0
 10
8.510917222817826
 20
-30.40338438853632
 30
0.0
 10
9.219033975449474
 20
-30.35892663369496
 30
0.0
 10
9.630021630665432
 20
-30.31754163355228
 30
0.0
 10
9.654565482522777
 20
-30.29260795872279
 30
0.0
 10
9.665483215111749
 20
-30.28151682291286
 30
0.0
  0
SPLINE
  5
3CE
330
23
100
AcDbEntity
 67
     1
  8
0
  6
Continuous
 62
     7
370
    25
100
AcDbSpline
210
0.0
220
0.0
230
1.0
 70
     8
 71
     3
 72
    25
 73
    21
 74
     0
 42
0.000000001
 43
0.00000001
 40
0.0
 40
0.0
 40
0.0
 40
0.0
 40
0.029549071273345
 40
0.0878058825127407
 40
0.1465034937501771
 40
0.2046790526845014
 40
0.2616754623626344
 40
0.3195385596246045
 40
0.3781869970410784
 40
0.4366626837715092
 40
0.4940241649412447
 40
0.5513759075268233
 40
0.6098474829773616
 40
0.6684978498771181
 40
0.7263687307726954
 40
0.7833624723494041
 40
0.8415317912901583
 40
0.9002291250785993
 40
0.9584916483111026
 40
1.0
 40
1.0
 40
1.0
 40
1.0
 10
-9.643681492485182
 20
-29.52264451123587
 30
0.0
 10
-9.639525420717503
 20
-29.51563795820885
 30
0.0
 10
-9.627175538517434
 20
-29.49481779211228
 30
0.0
 10
-9.267759588416258
 20
-29.45782196717931
 30
0.0
 10
-8.59318923159887
 20
-29.41338503414115
 30
0.0
 10
-7.628109561787261
 20
-29.3696970761706
 30
0.0
 10
-6.428688802806685
 20
-29.32936407515323
 30
0.0
 10
-5.019442914588683
 20
-29.28647632050403
 30
0.0
 10
-3.434339969037717
 20
-29.24205211336172
 30
0.0
 10
-1.741351727912107
 20
-29.19780933845515
 30
0.0
 10
-0.0054428843690675
 20
-29.15637187448944
 30
0.0
 10
1.730595811247908
 20
-29.11496368536446
 30
0.0
 10
3.423990776867772
 20
-29.07072600309763
 30
0.0
 10
5.010038094147465
 20
-29.02630033210825
 30
0.0
 10
6.420425360196729
 20
-28.98339179498767
 30
0.0
 10
7.621519927689864
 20
-28.94306511177562
 30
0.0
 10
8.587142248464094
 20
-28.89939841315778
 30
0.0
 10
9.267534135595362
 20
-28.85493576217591
 30
0.0
 10
9.644716200740014
 20
-28.81499679961231
 30
0.0
 10
9.65411484569535
 20
-28.79137440516383
 30
0.0
 10
9.658025027504548
 20
-28.78154662067989
 30
0.0
  0
SPLINE
  5
3CF
330
23
100
AcDbEntity
 67
     1
  8
0
  6
Continuous
 62
     7
370
    25
100
AcDbSpline
210
0.0
220
0.0
230
1.0
 70
     8
 71
     3
 72
    25
 73
    21
 74
     0
 42
0.000000001
 43
0.00000001
 40
0.0
 40
0.0
 40
0.0
 40
0.0
 40
0.032827811310998
 40
0.0912814241282955
 40
0.1500904846675079
 40
0.2082909271759392
 40
0.265376369247142
 40
0.3234653863519893
 40
0.3822569110978885
 40
0.4407885763960742
 40
0.4981378219300899
 40
0.5557429827661952
 40
0.6143887103449809
 40
0.6731267040671038
 40
0.7309997732527016
 40
0.7881592387981939
 40
0.8465328023903592
 40
0.9053495603915711
 40
0.9636447009459055
 40
1.0
 40
1.0
 40
1.0
 40
1.0
 10
-9.642009605372706
 20
-28.02119541098369
 30
0.0
 10
-9.63271662961621
 20
-28.01341024604554
 30
0.0
 10
-9.60687646459861
 20
-27.9917627187128
 30
0.0
 10
-9.219235445672181
 20
-27.95382952335111
 30
0.0
 10
-8.517167988991105
 20
-27.90939918932671
 30
0.0
 10
-7.529614252592533
 20
-27.86593262856369
 30
0.0
 10
-6.310180936421851
 20
-27.82568055909951
 30
0.0
 10
-4.883616259027947
 20
-27.78250251171823
 30
0.0
 10
-3.285539857480009
 20
-27.73806184418555
 30
0.0
 10
-1.58681831261879
 20
-27.69390680775267
 30
0.0
 10
0.1507745602881797
 20
-27.65285588195165
 30
0.0
 10
1.884813950096959
 20
-27.61103945790395
 30
0.0
 10
3.571979039968777
 20
-27.56673557739328
 30
0.0
 10
5.144481776343747
 20
-27.52233500711128
 30
0.0
 10
6.537342178599835
 20
-27.47974541192941
 30
0.0
 10
7.718182115984598
 20
-27.43926698269093
 30
0.0
 10
8.661189990026308
 20
-27.39540863771839
 30
0.0
 10
9.31340099654972
 20
-27.3509478143224
 30
0.0
 10
9.658650386557529
 20
-27.31247620245416
 30
0.0
 10
9.654603417413181
 20
-27.2901317754329
 30
0.0
 10
9.653048973777059
 20
-27.28154926562194
 30
0.0
  0
SPLINE
  5
3D0
330
23
100
AcDbEntity
 67
     1
  8
0
  6
Continuous
 62
     7
370
    25
100
AcDbSpline
210
0.0
220
0.0
230
1.0
 70
     8
 71
     3
 72
    25
 73
    21
 74
     0
 42
0.000000001
 43
0.00000001
 40
0.0
 40
0.0
 40
0.0
 40
0.0
 40
0.0367640870989209
 40
0.095369270370159
 40
0.1542437440084629
 40
0.2124236164071818
 40
0.2695862648571326
 40
0.3278565921340351
 40
0.3867453012942474
 40
0.4452871217314062
 40
0.502611568588941
 40
0.5604263359492462
 40
0.6192006300383642
 40
0.677980236439327
 40
0.7358104287707449
 40
0.7931239489387311
 40
0.8516566665346287
 40
0.9105468285249876
 40
0.9688290235131058
 40
1.0
 40
1.0
 40
1.0
 40
1.0
 10
-9.642296574037106
 20
-26.52023902716296
 30
0.0
 10
-9.626739606329759
 20
-26.51150390651352
 30
0.0
 10
-9.586383465962946
 20
-26.48884423647493
 30
0.0
 10
-9.16832806746288
 20
-26.44983716589401
 30
0.0
 10
-8.438939901852393
 20
-26.40541819626575
 30
0.0
 10
-7.429217227169697
 20
-26.36220594278894
 30
0.0
 10
-6.189994820780099
 20
-26.32195795235922
 30
0.0
 10
-4.746352743325498
 20
-26.2785219514666
 30
0.0
 10
-3.135924543004206
 20
-26.23407024428753
 30
0.0
 10
-1.431849406977343
 20
-26.190036043609
 30
0.0
 10
0.3070982205198333
 20
-26.14929721265089
 30
0.0
 10
2.038787391007295
 20
-26.10710034230804
 30
0.0
 10
3.719036853755432
 20
-26.06274351624904
 30
0.0
 10
5.277393837377416
 20
-26.0183811311259
 30
0.0
 10
6.652505541243993
 20
-25.97613980296215
 30
0.0
 10
7.812850910431219
 20
-25.93543387404232
 30
0.0
 10
8.733033066397903
 20
-25.89141682012716
 30
0.0
 10
9.356596026140284
 20
-25.84696361744808
 30
0.0
 10
9.67184710391702
 20
-25.80998057349152
 30
0.0
 10
9.656063597840834
 20
-25.78888629658467
 30
0.0
 10
9.65056365537184
 20
-25.78153575552918
 30
0.0
  0
SPLINE
  5
3D1
330
23
100
AcDbEntity
 67
     1
  8
0
  6
Continuous
 62
     7
370
    25
100
AcDbSpline
210
0.0
220
0.0
230
1.0
 70
     8
 71
     3
 72
    25
 73
    21
 74
     0
 42
0.000000001
 43
0.00000001
 40
0.0
 40
0.0
 40
0.0
 40
0.0
 40
0.0454439120339162
 40
0.1038923324861489
 40
0.1625224989472645
 40
0.2203763876327477
 40
0.2773482883272654
 40
0.3354934977274455
 40
0.3941695110030466
 40
0.4524138647923859
 40
0.5094448508816741
 40
0.5671654105923283
 40
0.6257589930743988
 40
0.6842711099596724
 40
0.7417551226650814
 40
0.7989536731090074
 40
0.8573376213837993
 40
0.9159913551697944
 40
0.9739545697931828
 40
1.0
 40
1.0
 40
1.0
 40
1.0
 10
-9.656756192360051
 20
-25.0228877607143
 30
0.0
 10
-9.63189685001934
 20
-25.01200700905961
 30
0.0
 10
-9.57506426355714
 20
-24.98713180316263
 30
0.0
 10
-9.115957468250343
 20
-24.94585155646181
 30
0.0
 10
-8.358303892178183
 20
-24.90144231155068
 30
0.0
 10
-7.327021092684983
 20
-24.85851860156475
 30
0.0
 10
-6.068156890263331
 20
-24.8181973762178
 30
0.0
 10
-4.607707397266172
 20
-24.77453628247472
 30
0.0
 10
-2.985553623247517
 20
-24.73007882834425
 30
0.0
 10
-1.276503501077823
 20
-24.68619862549421
 30
0.0
 10
0.4634697182151752
 20
-24.64569668358099
 30
0.0
 10
2.192454040131183
 20
-24.60314796372622
 30
0.0
 10
3.865105196223549
 20
-24.55875136208266
 30
0.0
 10
5.408728186803672
 20
-24.51444031600445
 30
0.0
 10
6.765875404830578
 20
-24.47257595810241
 30
0.0
 10
7.905492490886939
 20
-24.43156717375929
 30
0.0
 10
8.802630330272862
 20
-24.38742486001743
 30
0.0
 10
9.397140627825898
 20
-24.34298346950409
 30
0.0
 10
9.684545616639591
 20
-24.30746302100545
 30
0.0
 10
9.658583299924008
 20
-24.2875509198811
 30
0.0
 10
9.65053413177721
 20
-24.28137751664202
 30
0.0
  0
SPLINE
  5
3D2
330
23
100
AcDbEntity
 67
     1
  8
0
  6
Continuous
 62
     7
370
    25
100
AcDbSpline
210
0.0
220
0.0
230
1.0
 70
     8
 71
     3
 72
    25
 73
    21
 74
     0
 42
0.000000001
 43
0.00000001
 40
0.0
 40
0.0
 40
0.0
 40
0.0
 40
0.0495106393388867
 40
0.108085897270394
 40
0.1667563398081686
 40
0.2245657789357899
 40
0.2816561508953068
 40
0.3399584908098582
 40
0.3987065026546987
 40
0.4569364926139227
 40
0.5139837474257193
 40
0.5718904824402687
 40
0.6305876219039377
 40
0.6891163977752374
 40
0.7465342561346597
 40
0.8039278195512364
 40
0.8624463084381618
 40
0.9211482757327589
 40
0.979074486463253
 40
1.0
 40
1.0
 40
1.0
 40
1.0
 10
-9.662097056218077
 20
-23.52208510947024
 30
0.0
 10
-9.62788487663177
 20
-23.51018416064658
 30
0.0
 10
-9.553196805996063
 20
-23.48420338663216
 30
0.0
 10
-9.059910332495313
 20
-23.44185734715518
 30
0.0
 10
-8.275889924231452
 20
-23.39747762130591
 30
0.0
 10
-7.222912786593315
 20
-23.35487057800252
 30
0.0
 10
-5.944753919386987
 20
-23.31440045391809
 30
0.0
 10
-4.467720411658639
 20
-23.27054701480056
 30
0.0
 10
-2.834491475216632
 20
-23.22608916942601
 30
0.0
 10
-1.120838452618702
 20
-23.18239603559545
 30
0.0
 10
0.6198299680427539
 20
-23.14205525194938
 30
0.0
 10
2.345751512300791
 20
-23.09918393915174
 30
0.0
 10
4.010126053938082
 20
-23.05476066025152
 30
0.0
 10
5.538439349688515
 20
-23.01051417583882
 30
0.0
 10
6.877416485052207
 20
-22.96905476969266
 30
0.0
 10
7.996062160661126
 20
-22.92766839626713
 30
0.0
 10
8.869989610876658
 20
-22.88343445782963
 30
0.0
 10
9.434882165305332
 20
-22.83900834941976
 30
0.0
 10
9.696362757873056
 20
-22.80500868026709
 30
0.0
 10
9.662028706106728
 20
-22.7862969078938
 30
0.0
 10
9.652917203832247
 20
-22.78133121500968
 30
0.0
  0
SPLINE
  5
3D3
330
23
100
AcDbEntity
 67
     1
  8
0
  6
Continuous
 62
     7
370
    25
100
AcDbSpline
210
0.0
220
0.0
230
1.0
 70
     8
 71
     3
 72
    13
 73
     9
 74
     0
 42
0.000000001
 43
0.00000001
 40
0.0
 40
0.0
 40
0.0
 40
0.0
 40
0.1600847467156118
 40
0.3284582410253417
 40
0.499803426008002
 40
0.6732115737901904
 40
0.8458445034962725
 40
1.0
 40
1.0
 40
1.0
 40
1.0
 10
5.222787255920396
 20
-32.50000000000001
 30
0.0
 10
5.718913472264026
 20
-32.48643758809647
 30
0.0
 10
6.736853954977705
 20
-32.45861053992801
 30
0.0
 10
8.042469392189304
 20
-32.41930999024741
 30
0.0
 10
9.139739823283987
 20
-32.37611251610791
 30
0.0
 10
9.93613547521105
 20
-32.33166993674173
 30
0.0
 10
10.42067919477422
 20
-32.28881767868936
 30
0.0
 10
10.46550437448424
 20
-32.26249435971894
 30
0.0
 10
10.48664970057248
 20
-32.25007689330933
 30
0.0
  0
SPLINE
  5
3D5
330
23
100
AcDbEntity
 67
     1
  8
0
  6
Continuous
 62
     7
370
    25
100
AcDbSpline
210
0.0
220
0.0
230
1.0
 70
     8
 71
     3
 72
    25
 73
    21
 74
     0
 42
0.000000001
 43
0.00000001
 40
0.0
 40
0.0
 40
0.0
 40
0.0
 40
0.0240526081498808
 40
0.0822260268325507
 40
0.1409258952622835
 40
0.199189520620752
 40
0.2562403727057137
 40
0.3139905827902988
 40
0.3726096543207311
 40
0.4311427089254436
 40
0.4886431533847216
 40
0.5458709343271667
 40
0.6042819535496033
 40
0.661632649969346
 40
0.7158001014958361
 40
0.7727721945808207
 40
0.8307498107639157
 40
0.8894254662026988
 40
0.947838813155374
 40
1.0
 40
1.0
 40
1.0
 40
1.0
 10
-10.4524713257705
 20
-31.4912145094679
 30
0.0
 10
-10.45212995455732
 20
-31.48551521366237
 30
0.0
 10
-10.45096294604166
 20
-31.46603165300598
 30
0.0
 10
-10.0933934327682
 20
-31.43055753407974
 30
0.0
 10
-9.393567976573992
 20
-31.3861256670834
 30
0.0
 10
-8.371947340311863
 20
-31.3422475001028
 30
0.0
 10
-7.094035024594191
 20
-31.30175781508886
 30
0.0
 10
-5.585689802501631
 20
-31.25919103489074
 30
0.0
 10
-3.882476176836864
 20
-31.2147927492946
 30
0.0
 10
-2.054409128682549
 20
-31.17048475812824
 30
0.0
 10
-0.175219717068876
 20
-31.12864051540504
 30
0.0
 10
1.70809710382408
 20
-31.08761555502726
 30
0.0
 10
3.535602124041073
 20
-31.04379724758158
 30
0.0
 10
5.218940484384715
 20
-31.00068408785899
 30
0.0
 10
6.729857590138509
 20
-30.95864175837672
 30
0.0
 10
8.044420715731494
 20
-30.91930128325524
 30
0.0
 10
9.139206006801
 20
-30.87611489804809
 30
0.0
 10
9.936278372138812
 20
-30.83166929912197
 30
0.0
 10
10.42064795457584
 20
-30.78881781808611
 30
0.0
 10
10.46549436115823
 20
-30.76249440439936
 30
0.0
 10
10.48664970057248
 20
-30.75007689330933
 30
0.0
  0
SPLINE
  5
3D7
330
23
100
AcDbEntity
 67
     1
  8
0
  6
Continuous
 62
     7
370
    25
100
AcDbSpline
210
0.0
220
0.0
230
1.0
 70
     8
 71
     3
 72
    25
 73
    21
 74
     0
 42
0.000000001
 43
0.00000001
 40
0.0
 40
0.0
 40
0.0
 40
0.0
 40
0.0253221044832222
 40
0.083419852138609
 40
0.1420433647438768
 40
0.2002312017357003
 40
0.2572078430095664
 40
0.3148829325696599
 40
0.3734257533749064
 40
0.4318826691438368
 40
0.489308317969645
 40
0.5464616579548436
 40
0.6047966970831185
 40
0.6620727926591808
 40
0.7161697840546499
 40
0.7730677687769522
 40
0.8309699686294386
 40
0.8895692997396176
 40
0.9479066635702579
 40
1.0
 40
1.0
 40
1.0
 40
1.0
 10
-10.45348807796635
 20
-29.9921460082939
 30
0.0
 10
-10.45335296391746
 20
-29.98613940440404
 30
0.0
 10
-10.45290785107197
 20
-29.96635155427964
 30
0.0
 10
-10.0938767262683
 20
-29.93056036334409
 30
0.0
 10
-9.393438973613137
 20
-29.88612491188292
 30
0.0
 10
-8.371980984679563
 20
-29.8422476970614
 30
0.0
 10
-7.094025972180508
 20
-29.80175776209481
 30
0.0
 10
-5.585692281643238
 20
-29.75919104940398
 30
0.0
 10
-3.88247550905432
 20
-29.71479274538531
 30
0.0
 10
-2.054409304014666
 20
-29.67048475915465
 30
0.0
 10
-0.1752196707181295
 20
-29.62864051513371
 30
0.0
 10
1.708097091134507
 20
-29.58761555510154
 30
0.0
 10
3.535602127407474
 20
-29.54379724756187
 30
0.0
 10
5.218940483546362
 20
-29.50068408786389
 30
0.0
 10
6.729857590370262
 20
-29.45864175837537
 30
0.0
 10
8.044420715666856
 20
-29.41930128325562
 30
0.0
 10
9.139206006818686
 20
-29.37611489804798
 30
0.0
 10
9.93627837213408
 20
-29.331669299122
 30
0.0
 10
10.42064795457687
 20
-29.2888178180861
 30
0.0
 10
10.46549436115856
 20
-29.26249440439935
 30
0.0
 10
10.48664970057248
 20
-29.25007689330933
 30
0.0
  0
SPLINE
  5
3D9
330
23
100
AcDbEntity
 67
     1
  8
0
  6
Continuous
 62
     7
370
    25
100
AcDbSpline
210
0.0
220
0.0
230
1.0
 70
     8
 71
     3
 72
    25
 73
    21
 74
     0
 42
0.000000001
 43
0.00000001
 40
0.0
 40
0.0
 40
0.0
 40
0.0
 40
0.0233630187732658
 40
0.0815775418964618
 40
0.1403188867479935
 40
0.1986236802856341
 40
0.2557148436228756
 40
0.313505859115318
 40
0.372166349977706
 40
0.4307407631361411
 40
0.4882818365227371
 40
0.5455500537326643
 40
0.6040023452805043
 40
0.6613935648179096
 40
0.7155992902303107
 40
0.7726116389176804
 40
0.8306302211902749
 40
0.8893473359423307
 40
0.9478019568651476
 40
1.0
 40
1.0
 40
1.0
 40
1.0
 10
-10.45192013468852
 20
-28.49070953505245
 30
0.0
 10
-10.45147354593351
 20
-28.48517687251265
 30
0.0
 10
-10.44991417497955
 20
-28.46585826413762
 30
0.0
 10
-10.09312429991549
 20
-28.43055595854025
 30
0.0
 10
-9.393639814773465
 20
-28.38612608763378
 30
0.0
 10
-8.371928604689195
 20
-28.34224739042197
 30
0.0
 10
-7.094040065634293
 20
-28.30175784459977
 30
0.0
 10
-5.585688421935888
 20
-28.25919102680874
 30
0.0
 10
-3.882476548706587
 20
-28.21479275147158
 30
0.0
 10
-2.05440903104492
 20
-28.17048475755665
 30
0.0
 10
-0.1752197428803262
 20
-28.12864051555616
 30
0.0
 10
1.708097110890548
 20
-28.08761555498589
 30
0.0
 10
3.535602122166416
 20
-28.04379724759256
 30
0.0
 10
5.218940484851568
 20
-28.00068408785624
 30
0.0
 10
6.729857590009458
 20
-27.95864175837748
 30
0.0
 10
8.044420715767481
 20
-27.91930128325502
 30
0.0
 10
9.13920600679116
 20
-27.87611489804815
 30
0.0
 10
9.936278372141448
 20
-27.83166929912196
 30
0.0
 10
10.42064795457527
 20
-27.78881781808611
 30
0.0
 10
10.46549436115805
 20
-27.76249440439936
 30
0.0
 10
10.48664970057248
 20
-27.75007689330933
 30
0.0
  0
SPLINE
  5
3DB
330
23
100
AcDbEntity
 67
     1
  8
0
  6
Continuous
 62
     7
370
    25
100
AcDbSpline
210
0.0
220
0.0
230
1.0
 70
     8
 71
     3
 72
    25
 73
    21
 74
     0
 42
0.000000001
 43
0.00000001
 40
0.0
 40
0.0
 40
0.0
 40
0.0
 40
0.0220190202205709
 40
0.0803136552341902
 40
0.1391358369616352
 40
0.1975208666152903
 40
0.2546905959318791
 40
0.3125611405049049
 40
0.3713023569760246
 40
0.4299573772873969
 40
0.487577635796857
 40
0.5449246626387407
 40
0.6034573932819172
 40
0.6609275917208778
 40
0.7152079123184936
 40
0.7722987185244647
 40
0.830397143043567
 40
0.8891950613272956
 40
0.9477301245510172
 40
1.0
 40
1.0
 40
1.0
 40
1.0
 10
-10.45084810596905
 20
-26.98972739456855
 30
0.0
 10
-10.45021077880323
 20
-26.9845189036492
 30
0.0
 10
-10.4478861488354
 20
-26.96552110357465
 30
0.0
 10
-10.09258581787826
 20
-26.93055280619486
 30
0.0
 10
-9.3937835489167
 20
-26.88612692907255
 30
0.0
 10
-8.37189111838397
 20
-26.84224717097216
 30
0.0
 10
-7.094050151766548
 20
-26.80175790364533
 30
0.0
 10
-5.585685659694679
 20
-26.7591910106382
 30
0.0
 10
-3.882477292744951
 20
-26.71479275582729
 30
0.0
 10
-2.054408835691173
 20
-26.67048475641301
 30
0.0
 10
-0.1752197945239817
 20
-26.62864051585849
 30
0.0
 10
1.70809712502917
 20
-26.58761555490311
 30
0.0
 10
3.535602118415595
 20
-26.54379724761452
 30
0.0
 10
5.218940485785663
 20
-26.50068408785078
 30
0.0
 10
6.729857589751234
 20
-26.45864175837898
 30
0.0
 10
8.044420715839498
 20
-26.41930128325459
 30
0.0
 10
9.139206006771458
 20
-26.37611489804826
 30
0.0
 10
9.936278372146722
 20
-26.33166929912193
 30
0.0
 10
10.42064795457411
 20
-26.28881781808611
 30
0.0
 10
10.46549436115768
 20
-26.26249440439936
 30
0.0
 10
10.48664970057248
 20
-26.25007689330933
 30
0.0
  0
SPLINE
  5
3DD
330
23
100
AcDbEntity
 67
     1
  8
0
  6
Continuous
 62
     7
370
    25
100
AcDbSpline
210
0.0
220
0.0
230
1.0
 70
     8
 71
     3
 72
    25
 73
    21
 74
     0
 42
0.000000001
 43
0.00000001
 40
0.0
 40
0.0
 40
0.0
 40
0.0
 40
0.0255195373541016
 40
0.0836055166035729
 40
0.1422171543028355
 40
0.2003932046400519
 40
0.2573583046017455
 40
0.3150217113704651
 40
0.3735526736148125
 40
0.4319977482239546
 40
0.4894117647856457
 40
0.5465535276661971
 40
0.6048767503222807
 40
0.662141243928057
 40
0.7162272773194857
 40
0.7731137366624573
 40
0.8310042077196159
 40
0.8895916688220458
 40
0.9479172157095979
 40
1.0
 40
1.0
 40
1.0
 40
1.0
 10
-10.45364644194355
 20
-25.49229109365438
 30
0.0
 10
-10.4535448324895
 20
-25.48623663314595
 30
0.0
 10
-10.45321194593357
 20
-25.46640138725025
 30
0.0
 10
-10.09395050990345
 20
-25.43056079528332
 30
0.0
 10
-9.393419278940243
 20
-25.38612479658768
 30
0.0
 10
-8.371986121110636
 20
-25.34224772713075
 30
0.0
 10
-7.094024590163188
 20
-25.3017577540043
 30
0.0
 10
-5.585692660129768
 20
-25.25919105161968
 30
0.0
 10
-3.882475407105041
 20
-25.21479274478849
 30
0.0
 10
-2.054409330782336
 20
-25.17048475931135
 30
0.0
 10
-0.1752196636418381
 20
-25.12864051509228
 30
0.0
 10
1.708097089197217
 20
-25.08761555511288
 30
0.0
 10
3.535602127921412
 20
-25.04379724755886
 30
0.0
 10
5.218940483418375
 20
-25.00068408786465
 30
0.0
 10
6.729857590405643
 20
-24.95864175837515
 30
0.0
 10
8.044420715656987
 20
-24.91930128325568
 30
0.0
 10
9.139206006821386
 20
-24.87611489804797
 30
0.0
 10
9.936278372133357
 20
-24.831669299122
 30
0.0
 10
10.42064795457703
 20
-24.78881781808609
 30
0.0
 10
10.46549436115862
 20
-24.76249440439936
 30
0.0
 10
10.48664970057248
 20
-24.75007689330933
 30
0.0
  0
SPLINE
  5
3DF
330
23
100
AcDbEntity
 67
     1
  8
0
  6
Continuous
 62
     7
370
    25
100
AcDbSpline
210
0.0
220
0.0
230
1.0
 70
     8
 71
     3
 72
    25
 73
    21
 74
     0
 42
0.000000001
 43
0.00000001
 40
0.0
 40
0.0
 40
0.0
 40
0.0
 40
0.0243598096160164
 40
0.0825149169023357
 40
0.1411963082237795
 40
0.1994415937913105
 40
0.2564744878330917
 40
0.3142065197357833
 40
0.372807139590574
 40
0.4313217695954135
 40
0.488804114492165
 40
0.5460138816990789
 40
0.6044065147350332
 40
0.6617391587288242
 40
0.7158895598275301
 40
0.7728437196605069
 40
0.8308030860805068
 40
0.8894602720325863
 40
0.9478552320660734
 40
1.0
 40
1.0
 40
1.0
 40
1.0
 10
-10.4527171237943
 20
-23.99143969764211
 30
0.0
 10
-10.45242418824439
 20
-23.98566610230541
 30
0.0
 10
-10.45143191642701
 20
-23.96610898150092
 30
0.0
 10
-10.09351181118365
 20
-23.93055822708269
 30
0.0
 10
-9.393536378453822
 20
-23.88612548210381
 30
0.0
 10
-8.371955581198483
 20
-23.84224754834604
 30
0.0
 10
-7.094032807286514
 20
-23.80175780210844
 30
0.0
 10
-5.585690409745169
 20
-23.75919103844563
 30
0.0
 10
-3.882476013269509
 20
-23.71479274833705
 30
0.0
 10
-2.054409171628582
 20
-23.67048475837965
 30
0.0
 10
-0.1752197057156747
 20
-23.62864051533859
 30
0.0
 10
1.708097100715882
 20
-23.58761555504545
 30
0.0
 10
3.535602124865643
 20
-23.54379724757676
 30
0.0
 10
5.218940484179368
 20
-23.50068408786019
 30
0.0
 10
6.729857590195277
 20
-23.45864175837639
 30
0.0
 10
8.044420715715654
 20
-23.41930128325532
 30
0.0
 10
9.139206006805338
 20
-23.37611489804807
 30
0.0
 10
9.936278372137656
 20
-23.33166929912198
 30
0.0
 10
10.42064795457609
 20
-23.2888178180861
 30
0.0
 10
10.46549436115831
 20
-23.26249440439936
 30
0.0
 10
10.48664970057248
 20
-23.25007689330933
 30
0.0
  0
LWPOLYLINE
  5
3E1
330
23
100
AcDbEntity
 67
     1
  8
0
  6
Continuous
 62
     7
370
    25
100
AcDbPolyline
 90
       20
 70
   128
 43
0.0
 10
-10.4593239729
 20
-31.6874742553
 10
-10.4512394441
 20
-31.6652776714
 10
-10.1006483595
 20
-31.6221076962
 10
-9.41385879
 20
-31.5775536677
 10
-8.4223358589
 20
-31.5337942474
 10
-7.1843268035
 20
-31.4927421516
 10
-5.7073435159
 20
-31.450583345
 10
-4.0195610142
 20
-31.406284981
 10
-2.1992297231
 20
-31.3619848967
 10
-0.3373985016
 20
-31.3198212031
 10
1.5189331672
 20
-31.2787725524
 10
3.3652058643
 20
-31.235016064
 10
5.111462398
 20
-31.1904615638
 10
6.6731774049
 20
-31.147287789
 10
7.9951628269
 20
-31.1065802886
 10
9.0843061337
 20
-31.0636402771
 10
9.8877479107
 20
-31.0191231198
 10
10.3481841166
 20
-30.97720418
 10
10.5
 20
-30.9375000041
 10
10.5
 20
-30.9375000041
  0
LWPOLYLINE
  5
3E2
330
23
100
AcDbEntity
 67
     1
  8
0
  6
Continuous
 62
     7
370
    25
100
AcDbPolyline
 90
       20
 70
   128
 43
0.0
 10
-10.4593239729
 20
-30.1874742553
 10
-10.4512394441
 20
-30.1652776714
 10
-10.1006483595
 20
-30.1221076962
 10
-9.41385879
 20
-30.0775536677
 10
-8.4223358589
 20
-30.0337942474
 10
-7.1843268035
 20
-29.9927421516
 10
-5.7073435159
 20
-29.950583345
 10
-4.0195610142
 20
-29.906284981
 10
-2.1992297231
 20
-29.8619848967
 10
-0.3373985016
 20
-29.8198212031
 10
1.5189331672
 20
-29.7787725524
 10
3.3652058643
 20
-29.735016064
 10
5.111462398
 20
-29.6904615638
 10
6.6731774049
 20
-29.647287789
 10
7.9951628269
 20
-29.6065802886
 10
9.0843061337
 20
-29.5636402771
 10
9.8877479107
 20
-29.5191231198
 10
10.3481841166
 20
-29.47720418
 10
10.5
 20
-29.4375000041
 10
10.5
 20
-29.4375000041
  0
LWPOLYLINE
  5
3E3
330
23
100
AcDbEntity
 67
     1
  8
0
  6
Continuous
 62
     7
370
    25
100
AcDbPolyline
 90
       20
 70
   128
 43
0.0
 10
-10.4593239729
 20
-28.6874742553
 10
-10.4512394441
 20
-28.6652776714
 10
-10.1006483595
 20
-28.6221076962
 10
-9.41385879
 20
-28.5775536677
 10
-8.4223358589
 20
-28.5337942474
 10
-7.1843268035
 20
-28.4927421516
 10
-5.7073435159
 20
-28.450583345
 10
-4.0195610142
 20
-28.406284981
 10
-2.1992297231
 20
-28.3619848967
 10
-0.3373985016
 20
-28.3198212031
 10
1.5189331672
 20
-28.2787725524
 10
3.3652058643
 20
-28.235016064
 10
5.111462398
 20
-28.1904615638
 10
6.6731774049
 20
-28.147287789
 10
7.9951628269
 20
-28.1065802886
 10
9.0843061337
 20
-28.0636402771
 10
9.8877479107
 20
-28.0191231198
 10
10.3481841166
 20
-27.97720418
 10
10.5
 20
-27.9375000041
 10
10.5
 20
-27.9375000041
  0
LWPOLYLINE
  5
3E4
330
23
100
AcDbEntity
 67
     1
  8
0
  6
Continuous
 62
     7
370
    25
100
AcDbPolyline
 90
       20
 70
   128
 43
0.0
 10
-10.4593239729
 20
-27.1874742553
 10
-10.4512394441
 20
-27.1652776714
 10
-10.1006483595
 20
-27.1221076962
 10
-9.41385879
 20
-27.0775536677
 10
-8.4223358589
 20
-27.0337942474
 10
-7.1843268035
 20
-26.9927421516
 10
-5.7073435159
 20
-26.950583345
 10
-4.0195610142
 20
-26.906284981
 10
-2.1992297231
 20
-26.8619848967
 10
-0.3373985016
 20
-26.8198212031
 10
1.5189331672
 20
-26.7787725524
 10
3.3652058643
 20
-26.735016064
 10
5.111462398
 20
-26.6904615638
 10
6.6731774049
 20
-26.647287789
 10
7.9951628269
 20
-26.6065802886
 10
9.0843061337
 20
-26.5636402771
 10
9.8877479107
 20
-26.5191231198
 10
10.3481841166
 20
-26.47720418
 10
10.5
 20
-26.4375000041
 10
10.5
 20
-26.4375000041
  0
LWPOLYLINE
  5
3E5
330
23
100
AcDbEntity
 67
     1
  8
0
  6
Continuous
 62
     7
370
    25
100
AcDbPolyline
 90
       20
 70
   128
 43
0.0
 10
-10.4593239729
 20
-25.6874742553
 10
-10.4512394441
 20
-25.6652776714
 10
-10.1006483595
 20
-25.6221076962
 10
-9.41385879
 20
-25.5775536677
 10
-8.4223358589
 20
-25.5337942474
 10
-7.1843268035
 20
-25.4927421516
 10
-5.7073435159
 20
-25.450583345
 10
-4.0195610142
 20
-25.406284981
 10
-2.1992297231
 20
-25.3619848967
 10
-0.3373985016
 20
-25.3198212031
 10
1.5189331672
 20
-25.2787725524
 10
3.3652058643
 20
-25.235016064
 10
5.111462398
 20
-25.1904615638
 10
6.6731774049
 20
-25.147287789
 10
7.9951628269
 20
-25.1065802886
 10
9.0843061337
 20
-25.0636402771
 10
9.8877479107
 20
-25.0191231198
 10
10.3481841166
 20
-24.97720418
 10
10.5
 20
-24.9375000041
 10
10.5
 20
-24.9375000041
  0
LWPOLYLINE
  5
3E6
330
23
100
AcDbEntity
 67
     1
  8
0
  6
Continuous
 62
     7
370
    25
100
AcDbPolyline
 90
       20
 70
   128
 43
0.0
 10
-10.4593239729
 20
-24.1874742553
 10
-10.4512394441
 20
-24.1652776714
 10
-10.1006483595
 20
-24.1221076962
 10
-9.41385879
 20
-24.0775536677
 10
-8.4223358589
 20
-24.0337942474
 10
-7.1843268035
 20
-23.9927421516
 10
-5.7073435159
 20
-23.950583345
 10
-4.0195610142
 20
-23.906284981
 10
-2.1992297231
 20
-23.8619848967
 10
-0.3373985016
 20
-23.8198212031
 10
1.5189331672
 20
-23.7787725524
 10
3.3652058643
 20
-23.735016064
 10
5.111462398
 20
-23.6904615638
 10
6.6731774049
 20
-23.647287789
 10
7.9951628269
 20
-23.6065802886
 10
9.0843061337
 20
-23.5636402771
 10
9.8877479107
 20
-23.5191231198
 10
10.3481841166
 20
-23.47720418
 10
10.5
 20
-23.4375000041
 10
10.5
 20
-23.4375000041
  0
LWPOLYLINE
  5
3E7
330
23
100
AcDbEntity
 67
     1
  8
0
  6
Continuous
 62
     7
370
    25
100
AcDbPolyline
 90
       20
 70
   128
 43
0.0
 10
-10.4593239729
 20
-22.6874742553
 10
-10.4512394441
 20
-22.6652776714
 10
-10.1006483595
 20
-22.6221076962
 10
-9.41385879
 20
-22.5775536677
 10
-8.4223358589
 20
-22.5337942474
 10
-7.1843268035
 20
-22.4927421516
 10
-5.7073435159
 20
-22.450583345
 10
-4.0195610142
 20
-22.406284981
 10
-2.1992297231
 20
-22.3619848967
 10
-0.3373985016
 20
-22.3198212031
 10
1.5189331672
 20
-22.2787725524
 10
3.3652058643
 20
-22.235016064
 10
5.111462398
 20
-22.1904615638
 10
6.6731774049
 20
-22.147287789
 10
7.9951628269
 20
-22.1065802886
 10
9.0843061337
 20
-22.0636402771
 10
9.8877479107
 20
-22.0191231198
 10
10.3481841166
 20
-21.97720418
 10
10.5
 20
-21.9375000041
 10
10.5
 20
-21.9375000041
  0
SPLINE
  5
3E8
330
23
100
AcDbEntity
 67
     1
  8
0
  6
Continuous
 62
     7
370
    25
100
AcDbSpline
210
0.0
220
0.0
230
1.0
 70
     8
 71
     3
 72
    24
 73
    20
 74
     0
 42
0.000000001
 43
0.00000001
 40
0.0
 40
0.0
 40
0.0
 40
0.0
 40
0.0331550246112287
 40
0.0946564852391514
 40
0.1568058511691367
 40
0.218584350878927
 40
0.2790771973453991
 40
0.3400994869413816
 40
0.4021298491827611
 40
0.4641610129721059
 40
0.5251856299642026
 40
0.5856768277578236
 40
0.6474539539855985
 40
0.7096035391256231
 40
0.7711067904124991
 40
0.8314347704281991
 40
0.8928276953007797
 40
0.9549599175957107
 40
0.9999999999999999
 40
0.9999999999999999
 40
0.9999999999999999
 40
0.9999999999999999
 10
-9.6506292725857
 20
-32.15639948858487
 30
0.0
 10
-9.656563217595888
 20
-32.14899132942708
 30
0.0
 10
-9.673504431932258
 20
-32.12784128305574
 30
0.0
 10
-9.35968367900627
 20
-32.0908150132809
 30
0.0
 10
-8.73791133077708
 20
-32.04636122426647
 30
0.0
 10
-7.819387727601495
 20
-32.00233469332372
 30
0.0
 10
-6.660464432279114
 20
-31.96160999976462
 30
0.0
 10
-5.286602332648171
 20
-31.91939405394642
 30
0.0
 10
-3.729252805647424
 20
-31.8750348166936
 30
0.0
 10
-2.049510209681128
 20
-31.83067478858644
 30
0.0
 10
-0.3180020893299046
 20
-31.7884524750609
 30
0.0
 10
1.421042710302866
 20
-31.74773252767751
 30
0.0
 10
3.125419502837605
 20
-31.70370828779132
 30
0.0
 10
4.736901188199125
 20
-31.65925488762728
 30
0.0
 10
6.180931344698937
 20
-31.61580625125694
 30
0.0
 10
7.424441237483741
 20
-31.57554049517924
 30
0.0
 10
8.424627162811642
 20
-31.53240483193183
 30
0.0
 10
9.127678313606586
 20
-31.49181729996842
 30
0.0
 10
9.349217615527595
 20
-31.46652174266162
 30
0.0
 10
9.442321411721158
 20
-31.45589106723891
 30
0.0
  0
SPLINE
  5
3E9
330
23
100
AcDbEntity
 67
     1
  8
0
  6
Continuous
 62
     7
370
    25
100
AcDbSpline
210
0.0
220
0.0
230
1.0
 70
     8
 71
     3
 72
    24
 73
    20
 74
     0
 42
0.000000001
 43
0.00000001
 40
0.0
 40
0.0
 40
0.0
 40
0.0
 40
0.0386796376513087
 40
0.1002789602743969
 40
0.1624358406797403
 40
0.2241306995897187
 40
0.2845411339985509
 40
0.3456922431647231
 40
0.4077635521799655
 40
0.4697437610345239
 40
0.5306303476927487
 40
0.5912281636163675
 40
0.6530791262588759
 40
0.715211092303671
 40
0.7766068964099871
 40
0.8369334533771399
 40
0.898432145314653
 40
0.9605803035447843
 40
1.0
 40
1.0
 40
1.0
 40
1.0
 10
-9.653233641103508
 20
-30.65638698897907
 30
0.0
 10
-9.655249026356728
 20
-30.64774731511706
 30
0.0
 10
-9.66047401681726
 20
-30.62534851397515
 30
0.0
 10
-9.316656627840148
 20
-30.58683110839841
 30
0.0
 10
-8.66622913630735
 20
-30.54236938163768
 30
0.0
 10
-7.724858853448093
 20
-30.49849923368757
 30
0.0
 10
-6.545426324093365
 20
-30.45800730809911
 30
0.0
 10
-5.153800026530038
 20
-30.41544107594484
 30
0.0
 10
-3.582263617583724
 20
-30.37104273930337
 30
0.0
 10
-1.895557531974085
 20
-30.32673473481445
 30
0.0
 10
-0.1616753053631381
 20
-30.28489089634332
 30
0.0
 10
1.576040319032741
 20
-30.24386406800226
 30
0.0
 10
3.275080071009159
 20
-30.19971672683028
 30
0.0
 10
4.874290399999618
 20
-30.15527382791074
 30
0.0
 10
6.301127064975185
 20
-30.11208147078242
 30
0.0
 10
7.525360663819354
 20
-30.07181475968958
 30
0.0
 10
8.501492412143886
 20
-30.0284311060644
 30
0.0
 10
9.163703789283627
 20
-29.9891387907201
 30
0.0
 10
9.360567300799424
 20
-29.96522920774981
 30
0.0
 10
9.436972378873598
 20
-29.95594961327594
 30
0.0
  0
SPLINE
  5
3EA
330
23
100
AcDbEntity
 67
     1
  8
0
  6
Continuous
 62
     7
370
    25
100
AcDbSpline
210
0.0
220
0.0
230
1.0
 70
     8
 71
     3
 72
    24
 73
    20
 74
     0
 42
0.000000001
 43
0.00000001
 40
0.0
 40
0.0
 40
0.0
 40
0.0
 40
0.0442164600643982
 40
0.1059056085086845
 40
0.1680615300538607
 40
0.2296646436938122
 40
0.2900191342963566
 40
0.3512913712252477
 40
0.4133952208593451
 40
0.4753161442724846
 40
0.5360572184122989
 40
0.5967879720446645
 40
0.6587045385037902
 40
0.7208104329190697
 40
0.7820909186002917
 40
0.8424425816685075
 40
0.9040390824366086
 40
0.966194709952452
 40
1.0
 40
1.0
 40
1.0
 40
1.0
 10
-9.658332799611912
 20
-29.15639148141626
 30
0.0
 10
-9.654909051037444
 20
-29.14650672310982
 30
0.0
 10
-9.646708616727881
 20
-29.12283112036188
 30
0.0
 10
-9.270958647394846
 20
-29.08284337690456
 30
0.0
 10
-8.592339531706566
 20
-29.0383794628145
 30
0.0
 10
-7.628334193339755
 20
-28.99469865493076
 30
0.0
 10
-6.428631967731491
 20
-28.95436377260098
 30
0.0
 10
-5.019462864502673
 20
-28.91147653566578
 30
0.0
 10
-3.434339863781817
 20
-28.86705219322879
 30
0.0
 10
-1.74135599996769
 20
-28.82280944786812
 30
0.0
 10
-0.0054508984289531
 20
-28.78137198841214
 30
0.0
 10
1.730606518782684
 20
-28.73996372199941
 30
0.0
 10
3.423928968626536
 20
-28.6957263945926
 30
0.0
 10
5.010248762230279
 20
-28.65129940609374
 30
0.0
 10
6.419638357134544
 20
-28.6083956960164
 30
0.0
 10
7.624418557285693
 20
-28.56805116770462
 30
0.0
 10
8.576013995450149
 20
-28.52445242137841
 30
0.0
 10
9.199033720722904
 20
-28.48645888712907
 30
0.0
 10
9.372910205489024
 20
-28.46393285817534
 30
0.0
 10
9.43416373608479
 20
-28.45599734690954
 30
0.0
  0
SPLINE
  5
3EB
330
23
100
AcDbEntity
 67
     1
  8
0
  6
Continuous
 62
     7
370
    25
100
AcDbSpline
210
0.0
220
0.0
230
1.0
 70
     8
 71
     3
 72
    24
 73
    20
 74
     0
 42
0.000000001
 43
0.00000001
 40
0.0
 40
0.0
 40
0.0
 40
0.0
 40
0.0495790271211552
 40
0.1113621072667543
 40
0.1735208843933464
 40
0.2350363803583106
 40
0.295373363199776
 40
0.3567710793023099
 40
0.4189113205851914
 40
0.4807769044428911
 40
0.5413927208546505
 40
0.6022790193533875
 40
0.664265157688827
 40
0.7263488210835999
 40
0.7875182979703277
 40
0.8479335174858231
 40
0.9096319882544471
 40
0.9717989009966328
 40
1.0
 40
1.0
 40
1.0
 40
1.0
 10
-9.665610531375187
 20
-27.65629131587495
 30
0.0
 10
-9.655211328542304
 20
-27.64518670842717
 30
0.0
 10
-9.63185312228839
 20
-27.62024405510051
 30
0.0
 10
-9.222590106218954
 20
-27.57885238735311
 30
0.0
 10
-8.516279884876377
 20
-27.53439329530098
 30
0.0
 10
-7.529850297444682
 20
-27.49093433951119
 30
0.0
 10
-6.310122355709898
 20
-27.45068026776574
 30
0.0
 10
-4.883638418341711
 20
-27.40750277441153
 30
0.0
 10
-3.285541120764592
 20
-27.36306196257788
 30
0.0
 10
-1.586824020135485
 20
-27.31890695516531
 30
0.0
 10
0.1507643010998275
 20
-27.27785603526147
 30
0.0
 10
1.884825764954597
 20
-27.23603952360558
 30
0.0
 10
3.571905791846676
 20
-27.1917360503368
 30
0.0
 10
5.144727728057454
 20
-27.14733396987882
 30
0.0
 10
6.536420750913567
 20
-27.10474989744786
 30
0.0
 10
7.721585339644364
 20
-27.06425098828219
 30
0.0
 10
8.648123311298308
 20
-27.02047069663923
 30
0.0
 10
9.233680840058271
 20
-26.98377860417376
 30
0.0
 10
9.386270629899364
 20
-26.96263271213603
 30
0.0
 10
9.433889247229665
 20
-26.95603372447047
 30
0.0
  0
SPLINE
  5
3EC
330
23
100
AcDbEntity
 67
     1
  8
0
  6
Continuous
 62
     7
370
    25
100
AcDbSpline
210
0.0
220
0.0
230
1.0
 70
     8
 71
     3
 72
    24
 73
    20
 74
     0
 42
0.000000001
 43
0.00000001
 40
0.0
 40
0.0
 40
0.0
 40
0.0
 40
0.0550819884599712
 40
0.116942796146402
 40
0.1790878579640225
 40
0.2404997362835681
 40
0.3008378763096146
 40
0.3623452245442049
 40
0.4245053111393938
 40
0.4862992430108037
 40
0.5468081747867162
 40
0.6078346543070183
 40
0.6698739682364361
 40
0.7319188940275108
 40
0.7929616682998166
 40
0.8534590572553767
 40
0.9152433729947046
 40
0.9774049943407312
 40
1.0
 40
1.0
 40
1.0
 40
1.0
 10
-9.675465489598238
 20
-26.15632074746356
 30
0.0
 10
-9.6565561033507
 20
-26.14394328722237
 30
0.0
 10
-9.6164101942609
 20
-26.11766509991897
 30
0.0
 10
-9.171654451118078
 20
-26.07485957404728
 30
0.0
 10
-8.438062392237322
 20
-26.03041248751748
 30
0.0
 10
-7.429452104173554
 20
-25.9872076535784
 30
0.0
 10
-6.189937961975221
 20
-25.94695770872884
 30
0.0
 10
-4.746376192697722
 20
-25.90352225194941
 30
0.0
 10
-3.135927450123781
 20
-25.85907040384161
 30
0.0
 10
-1.431856464410374
 20
-25.81503622752995
 30
0.0
 10
0.3070855971885185
 20
-25.77429740680342
 30
0.0
 10
2.038800720129769
 20
-25.73210043584513
 30
0.0
 10
3.718950730816742
 20
-25.68774407578356
 30
0.0
 10
5.277680332619249
 20
-25.64337996396937
 30
0.0
 10
6.65143048168306
 20
-25.6011449401212
 30
0.0
 10
7.816835584812027
 20
-25.56041555468116
 30
0.0
 10
8.717743691720042
 20
-25.51648793786782
 30
0.0
 10
9.26766680960651
 20
-25.48109888445527
 30
0.0
 10
9.400682602825423
 20
-25.46132871397026
 30
0.0
 10
9.43614286955319
 20
-25.45605824569212
 30
0.0
  0
SPLINE
  5
3ED
330
23
100
AcDbEntity
 67
     1
  8
0
  6
Continuous
 62
     7
370
    25
100
AcDbSpline
210
0.0
220
0.0
230
1.0
 70
     8
 71
     3
 72
    24
 73
    20
 74
     0
 42
0.000000001
 43
0.00000001
 40
0.0
 40
0.0
 40
0.0
 40
0.0
 40
0.0605897219549512
 40
0.1225208507830493
 40
0.1846445602659752
 40
0.245945741639645
 40
0.3063123720038067
 40
0.3679222207152598
 40
0.4300945069631968
 40
0.491809418051644
 40
0.5522386606744722
 40
0.6133985545760414
 40
0.6754834963484345
 40
0.7374821236758914
 40
0.7983913912482932
 40
0.8589981716629848
 40
0.9208609859466151
 40
0.9830096666449094
 40
1.0
 40
1.0
 40
1.0
 40
1.0
 10
-9.687716141013855
 20
-24.65639450660753
 30
0.0
 10
-9.658739572500108
 20
-24.64271790226664
 30
0.0
 10
-9.600144917952635
 20
-24.61506190475414
 30
0.0
 10
-9.118154437671752
 20
-24.57086580717138
 30
0.0
 10
-8.357728224266376
 20
-24.52643882415073
 30
0.0
 10
-7.327178763354286
 20
-24.48351977929416
 30
0.0
 10
-6.068122523028235
 20
-24.44319732606033
 30
0.0
 10
-4.607726492719223
 20
-24.39953658112879
 30
0.0
 10
-2.985559707913664
 20
-24.35507903959537
 30
0.0
 10
-1.276511488195696
 20
-24.3111988423075
 30
0.0
 10
0.4634545075410963
 20
-24.27069692057092
 30
0.0
 10
2.192469383291761
 20
-24.2281480833299
 30
0.0
 10
3.865004516984718
 20
-24.18375201462708
 30
0.0
 10
5.409061347794083
 20
-24.13943899552071
 30
0.0
 10
6.764624262968481
 20
-24.09758183140232
 30
0.0
 10
7.910149152024156
 20
-24.05654618395241
 30
0.0
 10
8.784786581436709
 20
-24.01250629599209
 30
0.0
 10
9.301025636250191
 20
-23.97842053285992
 30
0.0
 10
9.416193986001504
 20
-23.96002063884987
 30
0.0
 10
9.440919447616562
 20
-23.95607037062037
 30
0.0
  0
SPLINE
  5
3EE
330
23
100
AcDbEntity
 67
     1
  8
0
  6
Continuous
 62
     7
370
    25
100
AcDbSpline
210
0.0
220
0.0
230
1.0
 70
     8
 71
     3
 72
    25
 73
    21
 74
     0
 42
0.000000001
 43
0.00000001
 40
0.0
 40
0.0
 40
0.0
 40
0.0
 40
0.0055714186070237
 40
0.0664404150133113
 40
0.1284120486896947
 40
0.1904843921246172
 40
0.2516458143017445
 40
0.3120464628509261
 40
0.3737293516177394
 40
0.4358837598693043
 40
0.4974901157929996
 40
0.5578451543758434
 40
0.6191094975761939
 40
0.6812100814192926
 40
0.7431325456997485
 40
0.8038796838751312
 40
0.8646010981533827
 40
0.9265126703571475
 40
0.988618366008451
 40
1.0
 40
1.0
 40
1.0
 40
1.0
 10
-9.675350892049686
 20
-23.15671682436126
 30
0.0
 10
-9.679607031962355
 20
-23.15545128660476
 30
0.0
 10
-9.730362453893138
 20
-23.14035946534922
 30
0.0
 10
-9.537044091765104
 20
-23.11121163791119
 30
0.0
 10
-9.070707625649966
 20
-23.06686551603984
 30
0.0
 10
-8.273047530946407
 20
-23.02247579720267
 30
0.0
 10
-7.223667032301488
 20
-22.97987136628824
 30
0.0
 10
-5.944558398565609
 20
-22.93940055925292
 30
0.0
 10
-4.467785276480114
 20
-22.89554732221599
 30
0.0
 10
-2.834487407785601
 20
-22.85108942941909
 30
0.0
 10
-1.120850812815846
 20
-22.80739628509329
 30
0.0
 10
0.6198129520322827
 20
-22.76705553303147
 30
0.0
 10
2.345769242776782
 20
-22.72418408238116
 30
0.0
 10
4.010008630190891
 20
-22.67976141539574
 30
0.0
 10
5.538827399151351
 20
-22.63551266662071
 30
0.0
 10
6.8759589368398
 20
-22.59406150789735
 30
0.0
 10
8.001512874220424
 20
-22.55264421649325
 30
0.0
 10
8.849145705681934
 20
-22.50852811075527
 30
0.0
 10
9.333808538071887
 20
-22.47574413935914
 30
0.0
 10
9.43287220664201
 20
-22.45870798138076
 30
0.0
 10
9.448215074902494
 20
-22.45606944061905
 30
0.0
  0
LINE
  5
42E
330
23
100
AcDbEntity
 67
     1
  8
0
  6
Continuous
 62
     7
370
    25
100
AcDbLine
 10
13.0
 20
17.7
 30
0.0
 11
13.0
 21
19.5
 31
0.0
  0
LINE
  5
42F
330
23
100
AcDbEntity
 67
     1
  8
0
  6
Continuous
 62
     7
370
    25
100
AcDbLine
 10
-13.0
 20
19.5
 30
0.0
 11
-13.0
 21
17.7
 31
0.0
  0
LINE
  5
430
330
23
100
AcDbEntity
 67
     1
  8
0
  6
Continuous
 62
     7
370
    25
100
AcDbLine
 10
12.0552028444
 20
29.3959145159
 30
0.0
 11
11.8467099647
 21
29.516445763
 31
0.0
  0
LINE
  5
431
330
23
100
AcDbEntity
 67
     1
  8
0
  6
Continuous
 62
     7
370
    25
100
AcDbLine
 10
12.0825316635
 20
27.1250368404
 30
0.0
 11
12.0825316635
 21
27.3750368404
 31
0.0
  0
LINE
  5
432
330
23
100
AcDbEntity
 67
     1
  8
0
  6
Continuous
 62
     7
370
    25
100
AcDbLine
 10
12.0825316635
 20
25.1250368404
 30
0.0
 11
12.0825316635
 21
25.3750368404
 31
0.0
  0
LINE
  5
433
330
23
100
AcDbEntity
 67
     1
  8
0
  6
Continuous
 62
     7
370
    25
100
AcDbLine
 10
12.0825316635
 20
23.1250368404
 30
0.0
 11
12.0825316635
 21
23.3750368404
 31
0.0
  0
LINE
  5
434
330
23
100
AcDbEntity
 67
     1
  8
0
  6
Continuous
 62
     7
370
    25
100
AcDbLine
 10
-12.0825316635
 20
26.3750368404
 30
0.0
 11
-12.0825316635
 21
26.1250368404
 31
0.0
  0
LINE
  5
435
330
23
100
AcDbEntity
 67
     1
  8
0
  6
Continuous
 62
     7
370
    25
100
AcDbLine
 10
-12.0825316635
 20
24.3750368404
 30
0.0
 11
-12.0825316635
 21
24.1250368404
 31
0.0
  0
LINE
  5
436
330
23
100
AcDbEntity
 67
     1
  8
0
  6
Continuous
 62
     7
370
    25
100
AcDbLine
 10
-12.0825316635
 20
22.3750368404
 30
0.0
 11
-12.0825316635
 21
22.1250368404
 31
0.0
  0
LINE
  5
437
330
23
100
AcDbEntity
 67
     1
  8
0
  6
Continuous
 62
     7
370
    25
100
AcDbLine
 10
-12.0825316635
 20
28.3750368404
 30
0.0
 11
-12.0825316635
 21
28.1250368404
 31
0.0
  0
LINE
  5
438
330
23
100
AcDbEntity
 67
     1
  8
0
  6
Continuous
 62
     7
370
    25
100
AcDbLine
 10
12.0825316635
 20
29.1250368404
 30
0.0
 11
12.0825316635
 21
29.3750368404
 31
0.0
  0
LINE
  5
439
330
23
100
AcDbEntity
 67
     1
  8
0
  6
Continuous
 62
     7
370
    25
100
AcDbLine
 10
90.0
 20
12.5
 30
0.0
 11
89.5
 21
12.5
 31
0.0
  0
LINE
  5
43A
330
23
100
AcDbEntity
 67
     1
  8
0
  6
Continuous
 62
     7
370
    25
100
AcDbLine
 10
89.5
 20
-12.5
 30
0.0
 11
90.0
 21
-12.5
 31
0.0
  0
LINE
  5
43B
330
23
100
AcDbEntity
 67
     1
  8
0
  6
Continuous
 62
     7
370
    25
100
AcDbLine
 10
-90.0
 20
-12.5
 30
0.0
 11
-89.5
 21
-12.5
 31
0.0
  0
LINE
  5
43C
330
23
100
AcDbEntity
 67
     1
  8
0
  6
Continuous
 62
     7
370
    25
100
AcDbLine
 10
-89.5
 20
12.5
 30
0.0
 11
-90.0
 21
12.5
 31
0.0
  0
LINE
  5
43D
330
23
100
AcDbEntity
 67
     1
  8
0
  6
Continuous
 62
     7
370
    25
100
AcDbLine
 10
11.0
 20
28.0001174857
 30
0.0
 11
11.0
 21
28.492437209
 31
0.0
  0
LINE
  5
43E
330
23
100
AcDbEntity
 67
     1
  8
0
  6
Continuous
 62
     7
370
    25
100
AcDbLine
 10
11.0
 20
26.0001174857
 30
0.0
 11
11.0
 21
26.492437209
 31
0.0
  0
LINE
  5
43F
330
23
100
AcDbEntity
 67
     1
  8
0
  6
Continuous
 62
     7
370
    25
100
AcDbLine
 10
11.0
 20
24.0001174857
 30
0.0
 11
11.0
 21
24.492437209
 31
0.0
  0
LINE
  5
440
330
23
100
AcDbEntity
 67
     1
  8
0
  6
Continuous
 62
     7
370
    25
100
AcDbLine
 10
11.0
 20
22.001
 30
0.0
 11
11.0
 21
22.492437209
 31
0.0
  0
LINE
  5
441
330
23
100
AcDbEntity
 67
     1
  8
0
  6
Continuous
 62
     7
370
    25
100
AcDbLine
 10
11.0
 20
19.5
 30
0.0
 11
11.0
 21
20.4990000055
 31
0.0
  0
LINE
  5
442
330
23
100
AcDbEntity
 67
     1
  8
0
  6
Continuous
 62
     7
370
    25
100
AcDbLine
 10
-11.0
 20
21.5000000055
 30
0.0
 11
-11.0
 21
19.5
 31
0.0
  0
LINE
  5
443
330
23
100
AcDbEntity
 67
     1
  8
0
  6
Continuous
 62
     7
370
    25
100
AcDbLine
 10
-11.0
 20
23.5000000055
 30
0.0
 11
-11.0
 21
23.0075631766
 31
0.0
  0
LINE
  5
444
330
23
100
AcDbEntity
 67
     1
  8
0
  6
Continuous
 62
     7
370
    25
100
AcDbLine
 10
-11.0
 20
25.5000000055
 30
0.0
 11
-11.0
 21
25.0075631766
 31
0.0
  0
LINE
  5
445
330
23
100
AcDbEntity
 67
     1
  8
0
  6
Continuous
 62
     7
370
    25
100
AcDbLine
 10
-11.0
 20
27.5000000055
 30
0.0
 11
-11.0
 21
27.0075631766
 31
0.0
  0
LINE
  5
446
330
23
100
AcDbEntity
 67
     1
  8
0
  6
Continuous
 62
     7
370
    25
100
AcDbLine
 10
-11.0
 20
29.5
 30
0.0
 11
-11.0
 21
29.0075631766
 31
0.0
  0
LINE
  5
447
330
23
100
AcDbEntity
 67
     1
  8
0
  6
Continuous
 62
     7
370
    25
100
AcDbLine
 10
-10.5
 20
-31.4999278328
 30
0.0
 11
-10.5
 21
-31.6874742553
 31
0.0
  0
LINE
  5
448
330
23
100
AcDbEntity
 67
     1
  8
0
  6
Continuous
 62
     7
370
    25
100
AcDbLine
 10
-10.5
 20
-29.9999278328
 30
0.0
 11
-10.5
 21
-30.1874742553
 31
0.0
  0
LINE
  5
449
330
23
100
AcDbEntity
 67
     1
  8
0
  6
Continuous
 62
     7
370
    25
100
AcDbLine
 10
-10.5
 20
-28.4999278328
 30
0.0
 11
-10.5
 21
-28.6874742553
 31
0.0
  0
LINE
  5
44A
330
23
100
AcDbEntity
 67
     1
  8
0
  6
Continuous
 62
     7
370
    25
100
AcDbLine
 10
-10.5
 20
-26.9999278328
 30
0.0
 11
-10.5
 21
-27.1874742553
 31
0.0
  0
LINE
  5
44B
330
23
100
AcDbEntity
 67
     1
  8
0
  6
Continuous
 62
     7
370
    25
100
AcDbLine
 10
-10.5
 20
-25.4999278328
 30
0.0
 11
-10.5
 21
-25.6874742553
 31
0.0
  0
LINE
  5
44C
330
23
100
AcDbEntity
 67
     1
  8
0
  6
Continuous
 62
     7
370
    25
100
AcDbLine
 10
-10.5
 20
-23.9999278328
 30
0.0
 11
-10.5
 21
-24.1874742553
 31
0.0
  0
LINE
  5
44D
330
23
100
AcDbEntity
 67
     1
  8
0
  6
Continuous
 62
     7
370
    25
100
AcDbLine
 10
-10.5
 20
-17.7
 30
0.0
 11
-10.5
 21
-22.6874742553
 31
0.0
  0
LINE
  5
44E
330
23
100
AcDbEntity
 67
     1
  8
0
  6
Continuous
 62
     7
370
    25
100
AcDbLine
 10
10.5
 20
-21.9375000041
 30
0.0
 11
10.5
 21
-17.7
 31
0.0
  0
LINE
  5
44F
330
23
100
AcDbEntity
 67
     1
  8
0
  6
Continuous
 62
     7
370
    25
100
AcDbLine
 10
10.5
 20
-23.4375000041
 30
0.0
 11
10.5
 21
-23.2500768933
 31
0.0
  0
LINE
  5
450
330
23
100
AcDbEntity
 67
     1
  8
0
  6
Continuous
 62
     7
370
    25
100
AcDbLine
 10
10.5
 20
-24.9375000041
 30
0.0
 11
10.5
 21
-24.7500768933
 31
0.0
  0
LINE
  5
451
330
23
100
AcDbEntity
 67
     1
  8
0
  6
Continuous
 62
     7
370
    25
100
AcDbLine
 10
10.5
 20
-26.4375000041
 30
0.0
 11
10.5
 21
-26.2500768933
 31
0.0
  0
LINE
  5
452
330
23
100
AcDbEntity
 67
     1
  8
0
  6
Continuous
 62
     7
370
    25
100
AcDbLine
 10
10.5
 20
-27.9375000041
 30
0.0
 11
10.5
 21
-27.7500768933
 31
0.0
  0
LINE
  5
453
330
23
100
AcDbEntity
 67
     1
  8
0
  6
Continuous
 62
     7
370
    25
100
AcDbLine
 10
10.5
 20
-29.4375000041
 30
0.0
 11
10.5
 21
-29.2500768933
 31
0.0
  0
LINE
  5
454
330
23
100
AcDbEntity
 67
     1
  8
0
  6
Continuous
 62
     7
370
    25
100
AcDbLine
 10
10.5
 20
-30.9375000041
 30
0.0
 11
10.5
 21
-30.7500768933
 31
0.0
  0
LINE
  5
455
330
23
100
AcDbEntity
 67
     1
  8
0
  6
Continuous
 62
     7
370
    25
100
AcDbLine
 10
10.5
 20
-32.5
 30
0.0
 11
10.5
 21
-32.2500768933
 31
0.0
  0
LINE
  5
456
330
23
100
AcDbEntity
 67
     1
  8
0
  6
Continuous
 62
     7
370
    25
100
AcDbLine
 10
-9.6880991353
 20
-32.1563973387
 30
0.0
 11
-9.6880991353
 21
-32.5313973387
 31
0.0
  0
LINE
  5
457
330
23
100
AcDbEntity
 67
     1
  8
0
  6
Continuous
 62
     7
370
    25
100
AcDbLine
 10
9.6880991501
 20
-31.7813968052
 30
0.0
 11
9.6880991501
 21
-31.4063968052
 31
0.0
  0
LINE
  5
458
330
23
100
AcDbEntity
 67
     1
  8
0
  6
Continuous
 62
     7
370
    25
100
AcDbLine
 10
114.0
 20
17.5
 30
0.0
 11
114.0
 21
21.1457513111
 31
0.0
  0
LINE
  5
459
330
23
100
AcDbEntity
 67
     1
  8
0
  6
Continuous
 62
     7
370
    25
100
AcDbLine
 10
106.0
 20
21.1457513111
 30
0.0
 11
106.0
 21
17.5
 31
0.0
  0
LINE
  5
45A
330
23
100
AcDbEntity
 67
     1
  8
0
  6
Continuous
 62
     7
370
    25
100
AcDbLine
 10
89.3
 20
-17.5
 30
0.0
 11
89.3
 21
17.5
 31
0.0
  0
LINE
  5
45B
330
23
100
AcDbEntity
 67
     1
  8
0
  6
Continuous
 62
     7
370
    25
100
AcDbLine
 10
-89.5
 20
-17.3
 30
0.0
 11
89.5
 21
-17.3
 31
0.0
  0
LINE
  5
45C
330
23
100
AcDbEntity
 67
     1
  8
0
  6
Continuous
 62
     7
370
    25
100
AcDbLine
 10
-130.0
 20
-17.3
 30
0.0
 11
-90.0
 21
-17.3
 31
0.0
  0
LINE
  5
45D
330
23
100
AcDbEntity
 67
     1
  8
0
  6
Continuous
 62
     7
370
    25
100
AcDbLine
 10
-90.2
 20
-17.5
 30
0.0
 11
-129.8
 21
-17.5
 31
0.0
  0
LINE
  5
45E
330
23
100
AcDbEntity
 67
     1
  8
0
  6
Continuous
 62
     7
370
    25
100
AcDbLine
 10
-129.8
 20
17.5
 30
0.0
 11
-129.8
 21
-17.5
 31
0.0
  0
LINE
  5
45F
330
23
100
AcDbEntity
 67
     1
  8
0
  6
Continuous
 62
     7
370
    25
100
AcDbLine
 10
129.8
 20
-17.5
 30
0.0
 11
129.8
 21
17.5
 31
0.0
  0
LINE
  5
460
330
23
100
AcDbEntity
 67
     1
  8
0
  6
Continuous
 62
     7
370
    25
100
AcDbLine
 10
130.0
 20
17.3
 30
0.0
 11
90.0
 21
17.3
 31
0.0
  0
LINE
  5
461
330
23
100
AcDbEntity
 67
     1
  8
0
  6
Continuous
 62
     7
370
    25
100
AcDbLine
 10
130.0
 20
17.3
 30
0.0
 11
130.0
 21
-17.3
 31
0.0
  0
LINE
  5
462
330
23
100
AcDbEntity
 67
     1
  8
0
  6
Continuous
 62
     7
370
    25
100
AcDbLine
 10
90.0
 20
-17.3
 30
0.0
 11
130.0
 21
-17.3
 31
0.0
  0
LINE
  5
463
330
23
100
AcDbEntity
 67
     1
  8
0
  6
Continuous
 62
     7
370
    25
100
AcDbLine
 10
-89.3
 20
17.5
 30
0.0
 11
-89.3
 21
-17.5
 31
0.0
  0
LINE
  5
464
330
23
100
AcDbEntity
 67
     1
  8
0
  6
Continuous
 62
     7
370
    25
100
AcDbLine
 10
89.5
 20
17.3
 30
0.0
 11
-89.5
 21
17.3
 31
0.0
  0
LINE
  5
465
330
23
100
AcDbEntity
 67
     1
  8
0
  6
Continuous
 62
     7
370
    25
100
AcDbLine
 10
129.8
 20
-17.5
 30
0.0
 11
90.2
 21
-17.5
 31
0.0
  0
LINE
  5
466
330
23
100
AcDbEntity
 67
     1
  8
0
  6
Continuous
 62
     7
370
    25
100
AcDbLine
 10
90.2
 20
17.5
 30
0.0
 11
90.2
 21
-17.5
 31
0.0
  0
LINE
  5
467
330
23
100
AcDbEntity
 67
     1
  8
0
  6
Continuous
 62
     7
370
    25
100
AcDbLine
 10
89.3
 20
-17.5
 30
0.0
 11
-89.3
 21
-17.5
 31
0.0
  0
LINE
  5
468
330
23
100
AcDbEntity
 67
     1
  8
0
  6
Continuous
 62
     7
370
    25
100
AcDbLine
 10
-130.0
 20
-17.3
 30
0.0
 11
-130.0
 21
17.3
 31
0.0
  0
LINE
  5
469
330
23
100
AcDbEntity
 67
     1
  8
0
  6
Continuous
 62
     7
370
    25
100
AcDbLine
 10
-90.0
 20
17.3
 30
0.0
 11
-130.0
 21
17.3
 31
0.0
  0
LINE
  5
46A
330
23
100
AcDbEntity
 67
     1
  8
0
  6
Continuous
 62
     7
370
    25
100
AcDbLine
 10
90.2
 20
17.5
 30
0.0
 11
129.8
 21
17.5
 31
0.0
  0
LINE
  5
46B
330
23
100
AcDbEntity
 67
     1
  8
0
  6
Continuous
 62
     7
370
    25
100
AcDbLine
 10
90.0
 20
-17.3
 30
0.0
 11
90.0
 21
17.3
 31
0.0
  0
LINE
  5
46C
330
23
100
AcDbEntity
 67
     1
  8
0
  6
Continuous
 62
     7
370
    25
100
AcDbLine
 10
-89.5
 20
-17.3
 30
0.0
 11
-89.5
 21
17.3
 31
0.0
  0
LINE
  5
46D
330
23
100
AcDbEntity
 67
     1
  8
0
  6
Continuous
 62
     7
370
    25
100
AcDbLine
 10
-129.8
 20
17.5
 30
0.0
 11
-90.2
 21
17.5
 31
0.0
  0
LINE
  5
46E
330
23
100
AcDbEntity
 67
     1
  8
0
  6
Continuous
 62
     7
370
    25
100
AcDbLine
 10
-90.2
 20
-17.5
 30
0.0
 11
-90.2
 21
17.5
 31
0.0
  0
LINE
  5
46F
330
23
100
AcDbEntity
 67
     1
  8
0
  6
Continuous
 62
     7
370
    25
100
AcDbLine
 10
89.5
 20
17.3
 30
0.0
 11
89.5
 21
-17.3
 31
0.0
  0
LINE
  5
470
330
23
100
AcDbEntity
 67
     1
  8
0
  6
Continuous
 62
     7
370
    25
100
AcDbLine
 10
-89.3
 20
17.5
 30
0.0
 11
89.3
 21
17.5
 31
0.0
  0
LINE
  5
471
330
23
100
AcDbEntity
 67
     1
  8
0
  6
Continuous
 62
     7
370
    25
100
AcDbLine
 10
-90.0
 20
17.3
 30
0.0
 11
-90.0
 21
-17.3
 31
0.0
  0
LINE
  5
472
330
23
100
AcDbEntity
 67
     1
  8
0
  6
Continuous
 62
     7
370
    25
100
AcDbLine
 10
-13.0
 20
19.5
 30
0.0
 11
13.0
 21
19.5
 31
0.0
  0
LINE
  5
473
330
23
100
AcDbEntity
 67
     1
  8
0
  6
Continuous
 62
     7
370
    25
100
AcDbLine
 10
11.0
 20
20.5000000055
 30
0.0
 11
12.08253175
 21
21.1250000027
 31
0.0
  0
LINE
  5
474
330
23
100
AcDbEntity
 67
     1
  8
0
  6
Continuous
 62
     7
370
    25
100
AcDbLine
 10
12.08253175
 20
21.3750000027
 30
0.0
 11
11.0
 21
22.0
 31
0.0
  0
LINE
  5
475
330
23
100
AcDbEntity
 67
     1
  8
0
  6
Continuous
 62
     7
370
    25
100
AcDbLine
 10
12.08253175
 20
21.1250000027
 30
0.0
 11
12.08253175
 21
21.3750000027
 31
0.0
  0
LINE
  5
476
330
23
100
AcDbEntity
 67
     1
  8
0
  6
Continuous
 62
     7
370
    25
100
AcDbLine
 10
11.0
 20
22.0
 30
0.0
 11
11.0
 21
20.5000000055
 31
0.0
  0
LINE
  5
477
330
23
100
AcDbEntity
 67
     1
  8
0
  6
Continuous
 62
     7
370
    25
100
AcDbLine
 10
-11.0
 20
29.5
 30
0.0
 11
0.0
 21
29.5
 31
0.0
  0
LINE
  5
478
330
23
100
AcDbEntity
 67
     1
  8
0
  6
Continuous
 62
     7
370
    25
100
AcDbLine
 10
10.4986945139
 20
-32.2464193982
 30
0.0
 11
10.4772848668
 21
-32.2418491268
 31
0.0
  0
LINE
  5
479
330
23
100
AcDbEntity
 67
     1
  8
0
  6
Continuous
 62
     7
370
    25
100
AcDbLine
 10
10.4986945139
 20
-30.7464193982
 30
0.0
 11
10.4694691032
 21
-30.7401807125
 31
0.0
  0
LINE
  5
47A
330
23
100
AcDbEntity
 67
     1
  8
0
  6
Continuous
 62
     7
370
    25
100
AcDbLine
 10
10.4986945139
 20
-29.2464193982
 30
0.0
 11
10.4699639092
 21
-29.2402863377
 31
0.0
  0
LINE
  5
47B
330
23
100
AcDbEntity
 67
     1
  8
0
  6
Continuous
 62
     7
370
    25
100
AcDbLine
 10
10.4986945139
 20
-27.7464193982
 30
0.0
 11
10.4799424981
 21
-27.7424164457
 31
0.0
  0
LINE
  5
47C
330
23
100
AcDbEntity
 67
     1
  8
0
  6
Continuous
 62
     7
370
    25
100
AcDbLine
 10
10.4986945139
 20
-26.2464193982
 30
0.0
 11
10.4742708624
 21
-26.2412057337
 31
0.0
  0
LINE
  5
47D
330
23
100
AcDbEntity
 67
     1
  8
0
  6
Continuous
 62
     7
370
    25
100
AcDbLine
 10
10.4986945139
 20
-24.7464193982
 30
0.0
 11
10.4667081006
 21
-24.7395913272
 31
0.0
  0
LINE
  5
47E
330
23
100
AcDbEntity
 67
     1
  8
0
  6
Continuous
 62
     7
370
    25
100
AcDbLine
 10
10.4986945139
 20
-23.2464193982
 30
0.0
 11
10.4778051813
 21
-23.2419601972
 31
0.0
  0
LINE
  5
47F
330
23
100
AcDbEntity
 67
     1
  8
0
  6
Continuous
 62
     7
370
    25
100
AcDbLine
 10
10.5
 20
-32.5
 30
0.0
 11
5.2227872559
 21
-32.5
 31
0.0
  0
LINE
  5
480
330
23
100
AcDbEntity
 67
     1
  8
0
  6
Continuous
 62
     7
370
    25
100
AcDbLine
 10
-97.5
 20
-28.0
 30
0.0
 11
-52.5
 21
-28.0
 31
0.0
  0
LINE
  5
481
330
23
100
AcDbEntity
 67
     1
  8
0
  6
Continuous
 62
     7
370
    25
100
AcDbLine
 10
-52.5
 20
-28.0
 30
0.0
 11
-52.5
 21
-30.0
 31
0.0
  0
LINE
  5
482
330
23
100
AcDbEntity
 67
     1
  8
0
  6
Continuous
 62
     7
370
    25
100
AcDbLine
 10
-52.5
 20
-30.0
 30
0.0
 11
-97.5
 21
-30.0
 31
0.0
  0
LINE
  5
483
330
23
100
AcDbEntity
 67
     1
  8
0
  6
Continuous
 62
     7
370
    25
100
AcDbLine
 10
-97.5
 20
-28.0
 30
0.0
 11
-97.5
 21
-30.0
 31
0.0
  0
LINE
  5
484
330
23
100
AcDbEntity
 67
     1
  8
0
  6
Continuous
 62
     7
370
    25
100
AcDbLine
 10
103.0
 20
-22.5
 30
0.0
 11
105.0
 21
-22.5
 31
0.0
  0
LINE
  5
485
330
23
100
AcDbEntity
 67
     1
  8
0
  6
Continuous
 62
     7
370
    25
100
AcDbLine
 10
97.5
 20
-30.0
 30
0.0
 11
97.5
 21
-28.0
 31
0.0
  0
LINE
  5
486
330
23
100
AcDbEntity
 67
     1
  8
0
  6
Continuous
 62
     7
370
    25
100
AcDbLine
 10
103.0
 20
22.5
 30
0.0
 11
105.0
 21
22.5
 31
0.0
  0
LINE
  5
487
330
23
100
AcDbEntity
 67
     1
  8
0
  6
Continuous
 62
     7
370
    25
100
AcDbLine
 10
105.0
 20
22.5
 30
0.0
 11
105.0
 21
17.5
 31
0.0
  0
LINE
  5
488
330
23
100
AcDbEntity
 67
     1
  8
0
  6
Continuous
 62
     7
370
    25
100
AcDbLine
 10
105.0
 20
-17.5
 30
0.0
 11
105.0
 21
-22.5
 31
0.0
  0
LINE
  5
489
330
23
100
AcDbEntity
 67
     1
  8
0
  6
Continuous
 62
     7
370
    25
100
AcDbLine
 10
97.5
 20
28.0
 30
0.0
 11
52.5
 21
28.0
 31
0.0
  0
LINE
  5
48A
330
23
100
AcDbEntity
 67
     1
  8
0
  6
Continuous
 62
     7
370
    25
100
AcDbLine
 10
52.5
 20
28.0
 30
0.0
 11
52.5
 21
30.0
 31
0.0
  0
LINE
  5
48B
330
23
100
AcDbEntity
 67
     1
  8
0
  6
Continuous
 62
     7
370
    25
100
AcDbLine
 10
52.5
 20
30.0
 30
0.0
 11
97.5
 21
30.0
 31
0.0
  0
LINE
  5
48C
330
23
100
AcDbEntity
 67
     1
  8
0
  6
Continuous
 62
     7
370
    25
100
AcDbLine
 10
97.5
 20
28.0
 30
0.0
 11
97.5
 21
30.0
 31
0.0
  0
LINE
  5
48D
330
23
100
AcDbEntity
 67
     1
  8
0
  6
Continuous
 62
     7
370
    25
100
AcDbLine
 10
-45.0
 20
22.5
 30
0.0
 11
-47.0
 21
22.5
 31
0.0
  0
LINE
  5
48E
330
23
100
AcDbEntity
 67
     1
  8
0
  6
Continuous
 62
     7
370
    25
100
AcDbLine
 10
-52.5
 20
30.0
 30
0.0
 11
-52.5
 21
28.0
 31
0.0
  0
LINE
  5
48F
330
23
100
AcDbEntity
 67
     1
  8
0
  6
Continuous
 62
     7
370
    25
100
AcDbLine
 10
-105.0
 20
-22.5
 30
0.0
 11
-105.0
 21
-17.5
 31
0.0
  0
LINE
  5
490
330
23
100
AcDbEntity
 67
     1
  8
0
  6
Continuous
 62
     7
370
    25
100
AcDbLine
 10
-105.0
 20
17.5
 30
0.0
 11
-105.0
 21
22.5
 31
0.0
  0
LINE
  5
491
330
23
100
AcDbEntity
 67
     1
  8
0
  6
Continuous
 62
     7
370
    25
100
AcDbLine
 10
-105.0
 20
22.5
 30
0.0
 11
-103.0
 21
22.5
 31
0.0
  0
LINE
  5
492
330
23
100
AcDbEntity
 67
     1
  8
0
  6
Continuous
 62
     7
370
    25
100
AcDbLine
 10
-103.0
 20
-22.5
 30
0.0
 11
-105.0
 21
-22.5
 31
0.0
  0
LINE
  5
493
330
23
100
AcDbEntity
 67
     1
  8
0
  6
Continuous
 62
     7
370
    25
100
AcDbLine
 10
-97.5
 20
30.0
 30
0.0
 11
-97.5
 21
28.0
 31
0.0
  0
LINE
  5
494
330
23
100
AcDbEntity
 67
     1
  8
0
  6
Continuous
 62
     7
370
    25
100
AcDbLine
 10
-97.5
 20
30.0
 30
0.0
 11
-52.5
 21
30.0
 31
0.0
  0
LINE
  5
495
330
23
100
AcDbEntity
 67
     1
  8
0
  6
Continuous
 62
     7
370
    25
100
AcDbLine
 10
-52.5
 20
28.0
 30
0.0
 11
-97.5
 21
28.0
 31
0.0
  0
LINE
  5
496
330
23
100
AcDbEntity
 67
     1
  8
0
  6
Continuous
 62
     7
370
    25
100
AcDbLine
 10
-45.0
 20
22.5
 30
0.0
 11
-45.0
 21
17.5
 31
0.0
  0
LINE
  5
497
330
23
100
AcDbEntity
 67
     1
  8
0
  6
Continuous
 62
     7
370
    25
100
AcDbLine
 10
-45.0
 20
-17.5
 30
0.0
 11
-45.0
 21
-22.5
 31
0.0
  0
LINE
  5
498
330
23
100
AcDbEntity
 67
     1
  8
0
  6
Continuous
 62
     7
370
    25
100
AcDbLine
 10
-47.0
 20
-22.5
 30
0.0
 11
-45.0
 21
-22.5
 31
0.0
  0
LINE
  5
499
330
23
100
AcDbEntity
 67
     1
  8
0
  6
Continuous
 62
     7
370
    25
100
AcDbLine
 10
45.0
 20
-22.5
 30
0.0
 11
45.0
 21
-17.5
 31
0.0
  0
LINE
  5
49A
330
23
100
AcDbEntity
 67
     1
  8
0
  6
Continuous
 62
     7
370
    25
100
AcDbLine
 10
45.0
 20
17.5
 30
0.0
 11
45.0
 21
22.5
 31
0.0
  0
LINE
  5
49B
330
23
100
AcDbEntity
 67
     1
  8
0
  6
Continuous
 62
     7
370
    25
100
AcDbLine
 10
45.0
 20
22.5
 30
0.0
 11
47.0
 21
22.5
 31
0.0
  0
LINE
  5
49C
330
23
100
AcDbEntity
 67
     1
  8
0
  6
Continuous
 62
     7
370
    25
100
AcDbLine
 10
45.0
 20
-22.5
 30
0.0
 11
47.0
 21
-22.5
 31
0.0
  0
LINE
  5
49D
330
23
100
AcDbEntity
 67
     1
  8
0
  6
Continuous
 62
     7
370
    25
100
AcDbLine
 10
52.5
 20
-30.0
 30
0.0
 11
52.5
 21
-28.0
 31
0.0
  0
LINE
  5
49E
330
23
100
AcDbEntity
 67
     1
  8
0
  6
Continuous
 62
     7
370
    25
100
AcDbLine
 10
97.5
 20
-30.0
 30
0.0
 11
52.5
 21
-30.0
 31
0.0
  0
LINE
  5
49F
330
23
100
AcDbEntity
 67
     1
  8
0
  6
Continuous
 62
     7
370
    25
100
AcDbLine
 10
52.5
 20
-28.0
 30
0.0
 11
97.5
 21
-28.0
 31
0.0
  0
LINE
  5
4A0
330
23
100
AcDbEntity
 67
     1
  8
0
  6
Continuous
 62
     8
370
    25
100
AcDbLine
 10
-13.0
 20
17.7
 30
0.0
 11
13.0
 21
17.7
 31
0.0
  0
LINE
  5
4A1
330
23
100
AcDbEntity
 67
     1
  8
0
  6
Continuous
 62
     8
370
    25
100
AcDbLine
 10
10.5
 20
-17.7
 30
0.0
 11
-10.5
 21
-17.7
 31
0.0
  0
LINE
  5
4A2
330
23
100
AcDbEntity
 67
     1
  8
0
  6
Continuous
 62
     8
370
    25
100
AcDbLine
 10
114.0
 20
21.1457513111
 30
0.0
 11
106.0
 21
21.1457513111
 31
0.0
  0
LINE
  5
4A3
330
23
100
AcDbEntity
 67
     1
  8
0
  6
Continuous
 62
     8
370
    25
100
AcDbLine
 10
106.25
 20
21.8071891388
 30
0.0
 11
113.75
 21
21.8071891388
 31
0.0
  0
LINE
  5
4A4
330
23
100
AcDbEntity
 67
     1
  8
0
  6
Continuous
 62
     8
370
    25
100
AcDbLine
 10
103.0
 20
-22.5
 30
0.0
 11
103.0
 21
-17.5
 31
0.0
  0
LINE
  5
4A5
330
23
100
AcDbEntity
 67
     1
  8
0
  6
Continuous
 62
     8
370
    25
100
AcDbLine
 10
103.0
 20
17.5
 30
0.0
 11
103.0
 21
22.5
 31
0.0
  0
LINE
  5
4A6
330
23
100
AcDbEntity
 67
     1
  8
0
  6
Continuous
 62
     8
370
    25
100
AcDbLine
 10
-103.0
 20
22.5
 30
0.0
 11
-103.0
 21
17.5
 31
0.0
  0
LINE
  5
4A7
330
23
100
AcDbEntity
 67
     1
  8
0
  6
Continuous
 62
     8
370
    25
100
AcDbLine
 10
-103.0
 20
-17.5
 30
0.0
 11
-103.0
 21
-22.5
 31
0.0
  0
LINE
  5
4A8
330
23
100
AcDbEntity
 67
     1
  8
0
  6
Continuous
 62
     8
370
    25
100
AcDbLine
 10
-47.0
 20
-22.5
 30
0.0
 11
-47.0
 21
-17.5
 31
0.0
  0
LINE
  5
4A9
330
23
100
AcDbEntity
 67
     1
  8
0
  6
Continuous
 62
     8
370
    25
100
AcDbLine
 10
-47.0
 20
17.5
 30
0.0
 11
-47.0
 21
22.5
 31
0.0
  0
LINE
  5
4AA
330
23
100
AcDbEntity
 67
     1
  8
0
  6
Continuous
 62
     8
370
    25
100
AcDbLine
 10
47.0
 20
22.5
 30
0.0
 11
47.0
 21
17.5
 31
0.0
  0
LINE
  5
4AB
330
23
100
AcDbEntity
 67
     1
  8
0
  6
Continuous
 62
     8
370
    25
100
AcDbLine
 10
47.0
 20
-17.5
 30
0.0
 11
47.0
 21
-22.5
 31
0.0
  0
ARC
  5
4AC
330
23
100
AcDbEntity
 67
     1
  8
0
  6
Continuous
 62
     7
370
    25
100
AcDbCircle
 10
13.2
 20
17.7
 30
0.0
 40
0.2000000000000028
100
AcDbArc
 50
180.0
 51
270.0
  0
ARC
  5
4AD
330
23
100
AcDbEntity
 67
     1
  8
0
  6
Continuous
 62
     7
370
    25
100
AcDbCircle
 10
-13.2
 20
17.7
 30
0.0
 40
0.1999999999999993
100
AcDbArc
 50
270.0
 51
0.0
  0
ARC
  5
4AE
330
23
100
AcDbEntity
 67
     1
  8
0
  6
Continuous
 62
     7
370
    25
100
AcDbCircle
 10
-10.7
 20
-17.7
 30
0.0
 40
0.2000000000000064
100
AcDbArc
 50
0.0
 51
90.0
  0
ARC
  5
4AF
330
23
100
AcDbEntity
 67
     1
  8
0
  6
Continuous
 62
     7
370
    25
100
AcDbCircle
 10
10.7
 20
-17.7
 30
0.0
 40
0.2000000000000011
100
AcDbArc
 50
90.0
 51
180.0
  0
ARC
  5
4B0
330
23
100
AcDbEntity
 67
     1
  8
0
  6
Continuous
 62
     7
370
    25
100
AcDbCircle
 10
113.0
 20
21.1457513111
 30
0.0
 40
0.9999999999998751
100
AcDbArc
 50
360.0
 51
41.4096221093
  0
ARC
  5
4B1
330
23
100
AcDbEntity
 67
     1
  8
0
  6
Continuous
 62
     7
370
    25
100
AcDbCircle
 10
107.0
 20
21.1457513111
 30
0.0
 40
0.9999999999999603
100
AcDbArc
 50
138.5903778907
 51
180.0
  0
ARC
  5
4B2
330
23
100
AcDbEntity
 67
     1
  8
0
  6
Continuous
 62
     7
370
    25
100
AcDbCircle
 10
110.0
 20
18.5
 30
0.0
 40
5.000000000000011
100
AcDbArc
 50
41.4096221093
 51
138.5903778907
  0
ARC
  5
4B3
330
23
100
AcDbEntity
 67
     1
  8
0
  6
Continuous
 62
     7
370
    25
100
AcDbCircle
 10
89.3
 20
-17.3
 30
0.0
 40
0.1999999999999886
100
AcDbArc
 50
270.0
 51
0.0
  0
ARC
  5
4B4
330
23
100
AcDbEntity
 67
     1
  8
0
  6
Continuous
 62
     7
370
    25
100
AcDbCircle
 10
-90.2
 20
-17.3
 30
0.0
 40
0.1999999999999744
100
AcDbArc
 50
270.0
 51
0.0
  0
ARC
  5
4B5
330
23
100
AcDbEntity
 67
     1
  8
0
  6
Continuous
 62
     7
370
    25
100
AcDbCircle
 10
90.2
 20
17.3
 30
0.0
 40
0.1999999999999744
100
AcDbArc
 50
90.0
 51
180.0
  0
ARC
  5
4B6
330
23
100
AcDbEntity
 67
     1
  8
0
  6
Continuous
 62
     7
370
    25
100
AcDbCircle
 10
129.8
 20
-17.3
 30
0.0
 40
0.1999999999999815
100
AcDbArc
 50
270.0
 51
0.0
  0
ARC
  5
4B7
330
23
100
AcDbEntity
 67
     1
  8
0
  6
Continuous
 62
     7
370
    25
100
AcDbCircle
 10
129.8
 20
17.3
 30
0.0
 40
0.2000000000000171
100
AcDbArc
 50
0.0
 51
90.0
  0
ARC
  5
4B8
330
23
100
AcDbEntity
 67
     1
  8
0
  6
Continuous
 62
     7
370
    25
100
AcDbCircle
 10
90.2
 20
-17.3
 30
0.0
 40
0.1999999999999886
100
AcDbArc
 50
180.0
 51
270.0
  0
ARC
  5
4B9
330
23
100
AcDbEntity
 67
     1
  8
0
  6
Continuous
 62
     7
370
    25
100
AcDbCircle
 10
-89.3
 20
17.3
 30
0.0
 40
0.1999999999999886
100
AcDbArc
 50
90.0
 51
180.0
  0
ARC
  5
4BA
330
23
100
AcDbEntity
 67
     1
  8
0
  6
Continuous
 62
     7
370
    25
100
AcDbCircle
 10
-89.3
 20
-17.3
 30
0.0
 40
0.2000000000000028
100
AcDbArc
 50
180.0
 51
270.0
  0
ARC
  5
4BB
330
23
100
AcDbEntity
 67
     1
  8
0
  6
Continuous
 62
     7
370
    25
100
AcDbCircle
 10
-129.8
 20
-17.3
 30
0.0
 40
0.2000000000000171
100
AcDbArc
 50
180.0
 51
270.0
  0
ARC
  5
4BC
330
23
100
AcDbEntity
 67
     1
  8
0
  6
Continuous
 62
     7
370
    25
100
AcDbCircle
 10
-90.2
 20
17.3
 30
0.0
 40
0.1999999999999886
100
AcDbArc
 50
360.0
 51
90.0
  0
ARC
  5
4BD
330
23
100
AcDbEntity
 67
     1
  8
0
  6
Continuous
 62
     7
370
    25
100
AcDbCircle
 10
-129.8
 20
17.3
 30
0.0
 40
0.2000000000000277
100
AcDbArc
 50
90.0
 51
180.0
  0
ARC
  5
4BE
330
23
100
AcDbEntity
 67
     1
  8
0
  6
Continuous
 62
     7
370
    25
100
AcDbCircle
 10
89.3
 20
17.3
 30
0.0
 40
0.2000000000000028
100
AcDbArc
 50
0.0
 51
90.0
  0
ARC
  5
4BF
330
23
100
AcDbEntity
 67
     1
  8
0
  6
Continuous
 62
     7
370
    25
100
AcDbCircle
 10
97.5
 20
-22.5
 30
0.0
 40
5.500000000000014
100
AcDbArc
 50
270.0
 51
0.0
  0
ARC
  5
4C0
330
23
100
AcDbEntity
 67
     1
  8
0
  6
Continuous
 62
     7
370
    25
100
AcDbCircle
 10
97.5
 20
-22.5
 30
0.0
 40
7.500000000000046
100
AcDbArc
 50
270.0
 51
0.0
  0
ARC
  5
4C1
330
23
100
AcDbEntity
 67
     1
  8
0
  6
Continuous
 62
     7
370
    25
100
AcDbCircle
 10
-52.5
 20
22.5
 30
0.0
 40
7.5
100
AcDbArc
 50
0.0
 51
90.0
  0
ARC
  5
4C2
330
23
100
AcDbEntity
 67
     1
  8
0
  6
Continuous
 62
     7
370
    25
100
AcDbCircle
 10
-52.5
 20
22.5
 30
0.0
 40
5.5
100
AcDbArc
 50
0.0
 51
90.0
  0
ARC
  5
4C3
330
23
100
AcDbEntity
 67
     1
  8
0
  6
Continuous
 62
     7
370
    25
100
AcDbCircle
 10
-97.5
 20
22.5
 30
0.0
 40
7.500000000000046
100
AcDbArc
 50
90.0
 51
180.0
  0
ARC
  5
4C4
330
23
100
AcDbEntity
 67
     1
  8
0
  6
Continuous
 62
     7
370
    25
100
AcDbCircle
 10
-97.5
 20
22.5
 30
0.0
 40
5.500000000000043
100
AcDbArc
 50
90.0
 51
180.0
  0
ARC
  5
4C5
330
23
100
AcDbEntity
 67
     1
  8
0
  6
Continuous
 62
     7
370
    25
100
AcDbCircle
 10
97.5
 20
22.5
 30
0.0
 40
5.500000000000014
100
AcDbArc
 50
0.0
 51
90.0
  0
ARC
  5
4C6
330
23
100
AcDbEntity
 67
     1
  8
0
  6
Continuous
 62
     7
370
    25
100
AcDbCircle
 10
97.5
 20
22.5
 30
0.0
 40
7.500000000000014
100
AcDbArc
 50
0.0
 51
90.0
  0
ARC
  5
4C7
330
23
100
AcDbEntity
 67
     1
  8
0
  6
Continuous
 62
     7
370
    25
100
AcDbCircle
 10
-52.5
 20
-22.5
 30
0.0
 40
5.5
100
AcDbArc
 50
270.0
 51
0.0
  0
ARC
  5
4C8
330
23
100
AcDbEntity
 67
     1
  8
0
  6
Continuous
 62
     7
370
    25
100
AcDbCircle
 10
-52.5
 20
-22.5
 30
0.0
 40
7.5
100
AcDbArc
 50
270.0
 51
0.0
  0
ARC
  5
4C9
330
23
100
AcDbEntity
 67
     1
  8
0
  6
Continuous
 62
     7
370
    25
100
AcDbCircle
 10
52.5
 20
-22.5
 30
0.0
 40
7.5
100
AcDbArc
 50
180.0
 51
270.0
  0
ARC
  5
4CA
330
23
100
AcDbEntity
 67
     1
  8
0
  6
Continuous
 62
     7
370
    25
100
AcDbCircle
 10
52.5
 20
-22.5
 30
0.0
 40
5.5
100
AcDbArc
 50
180.0
 51
270.0
  0
ARC
  5
4CB
330
23
100
AcDbEntity
 67
     1
  8
0
  6
Continuous
 62
     7
370
    25
100
AcDbCircle
 10
52.5
 20
22.5
 30
0.0
 40
5.5
100
AcDbArc
 50
90.0
 51
180.0
  0
ARC
  5
4CC
330
23
100
AcDbEntity
 67
     1
  8
0
  6
Continuous
 62
     7
370
    25
100
AcDbCircle
 10
52.5
 20
22.5
 30
0.0
 40
7.5
100
AcDbArc
 50
90.0
 51
180.0
  0
ARC
  5
4CD
330
23
100
AcDbEntity
 67
     1
  8
0
  6
Continuous
 62
     7
370
    25
100
AcDbCircle
 10
-97.5
 20
-22.5
 30
0.0
 40
5.500000000000028
100
AcDbArc
 50
180.0
 51
270.0
  0
ARC
  5
4CE
330
23
100
AcDbEntity
 67
     1
  8
0
  6
Continuous
 62
     7
370
    25
100
AcDbCircle
 10
-97.5
 20
-22.5
 30
0.0
 40
7.500000000000014
100
AcDbArc
 50
180.0
 51
270.0
  0
VIEWPORT
  5
4D1
330
23
100
AcDbEntity
 67
     1
  8
0
100
AcDbViewport
 10
0.0
 20
0.0
 30
0.0
 40
205.6
 41
156.0
 68
     1
 69
     1
 12
28.75
 22
-1.2702385305
 13
0.0
 23
0.0
 14
10.0
 24
10.0
 15
10.0
 25
10.0
 16
0.0
 26
0.0
 36
1.0
 17
0.0
 27
0.0
 37
0.0
 42
50.0
 43
0.0
 44
0.0
 45
71.5885214008
 50
0.0
 51
0.0
 72
   100
 90
   557152
  1

281
     0
 71
     1
 74
     0
110
0.0
120
0.0
130
0.0
111
1.0
121
0.0
131
0.0
112
0.0
122
1.0
132
0.0
 79
     0
146
0.0
  0
ENDSEC
  0
SECTION
  2
OBJECTS
  0
DICTIONARY
  5
C
330
0
100
AcDbDictionary
281
     1
  3
ACAD_GROUP
350
D
  3
ACAD_LAYOUT
350
1A
  3
ACAD_MLINESTYLE
350
17
  3
ACAD_PLOTSETTINGS
350
19
  3
ACAD_PLOTSTYLENAME
350
E
  3
ACAD_SCALELIST
350
47
  0
DICTIONARY
  5
D
102
{ACAD_REACTORS
330
C
102
}
330
C
100
AcDbDictionary
281
     1
  0
DICTIONARY
  5
1A
102
{ACAD_REACTORS
330
C
102
}
330
C
100
AcDbDictionary
281
     1
  3
_Front
350
26
  3
_Top
350
1E
  3
Model
350
22
  0
DICTIONARY
  5
17
102
{ACAD_REACTORS
330
C
102
}
330
C
100
AcDbDictionary
281
     1
  3
Standard
350
18
  0
DICTIONARY
  5
19
102
{ACAD_REACTORS
330
C
102
}
330
C
100
AcDbDictionary
281
     1
  0
ACDBDICTIONARYWDFLT
  5
E
102
{ACAD_REACTORS
330
C
102
}
330
C
100
AcDbDictionary
281
     1
  3
Normal
350
F
100
AcDbDictionaryWithDefault
340
F
  0
DICTIONARY
  5
47
102
{ACAD_REACTORS
330
C
102
}
330
C
100
AcDbDictionary
281
     1
  3
A0
350
48
  3
A1
350
49
  3
A2
350
4A
  3
A3
350
4B
  3
A4
350
4C
  3
A5
350
4D
  3
A6
350
4E
  3
A7
350
4F
  3
A8
350
50
  3
A9
350
51
  3
B0
350
52
  3
B1
350
53
  3
B2
350
54
  3
B3
350
55
  3
B4
350
56
  3
B5
350
57
  3
B6
350
58
  3
B7
350
59
  3
B8
350
5A
  3
B9
350
5B
  3
C0
350
5C
  3
C1
350
5D
  3
C2
350
5E
  3
C3
350
5F
  3
C4
350
60
  3
C5
350
61
  3
C6
350
62
  3
C7
350
63
  3
C8
350
64
  3
C9
350
65
  3
D0
350
66
  3
D1
350
67
  3
D2
350
68
  0
LAYOUT
  5
26
102
{ACAD_REACTORS
330
1A
102
}
330
1A
100
AcDbPlotSettings
  1

  2
none_device
  4
ANSI_A_(11.00_x_8.50_Inches)
  6

 40
6.35
 41
19.05
 42
6.35000508
 43
19.05000254
 44
279.4
 45
215.9
 46
47.3778623249
 47
92.6984376377
 48
0.0
 49
0.0
140
0.0
141
0.0
142
0.1177297297
143
1.0
 70
  1696
 72
     0
 73
     0
 74
     1
  7

 75
     0
147
0.1119275105
148
444.5
149
826.5281173477
100
AcDbLayout
  1
_Front
 70
     1
 71
     2
 10
0.0
 20
0.0
 11
0.0
 21
0.0
 12
0.0
 22
0.0
 32
0.0
 14
-17.5
 24
-32.5404770609
 34
0.0
 15
75.0
 25
30.0
 35
0.0
146
0.0
 13
0.0
 23
0.0
 33
0.0
 16
1.0
 26
0.0
 36
0.0
 17
0.0
 27
1.0
 37
0.0
 76
     0
330
23
331
4D1
  0
LAYOUT
  5
1E
102
{ACAD_REACTORS
330
1A
102
}
330
1A
100
AcDbPlotSettings
  1

  2
none_device
  4
ISO_A4_(210.00_x_297.00_MM)
  6

 40
7.5
 41
20.0
 42
7.5
 43
20.0
 44
210.0
 45
297.0
 46
0.0
 47
0.0
 48
0.0
 49
0.0
140
0.0
141
0.0
142
1.0
143
1.0116731518
 70
   688
 72
     1
 73
     1
 74
     1
  7

 75
     0
147
0.9884615385
148
130.0
149
17.5
100
AcDbLayout
  1
_Top
 70
     1
 71
     1
 10
-150.233463035
 20
-25.0875486381
 11
150.233463035
 21
187.3638132296
 12
0.0
 22
0.0
 32
0.0
 14
1.0000000000E+20
 24
1.0000000000E+20
 34
1.0000000000E+20
 15
-1.0000000000E+20
 25
-1.0000000000E+20
 35
-1.0000000000E+20
146
0.0
 13
0.0
 23
0.0
 33
0.0
 16
1.0
 26
0.0
 36
0.0
 17
0.0
 27
1.0
 37
0.0
 76
     0
330
1B
331
4CF
  0
LAYOUT
  5
22
102
{ACAD_REACTORS
330
1A
102
}
330
1A
100
AcDbPlotSettings
  1

  2
none_device
  4
Letter_(8.50_x_11.00_Inches)
  6

 40
6.35
 41
6.35
 42
6.35000508
 43
6.35000508
 44
215.9
 45
279.4
 46
0.0
 47
0.0
 48
0.0
 49
0.0
140
0.0
141
0.0
142
1.0
143
1.0
 70
  1712
 72
     1
 73
     0
 74
     0
  7

 75
     0
147
1.0
148
0.0
149
0.0
100
AcDbLayout
  1
Model
 70
     1
 71
     0
 10
0.0
 20
0.0
 11
420.0
 21
297.0
 12
0.0
 22
0.0
 32
0.0
 14
-17.5
 24
-32.5404770609
 34
0.0
 15
75.0
 25
30.0
 35
0.0
146
0.0
 13
0.0
 23
0.0
 33
0.0
 16
1.0
 26
0.0
 36
0.0
 17
0.0
 27
1.0
 37
0.0
 76
     0
330
1F
331
29
  0
MLINESTYLE
  5
18
102
{ACAD_REACTORS
330
17
102
}
330
17
100
AcDbMlineStyle
  2
Standard
 70
     0
  3

 62
   256
 51
90.0
 52
90.0
 71
     2
 49
0.5
 62
   256
  6
BYLAYER
 49
-0.5
 62
   256
  6
BYLAYER
  0
ACDBPLACEHOLDER
  5
F
102
{ACAD_REACTORS
330
E
102
}
330
E
  0
SCALE
  5
48
102
{ACAD_REACTORS
330
47
102
}
330
47
100
AcDbScale
 70
     0
300
1:1
140
1.0
141
1.0
290
     1
  0
SCALE
  5
49
102
{ACAD_REACTORS
330
47
102
}
330
47
100
AcDbScale
 70
     0
300
1:2
140
1.0
141
2.0
290
     0
  0
SCALE
  5
4A
102
{ACAD_REACTORS
330
47
102
}
330
47
100
AcDbScale
 70
     0
300
1:4
140
1.0
141
4.0
290
     0
  0
SCALE
  5
4B
102
{ACAD_REACTORS
330
47
102
}
330
47
100
AcDbScale
 70
     0
300
1:5
140
1.0
141
5.0
290
     0
  0
SCALE
  5
4C
102
{ACAD_REACTORS
330
47
102
}
330
47
100
AcDbScale
 70
     0
300
1:8
140
1.0
141
8.0
290
     0
  0
SCALE
  5
4D
102
{ACAD_REACTORS
330
47
102
}
330
47
100
AcDbScale
 70
     0
300
1:10
140
1.0
141
10.0
290
     0
  0
SCALE
  5
4E
102
{ACAD_REACTORS
330
47
102
}
330
47
100
AcDbScale
 70
     0
300
1:16
140
1.0
141
16.0
290
     0
  0
SCALE
  5
4F
102
{ACAD_REACTORS
330
47
102
}
330
47
100
AcDbScale
 70
     0
300
1:20
140
1.0
141
20.0
290
     0
  0
SCALE
  5
50
102
{ACAD_REACTORS
330
47
102
}
330
47
100
AcDbScale
 70
     0
300
1:30
140
1.0
141
30.0
290
     0
  0
SCALE
  5
51
102
{ACAD_REACTORS
330
47
102
}
330
47
100
AcDbScale
 70
     0
300
1:40
140
1.0
141
40.0
290
     0
  0
SCALE
  5
52
102
{ACAD_REACTORS
330
47
102
}
330
47
100
AcDbScale
 70
     0
300
1:50
140
1.0
141
50.0
290
     0
  0
SCALE
  5
53
102
{ACAD_REACTORS
330
47
102
}
330
47
100
AcDbScale
 70
     0
300
1:100
140
1.0
141
100.0
290
     0
  0
SCALE
  5
54
102
{ACAD_REACTORS
330
47
102
}
330
47
100
AcDbScale
 70
     0
300
2:1
140
2.0
141
1.0
290
     0
  0
SCALE
  5
55
102
{ACAD_REACTORS
330
47
102
}
330
47
100
AcDbScale
 70
     0
300
4:1
140
4.0
141
1.0
290
     0
  0
SCALE
  5
56
102
{ACAD_REACTORS
330
47
102
}
330
47
100
AcDbScale
 70
     0
300
8:1
140
8.0
141
1.0
290
     0
  0
SCALE
  5
57
102
{ACAD_REACTORS
330
47
102
}
330
47
100
AcDbScale
 70
     0
300
10:1
140
10.0
141
1.0
290
     0
  0
SCALE
  5
58
102
{ACAD_REACTORS
330
47
102
}
330
47
100
AcDbScale
 70
     0
300
100:1
140
100.0
141
1.0
290
     0
  0
SCALE
  5
59
102
{ACAD_REACTORS
330
47
102
}
330
47
100
AcDbScale
 70
     0
300
1/128" = 1'-0"
140
0.0078125
141
12.0
290
     0
  0
SCALE
  5
5A
102
{ACAD_REACTORS
330
47
102
}
330
47
100
AcDbScale
 70
     0
300
1/64" = 1'-0"
140
0.015625
141
12.0
290
     0
  0
SCALE
  5
5B
102
{ACAD_REACTORS
330
47
102
}
330
47
100
AcDbScale
 70
     0
300
1/32" = 1'-0"
140
0.03125
141
12.0
290
     0
  0
SCALE
  5
5C
102
{ACAD_REACTORS
330
47
102
}
330
47
100
AcDbScale
 70
     0
300
1/16" = 1'-0"
140
0.0625
141
12.0
290
     0
  0
SCALE
  5
5D
102
{ACAD_REACTORS
330
47
102
}
330
47
100
AcDbScale
 70
     0
300
3/32" = 1'-0"
140
0.09375
141
12.0
290
     0
  0
SCALE
  5
5E
102
{ACAD_REACTORS
330
47
102
}
330
47
100
AcDbScale
 70
     0
300
1/8" = 1'-0"
140
0.125
141
12.0
290
     0
  0
SCALE
  5
5F
102
{ACAD_REACTORS
330
47
102
}
330
47
100
AcDbScale
 70
     0
300
3/16" = 1'-0"
140
0.1875
141
12.0
290
     0
  0
SCALE
  5
60
102
{ACAD_REACTORS
330
47
102
}
330
47
100
AcDbScale
 70
     0
300
1/4" = 1'-0"
140
0.25
141
12.0
290
     0
  0
SCALE
  5
61
102
{ACAD_REACTORS
330
47
102
}
330
47
100
AcDbScale
 70
     0
300
3/8" = 1'-0"
140
0.375
141
12.0
290
     0
  0
SCALE
  5
62
102
{ACAD_REACTORS
330
47
102
}
330
47
100
AcDbScale
 70
     0
300
1/2" = 1'-0"
140
0.5
141
12.0
290
     0
  0
SCALE
  5
63
102
{ACAD_REACTORS
330
47
102
}
330
47
100
AcDbScale
 70
     0
300
3/4" = 1'-0"
140
0.75
141
12.0
290
     0
  0
SCALE
  5
64
102
{ACAD_REACTORS
330
47
102
}
330
47
100
AcDbScale
 70
     0
300
1" = 1'-0"
140
1.0
141
12.0
290
     0
  0
SCALE
  5
65
102
{ACAD_REACTORS
330
47
102
}
330
47
100
AcDbScale
 70
     0
300
1-1/2" = 1'-0"
140
1.5
141
12.0
290
     0
  0
SCALE
  5
66
102
{ACAD_REACTORS
330
47
102
}
330
47
100
AcDbScale
 70
     0
300
3" = 1'-0"
140
3.0
141
12.0
290
     0
  0
SCALE
  5
67
102
{ACAD_REACTORS
330
47
102
}
330
47
100
AcDbScale
 70
     0
300
6" = 1'-0"
140
6.0
141
12.0
290
     0
  0
SCALE
  5
68
102
{ACAD_REACTORS
330
47
102
}
330
47
100
AcDbScale
 70
     0
300
1'-0" = 1'-0"
140
12.0
141
12.0
290
     0
  0
ENDSEC
  0
EOF
