  0
SECTION
  2
HEADER
  9
$ACADVER
  1
AC1015
  9
$ACADMAINTVER
 70
     6
  9
$DWGCODEPAGE
  3
ANSI_1252
  9
$INSBASE
 10
0.0
 20
0.0
 30
0.0
  9
$EXTMIN
 10
-35.2
 20
-42.803230739
 30
0.0
  9
$EXTMAX
 10
21.0
 20
0.0
 30
0.0
  9
$LIMMIN
 10
0.0
 20
0.0
  9
$LIMMAX
 10
420.0
 20
297.0
  9
$ORTHOMODE
 70
     0
  9
$REGENMODE
 70
     1
  9
$FILLMODE
 70
     1
  9
$QTEXTMODE
 70
     0
  9
$MIRRTEXT
 70
     1
  9
$LTSCALE
 40
1.0
  9
$ATTMODE
 70
     1
  9
$TEXTSIZE
 40
3.5
  9
$TRACEWID
 40
1.0
  9
$TEXTSTYLE
  7
Standard
  9
$CLAYER
  8
0
  9
$CELTYPE
  6
ByLayer
  9
$CECOLOR
 62
   256
  9
$CELTSCALE
 40
1.0
  9
$DISPSILH
 70
     0
  9
$DIMSCALE
 40
1.0
  9
$DIMASZ
 40
3.302
  9
$DIMEXO
 40
1.0
  9
$DIMDLI
 40
3.75
  9
$DIMRND
 40
0.0
  9
$DIMDLE
 40
0.0
  9
$DIMEXE
 40
1.0
  9
$DIMTP
 40
0.0
  9
$DIMTM
 40
0.0
  9
$DIMTXT
 40
3.5
  9
$DIMCEN
 40
2.5
  9
$DIMTSZ
 40
0.0
  9
$DIMTOL
 70
     0
  9
$DIMLIM
 70
     0
  9
$DIMTIH
 70
     1
  9
$DIMTOH
 70
     1
  9
$DIMSE1
 70
     0
  9
$DIMSE2
 70
     0
  9
$DIMTAD
 70
     1
  9
$DIMZIN
 70
     1
  9
$DIMBLK
  1

  9
$DIMASO
 70
     1
  9
$DIMSHO
 70
     1
  9
$DIMPOST
  1

  9
$DIMAPOST
  1

  9
$DIMALT
 70
     0
  9
$DIMALTD
 70
     3
  9
$DIMALTF
 40
0.0393700787
  9
$DIMLFAC
 40
1.0
  9
$DIMTOFL
 70
     1
  9
$DIMTVP
 40
0.0
  9
$DIMTIX
 70
     0
  9
$DIMSOXD
 70
     0
  9
$DIMSAH
 70
     0
  9
$DIMBLK1
  1

  9
$DIMBLK2
  1

  9
$DIMSTYLE
  2
ISO-25
  9
$DIMCLRD
 70
     0
  9
$DIMCLRE
 70
     0
  9
$DIMCLRT
 70
     0
  9
$DIMTFAC
 40
1.0
  9
$DIMGAP
 40
1.524
  9
$DIMJUST
 70
     0
  9
$DIMSD1
 70
     0
  9
$DIMSD2
 70
     0
  9
$DIMTOLJ
 70
     0
  9
$DIMTZIN
 70
     1
  9
$DIMALTZ
 70
     0
  9
$DIMALTTZ
 70
     0
  9
$DIMUPT
 70
     0
  9
$DIMDEC
 70
     2
  9
$DIMTDEC
 70
     2
  9
$DIMALTU
 70
     2
  9
$DIMALTTD
 70
     3
  9
$DIMTXSTY
  7
Standard
  9
$DIMAUNIT
 70
     0
  9
$DIMADEC
 70
     2
  9
$DIMALTRND
 40
0.0
  9
$DIMAZIN
 70
     0
  9
$DIMDSEP
 70
    44
  9
$DIMATFIT
 70
     3
  9
$DIMFRAC
 70
     0
  9
$DIMLDRBLK
  1

  9
$DIMLUNIT
 70
     2
  9
$DIMLWD
 70
    -2
  9
$DIMLWE
 70
    -2
  9
$DIMTMOVE
 70
     0
  9
$LUNITS
 70
     2
  9
$LUPREC
 70
     2
  9
$SKETCHINC
 40
1.0
  9
$FILLETRAD
 40
10.0
  9
$AUNITS
 70
     0
  9
$AUPREC
 70
     2
  9
$MENU
  1
.
  9
$ELEVATION
 40
0.0
  9
$PELEVATION
 40
0.0
  9
$THICKNESS
 40
0.0
  9
$LIMCHECK
 70
     0
  9
$CHAMFERA
 40
0.0
  9
$CHAMFERB
 40
0.0
  9
$CHAMFERC
 40
0.0
  9
$CHAMFERD
 40
0.0
  9
$SKPOLY
 70
     0
  9
$TDCREATE
 40
2459277.687469305
  9
$TDUCREATE
 40
2459277.687469305
  9
$TDUPDATE
 40
2459277.68755559
  9
$TDUUPDATE
 40
2459277.68755559
  9
$TDINDWG
 40
0.0000000116
  9
$TDUSRTIMER
 40
0.0000000116
  9
$USRTIMER
 70
     1
  9
$ANGBASE
 50
0.0
  9
$ANGDIR
 70
     0
  9
$PDMODE
 70
     0
  9
$PDSIZE
 40
-1.0
  9
$PLINEWID
 40
0.0
  9
$SPLFRAME
 70
     0
  9
$SPLINETYPE
 70
     6
  9
$SPLINESEGS
 70
     8
  9
$HANDSEED
  5
1E0
  9
$SURFTAB1
 70
     6
  9
$SURFTAB2
 70
     6
  9
$SURFTYPE
 70
     6
  9
$SURFU
 70
     6
  9
$SURFV
 70
     6
  9
$UCSBASE
  2

  9
$UCSNAME
  2

  9
$UCSORG
 10
0.0
 20
0.0
 30
0.0
  9
$UCSXDIR
 10
1.0
 20
0.0
 30
0.0
  9
$UCSYDIR
 10
0.0
 20
1.0
 30
0.0
  9
$UCSORTHOREF
  2

  9
$UCSORTHOVIEW
 70
     0
  9
$UCSORGTOP
 10
0.0
 20
0.0
 30
0.0
  9
$UCSORGBOTTOM
 10
0.0
 20
0.0
 30
0.0
  9
$UCSORGLEFT
 10
0.0
 20
0.0
 30
0.0
  9
$UCSORGRIGHT
 10
0.0
 20
0.0
 30
0.0
  9
$UCSORGFRONT
 10
0.0
 20
0.0
 30
0.0
  9
$UCSORGBACK
 10
0.0
 20
0.0
 30
0.0
  9
$PUCSBASE
  2

  9
$PUCSNAME
  2

  9
$PUCSORG
 10
0.0
 20
0.0
 30
0.0
  9
$PUCSXDIR
 10
1.0
 20
0.0
 30
0.0
  9
$PUCSYDIR
 10
0.0
 20
1.0
 30
0.0
  9
$PUCSORTHOREF
  2

  9
$PUCSORTHOVIEW
 70
     0
  9
$PUCSORGTOP
 10
0.0
 20
0.0
 30
0.0
  9
$PUCSORGBOTTOM
 10
0.0
 20
0.0
 30
0.0
  9
$PUCSORGLEFT
 10
0.0
 20
0.0
 30
0.0
  9
$PUCSORGRIGHT
 10
0.0
 20
0.0
 30
0.0
  9
$PUCSORGFRONT
 10
0.0
 20
0.0
 30
0.0
  9
$PUCSORGBACK
 10
0.0
 20
0.0
 30
0.0
  9
$USERI1
 70
     0
  9
$USERI2
 70
     0
  9
$USERI3
 70
     0
  9
$USERI4
 70
     0
  9
$USERI5
 70
     0
  9
$USERR1
 40
0.0
  9
$USERR2
 40
0.0
  9
$USERR3
 40
0.0
  9
$USERR4
 40
0.0
  9
$USERR5
 40
0.0
  9
$WORLDVIEW
 70
     1
  9
$SHADEDGE
 70
     3
  9
$SHADEDIF
 70
    70
  9
$TILEMODE
 70
     0
  9
$MAXACTVP
 70
    64
  9
$PINSBASE
 10
0.0
 20
0.0
 30
0.0
  9
$PLIMCHECK
 70
     0
  9
$PEXTMIN
 10
-35.2
 20
-42.803230739
 30
0.0
  9
$PEXTMAX
 10
21.0
 20
0.0
 30
0.0
  9
$PLIMMIN
 10
0.0
 20
0.0
  9
$PLIMMAX
 10
0.0
 20
0.0
  9
$UNITMODE
 70
     0
  9
$VISRETAIN
 70
     1
  9
$PLINEGEN
 70
     0
  9
$PSLTSCALE
 70
     1
  9
$TREEDEPTH
 70
  3020
  9
$CMLSTYLE
  2
Standard
  9
$CMLJUST
 70
     0
  9
$CMLSCALE
 40
20.0
  9
$PROXYGRAPHICS
 70
     1
  9
$MEASUREMENT
 70
     1
  9
$CELWEIGHT
370
    -1
  9
$ENDCAPS
280
     0
  9
$JOINSTYLE
280
     0
  9
$LWDISPLAY
290
     1
  9
$INSUNITS
 70
     4
  9
$HYPERLINKBASE
  1

  9
$STYLESHEET
  1

  9
$XEDIT
290
     1
  9
$CEPSNTYPE
380
     0
  9
$PSTYLEMODE
290
     1
  9
$FINGERPRINTGUID
  2
{817e9ffb-13bf-473b-8bdc-5c4ccbb7e74b}
  9
$VERSIONGUID
  2
{FAEB1C32-E019-11D5-929B-00C0DF256EC4}
  9
$EXTNAMES
290
     1
  9
$PSVPSCALE
 40
0.0
  9
$OLESTARTUP
290
     0
  0
ENDSEC
  0
SECTION
  2
CLASSES
  0
CLASS
  1
ACDBDICTIONARYWDFLT
  2
AcDbDictionaryWithDefault
  3
ObjectDBX Classes
 90
        0
280
     0
281
     0
  0
CLASS
  1
VISUALSTYLE
  2
AcDbVisualStyle
  3
ObjectDBX Classes
 90
     4095
280
     0
281
     0
  0
CLASS
  1
MATERIAL
  2
AcDbMaterial
  3
ObjectDBX Classes
 90
     1153
280
     0
281
     0
  0
CLASS
  1
SCALE
  2
AcDbScale
  3
ObjectDBX Classes
 90
     1153
280
     0
281
     0
  0
CLASS
  1
TABLESTYLE
  2
AcDbTableStyle
  3
ObjectDBX Classes
 90
     4095
280
     0
281
     0
  0
CLASS
  1
MLEADERSTYLE
  2
AcDbMLeaderStyle
  3
ACDB_MLEADERSTYLE_CLASS
 90
     4095
280
     0
281
     0
  0
CLASS
  1
SUN
  2
AcDbSun
  3
SCENEOE
 90
     1153
280
     0
281
     0
  0
CLASS
  1
ACDBPLACEHOLDER
  2
AcDbPlaceHolder
  3
ObjectDBX Classes
 90
        0
280
     0
281
     0
  0
CLASS
  1
LAYOUT
  2
AcDbLayout
  3
ObjectDBX Classes
 90
        0
280
     0
281
     0
  0
ENDSEC
  0
SECTION
  2
TABLES
  0
TABLE
  2
VPORT
  5
8
330
0
100
AcDbSymbolTable
 70
     1
  0
VPORT
  5
29
330
8
100
AcDbSymbolTableRecord
100
AcDbViewportTableRecord
  2
*Active
 70
     0
 10
0.0
 20
0.0
 11
1.0
 21
1.0
 12
-7.1
 22
-21.4016153695
 13
0.0
 23
0.0
 14
10.0
 24
10.0
 15
10.0
 25
10.0
 16
0.0
 26
0.0
 36
1.0
 17
0.0
 27
0.0
 37
0.0
 40
43.6592953537
 41
1.3129850021
 42
50.0
 43
0.0
 44
0.0
 50
0.0
 51
0.0
 71
     0
 72
   100
 73
     1
 74
     3
 75
     0
 76
     0
 77
     0
 78
     0
281
     0
 65
     1
110
0.0
120
0.0
130
0.0
111
1.0
121
0.0
131
0.0
112
0.0
122
1.0
132
0.0
 79
     0
146
0.0
  0
ENDTAB
  0
TABLE
  2
LTYPE
  5
5
330
0
100
AcDbSymbolTable
 70
     6
  0
LTYPE
  5
14
330
5
100
AcDbSymbolTableRecord
100
AcDbLinetypeTableRecord
  2
ByBlock
 70
     0
  3

 72
    65
 73
     0
 40
0.0
  0
LTYPE
  5
15
330
5
100
AcDbSymbolTableRecord
100
AcDbLinetypeTableRecord
  2
ByLayer
 70
     0
  3

 72
    65
 73
     0
 40
0.0
  0
LTYPE
  5
16
330
5
100
AcDbSymbolTableRecord
100
AcDbLinetypeTableRecord
  2
Continuous
 70
     0
  3
Solid line
 72
    65
 73
     0
 40
0.0
  0
LTYPE
  5
6E
330
5
100
AcDbSymbolTableRecord
100
AcDbLinetypeTableRecord
  2
HIDDEN
 70
     0
  3
Hidden __ __ __ __ __ __ __ __ __ __ __ __ __ __
 72
    65
 73
     2
 40
1.905
 49
1.27
 74
     0
 49
-0.635
 74
     0
  0
LTYPE
  5
6F
330
5
100
AcDbSymbolTableRecord
100
AcDbLinetypeTableRecord
  2
PHANTOM
 70
     0
  3
Phantom ______  __  __  ______  __  __  ______
 72
    65
 73
     6
 40
12.7
 49
6.35
 74
     0
 49
-1.27
 74
     0
 49
1.27
 74
     0
 49
-1.27
 74
     0
 49
1.27
 74
     0
 49
-1.27
 74
     0
  0
LTYPE
  5
70
330
5
100
AcDbSymbolTableRecord
100
AcDbLinetypeTableRecord
  2
CENTER
 70
     0
  3
Center ____ _ ____ _ ____ _ ____ _ ____ _ ____
 72
    65
 73
     4
 40
10.16
 49
6.35
 74
     0
 49
-1.27
 74
     0
 49
1.27
 74
     0
 49
-1.27
 74
     0
  0
LTYPE
  5
71
330
5
100
AcDbSymbolTableRecord
100
AcDbLinetypeTableRecord
  2
CENTERX2
 70
     0
  3
Center (2x) ________  __  ________  __  _____
 72
    65
 73
     4
 40
20.32
 49
12.7
 74
     0
 49
-2.54
 74
     0
 49
2.54
 74
     0
 49
-2.54
 74
     0
  0
LTYPE
  5
72
330
5
100
AcDbSymbolTableRecord
100
AcDbLinetypeTableRecord
  2
DOT2
 70
     0
  3
Dot (.5x) ........................................
 72
    65
 73
     2
 40
0.635
 49
0.0
 74
     0
 49
-0.635
 74
     0
  0
ENDTAB
  0
TABLE
  2
LAYER
  5
2
330
0
100
AcDbSymbolTable
 70
     1
  0
LAYER
  5
10
330
2
100
AcDbSymbolTableRecord
100
AcDbLayerTableRecord
  2
0
 70
     0
 62
     7
  6
Continuous
370
    -3
390
F
  0
ENDTAB
  0
TABLE
  2
STYLE
  5
3
330
0
100
AcDbSymbolTable
 70
     1
  0
STYLE
  5
11
330
3
100
AcDbSymbolTableRecord
100
AcDbTextStyleTableRecord
  2
Standard
 70
     0
 40
0.0
 41
1.0
 50
0.0
 71
     0
 42
3.5
  3
txt
  4

  0
ENDTAB
  0
TABLE
  2
VIEW
  5
6
330
0
100
AcDbSymbolTable
 70
     0
  0
ENDTAB
  0
TABLE
  2
UCS
  5
7
330
0
100
AcDbSymbolTable
 70
     0
  0
ENDTAB
  0
TABLE
  2
APPID
  5
9
330
0
100
AcDbSymbolTable
 70
     1
  0
APPID
  5
12
330
9
100
AcDbSymbolTableRecord
100
AcDbRegAppTableRecord
  2
ACAD
 70
     0
  0
ENDTAB
  0
TABLE
  2
DIMSTYLE
  5
A
330
0
100
AcDbSymbolTable
 70
     1
100
AcDbDimStyleTable
  0
DIMSTYLE
105
27
330
A
100
AcDbSymbolTableRecord
100
AcDbDimStyleTableRecord
  2
ISO-25
 70
     0
 41
2.5
 42
0.625
 43
3.75
 44
1.25
 73
     0
 74
     0
 77
     1
 78
     8
140
2.5
141
2.5
143
0.0393700787
147
0.625
171
     3
172
     1
178
     0
271
     2
272
     2
274
     3
278
    44
283
     0
284
     8
340
11
  0
ENDTAB
  0
TABLE
  2
BLOCK_RECORD
  5
1
330
0
100
AcDbSymbolTable
 70
     1
  0
BLOCK_RECORD
  5
1F
330
1
100
AcDbSymbolTableRecord
100
AcDbBlockTableRecord
  2
*Model_Space
340
22
  0
BLOCK_RECORD
  5
23
330
1
100
AcDbSymbolTableRecord
100
AcDbBlockTableRecord
  2
*Paper_Space
340
26
  0
BLOCK_RECORD
  5
1B
330
1
100
AcDbSymbolTableRecord
100
AcDbBlockTableRecord
  2
*Paper_Space0
340
1E
  0
ENDTAB
  0
ENDSEC
  0
SECTION
  2
BLOCKS
  0
BLOCK
  5
20
330
1F
100
AcDbEntity
  8
0
100
AcDbBlockBegin
  2
*Model_Space
 70
     0
 10
0.0
 20
0.0
 30
0.0
  3
*Model_Space
  1

  0
ENDBLK
  5
21
330
1F
100
AcDbEntity
  8
0
100
AcDbBlockEnd
  0
BLOCK
  5
24
330
23
100
AcDbEntity
 67
     1
  8
0
100
AcDbBlockBegin
  2
*Paper_Space
 70
     0
 10
0.0
 20
0.0
 30
0.0
  3
*Paper_Space
  1

  0
ENDBLK
  5
25
330
23
100
AcDbEntity
 67
     1
  8
0
100
AcDbBlockEnd
  0
BLOCK
  5
1C
330
1B
100
AcDbEntity
  8
0
100
AcDbBlockBegin
  2
*Paper_Space0
 70
     0
 10
0.0
 20
0.0
 30
0.0
  3
*Paper_Space0
  1

  0
SPLINE
  5
122
330
1B
100
AcDbEntity
  8
0
  6
Continuous
 62
     7
370
    25
100
AcDbSpline
210
0.0
220
0.0
230
1.0
 70
     8
 71
     3
 72
     9
 73
     5
 74
     0
 42
0.000000001
 43
0.00000001
 40
0.0
 40
0.0
 40
0.0
 40
0.0
 40
0.4999665068492102
 40
1.0
 40
1.0
 40
1.0
 40
1.0
 10
32.88989730578187
 20
9.440738216648231
 30
0.0
 10
32.83958600228542
 20
9.556873868855243
 30
0.0
 10
32.7389566545047
 20
9.789160733307225
 30
0.0
 10
32.63834735776875
 20
10.02145930204877
 30
0.0
 10
32.58803933967843
 20
10.13761636683054
 30
0.0
  0
SPLINE
  5
123
330
1B
100
AcDbEntity
  8
0
  6
Continuous
 62
     7
370
    25
100
AcDbSpline
210
0.0
220
0.0
230
1.0
 70
     8
 71
     3
 72
     9
 73
     5
 74
     0
 42
0.000000001
 43
0.00000001
 40
0.0
 40
0.0
 40
0.0
 40
0.0
 40
0.499966506849212
 40
1.0
 40
1.0
 40
1.0
 40
1.0
 10
31.08989730578187
 20
9.440738216648231
 30
0.0
 10
31.03958600228543
 20
9.556873868855245
 30
0.0
 10
30.9389566545047
 20
9.789160733307224
 30
0.0
 10
30.83834735776875
 20
10.02145930204878
 30
0.0
 10
30.78803933967843
 20
10.13761636683054
 30
0.0
  0
SPLINE
  5
124
330
1B
100
AcDbEntity
  8
0
  6
Continuous
 62
     7
370
    25
100
AcDbSpline
210
0.0
220
0.0
230
1.0
 70
     8
 71
     3
 72
     9
 73
     5
 74
     0
 42
0.000000001
 43
0.00000001
 40
0.0
 40
0.0
 40
0.0
 40
0.0
 40
0.4999665068492058
 40
1.0
 40
1.0
 40
1.0
 40
1.0
 10
29.28989730578187
 20
9.440738216648231
 30
0.0
 10
29.23958600228542
 20
9.556873868855241
 30
0.0
 10
29.13895665450469
 20
9.789160733307222
 30
0.0
 10
29.03834735776875
 20
10.02145930204877
 30
0.0
 10
28.98803933967843
 20
10.13761636683054
 30
0.0
  0
SPLINE
  5
125
330
1B
100
AcDbEntity
  8
0
  6
Continuous
 62
     7
370
    25
100
AcDbSpline
210
0.0
220
0.0
230
1.0
 70
     8
 71
     3
 72
     9
 73
     5
 74
     0
 42
0.000000001
 43
0.00000001
 40
0.0
 40
0.0
 40
0.0
 40
0.0
 40
0.4999665068492096
 40
1.0
 40
1.0
 40
1.0
 40
1.0
 10
27.48989730578187
 20
9.440738216648231
 30
0.0
 10
27.43958600228542
 20
9.556873868855241
 30
0.0
 10
27.33895665450469
 20
9.789160733307218
 30
0.0
 10
27.23834735776876
 20
10.02145930204877
 30
0.0
 10
27.18803933967844
 20
10.13761636683054
 30
0.0
  0
SPLINE
  5
126
330
1B
100
AcDbEntity
  8
0
  6
Continuous
 62
     7
370
    25
100
AcDbSpline
210
0.0
220
0.0
230
1.0
 70
     8
 71
     3
 72
     9
 73
     5
 74
     0
 42
0.000000001
 43
0.00000001
 40
0.0
 40
0.0
 40
0.0
 40
0.0
 40
0.4999665068492058
 40
1.0
 40
1.0
 40
1.0
 40
1.0
 10
25.68989730578187
 20
9.440738216648231
 30
0.0
 10
25.63958600228542
 20
9.556873868855241
 30
0.0
 10
25.53895665450469
 20
9.789160733307222
 30
0.0
 10
25.43834735776875
 20
10.02145930204877
 30
0.0
 10
25.38803933967843
 20
10.13761636683054
 30
0.0
  0
SPLINE
  5
127
330
1B
100
AcDbEntity
  8
0
  6
Continuous
 62
     7
370
    25
100
AcDbSpline
210
0.0
220
0.0
230
1.0
 70
     8
 71
     3
 72
     9
 73
     5
 74
     0
 42
0.000000001
 43
0.00000001
 40
0.0
 40
0.0
 40
0.0
 40
0.0
 40
0.5676749502995713
 40
1.0
 40
1.0
 40
1.0
 40
1.0
 10
31.7044069347046
 20
-10.08342823604768
 30
0.0
 10
31.75459160672161
 20
-9.967967300372854
 30
0.0
 10
31.84299549347148
 20
-9.764574609513595
 30
0.0
 10
31.93140311321212
 20
-9.561245885601657
 30
0.0
 10
31.96962394181038
 20
-9.473341784930907
 30
0.0
  0
SPLINE
  5
128
330
1B
100
AcDbEntity
  8
0
  6
Continuous
 62
     7
370
    25
100
AcDbSpline
210
0.0
220
0.0
230
1.0
 70
     8
 71
     3
 72
     9
 73
     5
 74
     0
 42
0.000000001
 43
0.00000001
 40
0.0
 40
0.0
 40
0.0
 40
0.0
 40
0.5676749502995735
 40
1.0
 40
1.0
 40
1.0
 40
1.0
 10
29.9044069347046
 20
-10.08342823604768
 30
0.0
 10
29.95459160672162
 20
-9.967967300372854
 30
0.0
 10
30.04299549347149
 20
-9.764574609513597
 30
0.0
 10
30.13140311321212
 20
-9.561245885601663
 30
0.0
 10
30.16962394181039
 20
-9.47334178493091
 30
0.0
  0
SPLINE
  5
129
330
1B
100
AcDbEntity
  8
0
  6
Continuous
 62
     7
370
    25
100
AcDbSpline
210
0.0
220
0.0
230
1.0
 70
     8
 71
     3
 72
     9
 73
     5
 74
     0
 42
0.000000001
 43
0.00000001
 40
0.0
 40
0.0
 40
0.0
 40
0.0
 40
0.5676749502995765
 40
1.0
 40
1.0
 40
1.0
 40
1.0
 10
28.1044069347046
 20
-10.08342823604768
 30
0.0
 10
28.15459160672162
 20
-9.967967300372857
 30
0.0
 10
28.24299549347148
 20
-9.764574609513597
 30
0.0
 10
28.33140311321212
 20
-9.561245885601663
 30
0.0
 10
28.36962394181038
 20
-9.47334178493091
 30
0.0
  0
SPLINE
  5
12A
330
1B
100
AcDbEntity
  8
0
  6
Continuous
 62
     7
370
    25
100
AcDbSpline
210
0.0
220
0.0
230
1.0
 70
     8
 71
     3
 72
     9
 73
     5
 74
     0
 42
0.000000001
 43
0.00000001
 40
0.0
 40
0.0
 40
0.0
 40
0.0
 40
0.5676749502995782
 40
0.9999999999999999
 40
0.9999999999999999
 40
0.9999999999999999
 40
0.9999999999999999
 10
26.3044069347046
 20
-10.08342823604768
 30
0.0
 10
26.35459160672162
 20
-9.96796730037285
 30
0.0
 10
26.44299549347148
 20
-9.764574609513588
 30
0.0
 10
26.53140311321212
 20
-9.56124588560166
 30
0.0
 10
26.56962394181039
 20
-9.47334178493091
 30
0.0
  0
SPLINE
  5
12B
330
1B
100
AcDbEntity
  8
0
  6
Continuous
 62
     7
370
    25
100
AcDbSpline
210
0.0
220
0.0
230
1.0
 70
     8
 71
     3
 72
     9
 73
     5
 74
     0
 42
0.000000001
 43
0.00000001
 40
0.0
 40
0.0
 40
0.0
 40
0.0
 40
0.5676749502995835
 40
1.0
 40
1.0
 40
1.0
 40
1.0
 10
24.5044069347046
 20
-10.08342823604768
 30
0.0
 10
24.55459160672162
 20
-9.96796730037285
 30
0.0
 10
24.6429954934715
 20
-9.764574609513591
 30
0.0
 10
24.73140311321212
 20
-9.561245885601656
 30
0.0
 10
24.76962394181038
 20
-9.47334178493091
 30
0.0
  0
SPLINE
  5
12C
330
1B
100
AcDbEntity
  8
0
  6
Continuous
 62
     7
370
    25
100
AcDbSpline
210
0.0
220
0.0
230
1.0
 70
     8
 71
     3
 72
     9
 73
     5
 74
     0
 42
0.000000001
 43
0.00000001
 40
0.0
 40
0.0
 40
0.0
 40
0.0
 40
0.5676749502995715
 40
1.0
 40
1.0
 40
1.0
 40
1.0
 10
33.5044069347046
 20
-10.08342823604768
 30
0.0
 10
33.55459160672162
 20
-9.967967300372857
 30
0.0
 10
33.64299549347148
 20
-9.7645746095136
 30
0.0
 10
33.73140311321212
 20
-9.561245885601663
 30
0.0
 10
33.76962394181039
 20
-9.473341784930911
 30
0.0
  0
SPLINE
  5
12D
330
1B
100
AcDbEntity
  8
0
  6
Continuous
 62
     7
370
    25
100
AcDbSpline
210
0.0
220
0.0
230
1.0
 70
     8
 71
     3
 72
     9
 73
     5
 74
     0
 42
0.000000001
 43
0.00000001
 40
0.0
 40
0.0
 40
0.0
 40
0.0
 40
0.4999665068492102
 40
1.0
 40
1.0
 40
1.0
 40
1.0
 10
34.68989730578187
 20
9.440738216648231
 30
0.0
 10
34.63958600228543
 20
9.556873868855243
 30
0.0
 10
34.53895665450471
 20
9.789160733307225
 30
0.0
 10
34.43834735776876
 20
10.02145930204877
 30
0.0
 10
34.38803933967844
 20
10.13761636683054
 30
0.0
  0
SPLINE
  5
12E
330
1B
100
AcDbEntity
  8
0
  6
Continuous
 62
     7
370
    25
100
AcDbSpline
210
0.0
220
0.0
230
1.0
 70
     8
 71
     3
 72
     9
 73
     5
 74
     0
 42
0.000000001
 43
0.00000001
 40
0.0
 40
0.0
 40
0.0
 40
0.0
 40
0.5166240345320231
 40
1.0
 40
1.0
 40
1.0
 40
1.0
 10
33.37458421662456
 20
10.15201717760937
 30
0.0
 10
33.28829749890443
 20
10.03604120662985
 30
0.0
 10
33.1212771669946
 20
9.811553062007292
 30
0.0
 10
32.95424842563844
 20
9.587073556956433
 30
0.0
 10
32.8735107465245
 20
9.4785655594747
 30
0.0
  0
SPLINE
  5
12F
330
1B
100
AcDbEntity
  8
0
  6
Continuous
 62
     7
370
    25
100
AcDbSpline
210
0.0
220
0.0
230
1.0
 70
     8
 71
     3
 72
     9
 73
     5
 74
     0
 42
0.000000001
 43
0.00000001
 40
0.0
 40
0.0
 40
0.0
 40
0.0
 40
0.5166240345320219
 40
1.0
 40
1.0
 40
1.0
 40
1.0
 10
31.57458421662457
 20
10.15201717760937
 30
0.0
 10
31.48829749890443
 20
10.03604120662985
 30
0.0
 10
31.32127716699461
 20
9.811553062007293
 30
0.0
 10
31.15424842563844
 20
9.587073556956431
 30
0.0
 10
31.0735107465245
 20
9.4785655594747
 30
0.0
  0
SPLINE
  5
130
330
1B
100
AcDbEntity
  8
0
  6
Continuous
 62
     7
370
    25
100
AcDbSpline
210
0.0
220
0.0
230
1.0
 70
     8
 71
     3
 72
     9
 73
     5
 74
     0
 42
0.000000001
 43
0.00000001
 40
0.0
 40
0.0
 40
0.0
 40
0.0
 40
0.5166240345320168
 40
1.0
 40
1.0
 40
1.0
 40
1.0
 10
29.77458421662456
 20
10.15201717760937
 30
0.0
 10
29.68829749890444
 20
10.03604120662985
 30
0.0
 10
29.52127716699462
 20
9.811553062007292
 30
0.0
 10
29.35424842563844
 20
9.587073556956433
 30
0.0
 10
29.2735107465245
 20
9.4785655594747
 30
0.0
  0
SPLINE
  5
131
330
1B
100
AcDbEntity
  8
0
  6
Continuous
 62
     7
370
    25
100
AcDbSpline
210
0.0
220
0.0
230
1.0
 70
     8
 71
     3
 72
     9
 73
     5
 74
     0
 42
0.000000001
 43
0.00000001
 40
0.0
 40
0.0
 40
0.0
 40
0.0
 40
0.5166240345320207
 40
1.0
 40
1.0
 40
1.0
 40
1.0
 10
27.97458421662457
 20
10.15201717760937
 30
0.0
 10
27.88829749890444
 20
10.03604120662985
 30
0.0
 10
27.72127716699461
 20
9.811553062007293
 30
0.0
 10
27.55424842563845
 20
9.587073556956433
 30
0.0
 10
27.4735107465245
 20
9.478565559474701
 30
0.0
  0
SPLINE
  5
132
330
1B
100
AcDbEntity
  8
0
  6
Continuous
 62
     7
370
    25
100
AcDbSpline
210
0.0
220
0.0
230
1.0
 70
     8
 71
     3
 72
     9
 73
     5
 74
     0
 42
0.000000001
 43
0.00000001
 40
0.0
 40
0.0
 40
0.0
 40
0.0
 40
0.5166240345320153
 40
1.0
 40
1.0
 40
1.0
 40
1.0
 10
26.17458421662457
 20
10.15201717760937
 30
0.0
 10
26.08829749890443
 20
10.03604120662985
 30
0.0
 10
25.92127716699462
 20
9.811553062007292
 30
0.0
 10
25.75424842563844
 20
9.587073556956433
 30
0.0
 10
25.6735107465245
 20
9.4785655594747
 30
0.0
  0
SPLINE
  5
133
330
1B
100
AcDbEntity
  8
0
  6
Continuous
 62
     7
370
    25
100
AcDbSpline
210
0.0
220
0.0
230
1.0
 70
     8
 71
     3
 72
     9
 73
     5
 74
     0
 42
0.000000001
 43
0.00000001
 40
0.0
 40
0.0
 40
0.0
 40
0.0
 40
0.4999915765219982
 40
0.9999999999999999
 40
0.9999999999999999
 40
0.9999999999999999
 40
0.9999999999999999
 10
31.95685945452319
 20
-9.45618661283974
 30
0.0
 10
32.04314763339242
 20
-9.572154188220996
 30
0.0
 10
32.21572689856618
 20
-9.80409324645061
 30
0.0
 10
32.38829747484213
 20
-10.03604123135061
 30
0.0
 10
32.47458421662456
 20
-10.15201717760937
 30
0.0
  0
SPLINE
  5
134
330
1B
100
AcDbEntity
  8
0
  6
Continuous
 62
     7
370
    25
100
AcDbSpline
210
0.0
220
0.0
230
1.0
 70
     8
 71
     3
 72
     9
 73
     5
 74
     0
 42
0.000000001
 43
0.00000001
 40
0.0
 40
0.0
 40
0.0
 40
0.0
 40
0.4999915765219958
 40
1.0
 40
1.0
 40
1.0
 40
1.0
 10
30.15685945452319
 20
-9.45618661283974
 30
0.0
 10
30.24314763339242
 20
-9.572154188220996
 30
0.0
 10
30.41572689856619
 20
-9.804093246450615
 30
0.0
 10
30.58829747484214
 20
-10.03604123135062
 30
0.0
 10
30.67458421662457
 20
-10.15201717760937
 30
0.0
  0
SPLINE
  5
135
330
1B
100
AcDbEntity
  8
0
  6
Continuous
 62
     7
370
    25
100
AcDbSpline
210
0.0
220
0.0
230
1.0
 70
     8
 71
     3
 72
     9
 73
     5
 74
     0
 42
0.000000001
 43
0.00000001
 40
0.0
 40
0.0
 40
0.0
 40
0.0
 40
0.4999915765220045
 40
0.9999999999999999
 40
0.9999999999999999
 40
0.9999999999999999
 40
0.9999999999999999
 10
28.35685945452319
 20
-9.45618661283974
 30
0.0
 10
28.44314763339243
 20
-9.572154188220996
 30
0.0
 10
28.6157268985662
 20
-9.80409324645061
 30
0.0
 10
28.78829747484215
 20
-10.03604123135062
 30
0.0
 10
28.87458421662457
 20
-10.15201717760937
 30
0.0
  0
SPLINE
  5
136
330
1B
100
AcDbEntity
  8
0
  6
Continuous
 62
     7
370
    25
100
AcDbSpline
210
0.0
220
0.0
230
1.0
 70
     8
 71
     3
 72
     9
 73
     5
 74
     0
 42
0.000000001
 43
0.00000001
 40
0.0
 40
0.0
 40
0.0
 40
0.0
 40
0.4999915765219997
 40
0.9999999999999999
 40
0.9999999999999999
 40
0.9999999999999999
 40
0.9999999999999999
 10
26.55685945452319
 20
-9.45618661283974
 30
0.0
 10
26.64314763339243
 20
-9.572154188220996
 30
0.0
 10
26.81572689856619
 20
-9.804093246450611
 30
0.0
 10
26.98829747484214
 20
-10.03604123135061
 30
0.0
 10
27.07458421662457
 20
-10.15201717760937
 30
0.0
  0
SPLINE
  5
137
330
1B
100
AcDbEntity
  8
0
  6
Continuous
 62
     7
370
    25
100
AcDbSpline
210
0.0
220
0.0
230
1.0
 70
     8
 71
     3
 72
     9
 73
     5
 74
     0
 42
0.000000001
 43
0.00000001
 40
0.0
 40
0.0
 40
0.0
 40
0.0
 40
0.4999915765220004
 40
0.9999999999999999
 40
0.9999999999999999
 40
0.9999999999999999
 40
0.9999999999999999
 10
24.75685945452318
 20
-9.456186612839739
 30
0.0
 10
24.84314763339242
 20
-9.57215418822099
 30
0.0
 10
25.01572689856619
 20
-9.804093246450606
 30
0.0
 10
25.18829747484214
 20
-10.03604123135061
 30
0.0
 10
25.27458421662457
 20
-10.15201717760937
 30
0.0
  0
SPLINE
  5
138
330
1B
100
AcDbEntity
  8
0
  6
Continuous
 62
     7
370
    25
100
AcDbSpline
210
0.0
220
0.0
230
1.0
 70
     8
 71
     3
 72
     9
 73
     5
 74
     0
 42
0.000000001
 43
0.00000001
 40
0.0
 40
0.0
 40
0.0
 40
0.0
 40
0.499991576522003
 40
1.0
 40
1.0
 40
1.0
 40
1.0
 10
33.75685945452319
 20
-9.45618661283974
 30
0.0
 10
33.84314763339244
 20
-9.572154188220996
 30
0.0
 10
34.01572689856621
 20
-9.80409324645061
 30
0.0
 10
34.18829747484215
 20
-10.03604123135062
 30
0.0
 10
34.27458421662457
 20
-10.15201717760937
 30
0.0
  0
SPLINE
  5
139
330
1B
100
AcDbEntity
  8
0
  6
Continuous
 62
     7
370
    25
100
AcDbSpline
210
0.0
220
0.0
230
1.0
 70
     8
 71
     3
 72
     9
 73
     5
 74
     0
 42
0.000000001
 43
0.00000001
 40
0.0
 40
0.0
 40
0.0
 40
0.0
 40
0.5166240345320231
 40
1.0
 40
1.0
 40
1.0
 40
1.0
 10
35.17458421662457
 20
10.15201717760937
 30
0.0
 10
35.08829749890444
 20
10.03604120662985
 30
0.0
 10
34.92127716699461
 20
9.811553062007292
 30
0.0
 10
34.75424842563844
 20
9.587073556956433
 30
0.0
 10
34.6735107465245
 20
9.4785655594747
 30
0.0
  0
SPLINE
  5
14C
330
1B
100
AcDbEntity
  8
0
  6
Continuous
 62
     7
370
    25
100
AcDbSpline
210
0.0
220
0.0
230
1.0
 70
     8
 71
     3
 72
    21
 73
    17
 74
     0
 42
0.000000001
 43
0.00000001
 40
0.0
 40
0.0
 40
0.0
 40
0.0
 40
0.079755394319343
 40
0.1585369032786537
 40
0.2314231081548426
 40
0.3051937860077242
 40
0.3792211257458509
 40
0.4528641387170796
 40
0.5255604621571249
 40
0.5986720716026054
 40
0.6725452004044649
 40
0.7465467936378037
 40
0.8200371906358142
 40
0.8926384784243055
 40
0.9659516207762093
 40
1.0
 40
1.0
 40
1.0
 40
1.0
 10
35.20000000000001
 20
-2.639106274530327
 30
0.0
 10
35.18619980604388
 20
-2.203267592077327
 30
0.0
 10
35.15876793095729
 20
-1.336912210916743
 30
0.0
 10
35.12016551403921
 20
-0.0325306991030636
 30
0.0
 10
35.08263142485774
 20
1.234277464635929
 30
0.0
 10
35.04453442777509
 20
2.454293872940473
 30
0.0
 10
35.00619677539376
 20
3.635794861905207
 30
0.0
 10
34.96826072212914
 20
4.749053024974463
 30
0.0
 10
34.93208201143174
 20
5.776985414737829
 30
0.0
 10
34.89506604492597
 20
6.70815766582967
 30
0.0
 10
34.85686923944743
 20
7.529899744918692
 30
0.0
 10
34.81854833022035
 20
8.222099381881812
 30
0.0
 10
34.78085032256239
 20
8.771645206534807
 30
0.0
 10
34.74485086530116
 20
9.16178794694172
 30
0.0
 10
34.71428792019885
 20
9.382373779081773
 30
0.0
 10
34.69573155577453
 20
9.411236299933002
 30
0.0
 10
34.68984663421548
 20
9.420389691584635
 30
0.0
  0
SPLINE
  5
14D
330
1B
100
AcDbEntity
  8
0
  6
Continuous
 62
     7
370
    25
100
AcDbSpline
210
0.0
220
0.0
230
1.0
 70
     8
 71
     3
 72
    31
 73
    27
 74
     0
 42
0.000000001
 43
0.00000001
 40
0.0
 40
0.0
 40
0.0
 40
0.0
 40
0.0295518708677849
 40
0.0727004505202956
 40
0.1154300669099445
 40
0.158682970098058
 40
0.2022367387349918
 40
0.2457148994034725
 40
0.2870311230494101
 40
0.3280724162477807
 40
0.369635306013623
 40
0.4114482305860387
 40
0.4583884090329963
 40
0.5047554055281004
 40
0.5476527103738499
 40
0.5910705733550307
 40
0.6346394951429136
 40
0.6779822207321057
 40
0.720767770522634
 40
0.763797737626474
 40
0.8072758982949538
 40
0.8508296669318877
 40
0.8940825701200011
 40
0.9368121865096499
 40
0.9799607661621604
 40
1.0
 40
1.0
 40
1.0
 40
1.0
 10
33.7569083938216
 20
-9.438329934568308
 30
0.0
 10
33.74822565934372
 20
-9.426177387971316
 30
0.0
 10
33.72686529569314
 20
-9.396280952090043
 30
0.0
 10
33.69353323169597
 20
-9.163592668862238
 30
0.0
 10
33.65754078763214
 20
-8.77115746248791
 30
0.0
 10
33.61984158545521
 20
-8.22223064142932
 30
0.0
 10
33.58151835178994
 20
-7.529868775729119
 30
0.0
 10
33.54383516979915
 20
-6.718977377303757
 30
0.0
 10
33.50775372287089
 20
-5.814977904626272
 30
0.0
 10
33.47310825205049
 20
-4.834150500847982
 30
0.0
 10
33.43680335003101
 20
-3.773502616879381
 30
0.0
 10
33.39849308701839
 20
-2.600052608728789
 30
0.0
 10
33.35876779876332
 20
-1.334535894993262
 30
0.0
 10
33.32016554633809
 20
-0.0331113033282482
 30
0.0
 10
33.28263141637674
 20
1.234429918869926
 30
0.0
 10
33.24453443006845
 20
2.454252647544094
 30
0.0
 10
33.20619677478165
 20
3.635805865106859
 30
0.0
 10
33.16826072229042
 20
4.749050125871043
 30
0.0
 10
33.13208201138852
 20
5.776986191945944
 30
0.0
 10
33.0950660449377
 20
6.708157454662925
 30
0.0
 10
33.05686923944427
 20
7.529899801873372
 30
0.0
 10
33.01854833022119
 20
8.22209936671964
 30
0.0
 10
32.98085032256217
 20
8.771645210535562
 30
0.0
 10
32.94485086530123
 20
9.16178794584211
 30
0.0
 10
32.91428792019883
 20
9.382373779194364
 30
0.0
 10
32.89573155577453
 20
9.411236299960116
 30
0.0
 10
32.88984663421548
 20
9.420389691584637
 30
0.0
  0
SPLINE
  5
14E
330
1B
100
AcDbEntity
  8
0
  6
Continuous
 62
     7
370
    25
100
AcDbSpline
210
0.0
220
0.0
230
1.0
 70
     8
 71
     3
 72
    31
 73
    27
 74
     0
 42
0.000000001
 43
0.00000001
 40
0.0
 40
0.0
 40
0.0
 40
0.0
 40
0.0295518708677849
 40
0.0727004505202956
 40
0.1154300669099445
 40
0.158682970098058
 40
0.2022367387349918
 40
0.2457148994034725
 40
0.2870311230494101
 40
0.3280724162477807
 40
0.369635306013623
 40
0.4114482305860387
 40
0.4583884090329963
 40
0.5047554055281004
 40
0.5476527103738499
 40
0.5910705733550307
 40
0.6346394951429136
 40
0.6779822207321057
 40
0.720767770522634
 40
0.763797737626474
 40
0.8072758982949538
 40
0.8508296669318877
 40
0.8940825701200011
 40
0.9368121865096499
 40
0.9799607661621604
 40
1.0
 40
1.0
 40
1.0
 40
1.0
 10
31.9569083938216
 20
-9.43832993456831
 30
0.0
 10
31.94822565934372
 20
-9.426177387971316
 30
0.0
 10
31.92686529569315
 20
-9.396280952090041
 30
0.0
 10
31.89353323169598
 20
-9.163592668862242
 30
0.0
 10
31.85754078763213
 20
-8.771157462487905
 30
0.0
 10
31.81984158545522
 20
-8.22223064142932
 30
0.0
 10
31.78151835178993
 20
-7.529868775729119
 30
0.0
 10
31.74383516979915
 20
-6.718977377303757
 30
0.0
 10
31.70775372287089
 20
-5.814977904626272
 30
0.0
 10
31.67310825205049
 20
-4.834150500847982
 30
0.0
 10
31.636803350031
 20
-3.773502616879381
 30
0.0
 10
31.59849308701839
 20
-2.600052608728789
 30
0.0
 10
31.55876779876332
 20
-1.334535894993262
 30
0.0
 10
31.5201655463381
 20
-0.0331113033282482
 30
0.0
 10
31.48263141637674
 20
1.234429918869926
 30
0.0
 10
31.44453443006846
 20
2.454252647544094
 30
0.0
 10
31.40619677478165
 20
3.635805865106859
 30
0.0
 10
31.36826072229042
 20
4.749050125871043
 30
0.0
 10
31.33208201138853
 20
5.776986191945944
 30
0.0
 10
31.2950660449377
 20
6.708157454662925
 30
0.0
 10
31.25686923944428
 20
7.529899801873372
 30
0.0
 10
31.21854833022118
 20
8.22209936671964
 30
0.0
 10
31.18085032256218
 20
8.771645210535562
 30
0.0
 10
31.14485086530123
 20
9.16178794584211
 30
0.0
 10
31.11428792019884
 20
9.382373779194364
 30
0.0
 10
31.09573155577453
 20
9.411236299960116
 30
0.0
 10
31.08984663421548
 20
9.420389691584637
 30
0.0
  0
SPLINE
  5
14F
330
1B
100
AcDbEntity
  8
0
  6
Continuous
 62
     7
370
    25
100
AcDbSpline
210
0.0
220
0.0
230
1.0
 70
     8
 71
     3
 72
    31
 73
    27
 74
     0
 42
0.000000001
 43
0.00000001
 40
0.0
 40
0.0
 40
0.0
 40
0.0
 40
0.0295518708677841
 40
0.0727004505202948
 40
0.1154300669099438
 40
0.1586829700980573
 40
0.2022367387349912
 40
0.2457148994034719
 40
0.2870311230494095
 40
0.3280724162477802
 40
0.3696353060136226
 40
0.4114482305860383
 40
0.4583884090329959
 40
0.5047554055281
 40
0.5476527103738497
 40
0.5910705733550304
 40
0.6346394951429134
 40
0.6779822207321055
 40
0.7207677705226339
 40
0.7637977376264738
 40
0.8072758982949538
 40
0.8508296669318878
 40
0.8940825701200014
 40
0.9368121865096501
 40
0.9799607661621608
 40
1.0
 40
1.0
 40
1.0
 40
1.0
 10
30.1569083938216
 20
-9.438329934568308
 30
0.0
 10
30.14822565934371
 20
-9.426177387971315
 30
0.0
 10
30.12686529569314
 20
-9.39628095209004
 30
0.0
 10
30.09353323169599
 20
-9.163592668862242
 30
0.0
 10
30.05754078763213
 20
-8.771157462487906
 30
0.0
 10
30.01984158545522
 20
-8.22223064142932
 30
0.0
 10
29.98151835178994
 20
-7.529868775729119
 30
0.0
 10
29.94383516979915
 20
-6.718977377303758
 30
0.0
 10
29.90775372287089
 20
-5.814977904626272
 30
0.0
 10
29.87310825205049
 20
-4.834150500847981
 30
0.0
 10
29.836803350031
 20
-3.773502616879381
 30
0.0
 10
29.79849308701839
 20
-2.600052608728788
 30
0.0
 10
29.75876779876331
 20
-1.334535894993262
 30
0.0
 10
29.7201655463381
 20
-0.0331113033282466
 30
0.0
 10
29.68263141637673
 20
1.234429918869923
 30
0.0
 10
29.64453443006845
 20
2.454252647544095
 30
0.0
 10
29.60619677478165
 20
3.635805865106859
 30
0.0
 10
29.56826072229043
 20
4.749050125871046
 30
0.0
 10
29.53208201138852
 20
5.776986191945944
 30
0.0
 10
29.49506604493769
 20
6.708157454662924
 30
0.0
 10
29.45686923944428
 20
7.529899801873374
 30
0.0
 10
29.41854833022117
 20
8.222099366719636
 30
0.0
 10
29.38085032256218
 20
8.771645210535564
 30
0.0
 10
29.34485086530122
 20
9.161787945842107
 30
0.0
 10
29.31428792019885
 20
9.382373779194369
 30
0.0
 10
29.29573155577454
 20
9.411236299960116
 30
0.0
 10
29.28984663421547
 20
9.420389691584635
 30
0.0
  0
SPLINE
  5
150
330
1B
100
AcDbEntity
  8
0
  6
Continuous
 62
     7
370
    25
100
AcDbSpline
210
0.0
220
0.0
230
1.0
 70
     8
 71
     3
 72
    31
 73
    27
 74
     0
 42
0.000000001
 43
0.00000001
 40
0.0
 40
0.0
 40
0.0
 40
0.0
 40
0.0295518708677841
 40
0.0727004505202948
 40
0.1154300669099438
 40
0.1586829700980573
 40
0.2022367387349912
 40
0.2457148994034719
 40
0.2870311230494095
 40
0.3280724162477802
 40
0.3696353060136226
 40
0.4114482305860383
 40
0.4583884090329959
 40
0.5047554055281
 40
0.5476527103738497
 40
0.5910705733550304
 40
0.6346394951429134
 40
0.6779822207321055
 40
0.7207677705226339
 40
0.7637977376264738
 40
0.8072758982949538
 40
0.8508296669318878
 40
0.8940825701200014
 40
0.9368121865096501
 40
0.9799607661621608
 40
1.0
 40
1.0
 40
1.0
 40
1.0
 10
28.35690839382159
 20
-9.438329934568308
 30
0.0
 10
28.34822565934371
 20
-9.426177387971315
 30
0.0
 10
28.32686529569315
 20
-9.39628095209004
 30
0.0
 10
28.29353323169599
 20
-9.163592668862242
 30
0.0
 10
28.25754078763213
 20
-8.771157462487906
 30
0.0
 10
28.21984158545521
 20
-8.22223064142932
 30
0.0
 10
28.18151835178993
 20
-7.529868775729119
 30
0.0
 10
28.14383516979916
 20
-6.718977377303758
 30
0.0
 10
28.10775372287089
 20
-5.814977904626272
 30
0.0
 10
28.07310825205049
 20
-4.834150500847981
 30
0.0
 10
28.036803350031
 20
-3.773502616879381
 30
0.0
 10
27.9984930870184
 20
-2.600052608728788
 30
0.0
 10
27.95876779876332
 20
-1.334535894993262
 30
0.0
 10
27.9201655463381
 20
-0.0331113033282466
 30
0.0
 10
27.88263141637674
 20
1.234429918869923
 30
0.0
 10
27.84453443006846
 20
2.454252647544095
 30
0.0
 10
27.80619677478165
 20
3.635805865106859
 30
0.0
 10
27.76826072229043
 20
4.749050125871046
 30
0.0
 10
27.73208201138852
 20
5.776986191945944
 30
0.0
 10
27.69506604493769
 20
6.708157454662924
 30
0.0
 10
27.65686923944429
 20
7.529899801873374
 30
0.0
 10
27.61854833022117
 20
8.222099366719636
 30
0.0
 10
27.58085032256218
 20
8.771645210535564
 30
0.0
 10
27.54485086530122
 20
9.161787945842107
 30
0.0
 10
27.51428792019885
 20
9.382373779194369
 30
0.0
 10
27.49573155577454
 20
9.411236299960116
 30
0.0
 10
27.48984663421548
 20
9.420389691584635
 30
0.0
  0
SPLINE
  5
151
330
1B
100
AcDbEntity
  8
0
  6
Continuous
 62
     7
370
    25
100
AcDbSpline
210
0.0
220
0.0
230
1.0
 70
     8
 71
     3
 72
    31
 73
    27
 74
     0
 42
0.000000001
 43
0.00000001
 40
0.0
 40
0.0
 40
0.0
 40
0.0
 40
0.0295518708677841
 40
0.0727004505202948
 40
0.1154300669099438
 40
0.1586829700980573
 40
0.2022367387349912
 40
0.2457148994034719
 40
0.2870311230494095
 40
0.3280724162477802
 40
0.3696353060136226
 40
0.4114482305860383
 40
0.4583884090329959
 40
0.5047554055281
 40
0.5476527103738497
 40
0.5910705733550304
 40
0.6346394951429134
 40
0.6779822207321055
 40
0.7207677705226339
 40
0.7637977376264738
 40
0.8072758982949538
 40
0.8508296669318878
 40
0.8940825701200014
 40
0.9368121865096501
 40
0.9799607661621608
 40
1.0
 40
1.0
 40
1.0
 40
1.0
 10
26.5569083938216
 20
-9.438329934568308
 30
0.0
 10
26.54822565934371
 20
-9.426177387971315
 30
0.0
 10
26.52686529569315
 20
-9.39628095209004
 30
0.0
 10
26.49353323169599
 20
-9.163592668862242
 30
0.0
 10
26.45754078763213
 20
-8.771157462487906
 30
0.0
 10
26.41984158545522
 20
-8.22223064142932
 30
0.0
 10
26.38151835178994
 20
-7.529868775729119
 30
0.0
 10
26.34383516979915
 20
-6.718977377303758
 30
0.0
 10
26.30775372287089
 20
-5.814977904626272
 30
0.0
 10
26.27310825205049
 20
-4.834150500847981
 30
0.0
 10
26.23680335003101
 20
-3.773502616879381
 30
0.0
 10
26.19849308701839
 20
-2.600052608728788
 30
0.0
 10
26.15876779876331
 20
-1.334535894993262
 30
0.0
 10
26.1201655463381
 20
-0.0331113033282466
 30
0.0
 10
26.08263141637673
 20
1.234429918869923
 30
0.0
 10
26.04453443006845
 20
2.454252647544095
 30
0.0
 10
26.00619677478166
 20
3.635805865106859
 30
0.0
 10
25.96826072229042
 20
4.749050125871046
 30
0.0
 10
25.93208201138852
 20
5.776986191945944
 30
0.0
 10
25.89506604493769
 20
6.708157454662924
 30
0.0
 10
25.85686923944429
 20
7.529899801873374
 30
0.0
 10
25.81854833022117
 20
8.222099366719636
 30
0.0
 10
25.78085032256217
 20
8.771645210535564
 30
0.0
 10
25.74485086530122
 20
9.161787945842107
 30
0.0
 10
25.71428792019885
 20
9.382373779194369
 30
0.0
 10
25.69573155577453
 20
9.411236299960116
 30
0.0
 10
25.68984663421547
 20
9.420389691584635
 30
0.0
  0
SPLINE
  5
152
330
1B
100
AcDbEntity
  8
0
  6
Continuous
 62
     7
370
    25
100
AcDbSpline
210
0.0
220
0.0
230
1.0
 70
     8
 71
     3
 72
    15
 73
    11
 74
     0
 42
0.000000001
 43
0.00000001
 40
0.0
 40
0.0
 40
0.0
 40
0.0
 40
0.0997313721619755
 40
0.2453487875478798
 40
0.3895522897071866
 40
0.5355217751667924
 40
0.6825066184756946
 40
0.829236300733239
 40
0.9686698985313377
 40
1.0
 40
1.0
 40
1.0
 40
1.0
 10
24.7569083938216
 20
-9.438329934568314
 30
0.0
 10
24.74822565265778
 20
-9.426177473260767
 30
0.0
 10
24.72686527255921
 20
-9.396281247199765
 30
0.0
 10
24.69353337518535
 20
-9.163590838430203
 30
0.0
 10
24.65754025924604
 20
-8.771164202881632
 30
0.0
 10
24.61984358973406
 20
-8.222205073707672
 30
0.0
 10
24.58151082250284
 20
-7.529964823599958
 30
0.0
 10
24.54386261868169
 20
-6.718627223738407
 30
0.0
 10
24.51679452904057
 20
-6.043956525415432
 30
0.0
 10
24.50260361424766
 20
-5.656507469195752
 30
0.0
 10
24.5
 20
-5.585421996712887
 30
0.0
  0
SPLINE
  5
153
330
1B
100
AcDbEntity
  8
0
  6
Continuous
 62
     7
370
    25
100
AcDbSpline
210
0.0
220
0.0
230
1.0
 70
    24
 71
     3
 72
    18
 73
    14
 74
     0
 42
0.000000001
 43
0.00000001
 40
0.0
 40
0.0
 40
0.0
 40
0.0
 40
0.2500000000000003
 40
0.2500000000000003
 40
0.5000000000000007
 40
0.5000000000000007
 40
0.6250000000000006
 40
0.6250000000000006
 40
0.7500000000000004
 40
0.7500000000000004
 40
0.8750000000000002
 40
0.8750000000000002
 40
1.0
 40
1.0
 40
1.0
 40
1.0
 10
35.20000000000001
 20
-2.639106274530327
 30
0.0
 10
35.20000000000001
 20
-3.487862827819686
 30
0.0
 10
35.20000000000001
 20
-4.297050075909265
 30
0.0
 10
35.20000000000001
 20
-5.832259100346291
 30
0.0
 10
35.20000000000002
 20
-6.528158169849561
 30
0.0
 10
35.2
 20
-7.472680098420846
 30
0.0
 10
35.20000000000004
 20
-7.772023065018964
 30
0.0
 10
35.20000000000004
 20
-8.320231077160699
 30
0.0
 10
35.20000000000001
 20
-8.570880132940337
 30
0.0
 10
35.2
 20
-9.026014950815284
 30
0.0
 10
35.20000000000002
 20
-9.23050445568016
 30
0.0
 10
35.20000000000001
 20
-9.591688596943973
 30
0.0
 10
35.20000000000003
 20
-9.745452846079324
 30
0.0
 10
35.20000000000002
 20
-9.873153696316358
 30
0.0
  0
SPLINE
  5
154
330
1B
100
AcDbEntity
  8
0
  6
Continuous
 62
     7
370
    25
100
AcDbSpline
210
0.0
220
0.0
230
1.0
 70
     8
 71
     3
 72
    46
 73
    42
 74
     0
 42
0.000000001
 43
0.00000001
 40
0.0
 40
0.0
 40
0.0
 40
0.0
 40
0.0625000000000001
 40
0.0625000000000001
 40
0.1250000000000002
 40
0.1250000000000002
 40
0.1875000000000002
 40
0.1875000000000002
 40
0.2187500000000001
 40
0.2187500000000001
 40
0.2500000000000001
 40
0.2500000000000001
 40
0.3125000000000001
 40
0.3125000000000001
 40
0.3750000000000002
 40
0.3750000000000002
 40
0.4375000000000002
 40
0.4375000000000002
 40
0.4687500000000002
 40
0.4687500000000002
 40
0.5000000000000001
 40
0.5000000000000001
 40
0.5625000000000001
 40
0.5625000000000001
 40
0.625
 40
0.625
 40
0.6562500000000001
 40
0.6562500000000001
 40
0.6875000000000001
 40
0.6875000000000001
 40
0.7500000000000001
 40
0.7500000000000001
 40
0.8125000000000001
 40
0.8125000000000001
 40
0.875
 40
0.875
 40
0.9062500000000001
 40
0.9062500000000001
 40
0.9375000000000001
 40
0.9375000000000001
 40
1.0
 40
1.0
 40
1.0
 40
1.0
 10
35.20000000000009
 20
-9.873153696316912
 30
0.0
 10
35.18297714460216
 20
-9.728972254126655
 30
0.0
 10
35.16673316023081
 20
-9.534430744046952
 30
0.0
 10
35.13236368745905
 20
-9.036861732033138
 30
0.0
 10
35.11467804166224
 20
-8.734547543432013
 30
0.0
 10
35.07916269094778
 20
-8.034560109919298
 30
0.0
 10
35.06133786776503
 20
-7.636975357398267
 30
0.0
 10
35.03516007163459
 20
-6.985115145269846
 30
0.0
 10
35.02652707859158
 20
-6.758647458490373
 30
0.0
 10
35.0095476334897
 20
-6.290614273728467
 30
0.0
 10
35.00130853660325
 20
-6.050123909083949
 30
0.0
 10
34.97634180672409
 20
-5.303149904868659
 30
0.0
 10
34.95901950678564
 20
-4.767208320311394
 30
0.0
 10
34.92381939009249
 20
-3.642244341231381
 30
0.0
 10
34.90594615855412
 20
-3.053356825348948
 30
0.0
 10
34.87054142108833
 20
-1.851830575161727
 30
0.0
 10
34.8530146919945
 20
-1.239361292824637
 30
0.0
 10
34.82761233725677
 20
-0.3260581995307253
 30
0.0
 10
34.81940966976303
 20
-0.0239337456569224
 30
0.0
 10
34.80271407814745
 20
0.5830292924793898
 30
0.0
 10
34.79420151802749
 20
0.8881081674955674
 30
0.0
 10
34.76831336272573
 20
1.802552103367319
 30
0.0
 10
34.75058501901145
 20
2.41109169240899
 30
0.0
 10
34.71505381103823
 20
3.595313500693644
 30
0.0
 10
34.69725584362862
 20
4.170831036567701
 30
0.0
 10
34.67116724617402
 20
4.988525722614746
 30
0.0
 10
34.66257204842382
 20
5.253534144079732
 30
0.0
 10
34.64568280842652
 20
5.765635437040141
 30
0.0
 10
34.63750443182067
 20
6.011664846944782
 30
0.0
 10
34.61238598549738
 20
6.730355934582722
 30
0.0
 10
34.59499060540355
 20
7.181790312441829
 30
0.0
 10
34.55971193899382
 20
8.003530525330131
 30
0.0
 10
34.54183331107895
 20
8.373701065089106
 30
0.0
 10
34.50648641536085
 20
9.014062752162433
 30
0.0
 10
34.48902286990506
 20
9.284191363983304
 30
0.0
 10
34.4637591704922
 20
9.608019799976784
 30
0.0
 10
34.4555929407184
 20
9.70223975206988
 30
0.0
 10
34.43879834784697
 20
9.866170792884233
 30
0.0
 10
34.43024330716084
 20
9.935462203652312
 30
0.0
 10
34.40425128768308
 20
10.10281445042022
 30
0.0
 10
34.38648549089272
 20
10.16
 30
0.0
 10
34.36871724315566
 20
10.16
 30
0.0
  0
SPLINE
  5
155
330
1B
100
AcDbEntity
  8
0
  6
Continuous
 62
     7
370
    25
100
AcDbSpline
210
0.0
220
0.0
230
1.0
 70
     8
 71
     3
 72
    32
 73
    28
 74
     0
 42
0.000000001
 43
0.00000001
 40
0.0
 40
0.0
 40
0.0
 40
0.0
 40
0.0376341458980637
 40
0.0742509435692364
 40
0.1106079538654488
 40
0.1520974623077695
 40
0.1940317037425583
 40
0.2363066430069926
 40
0.2785227271287157
 40
0.3184382907403502
 40
0.3581271813570057
 40
0.398332795960251
 40
0.4387481827499247
 40
0.4790234791699877
 40
0.5188160117083815
 40
0.5586085442467745
 40
0.5988838406668375
 40
0.6392992274565112
 40
0.6795048420597564
 40
0.7191937326764118
 40
0.759109296288047
 40
0.7994405122153447
 40
0.8398418461518667
 40
0.8799641600224899
 40
0.9196011778236542
 40
0.9596267424880149
 40
1.0
 40
1.0
 40
1.0
 40
1.0
 10
33.50439457580222
 20
-10.07786519832391
 30
0.0
 10
33.49250978027653
 20
-10.11657242496303
 30
0.0
 10
33.46906146596377
 20
-10.19294052186864
 30
0.0
 10
33.4339986178473
 20
-10.10962550298853
 30
0.0
 10
33.39817896566828
 20
-9.88691975911829
 30
0.0
 10
33.36221119938254
 20
-9.486315106444406
 30
0.0
 10
33.32293218139677
 20
-8.890579418424506
 30
0.0
 10
33.28283478521134
 20
-8.123202747422093
 30
0.0
 10
33.24342849569154
 20
-7.216698394743387
 30
0.0
 10
33.2058298844775
 20
-6.20138500609909
 30
0.0
 10
33.16965145445064
 20
-5.097941343778554
 30
0.0
 10
33.13171555467031
 20
-3.902910565412367
 30
0.0
 10
33.09337687238873
 20
-2.634550599838898
 30
0.0
 10
33.05528357608322
 20
-1.325125087476394
 30
0.0
 10
33.01871724344979
 20
0.0000000003870963
 30
0.0
 10
32.98215090904442
 20
1.325125085918147
 30
0.0
 10
32.94405761812562
 20
2.63455060537123
 30
0.0
 10
32.90571891601018
 20
3.902910544837142
 30
0.0
 10
32.86778308951591
 20
5.097941419670663
 30
0.0
 10
32.83160438919725
 20
6.201384726203107
 30
0.0
 10
32.79458853759495
 20
7.200990015373328
 30
0.0
 10
32.75639139380165
 20
8.083004078344535
 30
0.0
 10
32.71807152793135
 20
8.826424973497936
 30
0.0
 10
32.68036949612816
 20
9.414982966576957
 30
0.0
 10
32.64438489350406
 20
9.838812512692936
 30
0.0
 10
32.60698991725208
 20
10.10916076266747
 30
0.0
 10
32.58151152914424
 20
10.14300480023334
 30
0.0
 10
32.56871724315566
 20
10.16
 30
0.0
  0
SPLINE
  5
156
330
1B
100
AcDbEntity
  8
0
  6
Continuous
 62
     7
370
    25
100
AcDbSpline
210
0.0
220
0.0
230
1.0
 70
     8
 71
     3
 72
    32
 73
    28
 74
     0
 42
0.000000001
 43
0.00000001
 40
0.0
 40
0.0
 40
0.0
 40
0.0
 40
0.0376341458980633
 40
0.074250943569236
 40
0.1106079538654484
 40
0.1520974623077692
 40
0.1940317037425579
 40
0.2363066430069923
 40
0.2785227271287155
 40
0.31843829074035
 40
0.3581271813570055
 40
0.3983327959602507
 40
0.4387481827499244
 40
0.4790234791699875
 40
0.5188160117083813
 40
0.5586085442467744
 40
0.5988838406668374
 40
0.6392992274565111
 40
0.6795048420597563
 40
0.7191937326764117
 40
0.7591092962880469
 40
0.7994405122153447
 40
0.8398418461518667
 40
0.8799641600224899
 40
0.9196011778236544
 40
0.959626742488015
 40
1.0
 40
1.0
 40
1.0
 40
1.0
 10
31.70439457580222
 20
-10.07786519832391
 30
0.0
 10
31.69250978027652
 20
-10.11657242496303
 30
0.0
 10
31.66906146596376
 20
-10.19294052186864
 30
0.0
 10
31.6339986178473
 20
-10.10962550298853
 30
0.0
 10
31.59817896566829
 20
-9.886919759118289
 30
0.0
 10
31.56221119938254
 20
-9.48631510644441
 30
0.0
 10
31.52293218139678
 20
-8.89057941842451
 30
0.0
 10
31.48283478521136
 20
-8.123202747422093
 30
0.0
 10
31.44342849569152
 20
-7.216698394743384
 30
0.0
 10
31.40582988447753
 20
-6.201385006099094
 30
0.0
 10
31.36965145445064
 20
-5.097941343778553
 30
0.0
 10
31.33171555467032
 20
-3.902910565412367
 30
0.0
 10
31.29337687238874
 20
-2.634550599838898
 30
0.0
 10
31.25528357608322
 20
-1.325125087476394
 30
0.0
 10
31.2187172434498
 20
0.0000000003870988
 30
0.0
 10
31.18215090904443
 20
1.325125085918145
 30
0.0
 10
31.14405761812563
 20
2.634550605371231
 30
0.0
 10
31.10571891601018
 20
3.902910544837142
 30
0.0
 10
31.06778308951592
 20
5.097941419670663
 30
0.0
 10
31.03160438919726
 20
6.201384726203105
 30
0.0
 10
30.99458853759497
 20
7.200990015373333
 30
0.0
 10
30.95639139380165
 20
8.083004078344535
 30
0.0
 10
30.91807152793135
 20
8.826424973497934
 30
0.0
 10
30.88036949612817
 20
9.414982966576963
 30
0.0
 10
30.84438489350405
 20
9.838812512692932
 30
0.0
 10
30.8069899172521
 20
10.10916076266747
 30
0.0
 10
30.78151152914424
 20
10.14300480023334
 30
0.0
 10
30.76871724315566
 20
10.16
 30
0.0
  0
SPLINE
  5
157
330
1B
100
AcDbEntity
  8
0
  6
Continuous
 62
     7
370
    25
100
AcDbSpline
210
0.0
220
0.0
230
1.0
 70
     8
 71
     3
 72
    32
 73
    28
 74
     0
 42
0.000000001
 43
0.00000001
 40
0.0
 40
0.0
 40
0.0
 40
0.0
 40
0.0376341458980634
 40
0.0742509435692362
 40
0.1106079538654485
 40
0.1520974623077693
 40
0.194031703742558
 40
0.2363066430069924
 40
0.2785227271287156
 40
0.3184382907403501
 40
0.3581271813570056
 40
0.3983327959602508
 40
0.4387481827499246
 40
0.4790234791699876
 40
0.5188160117083814
 40
0.5586085442467745
 40
0.5988838406668375
 40
0.6392992274565112
 40
0.6795048420597564
 40
0.7191937326764118
 40
0.759109296288047
 40
0.7994405122153448
 40
0.8398418461518669
 40
0.87996416002249
 40
0.9196011778236544
 40
0.959626742488015
 40
1.0
 40
1.0
 40
1.0
 40
1.0
 10
29.90439457580222
 20
-10.07786519832391
 30
0.0
 10
29.89250978027654
 20
-10.11657242496303
 30
0.0
 10
29.86906146596377
 20
-10.19294052186864
 30
0.0
 10
29.83399861784729
 20
-10.10962550298853
 30
0.0
 10
29.79817896566828
 20
-9.886919759118289
 30
0.0
 10
29.76221119938254
 20
-9.48631510644441
 30
0.0
 10
29.72293218139678
 20
-8.89057941842451
 30
0.0
 10
29.68283478521135
 20
-8.123202747422093
 30
0.0
 10
29.64342849569153
 20
-7.216698394743384
 30
0.0
 10
29.60582988447752
 20
-6.201385006099094
 30
0.0
 10
29.56965145445064
 20
-5.097941343778553
 30
0.0
 10
29.53171555467031
 20
-3.902910565412367
 30
0.0
 10
29.49337687238874
 20
-2.634550599838898
 30
0.0
 10
29.45528357608321
 20
-1.325125087476394
 30
0.0
 10
29.4187172434498
 20
0.0000000003870988
 30
0.0
 10
29.38215090904443
 20
1.325125085918145
 30
0.0
 10
29.34405761812563
 20
2.634550605371231
 30
0.0
 10
29.30571891601017
 20
3.902910544837142
 30
0.0
 10
29.26778308951592
 20
5.097941419670663
 30
0.0
 10
29.23160438919725
 20
6.201384726203105
 30
0.0
 10
29.19458853759497
 20
7.200990015373333
 30
0.0
 10
29.15639139380164
 20
8.083004078344535
 30
0.0
 10
29.11807152793136
 20
8.826424973497936
 30
0.0
 10
29.08036949612816
 20
9.414982966576957
 30
0.0
 10
29.04438489350406
 20
9.838812512692936
 30
0.0
 10
29.0069899172521
 20
10.10916076266747
 30
0.0
 10
28.98151152914423
 20
10.14300480023334
 30
0.0
 10
28.96871724315566
 20
10.16
 30
0.0
  0
SPLINE
  5
158
330
1B
100
AcDbEntity
  8
0
  6
Continuous
 62
     7
370
    25
100
AcDbSpline
210
0.0
220
0.0
230
1.0
 70
     8
 71
     3
 72
    32
 73
    28
 74
     0
 42
0.000000001
 43
0.00000001
 40
0.0
 40
0.0
 40
0.0
 40
0.0
 40
0.0376341458980634
 40
0.0742509435692362
 40
0.1106079538654485
 40
0.1520974623077693
 40
0.194031703742558
 40
0.2363066430069924
 40
0.2785227271287156
 40
0.3184382907403501
 40
0.3581271813570056
 40
0.3983327959602508
 40
0.4387481827499246
 40
0.4790234791699876
 40
0.5188160117083814
 40
0.5586085442467745
 40
0.5988838406668375
 40
0.6392992274565112
 40
0.6795048420597564
 40
0.7191937326764118
 40
0.759109296288047
 40
0.7994405122153448
 40
0.8398418461518669
 40
0.87996416002249
 40
0.9196011778236544
 40
0.959626742488015
 40
1.0
 40
1.0
 40
1.0
 40
1.0
 10
28.10439457580222
 20
-10.07786519832391
 30
0.0
 10
28.09250978027653
 20
-10.11657242496303
 30
0.0
 10
28.06906146596377
 20
-10.19294052186864
 30
0.0
 10
28.03399861784729
 20
-10.10962550298853
 30
0.0
 10
27.99817896566829
 20
-9.886919759118289
 30
0.0
 10
27.96221119938254
 20
-9.486315106444408
 30
0.0
 10
27.92293218139679
 20
-8.89057941842451
 30
0.0
 10
27.88283478521135
 20
-8.123202747422093
 30
0.0
 10
27.84342849569153
 20
-7.216698394743384
 30
0.0
 10
27.80582988447753
 20
-6.201385006099094
 30
0.0
 10
27.76965145445064
 20
-5.097941343778553
 30
0.0
 10
27.73171555467031
 20
-3.902910565412367
 30
0.0
 10
27.69337687238874
 20
-2.634550599838898
 30
0.0
 10
27.65528357608321
 20
-1.325125087476394
 30
0.0
 10
27.6187172434498
 20
0.0000000003870988
 30
0.0
 10
27.58215090904443
 20
1.325125085918145
 30
0.0
 10
27.54405761812562
 20
2.634550605371231
 30
0.0
 10
27.50571891601017
 20
3.902910544837142
 30
0.0
 10
27.46778308951592
 20
5.097941419670663
 30
0.0
 10
27.43160438919725
 20
6.201384726203105
 30
0.0
 10
27.39458853759497
 20
7.200990015373333
 30
0.0
 10
27.35639139380165
 20
8.083004078344535
 30
0.0
 10
27.31807152793136
 20
8.826424973497936
 30
0.0
 10
27.28036949612817
 20
9.414982966576957
 30
0.0
 10
27.24438489350406
 20
9.838812512692936
 30
0.0
 10
27.2069899172521
 20
10.10916076266747
 30
0.0
 10
27.18151152914423
 20
10.14300480023334
 30
0.0
 10
27.16871724315567
 20
10.16
 30
0.0
  0
SPLINE
  5
159
330
1B
100
AcDbEntity
  8
0
  6
Continuous
 62
     7
370
    25
100
AcDbSpline
210
0.0
220
0.0
230
1.0
 70
     8
 71
     3
 72
    32
 73
    28
 74
     0
 42
0.000000001
 43
0.00000001
 40
0.0
 40
0.0
 40
0.0
 40
0.0
 40
0.0376341458980633
 40
0.074250943569236
 40
0.1106079538654484
 40
0.1520974623077691
 40
0.1940317037425579
 40
0.2363066430069923
 40
0.2785227271287154
 40
0.31843829074035
 40
0.3581271813570054
 40
0.3983327959602507
 40
0.4387481827499244
 40
0.4790234791699874
 40
0.5188160117083813
 40
0.5586085442467744
 40
0.5988838406668374
 40
0.6392992274565111
 40
0.6795048420597563
 40
0.7191937326764117
 40
0.7591092962880469
 40
0.7994405122153447
 40
0.8398418461518667
 40
0.8799641600224899
 40
0.9196011778236544
 40
0.9596267424880149
 40
1.0
 40
1.0
 40
1.0
 40
1.0
 10
26.30439457580222
 20
-10.07786519832391
 30
0.0
 10
26.29250978027653
 20
-10.11657242496303
 30
0.0
 10
26.26906146596377
 20
-10.19294052186864
 30
0.0
 10
26.23399861784731
 20
-10.10962550298853
 30
0.0
 10
26.19817896566828
 20
-9.886919759118289
 30
0.0
 10
26.16221119938255
 20
-9.48631510644441
 30
0.0
 10
26.12293218139677
 20
-8.890579418424506
 30
0.0
 10
26.08283478521135
 20
-8.123202747422093
 30
0.0
 10
26.04342849569152
 20
-7.216698394743383
 30
0.0
 10
26.00582988447753
 20
-6.201385006099094
 30
0.0
 10
25.96965145445064
 20
-5.097941343778554
 30
0.0
 10
25.93171555467031
 20
-3.902910565412364
 30
0.0
 10
25.89337687238873
 20
-2.634550599838901
 30
0.0
 10
25.85528357608321
 20
-1.32512508747639
 30
0.0
 10
25.8187172434498
 20
0.0000000003870973
 30
0.0
 10
25.78215090904442
 20
1.325125085918144
 30
0.0
 10
25.74405761812562
 20
2.634550605371231
 30
0.0
 10
25.70571891601017
 20
3.902910544837142
 30
0.0
 10
25.66778308951592
 20
5.097941419670663
 30
0.0
 10
25.63160438919725
 20
6.201384726203105
 30
0.0
 10
25.59458853759496
 20
7.200990015373333
 30
0.0
 10
25.55639139380165
 20
8.083004078344535
 30
0.0
 10
25.51807152793135
 20
8.826424973497934
 30
0.0
 10
25.48036949612817
 20
9.414982966576964
 30
0.0
 10
25.44438489350405
 20
9.83881251269293
 30
0.0
 10
25.40698991725209
 20
10.10916076266747
 30
0.0
 10
25.38151152914423
 20
10.14300480023333
 30
0.0
 10
25.36871724315566
 20
10.16
 30
0.0
  0
SPLINE
  5
15B
330
1B
100
AcDbEntity
  8
0
  6
Continuous
 62
     7
370
    25
100
AcDbSpline
210
0.0
220
0.0
230
1.0
 70
    24
 71
     3
 72
    18
 73
    14
 74
     0
 42
0.000000001
 43
0.00000001
 40
0.0
 40
0.0
 40
0.0
 40
0.0
 40
0.2500000000000001
 40
0.2500000000000001
 40
0.4999999999999999
 40
0.4999999999999999
 40
0.6249999999999999
 40
0.6249999999999999
 40
0.7499999999999999
 40
0.7499999999999999
 40
0.875
 40
0.875
 40
1.0
 40
1.0
 40
1.0
 40
1.0
 10
24.5
 20
-5.585421996712887
 30
0.0
 10
24.5
 20
-6.316913384896978
 30
0.0
 10
24.5
 20
-6.974819846127033
 30
0.0
 10
24.50000000000001
 20
-8.141046869847266
 30
0.0
 10
24.49999999999999
 20
-8.626800176327789
 30
0.0
 10
24.5
 20
-9.213351495274253
 30
0.0
 10
24.5
 20
-9.38510010486833
 30
0.0
 10
24.5
 20
-9.67247038333639
 30
0.0
 10
24.50000000000001
 20
-9.789504285587048
 30
0.0
 10
24.5
 20
-9.970979729539136
 30
0.0
 10
24.5
 20
-10.03542605863943
 30
0.0
 10
24.5
 20
-10.10983812780282
 30
0.0
 10
24.50000000000002
 20
-10.11904673502764
 30
0.0
 10
24.50000000000001
 20
-10.10122244472958
 30
0.0
  0
SPLINE
  5
15C
330
1B
100
AcDbEntity
  8
0
  6
Continuous
 62
     7
370
    25
100
AcDbSpline
210
0.0
220
0.0
230
1.0
 70
     8
 71
     3
 72
     9
 73
     5
 74
     0
 42
0.000000001
 43
0.00000001
 40
0.0
 40
0.0
 40
0.0
 40
0.0
 40
0.5454839719062801
 40
0.9999999999999999
 40
0.9999999999999999
 40
0.9999999999999999
 40
0.9999999999999999
 10
35.2
 20
10.14846777753367
 30
0.0
 10
35.19537338279432
 20
10.15625835223585
 30
0.0
 10
35.18689170882411
 20
10.17054030203348
 30
0.0
 10
35.17843401299015
 20
10.14503266461069
 30
0.0
 10
35.17458985467286
 20
10.13343903456323
 30
0.0
  0
SPLINE
  5
15D
330
1B
100
AcDbEntity
  8
0
  6
Continuous
 62
     7
370
    25
100
AcDbSpline
210
0.0
220
0.0
230
1.0
 70
     8
 71
     3
 72
    33
 73
    29
 74
     0
 42
0.000000001
 43
0.00000001
 40
0.0
 40
0.0
 40
0.0
 40
0.0
 40
0.041426896943222
 40
0.0824970271389968
 40
0.1231684703857567
 40
0.164337874696234
 40
0.2057935807873312
 40
0.2471773389673361
 40
0.2881345973624249
 40
0.3288592671733495
 40
0.3701141461539006
 40
0.4115842718419078
 40
0.4529106511576317
 40
0.4937416676810944
 40
0.5345726842045564
 40
0.5758990635202803
 40
0.6173691892082873
 40
0.6586240681888385
 40
0.6993487379997632
 40
0.7403059963948527
 40
0.7791968474087893
 40
0.8181704123286243
 40
0.856928651893711
 40
0.8952042139534944
 40
0.9336606911721862
 40
0.9725249736633695
 40
0.9875121601577044
 40
1.0
 40
1.0
 40
1.0
 40
1.0
 10
34.28612728314366
 20
-10.16
 30
0.0
 10
34.27333299715508
 20
-10.14300480023334
 30
0.0
 10
34.24785460904722
 20
-10.1091607626675
 30
0.0
 10
34.21045963279526
 20
-9.838812512692963
 30
0.0
 10
34.17447503017115
 20
-9.414982966577094
 30
0.0
 10
34.13677299836797
 20
-8.82642497349774
 30
0.0
 10
34.09845313249765
 20
-8.0830040783457
 30
0.0
 10
34.0602559887045
 20
-7.200990015369472
 30
0.0
 10
34.02324013710155
 20
-6.201384726217839
 30
0.0
 10
33.9870614367853
 20
-5.097941419616314
 30
0.0
 10
33.94912561028197
 20
-3.902910545044097
 30
0.0
 10
33.91078690820066
 20
-2.634550604596554
 30
0.0
 10
33.87269361715517
 20
-1.325125088783693
 30
0.0
 10
33.83612728321674
 20
0.0000000101650147
 30
0.0
 10
33.79956094883801
 20
1.325125047876531
 30
0.0
 10
33.761467659131
 20
2.634550749849195
 30
0.0
 10
33.72312895212146
 20
3.902910004855308
 30
0.0
 10
33.68519314382794
 20
5.097943412130606
 30
0.0
 10
33.64901437635076
 20
6.201377377687118
 30
0.0
 10
33.6127485916186
 20
7.180768313471727
 30
0.0
 10
33.57611354357842
 20
8.030803968133988
 30
0.0
 10
33.54007763067034
 20
8.74225181316517
 30
0.0
 10
33.50448672322785
 20
9.317357645385542
 30
0.0
 10
33.47046803196339
 20
9.749389551710879
 30
0.0
 10
33.43580016551733
 20
10.03933573494603
 30
0.0
 10
33.40737724254051
 20
10.14063400308424
 30
0.0
 10
33.38689095346118
 20
10.16998853614729
 30
0.0
 10
33.37843377694973
 20
10.1448602454457
 30
0.0
 10
33.37458985467286
 20
10.13343903456323
 30
0.0
  0
SPLINE
  5
15E
330
1B
100
AcDbEntity
  8
0
  6
Continuous
 62
     7
370
    25
100
AcDbSpline
210
0.0
220
0.0
230
1.0
 70
     8
 71
     3
 72
    33
 73
    29
 74
     0
 42
0.000000001
 43
0.00000001
 40
0.0
 40
0.0
 40
0.0
 40
0.0
 40
0.041426896943222
 40
0.0824970271389968
 40
0.1231684703857567
 40
0.164337874696234
 40
0.2057935807873312
 40
0.2471773389673361
 40
0.2881345973624249
 40
0.3288592671733495
 40
0.3701141461539006
 40
0.4115842718419078
 40
0.4529106511576317
 40
0.4937416676810944
 40
0.5345726842045564
 40
0.5758990635202803
 40
0.6173691892082873
 40
0.6586240681888385
 40
0.6993487379997632
 40
0.7403059963948527
 40
0.7791968474087893
 40
0.8181704123286243
 40
0.856928651893711
 40
0.8952042139534944
 40
0.9336606911721862
 40
0.9725249736633695
 40
0.9875121601577044
 40
1.0
 40
1.0
 40
1.0
 40
1.0
 10
32.48612728314365
 20
-10.16
 30
0.0
 10
32.47333299715508
 20
-10.14300480023334
 30
0.0
 10
32.44785460904722
 20
-10.1091607626675
 30
0.0
 10
32.41045963279527
 20
-9.838812512692963
 30
0.0
 10
32.37447503017115
 20
-9.414982966577094
 30
0.0
 10
32.33677299836797
 20
-8.82642497349774
 30
0.0
 10
32.29845313249764
 20
-8.0830040783457
 30
0.0
 10
32.26025598870449
 20
-7.200990015369472
 30
0.0
 10
32.22324013710156
 20
-6.201384726217839
 30
0.0
 10
32.18706143678529
 20
-5.097941419616314
 30
0.0
 10
32.14912561028196
 20
-3.902910545044097
 30
0.0
 10
32.11078690820067
 20
-2.634550604596554
 30
0.0
 10
32.07269361715517
 20
-1.325125088783693
 30
0.0
 10
32.03612728321674
 20
0.0000000101650147
 30
0.0
 10
31.99956094883801
 20
1.325125047876531
 30
0.0
 10
31.961467659131
 20
2.634550749849195
 30
0.0
 10
31.92312895212147
 20
3.902910004855308
 30
0.0
 10
31.88519314382793
 20
5.097943412130606
 30
0.0
 10
31.84901437635075
 20
6.201377377687118
 30
0.0
 10
31.8127485916186
 20
7.180768313471727
 30
0.0
 10
31.77611354357841
 20
8.030803968133988
 30
0.0
 10
31.74007763067033
 20
8.74225181316517
 30
0.0
 10
31.70448672322785
 20
9.317357645385542
 30
0.0
 10
31.67046803196338
 20
9.749389551710879
 30
0.0
 10
31.63580016551732
 20
10.03933573494603
 30
0.0
 10
31.60737724254052
 20
10.14063400308424
 30
0.0
 10
31.58689095346118
 20
10.16998853614729
 30
0.0
 10
31.57843377694974
 20
10.1448602454457
 30
0.0
 10
31.57458985467287
 20
10.13343903456323
 30
0.0
  0
SPLINE
  5
15F
330
1B
100
AcDbEntity
  8
0
  6
Continuous
 62
     7
370
    25
100
AcDbSpline
210
0.0
220
0.0
230
1.0
 70
     8
 71
     3
 72
    33
 73
    29
 74
     0
 42
0.000000001
 43
0.00000001
 40
0.0
 40
0.0
 40
0.0
 40
0.0
 40
0.0293050134150303
 40
0.0708945065400728
 40
0.1120802710174082
 40
0.1537702936535877
 40
0.1957502385734323
 40
0.2376573257463091
 40
0.2791325197211842
 40
0.3203721838529362
 40
0.3621487620511861
 40
0.4041433089146742
 40
0.4459922916240355
 40
0.4873396473031211
 40
0.528687002982206
 40
0.5705359856915673
 40
0.6125305325550553
 40
0.6543071107533052
 40
0.6955467748850572
 40
0.7370219688599331
 40
0.7764046241658947
 40
0.8158710393577958
 40
0.8551194062426117
 40
0.8938789917991792
 40
0.9328217803239811
 40
0.9721775311280793
 40
0.9873542419565731
 40
1.0
 40
1.0
 40
1.0
 40
1.0
 10
30.67458985467285
 20
-10.13343903456323
 30
0.0
 10
30.66565652507666
 20
-10.12013041777978
 30
0.0
 10
30.64404506957199
 20
-10.08793429467173
 30
0.0
 10
30.61046512117347
 20
-9.836940258812053
 30
0.0
 10
30.57447354598077
 20
-9.415489269368845
 30
0.0
 10
30.53677340122696
 20
-8.826287545960355
 30
0.0
 10
30.4984530244064
 20
-8.08304095157876
 30
0.0
 10
30.46025601731887
 20
-7.200980254134337
 30
0.0
 10
30.42324012951959
 20
-6.201387312658968
 30
0.0
 10
30.38706143884105
 20
-5.097940718333886
 30
0.0
 10
30.34912560972483
 20
-3.902910735102982
 30
0.0
 10
30.31078690834975
 20
-2.634550553734956
 30
0.0
 10
30.27269361711583
 20
-1.325125102210118
 30
0.0
 10
30.23612728322723
 20
0.0000000137427986
 30
0.0
 10
30.19956094883517
 20
1.325125046905006
 30
0.0
 10
30.16146765913177
 20
2.634550750111909
 30
0.0
 10
30.12312895212127
 20
3.902910004785185
 30
0.0
 10
30.08519314382799
 20
5.097943412149087
 30
0.0
 10
30.04901437635073
 20
6.201377377682152
 30
0.0
 10
30.01274859161861
 20
7.180768313472985
 30
0.0
 10
29.97611354357842
 20
8.030803968133657
 30
0.0
 10
29.94007763067035
 20
8.742251813165261
 30
0.0
 10
29.90448672322784
 20
9.317357645385517
 30
0.0
 10
29.87046803196338
 20
9.749389551710882
 30
0.0
 10
29.83580016551734
 20
10.03933573494603
 30
0.0
 10
29.80737724254053
 20
10.14063400308424
 30
0.0
 10
29.78689095346118
 20
10.1699885361473
 30
0.0
 10
29.77843377694974
 20
10.1448602454457
 30
0.0
 10
29.77458985467286
 20
10.13343903456323
 30
0.0
  0
SPLINE
  5
160
330
1B
100
AcDbEntity
  8
0
  6
Continuous
 62
     7
370
    25
100
AcDbSpline
210
0.0
220
0.0
230
1.0
 70
     8
 71
     3
 72
    33
 73
    29
 74
     0
 42
0.000000001
 43
0.00000001
 40
0.0
 40
0.0
 40
0.0
 40
0.0
 40
0.0293050134150303
 40
0.0708945065400728
 40
0.1120802710174082
 40
0.1537702936535877
 40
0.1957502385734323
 40
0.2376573257463091
 40
0.2791325197211842
 40
0.3203721838529362
 40
0.3621487620511861
 40
0.4041433089146742
 40
0.4459922916240355
 40
0.4873396473031211
 40
0.528687002982206
 40
0.5705359856915673
 40
0.6125305325550553
 40
0.6543071107533052
 40
0.6955467748850572
 40
0.7370219688599331
 40
0.7764046241658947
 40
0.8158710393577958
 40
0.8551194062426117
 40
0.8938789917991792
 40
0.9328217803239811
 40
0.9721775311280793
 40
0.9873542419565731
 40
1.0
 40
1.0
 40
1.0
 40
1.0
 10
28.87458985467284
 20
-10.13343903456323
 30
0.0
 10
28.86565652507666
 20
-10.12013041777978
 30
0.0
 10
28.844045069572
 20
-10.08793429467173
 30
0.0
 10
28.81046512117347
 20
-9.836940258812053
 30
0.0
 10
28.77447354598076
 20
-9.415489269368845
 30
0.0
 10
28.73677340122696
 20
-8.826287545960355
 30
0.0
 10
28.69845302440639
 20
-8.08304095157876
 30
0.0
 10
28.66025601731887
 20
-7.200980254134337
 30
0.0
 10
28.62324012951958
 20
-6.201387312658968
 30
0.0
 10
28.58706143884105
 20
-5.097940718333886
 30
0.0
 10
28.54912560972483
 20
-3.902910735102982
 30
0.0
 10
28.51078690834974
 20
-2.634550553734956
 30
0.0
 10
28.47269361711582
 20
-1.325125102210118
 30
0.0
 10
28.43612728322723
 20
0.0000000137427986
 30
0.0
 10
28.39956094883516
 20
1.325125046905006
 30
0.0
 10
28.36146765913177
 20
2.634550750111909
 30
0.0
 10
28.32312895212126
 20
3.902910004785185
 30
0.0
 10
28.28519314382799
 20
5.097943412149087
 30
0.0
 10
28.24901437635074
 20
6.201377377682152
 30
0.0
 10
28.2127485916186
 20
7.180768313472985
 30
0.0
 10
28.17611354357841
 20
8.030803968133657
 30
0.0
 10
28.14007763067034
 20
8.742251813165261
 30
0.0
 10
28.10448672322784
 20
9.317357645385517
 30
0.0
 10
28.07046803196338
 20
9.749389551710882
 30
0.0
 10
28.03580016551734
 20
10.03933573494603
 30
0.0
 10
28.00737724254053
 20
10.14063400308424
 30
0.0
 10
27.98689095346118
 20
10.1699885361473
 30
0.0
 10
27.97843377694974
 20
10.1448602454457
 30
0.0
 10
27.97458985467286
 20
10.13343903456323
 30
0.0
  0
SPLINE
  5
161
330
1B
100
AcDbEntity
  8
0
  6
Continuous
 62
     7
370
    25
100
AcDbSpline
210
0.0
220
0.0
230
1.0
 70
     8
 71
     3
 72
    33
 73
    29
 74
     0
 42
0.000000001
 43
0.00000001
 40
0.0
 40
0.0
 40
0.0
 40
0.0
 40
0.0293050134150303
 40
0.0708945065400728
 40
0.1120802710174082
 40
0.1537702936535877
 40
0.1957502385734323
 40
0.2376573257463091
 40
0.2791325197211842
 40
0.3203721838529362
 40
0.3621487620511861
 40
0.4041433089146742
 40
0.4459922916240355
 40
0.4873396473031211
 40
0.528687002982206
 40
0.5705359856915673
 40
0.6125305325550553
 40
0.6543071107533052
 40
0.6955467748850572
 40
0.7370219688599331
 40
0.7764046241658947
 40
0.8158710393577958
 40
0.8551194062426117
 40
0.8938789917991792
 40
0.9328217803239811
 40
0.9721775311280793
 40
0.9873542419565731
 40
1.0
 40
1.0
 40
1.0
 40
1.0
 10
27.07458985467285
 20
-10.13343903456323
 30
0.0
 10
27.06565652507665
 20
-10.12013041777978
 30
0.0
 10
27.044045069572
 20
-10.08793429467173
 30
0.0
 10
27.01046512117347
 20
-9.836940258812053
 30
0.0
 10
26.97447354598077
 20
-9.415489269368845
 30
0.0
 10
26.93677340122695
 20
-8.826287545960355
 30
0.0
 10
26.8984530244064
 20
-8.08304095157876
 30
0.0
 10
26.86025601731887
 20
-7.200980254134337
 30
0.0
 10
26.82324012951958
 20
-6.201387312658968
 30
0.0
 10
26.78706143884105
 20
-5.097940718333886
 30
0.0
 10
26.74912560972483
 20
-3.902910735102982
 30
0.0
 10
26.71078690834975
 20
-2.634550553734956
 30
0.0
 10
26.67269361711583
 20
-1.325125102210118
 30
0.0
 10
26.63612728322723
 20
0.0000000137427986
 30
0.0
 10
26.59956094883518
 20
1.325125046905006
 30
0.0
 10
26.56146765913177
 20
2.634550750111909
 30
0.0
 10
26.52312895212127
 20
3.902910004785185
 30
0.0
 10
26.48519314382799
 20
5.097943412149087
 30
0.0
 10
26.44901437635074
 20
6.201377377682152
 30
0.0
 10
26.41274859161861
 20
7.180768313472985
 30
0.0
 10
26.37611354357842
 20
8.030803968133657
 30
0.0
 10
26.34007763067034
 20
8.742251813165261
 30
0.0
 10
26.30448672322785
 20
9.317357645385517
 30
0.0
 10
26.27046803196339
 20
9.749389551710882
 30
0.0
 10
26.23580016551734
 20
10.03933573494603
 30
0.0
 10
26.20737724254052
 20
10.14063400308424
 30
0.0
 10
26.18689095346118
 20
10.1699885361473
 30
0.0
 10
26.17843377694973
 20
10.1448602454457
 30
0.0
 10
26.17458985467286
 20
10.13343903456323
 30
0.0
  0
SPLINE
  5
162
330
1B
100
AcDbEntity
  8
0
  6
Continuous
 62
     7
370
    25
100
AcDbSpline
210
0.0
220
0.0
230
1.0
 70
     8
 71
     3
 72
    19
 73
    15
 74
     0
 42
0.000000001
 43
0.00000001
 40
0.0
 40
0.0
 40
0.0
 40
0.0
 40
0.0601326273723105
 40
0.1454724788602689
 40
0.2299838965240117
 40
0.3155300302459179
 40
0.4016710720268531
 40
0.4876626128439927
 40
0.5727679273908262
 40
0.6573899448276735
 40
0.7431136868409416
 40
0.82928469118233
 40
0.9151570041389065
 40
0.9999999999999999
 40
0.9999999999999999
 40
0.9999999999999999
 40
0.9999999999999999
 10
25.27458985467285
 20
-10.13343903456323
 30
0.0
 10
25.26565652507665
 20
-10.12013041777978
 30
0.0
 10
25.244045069572
 20
-10.08793429467173
 30
0.0
 10
25.21046512117346
 20
-9.836940258812076
 30
0.0
 10
25.17447354598077
 20
-9.415489269368749
 30
0.0
 10
25.13677340122695
 20
-8.826287545960726
 30
0.0
 10
25.0984530244064
 20
-8.083040951577365
 30
0.0
 10
25.06025601731884
 20
-7.200980254139504
 30
0.0
 10
25.02324012951969
 20
-6.201387312639944
 30
0.0
 10
24.98706143884063
 20
-5.09794071840485
 30
0.0
 10
24.94912560972646
 20
-3.902910734833646
 30
0.0
 10
24.91078690834362
 20
-2.63455055474407
 30
0.0
 10
24.87269361713851
 20
-1.325125098478336
 30
0.0
 10
24.84826696816654
 20
-0.4399292888836521
 30
0.0
 10
24.83612728314366
 20
-0.0000000000000685
 30
0.0
  0
SPLINE
  5
163
330
1B
100
AcDbEntity
  8
0
  6
Continuous
 62
     7
370
    25
100
AcDbSpline
210
0.0
220
0.0
230
1.0
 70
    24
 71
     3
 72
    26
 73
    22
 74
     0
 42
0.000000001
 43
0.00000001
 40
0.0
 40
0.0
 40
0.0
 40
0.0
 40
0.0624999999999999
 40
0.0624999999999999
 40
0.1249999999999999
 40
0.1249999999999999
 40
0.2499999999999996
 40
0.2499999999999996
 40
0.3124999999999996
 40
0.3124999999999996
 40
0.3749999999999996
 40
0.3749999999999996
 40
0.4999999999999997
 40
0.4999999999999997
 40
0.6249999999999998
 40
0.6249999999999998
 40
0.7499999999999999
 40
0.7499999999999999
 40
0.875
 40
0.875
 40
1.0
 40
1.0
 40
1.0
 40
1.0
 10
35.19999999999998
 20
10.14846777753365
 30
0.0
 10
35.19999999999998
 20
10.11684256293016
 30
0.0
 10
35.19999999999998
 20
10.06547840473863
 30
0.0
 10
35.19999999999998
 20
9.922978889656191
 30
0.0
 10
35.2
 20
9.831346393616723
 30
0.0
 10
35.2
 20
9.497599044404799
 30
0.0
 10
35.2
 20
9.20154728714416
 30
0.0
 10
35.2
 20
8.647717459163674
 30
0.0
 10
35.2
 20
8.444401472988535
 30
0.0
 10
35.20000000000001
 20
8.001138679730756
 30
0.0
 10
35.2
 20
7.764772653269217
 30
0.0
 10
35.2
 20
7.013055131376629
 30
0.0
 10
35.2
 20
6.455411574711565
 30
0.0
 10
35.2
 20
5.223799237152997
 30
0.0
 10
35.20000000000001
 20
4.572419713939131
 30
0.0
 10
35.19999999999999
 20
3.200904175780488
 30
0.0
 10
35.20000000000002
 20
2.472645846733021
 30
0.0
 10
35.20000000000002
 20
1.014793987870697
 30
0.0
 10
35.2
 20
0.2781557071448814
 30
0.0
 10
35.20000000000001
 20
-1.207165473133444
 30
0.0
 10
35.2
 20
-1.932041017230133
 30
0.0
 10
35.2
 20
-2.639106274530215
 30
0.0
  0
SPLINE
  5
164
330
1B
100
AcDbEntity
  8
0
  6
Continuous
 62
     7
370
    25
100
AcDbSpline
210
0.0
220
0.0
230
1.0
 70
    24
 71
     3
 72
    14
 73
    10
 74
     0
 42
0.000000001
 43
0.00000001
 40
0.0
 40
0.0
 40
0.0
 40
0.0
 40
0.2499999999999999
 40
0.2499999999999999
 40
0.3749999999999998
 40
0.3749999999999998
 40
0.4999999999999998
 40
0.4999999999999998
 40
1.0
 40
1.0
 40
1.0
 40
1.0
 10
24.5
 20
-0.0000000000000656
 30
0.0
 10
24.50000000000001
 20
-0.5088778670248572
 30
0.0
 10
24.50000000000001
 20
-1.010843033800624
 30
0.0
 10
24.5
 20
-1.753678953840381
 30
0.0
 10
24.5
 20
-1.999597577769606
 30
0.0
 10
24.5
 20
-2.487994461405222
 30
0.0
 10
24.5
 20
-2.730469028152584
 30
0.0
 10
24.50000000000001
 20
-3.914072302726302
 30
0.0
 10
24.50000000000001
 20
-4.787468242376065
 30
0.0
 10
24.5
 20
-5.585421996712887
 30
0.0
  0
LINE
  5
168
330
1B
100
AcDbEntity
  8
0
  6
Continuous
 62
     7
370
    25
100
AcDbLine
 10
34.2861272831
 20
-10.16
 30
0.0
 11
35.2
 21
-10.16
 31
0.0
  0
LINE
  5
169
330
1B
100
AcDbEntity
  8
0
  6
Continuous
 62
     7
370
    25
100
AcDbLine
 10
32.4861272831
 20
-10.16
 30
0.0
 11
33.4687172432
 21
-10.16
 31
0.0
  0
LINE
  5
16A
330
1B
100
AcDbEntity
  8
0
  6
Continuous
 62
     7
370
    25
100
AcDbLine
 10
30.6861272831
 20
-10.16
 30
0.0
 11
31.6687172432
 21
-10.16
 31
0.0
  0
LINE
  5
16B
330
1B
100
AcDbEntity
  8
0
  6
Continuous
 62
     7
370
    25
100
AcDbLine
 10
28.8861272831
 20
-10.16
 30
0.0
 11
29.8687172432
 21
-10.16
 31
0.0
  0
LINE
  5
16C
330
1B
100
AcDbEntity
  8
0
  6
Continuous
 62
     7
370
    25
100
AcDbLine
 10
27.0861272831
 20
-10.16
 30
0.0
 11
28.0687172432
 21
-10.16
 31
0.0
  0
LINE
  5
16D
330
1B
100
AcDbEntity
  8
0
  6
Continuous
 62
     7
370
    25
100
AcDbLine
 10
25.2861272831
 20
-10.16
 30
0.0
 11
26.2687172432
 21
-10.16
 31
0.0
  0
LINE
  5
16E
330
1B
100
AcDbEntity
  8
0
  6
Continuous
 62
     7
370
    25
100
AcDbLine
 10
25.3687172432
 20
10.16
 30
0.0
 11
24.5
 21
10.16
 31
0.0
  0
LINE
  5
16F
330
1B
100
AcDbEntity
  8
0
  6
Continuous
 62
     7
370
    25
100
AcDbLine
 10
27.1687172432
 20
10.16
 30
0.0
 11
26.1861272831
 21
10.16
 31
0.0
  0
LINE
  5
170
330
1B
100
AcDbEntity
  8
0
  6
Continuous
 62
     7
370
    25
100
AcDbLine
 10
28.9687172432
 20
10.16
 30
0.0
 11
27.9861272831
 21
10.16
 31
0.0
  0
LINE
  5
171
330
1B
100
AcDbEntity
  8
0
  6
Continuous
 62
     7
370
    25
100
AcDbLine
 10
30.7687172432
 20
10.16
 30
0.0
 11
29.7861272831
 21
10.16
 31
0.0
  0
LINE
  5
172
330
1B
100
AcDbEntity
  8
0
  6
Continuous
 62
     7
370
    25
100
AcDbLine
 10
32.5687172432
 20
10.16
 30
0.0
 11
31.5861272831
 21
10.16
 31
0.0
  0
LINE
  5
173
330
1B
100
AcDbEntity
  8
0
  6
Continuous
 62
     7
370
    25
100
AcDbLine
 10
34.3687172432
 20
10.16
 30
0.0
 11
33.3861272831
 21
10.16
 31
0.0
  0
LINE
  5
174
330
1B
100
AcDbEntity
  8
0
  6
Continuous
 62
     7
370
    25
100
AcDbLine
 10
24.5
 20
9.0
 30
0.0
 11
21.0
 21
9.0
 31
0.0
  0
LINE
  5
175
330
1B
100
AcDbEntity
  8
0
  6
Continuous
 62
     7
370
    25
100
AcDbLine
 10
21.0
 20
-9.0
 30
0.0
 11
24.5
 21
-9.0
 31
0.0
  0
LINE
  5
176
330
1B
100
AcDbEntity
  8
0
  6
Continuous
 62
     7
370
    25
100
AcDbLine
 10
21.0
 20
21.0
 30
0.0
 11
21.0
 21
-21.0
 31
0.0
  0
LINE
  5
177
330
1B
100
AcDbEntity
  8
0
  6
Continuous
 62
     7
370
    25
100
AcDbLine
 10
-21.0
 20
21.0
 30
0.0
 11
21.0
 21
21.0
 31
0.0
  0
LINE
  5
178
330
1B
100
AcDbEntity
  8
0
  6
Continuous
 62
     7
370
    25
100
AcDbLine
 10
-21.0
 20
-21.0
 30
0.0
 11
-21.0
 21
21.0
 31
0.0
  0
LINE
  5
179
330
1B
100
AcDbEntity
  8
0
  6
Continuous
 62
     7
370
    25
100
AcDbLine
 10
21.0
 20
-21.0
 30
0.0
 11
-21.0
 21
-21.0
 31
0.0
  0
LINE
  5
17A
330
1B
100
AcDbEntity
  8
0
  6
Continuous
 62
     7
370
    25
100
AcDbLine
 10
24.5044052307
 20
-10.0827381707
 30
0.0
 11
24.5
 21
-10.1012224447
 31
0.0
  0
LINE
  5
17B
330
1B
100
AcDbEntity
  8
0
  6
Continuous
 62
     7
370
    25
100
AcDbLine
 10
35.2
 20
-9.8731536963
 30
0.0
 11
35.2
 21
-10.16
 31
0.0
  0
LINE
  5
17C
330
1B
100
AcDbEntity
  8
0
  6
Continuous
 62
     7
370
    25
100
AcDbLine
 10
24.5
 20
0.0
 30
0.0
 11
24.8361272831
 21
0.0
 31
0.0
  0
LINE
  5
17D
330
1B
100
AcDbEntity
  8
0
  6
Continuous
 62
     7
370
    25
100
AcDbLine
 10
24.5
 20
10.16
 30
0.0
 11
24.5
 21
0.0
 31
0.0
  0
VIEWPORT
  5
1DC
330
1B
100
AcDbEntity
  8
0
100
AcDbViewport
 10
0.0
 20
0.0
 30
0.0
 40
205.6
 41
156.0
 68
     1
 69
     1
 12
-7.1
 22
-21.4016153695
 13
0.0
 23
0.0
 14
10.0
 24
10.0
 15
10.0
 25
10.0
 16
0.0
 26
0.0
 36
1.0
 17
0.0
 27
0.0
 37
0.0
 42
50.0
 43
0.0
 44
0.0
 45
43.6592953537
 50
0.0
 51
0.0
 72
   100
 90
   557152
  1

281
     0
 71
     1
 74
     0
110
0.0
120
0.0
130
0.0
111
1.0
121
0.0
131
0.0
112
0.0
122
1.0
132
0.0
 79
     0
146
0.0
  0
ENDBLK
  5
1D
330
1B
100
AcDbEntity
  8
0
100
AcDbBlockEnd
  0
ENDSEC
  0
SECTION
  2
ENTITIES
  0
SPLINE
  5
73
330
1F
100
AcDbEntity
  8
0
  6
Continuous
 62
     7
370
    25
100
AcDbSpline
210
0.0
220
0.0
230
1.0
 70
     8
 71
     3
 72
     9
 73
     5
 74
     0
 42
0.000000001
 43
0.00000001
 40
0.0
 40
0.0
 40
0.0
 40
0.0
 40
0.4999673464774027
 40
0.9999999999999999
 40
0.9999999999999999
 40
0.9999999999999999
 40
0.9999999999999999
 10
-32.43834080036348
 20
-23.2564674277501
 30
0.0
 10
-32.38803683564715
 20
-23.37260217052015
 30
0.0
 10
-32.28742233537879
 20
-23.60488682588476
 30
0.0
 10
-32.18682814258233
 20
-23.83717929089943
 30
0.0
 10
-32.13652776142934
 20
-23.95333310857401
 30
0.0
  0
SPLINE
  5
74
330
1F
100
AcDbEntity
  8
0
  6
Continuous
 62
     7
370
    25
100
AcDbSpline
210
0.0
220
0.0
230
1.0
 70
     8
 71
     3
 72
     9
 73
     5
 74
     0
 42
0.000000001
 43
0.00000001
 40
0.0
 40
0.0
 40
0.0
 40
0.0
 40
0.4999673464774003
 40
1.0
 40
1.0
 40
1.0
 40
1.0
 10
-30.63834080036349
 20
-23.2564674277501
 30
0.0
 10
-30.58803683564716
 20
-23.37260217052016
 30
0.0
 10
-30.4874223353788
 20
-23.60488682588477
 30
0.0
 10
-30.38682814258232
 20
-23.83717929089942
 30
0.0
 10
-30.33652776142934
 20
-23.95333310857401
 30
0.0
  0
SPLINE
  5
75
330
1F
100
AcDbEntity
  8
0
  6
Continuous
 62
     7
370
    25
100
AcDbSpline
210
0.0
220
0.0
230
1.0
 70
     8
 71
     3
 72
     9
 73
     5
 74
     0
 42
0.000000001
 43
0.00000001
 40
0.0
 40
0.0
 40
0.0
 40
0.0
 40
0.4999673464773985
 40
1.0
 40
1.0
 40
1.0
 40
1.0
 10
-28.83834080036349
 20
-23.2564674277501
 30
0.0
 10
-28.78803683564717
 20
-23.37260217052016
 30
0.0
 10
-28.68742233537881
 20
-23.60488682588477
 30
0.0
 10
-28.58682814258233
 20
-23.83717929089942
 30
0.0
 10
-28.53652776142934
 20
-23.95333310857401
 30
0.0
  0
SPLINE
  5
76
330
1F
100
AcDbEntity
  8
0
  6
Continuous
 62
     7
370
    25
100
AcDbSpline
210
0.0
220
0.0
230
1.0
 70
     8
 71
     3
 72
     9
 73
     5
 74
     0
 42
0.000000001
 43
0.00000001
 40
0.0
 40
0.0
 40
0.0
 40
0.0
 40
0.4999673464774045
 40
1.0
 40
1.0
 40
1.0
 40
1.0
 10
-27.03834080036349
 20
-23.2564674277501
 30
0.0
 10
-26.98803683564716
 20
-23.37260217052016
 30
0.0
 10
-26.8874223353788
 20
-23.60488682588477
 30
0.0
 10
-26.78682814258233
 20
-23.83717929089943
 30
0.0
 10
-26.73652776142935
 20
-23.95333310857401
 30
0.0
  0
SPLINE
  5
77
330
1F
100
AcDbEntity
  8
0
  6
Continuous
 62
     7
370
    25
100
AcDbSpline
210
0.0
220
0.0
230
1.0
 70
     8
 71
     3
 72
     9
 73
     5
 74
     0
 42
0.000000001
 43
0.00000001
 40
0.0
 40
0.0
 40
0.0
 40
0.0
 40
0.4999673464773985
 40
1.0
 40
1.0
 40
1.0
 40
1.0
 10
-25.23834080036349
 20
-23.2564674277501
 30
0.0
 10
-25.18803683564717
 20
-23.37260217052016
 30
0.0
 10
-25.08742233537881
 20
-23.60488682588477
 30
0.0
 10
-24.98682814258232
 20
-23.83717929089942
 30
0.0
 10
-24.93652776142934
 20
-23.95333310857401
 30
0.0
  0
SPLINE
  5
78
330
1F
100
AcDbEntity
  8
0
  6
Continuous
 62
     7
370
    25
100
AcDbSpline
210
0.0
220
0.0
230
1.0
 70
     8
 71
     3
 72
     9
 73
     5
 74
     0
 42
0.000000001
 43
0.00000001
 40
0.0
 40
0.0
 40
0.0
 40
0.0
 40
0.5257308529610082
 40
1.0
 40
1.0
 40
1.0
 40
1.0
 10
-33.03652776142934
 20
-3.674524922898735
 30
0.0
 10
-33.08682805559906
 20
-3.790678774024503
 30
0.0
 10
-33.18250494784614
 20
-4.011616636947261
 30
0.0
 10
-33.27820115491757
 20
-4.232547071962713
 30
0.0
 10
-33.32358691342019
 20
-4.337327560932445
 30
0.0
  0
SPLINE
  5
79
330
1F
100
AcDbEntity
  8
0
  6
Continuous
 62
     7
370
    25
100
AcDbSpline
210
0.0
220
0.0
230
1.0
 70
     8
 71
     3
 72
     9
 73
     5
 74
     0
 42
0.000000001
 43
0.00000001
 40
0.0
 40
0.0
 40
0.0
 40
0.0
 40
0.5257308529610119
 40
1.0
 40
1.0
 40
1.0
 40
1.0
 10
-31.23652776142934
 20
-3.674524922898735
 30
0.0
 10
-31.28682805559908
 20
-3.790678774024499
 30
0.0
 10
-31.38250494784616
 20
-4.011616636947258
 30
0.0
 10
-31.47820115491757
 20
-4.232547071962713
 30
0.0
 10
-31.52358691342019
 20
-4.337327560932445
 30
0.0
  0
SPLINE
  5
7A
330
1F
100
AcDbEntity
  8
0
  6
Continuous
 62
     7
370
    25
100
AcDbSpline
210
0.0
220
0.0
230
1.0
 70
     8
 71
     3
 72
     9
 73
     5
 74
     0
 42
0.000000001
 43
0.00000001
 40
0.0
 40
0.0
 40
0.0
 40
0.0
 40
0.5257308529610191
 40
1.0
 40
1.0
 40
1.0
 40
1.0
 10
-29.43652776142934
 20
-3.674524922898735
 30
0.0
 10
-29.48682805559906
 20
-3.790678774024499
 30
0.0
 10
-29.58250494784616
 20
-4.011616636947258
 30
0.0
 10
-29.67820115491758
 20
-4.232547071962713
 30
0.0
 10
-29.72358691342019
 20
-4.337327560932445
 30
0.0
  0
SPLINE
  5
7B
330
1F
100
AcDbEntity
  8
0
  6
Continuous
 62
     7
370
    25
100
AcDbSpline
210
0.0
220
0.0
230
1.0
 70
     8
 71
     3
 72
     9
 73
     5
 74
     0
 42
0.000000001
 43
0.00000001
 40
0.0
 40
0.0
 40
0.0
 40
0.0
 40
0.5257308529610103
 40
1.0
 40
1.0
 40
1.0
 40
1.0
 10
-27.63652776142935
 20
-3.674524922898735
 30
0.0
 10
-27.68682805559907
 20
-3.790678774024499
 30
0.0
 10
-27.78250494784616
 20
-4.011616636947258
 30
0.0
 10
-27.87820115491757
 20
-4.232547071962713
 30
0.0
 10
-27.9235869134202
 20
-4.337327560932445
 30
0.0
  0
SPLINE
  5
7C
330
1F
100
AcDbEntity
  8
0
  6
Continuous
 62
     7
370
    25
100
AcDbSpline
210
0.0
220
0.0
230
1.0
 70
     8
 71
     3
 72
     9
 73
     5
 74
     0
 42
0.000000001
 43
0.00000001
 40
0.0
 40
0.0
 40
0.0
 40
0.0
 40
0.5000326535225974
 40
1.0
 40
1.0
 40
1.0
 40
1.0
 10
-25.83652776142934
 20
-3.674524922898735
 30
0.0
 10
-25.88682814258232
 20
-3.790678740573327
 30
0.0
 10
-25.9874223353788
 20
-4.022971205587995
 30
0.0
 10
-26.08803683564716
 20
-4.2552558609526
 30
0.0
 10
-26.13834080036349
 20
-4.371390603722661
 30
0.0
  0
SPLINE
  5
7D
330
1F
100
AcDbEntity
  8
0
  6
Continuous
 62
     7
370
    25
100
AcDbSpline
210
0.0
220
0.0
230
1.0
 70
     8
 71
     3
 72
     9
 73
     5
 74
     0
 42
0.000000001
 43
0.00000001
 40
0.0
 40
0.0
 40
0.0
 40
0.0
 40
0.525730852961012
 40
1.0
 40
1.0
 40
1.0
 40
1.0
 10
-34.83652776142934
 20
-3.674524922898735
 30
0.0
 10
-34.88682805559907
 20
-3.790678774024499
 30
0.0
 10
-34.98250494784616
 20
-4.011616636947258
 30
0.0
 10
-35.07820115491756
 20
-4.232547071962713
 30
0.0
 10
-35.12358691342019
 20
-4.337327560932445
 30
0.0
  0
SPLINE
  5
7E
330
1F
100
AcDbEntity
  8
0
  6
Continuous
 62
     7
370
    25
100
AcDbSpline
210
0.0
220
0.0
230
1.0
 70
     8
 71
     3
 72
     9
 73
     5
 74
     0
 42
0.000000001
 43
0.00000001
 40
0.0
 40
0.0
 40
0.0
 40
0.0
 40
0.4999673464774063
 40
1.0
 40
1.0
 40
1.0
 40
1.0
 10
-34.23834080036349
 20
-23.2564674277501
 30
0.0
 10
-34.18803683564717
 20
-23.37260217052017
 30
0.0
 10
-34.0874223353788
 20
-23.60488682588477
 30
0.0
 10
-33.98682814258233
 20
-23.83717929089942
 30
0.0
 10
-33.93652776142935
 20
-23.95333310857401
 30
0.0
  0
SPLINE
  5
7F
330
1F
100
AcDbEntity
  8
0
  6
Continuous
 62
     7
370
    25
100
AcDbSpline
210
0.0
220
0.0
230
1.0
 70
     8
 71
     3
 72
     9
 73
     5
 74
     0
 42
0.000000001
 43
0.00000001
 40
0.0
 40
0.0
 40
0.0
 40
0.0
 40
0.5153053924109043
 40
1.0
 40
1.0
 40
1.0
 40
1.0
 10
-32.92553726982399
 20
-23.96659176584934
 30
0.0
 10
-32.83925480704685
 20
-23.85061497653363
 30
0.0
 10
-32.67181533513789
 20
-23.62555078930849
 30
0.0
 10
-32.50436723969659
 20
-23.40049373024152
 30
0.0
 10
-32.42320605078513
 20
-23.29140978731191
 30
0.0
  0
SPLINE
  5
80
330
1F
100
AcDbEntity
  8
0
  6
Continuous
 62
     7
370
    25
100
AcDbSpline
210
0.0
220
0.0
230
1.0
 70
     8
 71
     3
 72
     9
 73
     5
 74
     0
 42
0.000000001
 43
0.00000001
 40
0.0
 40
0.0
 40
0.0
 40
0.0
 40
0.5153053924108978
 40
1.0
 40
1.0
 40
1.0
 40
1.0
 10
-31.125537269824
 20
-23.96659176584934
 30
0.0
 10
-31.03925480704687
 20
-23.85061497653364
 30
0.0
 10
-30.87181533513788
 20
-23.62555078930849
 30
0.0
 10
-30.70436723969659
 20
-23.40049373024153
 30
0.0
 10
-30.62320605078514
 20
-23.29140978731191
 30
0.0
  0
SPLINE
  5
81
330
1F
100
AcDbEntity
  8
0
  6
Continuous
 62
     7
370
    25
100
AcDbSpline
210
0.0
220
0.0
230
1.0
 70
     8
 71
     3
 72
     9
 73
     5
 74
     0
 42
0.000000001
 43
0.00000001
 40
0.0
 40
0.0
 40
0.0
 40
0.0
 40
0.5153053924108953
 40
1.0
 40
1.0
 40
1.0
 40
1.0
 10
-29.325537269824
 20
-23.96659176584934
 30
0.0
 10
-29.23925480704686
 20
-23.85061497653363
 30
0.0
 10
-29.07181533513788
 20
-23.62555078930848
 30
0.0
 10
-28.9043672396966
 20
-23.40049373024153
 30
0.0
 10
-28.82320605078513
 20
-23.29140978731191
 30
0.0
  0
SPLINE
  5
82
330
1F
100
AcDbEntity
  8
0
  6
Continuous
 62
     7
370
    25
100
AcDbSpline
210
0.0
220
0.0
230
1.0
 70
     8
 71
     3
 72
     9
 73
     5
 74
     0
 42
0.000000001
 43
0.00000001
 40
0.0
 40
0.0
 40
0.0
 40
0.0
 40
0.5153053924109035
 40
1.0
 40
1.0
 40
1.0
 40
1.0
 10
-27.525537269824
 20
-23.96659176584934
 30
0.0
 10
-27.43925480704686
 20
-23.85061497653364
 30
0.0
 10
-27.27181533513788
 20
-23.62555078930849
 30
0.0
 10
-27.10436723969659
 20
-23.40049373024153
 30
0.0
 10
-27.02320605078513
 20
-23.29140978731191
 30
0.0
  0
SPLINE
  5
83
330
1F
100
AcDbEntity
  8
0
  6
Continuous
 62
     7
370
    25
100
AcDbSpline
210
0.0
220
0.0
230
1.0
 70
     8
 71
     3
 72
     9
 73
     5
 74
     0
 42
0.000000001
 43
0.00000001
 40
0.0
 40
0.0
 40
0.0
 40
0.0
 40
0.5153053924108953
 40
1.0
 40
1.0
 40
1.0
 40
1.0
 10
-25.725537269824
 20
-23.96659176584934
 30
0.0
 10
-25.63925480704686
 20
-23.85061497653363
 30
0.0
 10
-25.47181533513789
 20
-23.62555078930848
 30
0.0
 10
-25.30436723969659
 20
-23.40049373024153
 30
0.0
 10
-25.22320605078513
 20
-23.29140978731191
 30
0.0
  0
SPLINE
  5
84
330
1F
100
AcDbEntity
  8
0
  6
Continuous
 62
     7
370
    25
100
AcDbSpline
210
0.0
220
0.0
230
1.0
 70
     8
 71
     3
 72
     9
 73
     5
 74
     0
 42
0.000000001
 43
0.00000001
 40
0.0
 40
0.0
 40
0.0
 40
0.0
 40
0.4999869216569148
 40
1.0
 40
1.0
 40
1.0
 40
1.0
 10
-33.31291964294472
 20
-4.351660909946681
 30
0.0
 10
-33.39923548288587
 20
-4.23568014353947
 30
0.0
 10
-33.57187167835895
 20
-4.003712543221332
 30
0.0
 10
-33.74449395960175
 20
-3.771767178218147
 30
0.0
 10
-33.83080735783657
 20
-3.6557914622555
 30
0.0
  0
SPLINE
  5
85
330
1F
100
AcDbEntity
  8
0
  6
Continuous
 62
     7
370
    25
100
AcDbSpline
210
0.0
220
0.0
230
1.0
 70
     8
 71
     3
 72
     9
 73
     5
 74
     0
 42
0.000000001
 43
0.00000001
 40
0.0
 40
0.0
 40
0.0
 40
0.0
 40
0.4999869216569102
 40
1.0
 40
1.0
 40
1.0
 40
1.0
 10
-31.51291964294473
 20
-4.351660909946681
 30
0.0
 10
-31.59923548288587
 20
-4.23568014353947
 30
0.0
 10
-31.77187167835895
 20
-4.003712543221325
 30
0.0
 10
-31.94449395960175
 20
-3.771767178218147
 30
0.0
 10
-32.03080735783657
 20
-3.6557914622555
 30
0.0
  0
SPLINE
  5
86
330
1F
100
AcDbEntity
  8
0
  6
Continuous
 62
     7
370
    25
100
AcDbSpline
210
0.0
220
0.0
230
1.0
 70
     8
 71
     3
 72
     9
 73
     5
 74
     0
 42
0.000000001
 43
0.00000001
 40
0.0
 40
0.0
 40
0.0
 40
0.0
 40
0.4999869216569244
 40
1.0
 40
1.0
 40
1.0
 40
1.0
 10
-29.71291964294472
 20
-4.351660909946677
 30
0.0
 10
-29.79923548288586
 20
-4.23568014353947
 30
0.0
 10
-29.97187167835896
 20
-4.003712543221336
 30
0.0
 10
-30.14449395960176
 20
-3.771767178218151
 30
0.0
 10
-30.23080735783657
 20
-3.6557914622555
 30
0.0
  0
SPLINE
  5
87
330
1F
100
AcDbEntity
  8
0
  6
Continuous
 62
     7
370
    25
100
AcDbSpline
210
0.0
220
0.0
230
1.0
 70
     8
 71
     3
 72
     9
 73
     5
 74
     0
 42
0.000000001
 43
0.00000001
 40
0.0
 40
0.0
 40
0.0
 40
0.0
 40
0.4999869216569164
 40
1.0
 40
1.0
 40
1.0
 40
1.0
 10
-27.91291964294472
 20
-4.351660909946677
 30
0.0
 10
-27.99923548288587
 20
-4.235680143539467
 30
0.0
 10
-28.17187167835895
 20
-4.003712543221325
 30
0.0
 10
-28.34449395960176
 20
-3.771767178218147
 30
0.0
 10
-28.43080735783657
 20
-3.6557914622555
 30
0.0
  0
SPLINE
  5
88
330
1F
100
AcDbEntity
  8
0
  6
Continuous
 62
     7
370
    25
100
AcDbSpline
210
0.0
220
0.0
230
1.0
 70
     8
 71
     3
 72
     9
 73
     5
 74
     0
 42
0.000000001
 43
0.00000001
 40
0.0
 40
0.0
 40
0.0
 40
0.0
 40
0.4999869216569197
 40
1.0
 40
1.0
 40
1.0
 40
1.0
 10
-26.11291964294472
 20
-4.351660909946681
 30
0.0
 10
-26.19923548288587
 20
-4.23568014353947
 30
0.0
 10
-26.37187167835897
 20
-4.003712543221332
 30
0.0
 10
-26.54449395960176
 20
-3.771767178218151
 30
0.0
 10
-26.63080735783657
 20
-3.6557914622555
 30
0.0
  0
SPLINE
  5
8A
330
1F
100
AcDbEntity
  8
0
  6
Continuous
 62
     7
370
    25
100
AcDbSpline
210
0.0
220
0.0
230
1.0
 70
     8
 71
     3
 72
     9
 73
     5
 74
     0
 42
0.000000001
 43
0.00000001
 40
0.0
 40
0.0
 40
0.0
 40
0.0
 40
0.5153053924108945
 40
1.0
 40
1.0
 40
1.0
 40
1.0
 10
-34.725537269824
 20
-23.96659176584934
 30
0.0
 10
-34.63925480704686
 20
-23.85061497653364
 30
0.0
 10
-34.47181533513789
 20
-23.62555078930849
 30
0.0
 10
-34.30436723969659
 20
-23.40049373024152
 30
0.0
 10
-34.22320605078514
 20
-23.29140978731191
 30
0.0
  0
SPLINE
  5
98
330
1F
100
AcDbEntity
  8
0
  6
Continuous
 62
     7
370
    25
100
AcDbSpline
210
0.0
220
0.0
230
1.0
 70
     8
 71
     3
 72
     9
 73
     5
 74
     0
 42
0.000000001
 43
0.00000001
 40
0.0
 40
0.0
 40
0.0
 40
0.0
 40
0.4999700527636666
 40
1.0
 40
1.0
 40
1.0
 40
1.0
 10
-8.922723168018114
 20
-40.4672700437569
 30
0.0
 10
-9.122409377941754
 20
-40.58305135856002
 30
0.0
 10
-9.521805719422293
 20
-40.81462785831857
 30
0.0
 10
-9.921448117882372
 20
-41.04616148580825
 30
0.0
 10
-10.12128128529777
 20
-41.16193523334534
 30
0.0
  0
SPLINE
  5
99
330
1F
100
AcDbEntity
  8
0
  6
Continuous
 62
     7
370
    25
100
AcDbSpline
210
0.0
220
0.0
230
1.0
 70
     8
 71
     3
 72
     9
 73
     5
 74
     0
 42
0.000000001
 43
0.00000001
 40
0.0
 40
0.0
 40
0.0
 40
0.0
 40
0.4999700527636629
 40
1.0
 40
1.0
 40
1.0
 40
1.0
 10
-8.922723168018114
 20
-38.1672700437569
 30
0.0
 10
-9.122409377941755
 20
-38.28305135856001
 30
0.0
 10
-9.5218057194223
 20
-38.51462785831856
 30
0.0
 10
-9.921448117882374
 20
-38.74616148580824
 30
0.0
 10
-10.12128128529777
 20
-38.86193523334534
 30
0.0
  0
SPLINE
  5
9A
330
1F
100
AcDbEntity
  8
0
  6
Continuous
 62
     7
370
    25
100
AcDbSpline
210
0.0
220
0.0
230
1.0
 70
     8
 71
     3
 72
     9
 73
     5
 74
     0
 42
0.000000001
 43
0.00000001
 40
0.0
 40
0.0
 40
0.0
 40
0.0
 40
0.4999700527636668
 40
1.0
 40
1.0
 40
1.0
 40
1.0
 10
-8.922723168018114
 20
-35.8672700437569
 30
0.0
 10
-9.122409377941752
 20
-35.98305135856001
 30
0.0
 10
-9.521805719422293
 20
-36.21462785831858
 30
0.0
 10
-9.921448117882372
 20
-36.44616148580825
 30
0.0
 10
-10.12128128529777
 20
-36.56193523334534
 30
0.0
  0
SPLINE
  5
9B
330
1F
100
AcDbEntity
  8
0
  6
Continuous
 62
     7
370
    25
100
AcDbSpline
210
0.0
220
0.0
230
1.0
 70
     8
 71
     3
 72
     9
 73
     5
 74
     0
 42
0.000000001
 43
0.00000001
 40
0.0
 40
0.0
 40
0.0
 40
0.0
 40
0.4999700527636655
 40
1.0
 40
1.0
 40
1.0
 40
1.0
 10
-8.922723168018114
 20
-33.5672700437569
 30
0.0
 10
-9.122409377941754
 20
-33.68305135856001
 30
0.0
 10
-9.521805719422293
 20
-33.91462785831857
 30
0.0
 10
-9.921448117882372
 20
-34.14616148580824
 30
0.0
 10
-10.12128128529777
 20
-34.26193523334534
 30
0.0
  0
SPLINE
  5
9C
330
1F
100
AcDbEntity
  8
0
  6
Continuous
 62
     7
370
    25
100
AcDbSpline
210
0.0
220
0.0
230
1.0
 70
     8
 71
     3
 72
     9
 73
     5
 74
     0
 42
0.000000001
 43
0.00000001
 40
0.0
 40
0.0
 40
0.0
 40
0.0
 40
0.4999700527636643
 40
1.0
 40
1.0
 40
1.0
 40
1.0
 10
-8.922723168018114
 20
-31.2672700437569
 30
0.0
 10
-9.122409377941755
 20
-31.38305135856001
 30
0.0
 10
-9.5218057194223
 20
-31.61462785831857
 30
0.0
 10
-9.921448117882374
 20
-31.84616148580825
 30
0.0
 10
-10.12128128529777
 20
-31.96193523334534
 30
0.0
  0
SPLINE
  5
9D
330
1F
100
AcDbEntity
  8
0
  6
Continuous
 62
     7
370
    25
100
AcDbSpline
210
0.0
220
0.0
230
1.0
 70
     8
 71
     3
 72
     9
 73
     5
 74
     0
 42
0.000000001
 43
0.00000001
 40
0.0
 40
0.0
 40
0.0
 40
0.0
 40
0.4999700527636627
 40
1.0
 40
1.0
 40
1.0
 40
1.0
 10
-8.922723168018114
 20
-28.9672700437569
 30
0.0
 10
-9.122409377941752
 20
-29.08305135856002
 30
0.0
 10
-9.521805719422286
 20
-29.31462785831857
 30
0.0
 10
-9.921448117882369
 20
-29.54616148580824
 30
0.0
 10
-10.12128128529777
 20
-29.66193523334534
 30
0.0
  0
SPLINE
  5
9E
330
1F
100
AcDbEntity
  8
0
  6
Continuous
 62
     7
370
    25
100
AcDbSpline
210
0.0
220
0.0
230
1.0
 70
     8
 71
     3
 72
     9
 73
     5
 74
     0
 42
0.000000001
 43
0.00000001
 40
0.0
 40
0.0
 40
0.0
 40
0.0
 40
0.5186512336206336
 40
1.0
 40
1.0
 40
1.0
 40
1.0
 10
10.14090071293655
 20
-40.02132986800197
 30
0.0
 10
9.940407646989081
 20
-39.9052982680151
 30
0.0
 10
9.553841390223718
 20
-39.68158030020682
 30
0.0
 10
9.167337156260936
 20
-39.45774353357157
 30
0.0
 10
8.981293820042552
 20
-39.34999998208134
 30
0.0
  0
SPLINE
  5
9F
330
1F
100
AcDbEntity
  8
0
  6
Continuous
 62
     7
370
    25
100
AcDbSpline
210
0.0
220
0.0
230
1.0
 70
     8
 71
     3
 72
     9
 73
     5
 74
     0
 42
0.000000001
 43
0.00000001
 40
0.0
 40
0.0
 40
0.0
 40
0.0
 40
0.5186512336206347
 40
1.0
 40
1.0
 40
1.0
 40
1.0
 10
10.14090071293655
 20
-37.72132986800197
 30
0.0
 10
9.940407646989081
 20
-37.6052982680151
 30
0.0
 10
9.553841390223718
 20
-37.38158030020683
 30
0.0
 10
9.167337156260944
 20
-37.15774353357156
 30
0.0
 10
8.981293820042556
 20
-37.04999998208132
 30
0.0
  0
SPLINE
  5
A0
330
1F
100
AcDbEntity
  8
0
  6
Continuous
 62
     7
370
    25
100
AcDbSpline
210
0.0
220
0.0
230
1.0
 70
     8
 71
     3
 72
     9
 73
     5
 74
     0
 42
0.000000001
 43
0.00000001
 40
0.0
 40
0.0
 40
0.0
 40
0.0
 40
0.5186512336206399
 40
1.0
 40
1.0
 40
1.0
 40
1.0
 10
10.14090071293655
 20
-35.42132986800198
 30
0.0
 10
9.940407646989081
 20
-35.30529826801511
 30
0.0
 10
9.553841390223718
 20
-35.08158030020683
 30
0.0
 10
9.167337156260944
 20
-34.85774353357155
 30
0.0
 10
8.98129382004256
 20
-34.74999998208132
 30
0.0
  0
SPLINE
  5
A1
330
1F
100
AcDbEntity
  8
0
  6
Continuous
 62
     7
370
    25
100
AcDbSpline
210
0.0
220
0.0
230
1.0
 70
     8
 71
     3
 72
     9
 73
     5
 74
     0
 42
0.000000001
 43
0.00000001
 40
0.0
 40
0.0
 40
0.0
 40
0.0
 40
0.5186512336206311
 40
1.0
 40
1.0
 40
1.0
 40
1.0
 10
10.14090071293655
 20
-33.12132986800197
 30
0.0
 10
9.940407646989081
 20
-33.00529826801512
 30
0.0
 10
9.553841390223708
 20
-32.78158030020685
 30
0.0
 10
9.167337156260936
 20
-32.55774353357156
 30
0.0
 10
8.981293820042552
 20
-32.44999998208132
 30
0.0
  0
SPLINE
  5
A2
330
1F
100
AcDbEntity
  8
0
  6
Continuous
 62
     7
370
    25
100
AcDbSpline
210
0.0
220
0.0
230
1.0
 70
     8
 71
     3
 72
     9
 73
     5
 74
     0
 42
0.000000001
 43
0.00000001
 40
0.0
 40
0.0
 40
0.0
 40
0.0
 40
0.518651233620635
 40
1.0
 40
1.0
 40
1.0
 40
1.0
 10
10.14090071293655
 20
-30.82132986800197
 30
0.0
 10
9.940407646989081
 20
-30.70529826801511
 30
0.0
 10
9.553841390223711
 20
-30.48158030020684
 30
0.0
 10
9.167337156260936
 20
-30.25774353357156
 30
0.0
 10
8.981293820042556
 20
-30.14999998208133
 30
0.0
  0
SPLINE
  5
A3
330
1F
100
AcDbEntity
  8
0
  6
Continuous
 62
     7
370
    25
100
AcDbSpline
210
0.0
220
0.0
230
1.0
 70
     8
 71
     3
 72
     9
 73
     5
 74
     0
 42
0.000000001
 43
0.00000001
 40
0.0
 40
0.0
 40
0.0
 40
0.0
 40
0.5186512336206348
 40
1.0
 40
1.0
 40
1.0
 40
1.0
 10
10.14090071293655
 20
-28.52132986800197
 30
0.0
 10
9.940407646989081
 20
-28.40529826801512
 30
0.0
 10
9.553841390223711
 20
-28.18158030020684
 30
0.0
 10
9.167337156260936
 20
-27.95774353357156
 30
0.0
 10
8.981293820042552
 20
-27.84999998208133
 30
0.0
  0
SPLINE
  5
A4
330
1F
100
AcDbEntity
  8
0
  6
Continuous
 62
     7
370
    25
100
AcDbSpline
210
0.0
220
0.0
230
1.0
 70
     8
 71
     3
 72
     9
 73
     5
 74
     0
 42
0.000000001
 43
0.00000001
 40
0.0
 40
0.0
 40
0.0
 40
0.0
 40
0.518651233620632
 40
1.0
 40
1.0
 40
1.0
 40
1.0
 10
10.14090071293655
 20
-42.32132986800197
 30
0.0
 10
9.940407646989081
 20
-42.20529826801511
 30
0.0
 10
9.553841390223711
 20
-41.98158030020684
 30
0.0
 10
9.167337156260944
 20
-41.75774353357156
 30
0.0
 10
8.98129382004256
 20
-41.64999998208133
 30
0.0
  0
SPLINE
  5
B7
330
1F
100
AcDbEntity
  8
0
  6
Continuous
 62
     7
370
    25
100
AcDbSpline
210
0.0
220
0.0
230
1.0
 70
     8
 71
     3
 72
     9
 73
     5
 74
     0
 42
0.000000001
 43
0.00000001
 40
0.0
 40
0.0
 40
0.0
 40
0.0
 40
0.5181193154865396
 40
1.0
 40
1.0
 40
1.0
 40
1.0
 10
-10.14096890254042
 20
-39.82863066441016
 30
0.0
 10
-9.940486270809386
 20
-39.94465637954019
 30
0.0
 10
-9.553543291193252
 20
-40.16859266537637
 30
0.0
 10
-9.166665155165383
 20
-40.39264567932234
 30
0.0
 10
-8.980236054152982
 20
-40.50061249904991
 30
0.0
  0
SPLINE
  5
B8
330
1F
100
AcDbEntity
  8
0
  6
Continuous
 62
     7
370
    25
100
AcDbSpline
210
0.0
220
0.0
230
1.0
 70
     8
 71
     3
 72
     9
 73
     5
 74
     0
 42
0.000000001
 43
0.00000001
 40
0.0
 40
0.0
 40
0.0
 40
0.0
 40
0.51811931548654
 40
1.0
 40
1.0
 40
1.0
 40
1.0
 10
-10.14096890254042
 20
-37.52863066441016
 30
0.0
 10
-9.940486270809387
 20
-37.64465637954019
 30
0.0
 10
-9.553543291193252
 20
-37.86859266537635
 30
0.0
 10
-9.166665155165386
 20
-38.09264567932234
 30
0.0
 10
-8.980236054152988
 20
-38.20061249904992
 30
0.0
  0
SPLINE
  5
B9
330
1F
100
AcDbEntity
  8
0
  6
Continuous
 62
     7
370
    25
100
AcDbSpline
210
0.0
220
0.0
230
1.0
 70
     8
 71
     3
 72
     9
 73
     5
 74
     0
 42
0.000000001
 43
0.00000001
 40
0.0
 40
0.0
 40
0.0
 40
0.0
 40
0.518119315486544
 40
1.0
 40
1.0
 40
1.0
 40
1.0
 10
-10.14096890254042
 20
-35.22863066441016
 30
0.0
 10
-9.940486270809386
 20
-35.34465637954019
 30
0.0
 10
-9.55354329119325
 20
-35.56859266537636
 30
0.0
 10
-9.166665155165388
 20
-35.79264567932234
 30
0.0
 10
-8.980236054152991
 20
-35.90061249904992
 30
0.0
  0
SPLINE
  5
BA
330
1F
100
AcDbEntity
  8
0
  6
Continuous
 62
     7
370
    25
100
AcDbSpline
210
0.0
220
0.0
230
1.0
 70
     8
 71
     3
 72
     9
 73
     5
 74
     0
 42
0.000000001
 43
0.00000001
 40
0.0
 40
0.0
 40
0.0
 40
0.0
 40
0.5181193154865421
 40
1.0
 40
1.0
 40
1.0
 40
1.0
 10
-10.14096890254042
 20
-32.92863066441016
 30
0.0
 10
-9.940486270809384
 20
-33.04465637954019
 30
0.0
 10
-9.553543291193247
 20
-33.26859266537637
 30
0.0
 10
-9.166665155165385
 20
-33.49264567932234
 30
0.0
 10
-8.980236054152988
 20
-33.60061249904992
 30
0.0
  0
SPLINE
  5
BB
330
1F
100
AcDbEntity
  8
0
  6
Continuous
 62
     7
370
    25
100
AcDbSpline
210
0.0
220
0.0
230
1.0
 70
     8
 71
     3
 72
     9
 73
     5
 74
     0
 42
0.000000001
 43
0.00000001
 40
0.0
 40
0.0
 40
0.0
 40
0.0
 40
0.5181193154865409
 40
1.0
 40
1.0
 40
1.0
 40
1.0
 10
-10.14096890254042
 20
-30.62863066441016
 30
0.0
 10
-9.940486270809384
 20
-30.74465637954019
 30
0.0
 10
-9.553543291193247
 20
-30.96859266537637
 30
0.0
 10
-9.16666515516538
 20
-31.19264567932233
 30
0.0
 10
-8.980236054152982
 20
-31.30061249904992
 30
0.0
  0
SPLINE
  5
BC
330
1F
100
AcDbEntity
  8
0
  6
Continuous
 62
     7
370
    25
100
AcDbSpline
210
0.0
220
0.0
230
1.0
 70
     8
 71
     3
 72
     9
 73
     5
 74
     0
 42
0.000000001
 43
0.00000001
 40
0.0
 40
0.0
 40
0.0
 40
0.0
 40
0.5181193154865443
 40
1.0
 40
1.0
 40
1.0
 40
1.0
 10
-10.14096890254042
 20
-28.32863066441016
 30
0.0
 10
-9.940486270809382
 20
-28.44465637954019
 30
0.0
 10
-9.553543291193243
 20
-28.66859266537636
 30
0.0
 10
-9.166665155165383
 20
-28.89264567932234
 30
0.0
 10
-8.980236054152986
 20
-29.00061249904992
 30
0.0
  0
SPLINE
  5
BD
330
1F
100
AcDbEntity
  8
0
  6
Continuous
 62
     7
370
    25
100
AcDbSpline
210
0.0
220
0.0
230
1.0
 70
     8
 71
     3
 72
     9
 73
     5
 74
     0
 42
0.000000001
 43
0.00000001
 40
0.0
 40
0.0
 40
0.0
 40
0.0
 40
0.4999159849465254
 40
1.0
 40
1.0
 40
1.0
 40
1.0
 10
8.938377180125114
 20
-39.37485157773563
 30
0.0
 10
9.13875866160434
 20
-39.25880402545042
 30
0.0
 10
9.539588976123417
 20
-39.02666991536064
 30
0.0
 10
9.940486472785004
 20
-38.79465674312637
 30
0.0
 10
10.14096890254042
 20
-38.67863066441016
 30
0.0
  0
SPLINE
  5
BE
330
1F
100
AcDbEntity
  8
0
  6
Continuous
 62
     7
370
    25
100
AcDbSpline
210
0.0
220
0.0
230
1.0
 70
     8
 71
     3
 72
     9
 73
     5
 74
     0
 42
0.000000001
 43
0.00000001
 40
0.0
 40
0.0
 40
0.0
 40
0.0
 40
0.4999159849465279
 40
1.0
 40
1.0
 40
1.0
 40
1.0
 10
8.938377180125114
 20
-37.07485157773563
 30
0.0
 10
9.13875866160434
 20
-36.95880402545042
 30
0.0
 10
9.53958897612341
 20
-36.72666991536065
 30
0.0
 10
9.940486472785008
 20
-36.49465674312636
 30
0.0
 10
10.14096890254042
 20
-36.37863066441016
 30
0.0
  0
SPLINE
  5
BF
330
1F
100
AcDbEntity
  8
0
  6
Continuous
 62
     7
370
    25
100
AcDbSpline
210
0.0
220
0.0
230
1.0
 70
     8
 71
     3
 72
     9
 73
     5
 74
     0
 42
0.000000001
 43
0.00000001
 40
0.0
 40
0.0
 40
0.0
 40
0.0
 40
0.4999159849465222
 40
1.0
 40
1.0
 40
1.0
 40
1.0
 10
8.938377180125114
 20
-34.77485157773563
 30
0.0
 10
9.13875866160434
 20
-34.65880402545042
 30
0.0
 10
9.539588976123417
 20
-34.42666991536066
 30
0.0
 10
9.940486472785004
 20
-34.19465674312638
 30
0.0
 10
10.14096890254042
 20
-34.07863066441016
 30
0.0
  0
SPLINE
  5
C0
330
1F
100
AcDbEntity
  8
0
  6
Continuous
 62
     7
370
    25
100
AcDbSpline
210
0.0
220
0.0
230
1.0
 70
     8
 71
     3
 72
     9
 73
     5
 74
     0
 42
0.000000001
 43
0.00000001
 40
0.0
 40
0.0
 40
0.0
 40
0.0
 40
0.4999159849465222
 40
1.0
 40
1.0
 40
1.0
 40
1.0
 10
8.938377180125114
 20
-32.47485157773563
 30
0.0
 10
9.13875866160434
 20
-32.35880402545042
 30
0.0
 10
9.539588976123417
 20
-32.12666991536065
 30
0.0
 10
9.940486472785004
 20
-31.89465674312637
 30
0.0
 10
10.14096890254042
 20
-31.77863066441016
 30
0.0
  0
SPLINE
  5
C1
330
1F
100
AcDbEntity
  8
0
  6
Continuous
 62
     7
370
    25
100
AcDbSpline
210
0.0
220
0.0
230
1.0
 70
     8
 71
     3
 72
     9
 73
     5
 74
     0
 42
0.000000001
 43
0.00000001
 40
0.0
 40
0.0
 40
0.0
 40
0.0
 40
0.4999159849465222
 40
1.0
 40
1.0
 40
1.0
 40
1.0
 10
8.938377180125114
 20
-30.17485157773563
 30
0.0
 10
9.13875866160434
 20
-30.05880402545042
 30
0.0
 10
9.539588976123417
 20
-29.82666991536065
 30
0.0
 10
9.940486472785004
 20
-29.59465674312638
 30
0.0
 10
10.14096890254042
 20
-29.47863066441016
 30
0.0
  0
SPLINE
  5
C2
330
1F
100
AcDbEntity
  8
0
  6
Continuous
 62
     7
370
    25
100
AcDbSpline
210
0.0
220
0.0
230
1.0
 70
     8
 71
     3
 72
     9
 73
     5
 74
     0
 42
0.000000001
 43
0.00000001
 40
0.0
 40
0.0
 40
0.0
 40
0.0
 40
0.4999159849465208
 40
1.0
 40
1.0
 40
1.0
 40
1.0
 10
8.938377180125114
 20
-27.87485157773563
 30
0.0
 10
9.13875866160434
 20
-27.75880402545042
 30
0.0
 10
9.539588976123417
 20
-27.52666991536066
 30
0.0
 10
9.940486472785004
 20
-27.29465674312638
 30
0.0
 10
10.14096890254042
 20
-27.17863066441016
 30
0.0
  0
SPLINE
  5
C3
330
1F
100
AcDbEntity
  8
0
  6
Continuous
 62
     7
370
    25
100
AcDbSpline
210
0.0
220
0.0
230
1.0
 70
     8
 71
     3
 72
     9
 73
     5
 74
     0
 42
0.000000001
 43
0.00000001
 40
0.0
 40
0.0
 40
0.0
 40
0.0
 40
0.4999159849465266
 40
1.0
 40
1.0
 40
1.0
 40
1.0
 10
8.938377180125114
 20
-41.67485157773563
 30
0.0
 10
9.138758661604344
 20
-41.55880402545042
 30
0.0
 10
9.539588976123417
 20
-41.32666991536066
 30
0.0
 10
9.940486472785008
 20
-41.09465674312637
 30
0.0
 10
10.14096890254042
 20
-40.97863066441016
 30
0.0
  0
SPLINE
  5
C4
330
1F
100
AcDbEntity
  8
0
  6
Continuous
 62
     7
370
    25
100
AcDbSpline
210
0.0
220
0.0
230
1.0
 70
     8
 71
     3
 72
     9
 73
     5
 74
     0
 42
0.000000001
 43
0.00000001
 40
0.0
 40
0.0
 40
0.0
 40
0.0
 40
0.5161087650507197
 40
1.0
 40
1.0
 40
1.0
 40
1.0
 10
-10.14096890254042
 20
-42.12863066441016
 30
0.0
 10
-9.94048629332535
 20
-42.24465642007227
 30
0.0
 10
-9.55203598441543
 20
-42.46946514939258
 30
0.0
 10
-9.1636507716981
 20
-42.69439106154805
 30
0.0
 10
-8.975714571480275
 20
-42.80323073895305
 30
0.0
  0
SPLINE
  5
CB
330
1F
100
AcDbEntity
  8
0
  6
Continuous
 62
     7
370
    25
100
AcDbSpline
210
0.0
220
0.0
230
1.0
 70
     8
 71
     3
 72
    31
 73
    27
 74
     0
 42
0.000000001
 43
0.00000001
 40
0.0
 40
0.0
 40
0.0
 40
0.0
 40
0.0352152039591216
 40
0.0783117238207249
 40
0.1215581844766536
 40
0.1645801230511125
 40
0.207049009581441
 40
0.2497605044502367
 40
0.2929168757255178
 40
0.3361482953815905
 40
0.3790810763461097
 40
0.4214944434483407
 40
0.4643236729938024
 40
0.5075250420065024
 40
0.5507264110192016
 40
0.5935556405646631
 40
0.6359690076668942
 40
0.6789017886314133
 40
0.722133208287486
 40
0.7652895795627686
 40
0.8080010744315633
 40
0.8504699609618919
 40
0.8934918995363509
 40
0.9367383601922796
 40
0.9798348800538831
 40
0.9999999999999999
 40
0.9999999999999999
 40
0.9999999999999999
 40
0.9999999999999999
 10
-35.11285786595427
 20
-4.363041646376461
 30
0.0
 10
-35.10281247136858
 20
-4.376603389857663
 30
0.0
 10
-35.08047347917137
 20
-4.406762054031815
 30
0.0
 10
-35.04452908809154
 20
-4.647512988538261
 30
0.0
 10
-35.0061981994807
 20
-5.045053001847929
 30
0.0
 10
-34.96826035094698
 20
-5.596109777853211
 30
0.0
 10
-34.93208209608415
 20
-6.283123608800611
 30
0.0
 10
-34.89506607803565
 20
-7.098727009203335
 30
0.0
 10
-34.85686901842607
 20
-8.034441434974473
 30
0.0
 10
-34.81854917950467
 20
-9.071802235169747
 30
0.0
 10
-34.7808471869694
 20
-10.18453292415397
 30
0.0
 10
-34.74486246213893
 20
-11.3552157485681
 30
0.0
 10
-34.70746749994517
 20
-12.57010743769001
 30
0.0
 10
-34.66919486637451
 20
-13.81392901065295
 30
0.0
 10
-34.63092223260486
 20
-15.05775061402842
 30
0.0
 10
-34.59352727100107
 20
-16.27264221298983
 30
0.0
 10
-34.55754254402299
 20
-17.44332536560747
 30
0.0
 10
-34.51984055959029
 20
-18.55605481632637
 30
0.0
 10
-34.48152069016691
 20
-19.59342027794695
 30
0.0
 10
-34.4433237439624
 20
-20.52911737274852
 30
0.0
 10
-34.40630730786852
 20
-21.34478466033045
 30
0.0
 10
-34.37013060794732
 20
-22.03156085957544
 30
0.0
 10
-34.33218687926098
 20
-22.58351626139629
 30
0.0
 10
-34.29387808138451
 20
-22.97768029019868
 30
0.0
 10
-34.26231627845193
 20
-23.19896650192867
 30
0.0
 10
-34.2442429634338
 20
-23.22752719279547
 30
0.0
 10
-34.23848195935184
 20
-23.23663112621901
 30
0.0
  0
SPLINE
  5
CC
330
1F
100
AcDbEntity
  8
0
  6
Continuous
 62
     7
370
    25
100
AcDbSpline
210
0.0
220
0.0
230
1.0
 70
     8
 71
     3
 72
    31
 73
    27
 74
     0
 42
0.000000001
 43
0.00000001
 40
0.0
 40
0.0
 40
0.0
 40
0.0
 40
0.035215203959122
 40
0.0783117238207252
 40
0.1215581844766539
 40
0.1645801230511127
 40
0.2070490095814413
 40
0.2497605044502369
 40
0.2929168757255179
 40
0.3361482953815907
 40
0.3790810763461098
 40
0.4214944434483409
 40
0.4643236729938024
 40
0.5075250420065024
 40
0.5507264110192016
 40
0.5935556405646631
 40
0.6359690076668941
 40
0.6789017886314133
 40
0.7221332082874858
 40
0.7652895795627683
 40
0.8080010744315631
 40
0.8504699609618916
 40
0.8934918995363506
 40
0.9367383601922794
 40
0.9798348800538828
 40
1.0
 40
1.0
 40
1.0
 40
1.0
 10
-33.31285786595427
 20
-4.363041646376461
 30
0.0
 10
-33.30281247136857
 20
-4.376603389857663
 30
0.0
 10
-33.28047347917137
 20
-4.406762054031812
 30
0.0
 10
-33.24452908809155
 20
-4.647512988538261
 30
0.0
 10
-33.2061981994807
 20
-5.045053001847929
 30
0.0
 10
-33.16826035094698
 20
-5.596109777853211
 30
0.0
 10
-33.13208209608415
 20
-6.283123608800612
 30
0.0
 10
-33.09506607803566
 20
-7.098727009203335
 30
0.0
 10
-33.05686901842606
 20
-8.034441434974475
 30
0.0
 10
-33.01854917950467
 20
-9.071802235169747
 30
0.0
 10
-32.98084718696939
 20
-10.18453292415397
 30
0.0
 10
-32.94486246213893
 20
-11.35521574856811
 30
0.0
 10
-32.90746749994516
 20
-12.57010743769
 30
0.0
 10
-32.86919486637451
 20
-13.81392901065295
 30
0.0
 10
-32.83092223260487
 20
-15.05775061402842
 30
0.0
 10
-32.79352727100107
 20
-16.27264221298983
 30
0.0
 10
-32.757542544023
 20
-17.44332536560747
 30
0.0
 10
-32.71984055959027
 20
-18.55605481632636
 30
0.0
 10
-32.68152069016691
 20
-19.59342027794696
 30
0.0
 10
-32.64332374396239
 20
-20.52911737274852
 30
0.0
 10
-32.60630730786854
 20
-21.34478466033045
 30
0.0
 10
-32.57013060794731
 20
-22.03156085957543
 30
0.0
 10
-32.53218687926098
 20
-22.58351626139629
 30
0.0
 10
-32.49387808138453
 20
-22.97768029019869
 30
0.0
 10
-32.46231627845192
 20
-23.19896650192867
 30
0.0
 10
-32.4442429634338
 20
-23.22752719279548
 30
0.0
 10
-32.43848195935184
 20
-23.23663112621902
 30
0.0
  0
SPLINE
  5
CD
330
1F
100
AcDbEntity
  8
0
  6
Continuous
 62
     7
370
    25
100
AcDbSpline
210
0.0
220
0.0
230
1.0
 70
     8
 71
     3
 72
    31
 73
    27
 74
     0
 42
0.000000001
 43
0.00000001
 40
0.0
 40
0.0
 40
0.0
 40
0.0
 40
0.035215203959122
 40
0.0783117238207253
 40
0.121558184476654
 40
0.1645801230511129
 40
0.2070490095814414
 40
0.2497605044502371
 40
0.2929168757255182
 40
0.336148295381591
 40
0.3790810763461101
 40
0.4214944434483412
 40
0.4643236729938028
 40
0.5075250420065028
 40
0.5507264110192021
 40
0.5935556405646637
 40
0.6359690076668947
 40
0.6789017886314138
 40
0.7221332082874865
 40
0.765289579562769
 40
0.8080010744315638
 40
0.8504699609618923
 40
0.8934918995363513
 40
0.9367383601922802
 40
0.9798348800538835
 40
1.0
 40
1.0
 40
1.0
 40
1.0
 10
-31.51285786595427
 20
-4.363041646376461
 30
0.0
 10
-31.50281247136857
 20
-4.376603389857663
 30
0.0
 10
-31.48047347917137
 20
-4.406762054031812
 30
0.0
 10
-31.44452908809158
 20
-4.647512988538264
 30
0.0
 10
-31.40619819948068
 20
-5.045053001847929
 30
0.0
 10
-31.36826035094699
 20
-5.596109777853211
 30
0.0
 10
-31.33208209608414
 20
-6.283123608800611
 30
0.0
 10
-31.29506607803566
 20
-7.098727009203335
 30
0.0
 10
-31.25686901842607
 20
-8.034441434974475
 30
0.0
 10
-31.21854917950467
 20
-9.071802235169745
 30
0.0
 10
-31.18084718696939
 20
-10.18453292415397
 30
0.0
 10
-31.14486246213894
 20
-11.35521574856811
 30
0.0
 10
-31.10746749994516
 20
-12.57010743769001
 30
0.0
 10
-31.06919486637452
 20
-13.81392901065295
 30
0.0
 10
-31.03092223260486
 20
-15.05775061402842
 30
0.0
 10
-30.99352727100107
 20
-16.27264221298983
 30
0.0
 10
-30.957542544023
 20
-17.44332536560747
 30
0.0
 10
-30.91984055959029
 20
-18.55605481632637
 30
0.0
 10
-30.88152069016691
 20
-19.59342027794695
 30
0.0
 10
-30.8433237439624
 20
-20.52911737274853
 30
0.0
 10
-30.80630730786853
 20
-21.34478466033044
 30
0.0
 10
-30.77013060794732
 20
-22.03156085957544
 30
0.0
 10
-30.73218687926097
 20
-22.58351626139628
 30
0.0
 10
-30.69387808138453
 20
-22.97768029019869
 30
0.0
 10
-30.66231627845193
 20
-23.19896650192867
 30
0.0
 10
-30.64424296343381
 20
-23.22752719279548
 30
0.0
 10
-30.63848195935184
 20
-23.23663112621902
 30
0.0
  0
SPLINE
  5
CE
330
1F
100
AcDbEntity
  8
0
  6
Continuous
 62
     7
370
    25
100
AcDbSpline
210
0.0
220
0.0
230
1.0
 70
     8
 71
     3
 72
    31
 73
    27
 74
     0
 42
0.000000001
 43
0.00000001
 40
0.0
 40
0.0
 40
0.0
 40
0.0
 40
0.0352152039591205
 40
0.0783117238207238
 40
0.1215581844766526
 40
0.1645801230511116
 40
0.2070490095814402
 40
0.2497605044502359
 40
0.2929168757255171
 40
0.3361482953815899
 40
0.3790810763461091
 40
0.4214944434483403
 40
0.464323672993802
 40
0.5075250420065021
 40
0.5507264110192013
 40
0.5935556405646629
 40
0.635969007666894
 40
0.6789017886314133
 40
0.722133208287486
 40
0.7652895795627686
 40
0.8080010744315634
 40
0.850469960961892
 40
0.8934918995363511
 40
0.93673836019228
 40
0.9798348800538834
 40
1.0
 40
1.0
 40
1.0
 40
1.0
 10
-29.71285786595427
 20
-4.363041646376464
 30
0.0
 10
-29.70281247136857
 20
-4.376603389857663
 30
0.0
 10
-29.68047347917137
 20
-4.406762054031819
 30
0.0
 10
-29.64452908809156
 20
-4.647512988538261
 30
0.0
 10
-29.60619819948069
 20
-5.045053001847929
 30
0.0
 10
-29.56826035094699
 20
-5.596109777853211
 30
0.0
 10
-29.53208209608415
 20
-6.283123608800611
 30
0.0
 10
-29.49506607803566
 20
-7.098727009203335
 30
0.0
 10
-29.45686901842607
 20
-8.034441434974475
 30
0.0
 10
-29.41854917950467
 20
-9.071802235169747
 30
0.0
 10
-29.38084718696939
 20
-10.18453292415397
 30
0.0
 10
-29.34486246213893
 20
-11.3552157485681
 30
0.0
 10
-29.30746749994516
 20
-12.57010743769001
 30
0.0
 10
-29.26919486637451
 20
-13.81392901065295
 30
0.0
 10
-29.23092223260487
 20
-15.05775061402842
 30
0.0
 10
-29.19352727100107
 20
-16.27264221298983
 30
0.0
 10
-29.15754254402301
 20
-17.44332536560747
 30
0.0
 10
-29.11984055959028
 20
-18.55605481632636
 30
0.0
 10
-29.08152069016691
 20
-19.59342027794696
 30
0.0
 10
-29.0433237439624
 20
-20.52911737274853
 30
0.0
 10
-29.00630730786852
 20
-21.34478466033044
 30
0.0
 10
-28.97013060794731
 20
-22.03156085957544
 30
0.0
 10
-28.93218687926097
 20
-22.58351626139629
 30
0.0
 10
-28.89387808138451
 20
-22.97768029019868
 30
0.0
 10
-28.86231627845193
 20
-23.19896650192867
 30
0.0
 10
-28.8442429634338
 20
-23.22752719279548
 30
0.0
 10
-28.83848195935184
 20
-23.23663112621902
 30
0.0
  0
SPLINE
  5
CF
330
1F
100
AcDbEntity
  8
0
  6
Continuous
 62
     7
370
    25
100
AcDbSpline
210
0.0
220
0.0
230
1.0
 70
     8
 71
     3
 72
    31
 73
    27
 74
     0
 42
0.000000001
 43
0.00000001
 40
0.0
 40
0.0
 40
0.0
 40
0.0
 40
0.0352152039591221
 40
0.0783117238207254
 40
0.1215581844766541
 40
0.164580123051113
 40
0.2070490095814416
 40
0.2497605044502373
 40
0.2929168757255184
 40
0.3361482953815912
 40
0.3790810763461104
 40
0.4214944434483415
 40
0.4643236729938032
 40
0.5075250420065033
 40
0.5507264110192026
 40
0.5935556405646641
 40
0.6359690076668952
 40
0.6789017886314144
 40
0.7221332082874871
 40
0.7652895795627697
 40
0.8080010744315644
 40
0.850469960961893
 40
0.8934918995363521
 40
0.936738360192281
 40
0.9798348800538843
 40
1.0
 40
1.0
 40
1.0
 40
1.0
 10
-27.91285786595427
 20
-4.363041646376461
 30
0.0
 10
-27.90281247136858
 20
-4.376603389857663
 30
0.0
 10
-27.88047347917137
 20
-4.406762054031812
 30
0.0
 10
-27.84452908809156
 20
-4.647512988538261
 30
0.0
 10
-27.8061981994807
 20
-5.045053001847929
 30
0.0
 10
-27.76826035094699
 20
-5.596109777853214
 30
0.0
 10
-27.73208209608415
 20
-6.283123608800609
 30
0.0
 10
-27.69506607803566
 20
-7.098727009203337
 30
0.0
 10
-27.65686901842606
 20
-8.034441434974473
 30
0.0
 10
-27.61854917950468
 20
-9.071802235169747
 30
0.0
 10
-27.58084718696939
 20
-10.18453292415397
 30
0.0
 10
-27.54486246213893
 20
-11.3552157485681
 30
0.0
 10
-27.50746749994517
 20
-12.57010743769001
 30
0.0
 10
-27.46919486637451
 20
-13.81392901065295
 30
0.0
 10
-27.43092223260486
 20
-15.05775061402841
 30
0.0
 10
-27.39352727100108
 20
-16.27264221298983
 30
0.0
 10
-27.35754254402299
 20
-17.44332536560747
 30
0.0
 10
-27.3198405595903
 20
-18.55605481632637
 30
0.0
 10
-27.28152069016692
 20
-19.59342027794695
 30
0.0
 10
-27.24332374396239
 20
-20.52911737274852
 30
0.0
 10
-27.20630730786854
 20
-21.34478466033045
 30
0.0
 10
-27.1701306079473
 20
-22.03156085957543
 30
0.0
 10
-27.13218687926098
 20
-22.58351626139629
 30
0.0
 10
-27.09387808138452
 20
-22.97768029019868
 30
0.0
 10
-27.06231627845191
 20
-23.19896650192866
 30
0.0
 10
-27.04424296343381
 20
-23.22752719279547
 30
0.0
 10
-27.03848195935185
 20
-23.23663112621901
 30
0.0
  0
SPLINE
  5
D0
330
1F
100
AcDbEntity
  8
0
  6
Continuous
 62
     7
370
    25
100
AcDbSpline
210
0.0
220
0.0
230
1.0
 70
     8
 71
     3
 72
    31
 73
    27
 74
     0
 42
0.000000001
 43
0.00000001
 40
0.0
 40
0.0
 40
0.0
 40
0.0
 40
0.0352152039591221
 40
0.0783117238207254
 40
0.1215581844766541
 40
0.164580123051113
 40
0.2070490095814416
 40
0.2497605044502373
 40
0.2929168757255184
 40
0.3361482953815912
 40
0.3790810763461104
 40
0.4214944434483415
 40
0.4643236729938032
 40
0.5075250420065033
 40
0.5507264110192026
 40
0.5935556405646641
 40
0.6359690076668952
 40
0.6789017886314144
 40
0.7221332082874871
 40
0.7652895795627697
 40
0.8080010744315644
 40
0.850469960961893
 40
0.8934918995363521
 40
0.936738360192281
 40
0.9798348800538843
 40
1.0
 40
1.0
 40
1.0
 40
1.0
 10
-26.11285786595427
 20
-4.363041646376461
 30
0.0
 10
-26.10281247136857
 20
-4.376603389857663
 30
0.0
 10
-26.08047347917137
 20
-4.406762054031812
 30
0.0
 10
-26.04452908809156
 20
-4.647512988538261
 30
0.0
 10
-26.00619819948069
 20
-5.045053001847929
 30
0.0
 10
-25.968260350947
 20
-5.596109777853214
 30
0.0
 10
-25.93208209608414
 20
-6.283123608800609
 30
0.0
 10
-25.89506607803565
 20
-7.098727009203337
 30
0.0
 10
-25.85686901842606
 20
-8.034441434974473
 30
0.0
 10
-25.81854917950467
 20
-9.071802235169747
 30
0.0
 10
-25.78084718696938
 20
-10.18453292415397
 30
0.0
 10
-25.74486246213893
 20
-11.3552157485681
 30
0.0
 10
-25.70746749994516
 20
-12.57010743769001
 30
0.0
 10
-25.66919486637451
 20
-13.81392901065295
 30
0.0
 10
-25.63092223260486
 20
-15.05775061402841
 30
0.0
 10
-25.59352727100107
 20
-16.27264221298983
 30
0.0
 10
-25.55754254402299
 20
-17.44332536560747
 30
0.0
 10
-25.51984055959029
 20
-18.55605481632637
 30
0.0
 10
-25.48152069016691
 20
-19.59342027794695
 30
0.0
 10
-25.4433237439624
 20
-20.52911737274852
 30
0.0
 10
-25.40630730786853
 20
-21.34478466033045
 30
0.0
 10
-25.37013060794731
 20
-22.03156085957543
 30
0.0
 10
-25.33218687926097
 20
-22.58351626139629
 30
0.0
 10
-25.29387808138453
 20
-22.97768029019868
 30
0.0
 10
-25.26231627845191
 20
-23.19896650192866
 30
0.0
 10
-25.24424296343381
 20
-23.22752719279547
 30
0.0
 10
-25.23848195935184
 20
-23.23663112621901
 30
0.0
  0
SPLINE
  5
D1
330
1F
100
AcDbEntity
  8
0
  6
Continuous
 62
     7
370
    25
100
AcDbSpline
210
0.0
220
0.0
230
1.0
 70
     8
 71
     3
 72
    32
 73
    28
 74
     0
 42
0.000000001
 43
0.00000001
 40
0.0
 40
0.0
 40
0.0
 40
0.0
 40
0.0199117526846785
 40
0.0604369929469914
 40
0.1014538863172275
 40
0.1426134495685886
 40
0.1835593780570159
 40
0.2239790680185126
 40
0.2646296047494042
 40
0.3057034472837544
 40
0.3468486989240162
 40
0.3877097928470568
 40
0.4280766548487137
 40
0.4688392181033383
 40
0.5099558763423389
 40
0.5510725345813389
 40
0.5918350978359633
 40
0.6322019598376204
 40
0.6730630537606608
 40
0.7142083054009228
 40
0.755282147935274
 40
0.7959326846661647
 40
0.8363523746276614
 40
0.8772983031160889
 40
0.91845786636745
 40
0.9594747597376861
 40
1.0
 40
1.0
 40
1.0
 40
1.0
 10
-34.83671927834331
 20
-3.6959879780302
 30
0.0
 10
-34.83071209857059
 20
-3.677962751458406
 30
0.0
 10
-34.81247885274313
 20
-3.62325182226805
 30
0.0
 10
-34.782172847165
 20
-3.717249780082827
 30
0.0
 10
-34.74405168581618
 20
-3.969442117750924
 30
0.0
 10
-34.70572049936573
 20
-4.40209415111463
 30
0.0
 10
-34.66778267233459
 20
-4.992063059192076
 30
0.0
 10
-34.63160450103759
 20
-5.729962032523646
 30
0.0
 10
-34.59458850720815
 20
-6.605371083663025
 30
0.0
 10
-34.55639140199734
 20
-7.609858970255606
 30
0.0
 10
-34.51807152574977
 20
-8.723422182354417
 30
0.0
 10
-34.48036949670297
 20
-9.917902908470369
 30
0.0
 10
-34.44438489334919
 20
-11.17458496007174
 30
0.0
 10
-34.40698991729416
 20
-12.47872899115688
 30
0.0
 10
-34.36871724314435
 20
-13.81392900876402
 30
0.0
 10
-34.33044456906225
 20
-15.14912906808472
 30
0.0
 10
-34.29304959280645
 20
-16.45327297550612
 30
0.0
 10
-34.2570649901834
 20
-17.70995547727081
 30
0.0
 10
-34.21936295837989
 20
-18.90443450498933
 30
0.0
 10
-34.18104309250968
 20
-20.01800411065797
 30
0.0
 10
-34.14284594871647
 20
-21.02246822622365
 30
0.0
 10
-34.10583009711365
 20
-21.89796490479804
 30
0.0
 10
-34.06965139679692
 20
-22.63553794304307
 30
0.0
 10
-34.0317155702954
 20
-23.22673940023585
 30
0.0
 10
-33.9933768682073
 20
-23.65476096347207
 30
0.0
 10
-33.95528357718702
 20
-23.92412452865141
 30
0.0
 10
-33.93085692819066
 20
-23.95739438620468
 30
0.0
 10
-33.91871724315566
 20
-23.97392901573638
 30
0.0
  0
SPLINE
  5
D2
330
1F
100
AcDbEntity
  8
0
  6
Continuous
 62
     7
370
    25
100
AcDbSpline
210
0.0
220
0.0
230
1.0
 70
     8
 71
     3
 72
    32
 73
    28
 74
     0
 42
0.000000001
 43
0.00000001
 40
0.0
 40
0.0
 40
0.0
 40
0.0
 40
0.0199117526846789
 40
0.0604369929469918
 40
0.1014538863172279
 40
0.1426134495685889
 40
0.1835593780570163
 40
0.2239790680185129
 40
0.2646296047494045
 40
0.3057034472837546
 40
0.3468486989240164
 40
0.387709792847057
 40
0.4280766548487139
 40
0.4688392181033385
 40
0.5099558763423391
 40
0.551072534581339
 40
0.5918350978359636
 40
0.6322019598376205
 40
0.6730630537606609
 40
0.714208305400923
 40
0.7552821479352742
 40
0.795932684666165
 40
0.8363523746276615
 40
0.877298303116089
 40
0.9184578663674501
 40
0.9594747597376863
 40
1.0
 40
1.0
 40
1.0
 40
1.0
 10
-33.03671927834331
 20
-3.6959879780302
 30
0.0
 10
-33.03071209857059
 20
-3.677962751458406
 30
0.0
 10
-33.01247885274311
 20
-3.623251822268046
 30
0.0
 10
-32.98217284716499
 20
-3.717249780082823
 30
0.0
 10
-32.94405168581618
 20
-3.969442117750927
 30
0.0
 10
-32.90572049936572
 20
-4.40209415111463
 30
0.0
 10
-32.8677826723346
 20
-4.992063059192076
 30
0.0
 10
-32.83160450103757
 20
-5.729962032523646
 30
0.0
 10
-32.79458850720816
 20
-6.605371083663028
 30
0.0
 10
-32.75639140199733
 20
-7.609858970255604
 30
0.0
 10
-32.71807152574977
 20
-8.723422182354419
 30
0.0
 10
-32.68036949670296
 20
-9.917902908470367
 30
0.0
 10
-32.6443848933492
 20
-11.17458496007174
 30
0.0
 10
-32.60698991729415
 20
-12.47872899115688
 30
0.0
 10
-32.56871724314435
 20
-13.81392900876402
 30
0.0
 10
-32.53044456906225
 20
-15.14912906808472
 30
0.0
 10
-32.49304959280645
 20
-16.45327297550612
 30
0.0
 10
-32.4570649901834
 20
-17.7099554772708
 30
0.0
 10
-32.4193629583799
 20
-18.90443450498933
 30
0.0
 10
-32.38104309250966
 20
-20.01800411065797
 30
0.0
 10
-32.34284594871646
 20
-21.02246822622365
 30
0.0
 10
-32.30583009711366
 20
-21.89796490479805
 30
0.0
 10
-32.2696513967969
 20
-22.63553794304305
 30
0.0
 10
-32.2317155702954
 20
-23.22673940023585
 30
0.0
 10
-32.1933768682073
 20
-23.65476096347207
 30
0.0
 10
-32.15528357718701
 20
-23.9241245286514
 30
0.0
 10
-32.13085692819065
 20
-23.95739438620468
 30
0.0
 10
-32.11871724315566
 20
-23.97392901573638
 30
0.0
  0
SPLINE
  5
D3
330
1F
100
AcDbEntity
  8
0
  6
Continuous
 62
     7
370
    25
100
AcDbSpline
210
0.0
220
0.0
230
1.0
 70
     8
 71
     3
 72
    32
 73
    28
 74
     0
 42
0.000000001
 43
0.00000001
 40
0.0
 40
0.0
 40
0.0
 40
0.0
 40
0.0199117526846782
 40
0.0604369929469911
 40
0.1014538863172272
 40
0.1426134495685883
 40
0.1835593780570157
 40
0.2239790680185124
 40
0.2646296047494039
 40
0.3057034472837541
 40
0.3468486989240159
 40
0.3877097928470566
 40
0.4280766548487135
 40
0.4688392181033381
 40
0.5099558763423386
 40
0.5510725345813386
 40
0.5918350978359632
 40
0.6322019598376203
 40
0.6730630537606607
 40
0.7142083054009227
 40
0.7552821479352739
 40
0.7959326846661647
 40
0.8363523746276614
 40
0.8772983031160889
 40
0.91845786636745
 40
0.9594747597376861
 40
1.0
 40
1.0
 40
1.0
 40
1.0
 10
-31.23671927834332
 20
-3.6959879780302
 30
0.0
 10
-31.23071209857059
 20
-3.677962751458406
 30
0.0
 10
-31.21247885274312
 20
-3.623251822268046
 30
0.0
 10
-31.18217284716501
 20
-3.717249780082827
 30
0.0
 10
-31.14405168581617
 20
-3.969442117750924
 30
0.0
 10
-31.10572049936573
 20
-4.40209415111463
 30
0.0
 10
-31.0677826723346
 20
-4.992063059192076
 30
0.0
 10
-31.03160450103758
 20
-5.729962032523646
 30
0.0
 10
-30.99458850720815
 20
-6.605371083663025
 30
0.0
 10
-30.95639140199733
 20
-7.609858970255606
 30
0.0
 10
-30.91807152574977
 20
-8.723422182354417
 30
0.0
 10
-30.88036949670296
 20
-9.917902908470369
 30
0.0
 10
-30.8443848933492
 20
-11.17458496007174
 30
0.0
 10
-30.80698991729416
 20
-12.47872899115688
 30
0.0
 10
-30.76871724314435
 20
-13.81392900876402
 30
0.0
 10
-30.73044456906225
 20
-15.14912906808472
 30
0.0
 10
-30.69304959280646
 20
-16.45327297550612
 30
0.0
 10
-30.6570649901834
 20
-17.70995547727081
 30
0.0
 10
-30.6193629583799
 20
-18.90443450498933
 30
0.0
 10
-30.58104309250966
 20
-20.01800411065797
 30
0.0
 10
-30.54284594871647
 20
-21.02246822622365
 30
0.0
 10
-30.50583009711366
 20
-21.89796490479804
 30
0.0
 10
-30.46965139679691
 20
-22.63553794304306
 30
0.0
 10
-30.4317155702954
 20
-23.22673940023585
 30
0.0
 10
-30.39337686820731
 20
-23.65476096347207
 30
0.0
 10
-30.35528357718702
 20
-23.92412452865141
 30
0.0
 10
-30.33085692819066
 20
-23.95739438620468
 30
0.0
 10
-30.31871724315566
 20
-23.97392901573638
 30
0.0
  0
SPLINE
  5
D4
330
1F
100
AcDbEntity
  8
0
  6
Continuous
 62
     7
370
    25
100
AcDbSpline
210
0.0
220
0.0
230
1.0
 70
     8
 71
     3
 72
    32
 73
    28
 74
     0
 42
0.000000001
 43
0.00000001
 40
0.0
 40
0.0
 40
0.0
 40
0.0
 40
0.0199117526846785
 40
0.0604369929469914
 40
0.1014538863172275
 40
0.1426134495685886
 40
0.1835593780570159
 40
0.2239790680185126
 40
0.2646296047494042
 40
0.3057034472837544
 40
0.3468486989240162
 40
0.3877097928470568
 40
0.4280766548487137
 40
0.4688392181033383
 40
0.5099558763423389
 40
0.5510725345813389
 40
0.5918350978359633
 40
0.6322019598376204
 40
0.6730630537606608
 40
0.7142083054009228
 40
0.755282147935274
 40
0.7959326846661647
 40
0.8363523746276614
 40
0.8772983031160889
 40
0.91845786636745
 40
0.9594747597376861
 40
1.0
 40
1.0
 40
1.0
 40
1.0
 10
-29.43671927834331
 20
-3.6959879780302
 30
0.0
 10
-29.43071209857059
 20
-3.677962751458406
 30
0.0
 10
-29.41247885274312
 20
-3.62325182226805
 30
0.0
 10
-29.38217284716499
 20
-3.717249780082827
 30
0.0
 10
-29.34405168581618
 20
-3.969442117750924
 30
0.0
 10
-29.30572049936573
 20
-4.40209415111463
 30
0.0
 10
-29.26778267233459
 20
-4.992063059192076
 30
0.0
 10
-29.23160450103758
 20
-5.729962032523646
 30
0.0
 10
-29.19458850720815
 20
-6.605371083663025
 30
0.0
 10
-29.15639140199734
 20
-7.609858970255606
 30
0.0
 10
-29.11807152574976
 20
-8.723422182354417
 30
0.0
 10
-29.08036949670297
 20
-9.917902908470369
 30
0.0
 10
-29.04438489334919
 20
-11.17458496007174
 30
0.0
 10
-29.00698991729416
 20
-12.47872899115688
 30
0.0
 10
-28.96871724314434
 20
-13.81392900876402
 30
0.0
 10
-28.93044456906226
 20
-15.14912906808472
 30
0.0
 10
-28.89304959280644
 20
-16.45327297550612
 30
0.0
 10
-28.8570649901834
 20
-17.70995547727081
 30
0.0
 10
-28.81936295837989
 20
-18.90443450498933
 30
0.0
 10
-28.78104309250967
 20
-20.01800411065797
 30
0.0
 10
-28.74284594871646
 20
-21.02246822622365
 30
0.0
 10
-28.70583009711365
 20
-21.89796490479804
 30
0.0
 10
-28.66965139679691
 20
-22.63553794304307
 30
0.0
 10
-28.6317155702954
 20
-23.22673940023585
 30
0.0
 10
-28.5933768682073
 20
-23.65476096347207
 30
0.0
 10
-28.55528357718703
 20
-23.92412452865141
 30
0.0
 10
-28.53085692819065
 20
-23.95739438620468
 30
0.0
 10
-28.51871724315566
 20
-23.97392901573638
 30
0.0
  0
SPLINE
  5
D5
330
1F
100
AcDbEntity
  8
0
  6
Continuous
 62
     7
370
    25
100
AcDbSpline
210
0.0
220
0.0
230
1.0
 70
     8
 71
     3
 72
    32
 73
    28
 74
     0
 42
0.000000001
 43
0.00000001
 40
0.0
 40
0.0
 40
0.0
 40
0.0
 40
0.0199117526846785
 40
0.0604369929469914
 40
0.1014538863172275
 40
0.1426134495685886
 40
0.1835593780570159
 40
0.2239790680185126
 40
0.2646296047494042
 40
0.3057034472837544
 40
0.3468486989240162
 40
0.3877097928470568
 40
0.4280766548487137
 40
0.4688392181033383
 40
0.5099558763423389
 40
0.5510725345813389
 40
0.5918350978359633
 40
0.6322019598376204
 40
0.6730630537606608
 40
0.7142083054009228
 40
0.755282147935274
 40
0.7959326846661647
 40
0.8363523746276614
 40
0.8772983031160889
 40
0.91845786636745
 40
0.9594747597376861
 40
1.0
 40
1.0
 40
1.0
 40
1.0
 10
-27.63671927834332
 20
-3.6959879780302
 30
0.0
 10
-27.63071209857059
 20
-3.677962751458406
 30
0.0
 10
-27.61247885274313
 20
-3.62325182226805
 30
0.0
 10
-27.582172847165
 20
-3.717249780082827
 30
0.0
 10
-27.54405168581618
 20
-3.969442117750924
 30
0.0
 10
-27.50572049936573
 20
-4.40209415111463
 30
0.0
 10
-27.46778267233459
 20
-4.992063059192076
 30
0.0
 10
-27.43160450103758
 20
-5.729962032523646
 30
0.0
 10
-27.39458850720816
 20
-6.605371083663025
 30
0.0
 10
-27.35639140199734
 20
-7.609858970255606
 30
0.0
 10
-27.31807152574977
 20
-8.723422182354417
 30
0.0
 10
-27.28036949670297
 20
-9.917902908470369
 30
0.0
 10
-27.2443848933492
 20
-11.17458496007174
 30
0.0
 10
-27.20698991729417
 20
-12.47872899115688
 30
0.0
 10
-27.16871724314435
 20
-13.81392900876402
 30
0.0
 10
-27.13044456906226
 20
-15.14912906808472
 30
0.0
 10
-27.09304959280645
 20
-16.45327297550612
 30
0.0
 10
-27.05706499018341
 20
-17.70995547727081
 30
0.0
 10
-27.01936295837989
 20
-18.90443450498933
 30
0.0
 10
-26.98104309250967
 20
-20.01800411065797
 30
0.0
 10
-26.94284594871647
 20
-21.02246822622365
 30
0.0
 10
-26.90583009711367
 20
-21.89796490479804
 30
0.0
 10
-26.86965139679691
 20
-22.63553794304307
 30
0.0
 10
-26.83171557029541
 20
-23.22673940023585
 30
0.0
 10
-26.7933768682073
 20
-23.65476096347207
 30
0.0
 10
-26.75528357718703
 20
-23.92412452865141
 30
0.0
 10
-26.73085692819066
 20
-23.95739438620468
 30
0.0
 10
-26.71871724315567
 20
-23.97392901573638
 30
0.0
  0
SPLINE
  5
D6
330
1F
100
AcDbEntity
  8
0
  6
Continuous
 62
     7
370
    25
100
AcDbSpline
210
0.0
220
0.0
230
1.0
 70
     8
 71
     3
 72
    32
 73
    28
 74
     0
 42
0.000000001
 43
0.00000001
 40
0.0
 40
0.0
 40
0.0
 40
0.0
 40
0.0199117526846785
 40
0.0604369929469914
 40
0.1014538863172275
 40
0.1426134495685886
 40
0.1835593780570159
 40
0.2239790680185126
 40
0.2646296047494042
 40
0.3057034472837544
 40
0.3468486989240162
 40
0.3877097928470568
 40
0.4280766548487137
 40
0.4688392181033383
 40
0.5099558763423389
 40
0.5510725345813389
 40
0.5918350978359633
 40
0.6322019598376204
 40
0.6730630537606608
 40
0.7142083054009228
 40
0.755282147935274
 40
0.7959326846661647
 40
0.8363523746276614
 40
0.8772983031160889
 40
0.91845786636745
 40
0.9594747597376861
 40
1.0
 40
1.0
 40
1.0
 40
1.0
 10
-25.83671927834331
 20
-3.6959879780302
 30
0.0
 10
-25.83071209857059
 20
-3.677962751458406
 30
0.0
 10
-25.81247885274312
 20
-3.62325182226805
 30
0.0
 10
-25.78217284716501
 20
-3.717249780082827
 30
0.0
 10
-25.74405168581617
 20
-3.969442117750924
 30
0.0
 10
-25.70572049936573
 20
-4.40209415111463
 30
0.0
 10
-25.66778267233459
 20
-4.992063059192076
 30
0.0
 10
-25.63160450103758
 20
-5.729962032523646
 30
0.0
 10
-25.59458850720815
 20
-6.605371083663025
 30
0.0
 10
-25.55639140199733
 20
-7.609858970255606
 30
0.0
 10
-25.51807152574977
 20
-8.723422182354417
 30
0.0
 10
-25.48036949670297
 20
-9.917902908470369
 30
0.0
 10
-25.44438489334919
 20
-11.17458496007174
 30
0.0
 10
-25.40698991729416
 20
-12.47872899115688
 30
0.0
 10
-25.36871724314434
 20
-13.81392900876402
 30
0.0
 10
-25.33044456906225
 20
-15.14912906808472
 30
0.0
 10
-25.29304959280645
 20
-16.45327297550612
 30
0.0
 10
-25.25706499018339
 20
-17.70995547727081
 30
0.0
 10
-25.2193629583799
 20
-18.90443450498933
 30
0.0
 10
-25.18104309250966
 20
-20.01800411065797
 30
0.0
 10
-25.14284594871647
 20
-21.02246822622365
 30
0.0
 10
-25.10583009711365
 20
-21.89796490479804
 30
0.0
 10
-25.06965139679691
 20
-22.63553794304307
 30
0.0
 10
-25.0317155702954
 20
-23.22673940023585
 30
0.0
 10
-24.9933768682073
 20
-23.65476096347207
 30
0.0
 10
-24.95528357718702
 20
-23.92412452865141
 30
0.0
 10
-24.93085692819066
 20
-23.95739438620468
 30
0.0
 10
-24.91871724315566
 20
-23.97392901573638
 30
0.0
  0
SPLINE
  5
D7
330
1F
100
AcDbEntity
  8
0
  6
Continuous
 62
     7
370
    25
100
AcDbSpline
210
0.0
220
0.0
230
1.0
 70
     8
 71
     3
 72
    21
 73
    17
 74
     0
 42
0.000000001
 43
0.00000001
 40
0.0
 40
0.0
 40
0.0
 40
0.0
 40
0.028782712697882
 40
0.1083425735918697
 40
0.1872172682075958
 40
0.2653262892985261
 40
0.3443916386660901
 40
0.4240068271845572
 40
0.5034838405989146
 40
0.5821417662692442
 40
0.660353008341066
 40
0.7395825107918395
 40
0.8192253919739854
 40
0.8985922099646609
 40
0.9770076896280083
 40
1.0
 40
1.0
 40
1.0
 40
1.0
 10
-35.20000000000001
 20
-13.32998504339974
 30
0.0
 10
-35.19537641030539
 20
-13.49127573867178
 30
0.0
 10
-35.17797250498189
 20
-14.09839881305388
 30
0.0
 10
-35.14785065840888
 20
-15.14927484274214
 30
0.0
 10
-35.11046067582349
 20
-16.45323459869483
 30
0.0
 10
-35.07447474748714
 20
-17.70996547087309
 30
0.0
 10
-35.03677307746941
 20
-18.90443325351516
 30
0.0
 10
-34.99845310236374
 20
-20.01799895678733
 30
0.0
 10
-34.96025602971827
 20
-21.02248994482991
 30
0.0
 10
-34.92324000471859
 20
-21.89788428284948
 30
0.0
 10
-34.88706192561055
 20
-22.63583885902315
 30
0.0
 10
-34.8491237563881
 20
-23.2255972633239
 30
0.0
 10
-34.81079385375937
 20
-23.65904018621994
 30
0.0
 10
-34.77266793206097
 20
-23.90829964177313
 30
0.0
 10
-34.74477384176651
 20
-24.00313217316865
 30
0.0
 10
-34.72896811012282
 20
-23.95886648355262
 30
0.0
 10
-34.72538445755056
 20
-23.94883007043163
 30
0.0
  0
SPLINE
  5
D8
330
1F
100
AcDbEntity
  8
0
  6
Continuous
 62
     7
370
    25
100
AcDbSpline
210
0.0
220
0.0
230
1.0
 70
     8
 71
     3
 72
    33
 73
    29
 74
     0
 42
0.000000001
 43
0.00000001
 40
0.0
 40
0.0
 40
0.0
 40
0.0
 40
0.0350222898806509
 40
0.0766213084832282
 40
0.1183650217847767
 40
0.1598920683486176
 40
0.2008854078353868
 40
0.2421128703447782
 40
0.2812602929253781
 40
0.3204909750938523
 40
0.359504911358473
 40
0.3980329857872729
 40
0.4367431689123954
 40
0.475863847691807
 40
0.4909499079782671
 40
0.532650107345417
 40
0.5739911862957874
 40
0.6149309480709472
 40
0.6563719560693652
 40
0.698101154644726
 40
0.7397579306526738
 40
0.7809853931620643
 40
0.8219787326488337
 40
0.8635057792126746
 40
0.9052494925142233
 40
0.9468485111168006
 40
0.9879488989089489
 40
1.0
 40
1.0
 40
1.0
 40
1.0
 10
-33.83070902755791
 20
-3.666587929298297
 30
0.0
 10
-33.82035993552529
 20
-3.681444108670495
 30
0.0
 10
-33.79771832711375
 20
-3.713946263910448
 30
0.0
 10
-33.76146248552404
 20
-3.973945840511559
 30
0.0
 10
-33.72313033306488
 20
-4.400891597744042
 30
0.0
 10
-33.68519277965189
 20
-4.992381725931139
 30
0.0
 10
-33.64901447518227
 20
-5.729869903447895
 30
0.0
 10
-33.61274856286755
 20
-6.587685614393794
 30
0.0
 10
-33.5761135640764
 20
-7.548061817721431
 30
0.0
 10
-33.54007757664573
 20
-8.586571315512831
 30
0.0
 10
-33.50448691661785
 20
-9.698951062523431
 30
0.0
 10
-33.47046732023304
 20
-10.86801866549084
 30
0.0
 10
-33.4358028484157
 20
-12.08206127828924
 30
0.0
 10
-33.40736974603921
 20
-13.07280503690529
 30
0.0
 10
-33.37797066901652
 20
-14.0985096358675
 30
0.0
 10
-33.34785132603908
 20
-15.14923454314836
 30
0.0
 10
-33.31046049958747
 20
-16.45324523667991
 30
0.0
 10
-33.27447479514561
 20
-17.70996259410429
 30
0.0
 10
-33.2367730645333
 20
-18.90443403436658
 30
0.0
 10
-33.19845310583463
 20
-20.01799874727679
 30
0.0
 10
-33.16025602879945
 20
-21.02249000029242
 30
0.0
 10
-33.12324000496205
 20
-21.89788426815353
 30
0.0
 10
-33.08706192554453
 20
-22.63583886300782
 30
0.0
 10
-33.04912375640598
 20
-23.22559726224381
 30
0.0
 10
-33.01079385375457
 20
-23.65904018650966
 30
0.0
 10
-32.97266793206224
 20
-23.9082996416941
 30
0.0
 10
-32.94477384176644
 20
-24.00313217317337
 30
0.0
 10
-32.92896811012281
 20
-23.9588664835535
 30
0.0
 10
-32.92538445755056
 20
-23.94883007043163
 30
0.0
  0
SPLINE
  5
D9
330
1F
100
AcDbEntity
  8
0
  6
Continuous
 62
     7
370
    25
100
AcDbSpline
210
0.0
220
0.0
230
1.0
 70
     8
 71
     3
 72
    33
 73
    29
 74
     0
 42
0.000000001
 43
0.00000001
 40
0.0
 40
0.0
 40
0.0
 40
0.0
 40
0.0350222898806509
 40
0.0766213084832281
 40
0.1183650217847766
 40
0.1598920683486175
 40
0.2008854078353867
 40
0.242112870344778
 40
0.2812602929253779
 40
0.320490975093852
 40
0.3595049113584727
 40
0.3980329857872726
 40
0.4367431689123951
 40
0.4758638476918067
 40
0.4909499079782668
 40
0.5326501073454165
 40
0.5739911862957869
 40
0.6149309480709467
 40
0.6563719560693647
 40
0.6981011546447254
 40
0.7397579306526734
 40
0.7809853931620637
 40
0.8219787326488331
 40
0.863505779212674
 40
0.9052494925142226
 40
0.9468485111167999
 40
0.9879488989089482
 40
1.0
 40
1.0
 40
1.0
 40
1.0
 10
-32.0307090275579
 20
-3.666587929298297
 30
0.0
 10
-32.02035993552528
 20
-3.681444108670495
 30
0.0
 10
-31.99771832711373
 20
-3.713946263910448
 30
0.0
 10
-31.96146248552405
 20
-3.973945840511559
 30
0.0
 10
-31.92313033306488
 20
-4.400891597744042
 30
0.0
 10
-31.88519277965188
 20
-4.992381725931139
 30
0.0
 10
-31.84901447518228
 20
-5.729869903447899
 30
0.0
 10
-31.81274856286755
 20
-6.587685614393798
 30
0.0
 10
-31.77611356407639
 20
-7.548061817721425
 30
0.0
 10
-31.74007757664573
 20
-8.586571315512833
 30
0.0
 10
-31.70448691661786
 20
-9.698951062523431
 30
0.0
 10
-31.67046732023304
 20
-10.86801866549085
 30
0.0
 10
-31.63580284841568
 20
-12.08206127828923
 30
0.0
 10
-31.60736974603923
 20
-13.07280503690529
 30
0.0
 10
-31.57797066901651
 20
-14.0985096358675
 30
0.0
 10
-31.54785132603909
 20
-15.14923454314837
 30
0.0
 10
-31.51046049958747
 20
-16.4532452366799
 30
0.0
 10
-31.47447479514562
 20
-17.70996259410429
 30
0.0
 10
-31.4367730645333
 20
-18.90443403436658
 30
0.0
 10
-31.39845310583463
 20
-20.0179987472768
 30
0.0
 10
-31.36025602879947
 20
-21.02249000029242
 30
0.0
 10
-31.32324000496204
 20
-21.89788426815353
 30
0.0
 10
-31.28706192554453
 20
-22.63583886300782
 30
0.0
 10
-31.24912375640598
 20
-23.22559726224381
 30
0.0
 10
-31.21079385375458
 20
-23.65904018650967
 30
0.0
 10
-31.17266793206225
 20
-23.9082996416941
 30
0.0
 10
-31.14477384176644
 20
-24.00313217317337
 30
0.0
 10
-31.12896811012281
 20
-23.9588664835535
 30
0.0
 10
-31.12538445755056
 20
-23.94883007043163
 30
0.0
  0
SPLINE
  5
DA
330
1F
100
AcDbEntity
  8
0
  6
Continuous
 62
     7
370
    25
100
AcDbSpline
210
0.0
220
0.0
230
1.0
 70
     8
 71
     3
 72
    33
 73
    29
 74
     0
 42
0.000000001
 43
0.00000001
 40
0.0
 40
0.0
 40
0.0
 40
0.0
 40
0.0350222898806516
 40
0.0766213084832288
 40
0.1183650217847773
 40
0.1598920683486181
 40
0.2008854078353873
 40
0.2421128703447786
 40
0.2812602929253784
 40
0.3204909750938525
 40
0.3595049113584731
 40
0.398032985787273
 40
0.4367431689123955
 40
0.475863847691807
 40
0.490949907978267
 40
0.5326501073454168
 40
0.5739911862957872
 40
0.614930948070947
 40
0.6563719560693648
 40
0.6981011546447256
 40
0.7397579306526735
 40
0.7809853931620638
 40
0.8219787326488331
 40
0.863505779212674
 40
0.9052494925142226
 40
0.9468485111167999
 40
0.9879488989089482
 40
1.0
 40
1.0
 40
1.0
 40
1.0
 10
-30.23070902755791
 20
-3.666587929298294
 30
0.0
 10
-30.22035993552528
 20
-3.681444108670492
 30
0.0
 10
-30.19771832711374
 20
-3.713946263910445
 30
0.0
 10
-30.16146248552406
 20
-3.973945840511559
 30
0.0
 10
-30.12313033306486
 20
-4.400891597744042
 30
0.0
 10
-30.08519277965189
 20
-4.992381725931142
 30
0.0
 10
-30.04901447518228
 20
-5.729869903447895
 30
0.0
 10
-30.01274856286755
 20
-6.587685614393796
 30
0.0
 10
-29.97611356407639
 20
-7.548061817721427
 30
0.0
 10
-29.94007757664572
 20
-8.586571315512828
 30
0.0
 10
-29.90448691661786
 20
-9.69895106252343
 30
0.0
 10
-29.87046732023304
 20
-10.86801866549084
 30
0.0
 10
-29.83580284841569
 20
-12.08206127828924
 30
0.0
 10
-29.80736974603924
 20
-13.07280503690529
 30
0.0
 10
-29.7779706690165
 20
-14.0985096358675
 30
0.0
 10
-29.7478513260391
 20
-15.14923454314837
 30
0.0
 10
-29.71046049958748
 20
-16.45324523667991
 30
0.0
 10
-29.67447479514561
 20
-17.70996259410428
 30
0.0
 10
-29.63677306453332
 20
-18.90443403436659
 30
0.0
 10
-29.59845310583461
 20
-20.01799874727679
 30
0.0
 10
-29.56025602879946
 20
-21.02249000029242
 30
0.0
 10
-29.52324000496204
 20
-21.89788426815352
 30
0.0
 10
-29.48706192554454
 20
-22.63583886300783
 30
0.0
 10
-29.44912375640597
 20
-23.2255972622438
 30
0.0
 10
-29.41079385375459
 20
-23.65904018650967
 30
0.0
 10
-29.37266793206225
 20
-23.9082996416941
 30
0.0
 10
-29.34477384176644
 20
-24.00313217317337
 30
0.0
 10
-29.32896811012281
 20
-23.9588664835535
 30
0.0
 10
-29.32538445755056
 20
-23.94883007043163
 30
0.0
  0
SPLINE
  5
DB
330
1F
100
AcDbEntity
  8
0
  6
Continuous
 62
     7
370
    25
100
AcDbSpline
210
0.0
220
0.0
230
1.0
 70
     8
 71
     3
 72
    33
 73
    29
 74
     0
 42
0.000000001
 43
0.00000001
 40
0.0
 40
0.0
 40
0.0
 40
0.0
 40
0.0408520848207183
 40
0.0821997880347452
 40
0.1236913117923976
 40
0.1649674777779669
 40
0.2057131610125654
 40
0.2466915528441488
 40
0.2856024710540426
 40
0.3245961458491828
 40
0.3633743841843669
 40
0.4016696959586513
 40
0.4401460162418186
 40
0.4790303522199317
 40
0.4940252719163022
 40
0.5354735446236742
 40
0.5765648664963894
 40
0.6172572957025774
 40
0.6584479429142052
 40
0.6999250396346146
 40
0.741330151319704
 40
0.7823085431512865
 40
0.8230542263858851
 40
0.8643303923714545
 40
0.9058219161291069
 40
0.9471696193431339
 40
0.9880217041638532
 40
1.0
 40
1.0
 40
1.0
 40
1.0
 10
-28.43612728314366
 20
-3.653929015736378
 30
0.0
 10
-28.42398759802592
 20
-3.670463633775597
 30
0.0
 10
-28.39956094886306
 20
-3.703733468204466
 30
0.0
 10
-28.36146765910453
 20
-3.97309720863398
 30
0.0
 10
-28.32312895220214
 20
-4.401118103186643
 30
0.0
 10
-28.28519314353506
 20
-4.992322037505739
 30
0.0
 10
-28.24901437742961
 20
-5.729885937996282
 30
0.0
 10
-28.21274858765165
 20
-6.587681549012182
 30
0.0
 10
-28.17611355756457
 20
-7.548062885867037
 30
0.0
 10
-28.14007757838212
 20
-8.586571030689827
 30
0.0
 10
-28.10448691616013
 20
-9.698951137604675
 30
0.0
 10
-28.07046732035587
 20
-10.86801864534135
 30
0.0
 10
-28.0358028483814
 20
-12.08206128391329
 30
0.0
 10
-28.00736974604226
 20
-13.07280503640704
 30
0.0
 10
-27.97797066901498
 20
-14.09850963612204
 30
0.0
 10
-27.94785132603964
 20
-15.1492345430558
 30
0.0
 10
-27.91046049958734
 20
-16.45324523670435
 30
0.0
 10
-27.87447479514565
 20
-17.70996259409768
 30
0.0
 10
-27.83677306453329
 20
-18.90443403436837
 30
0.0
 10
-27.79845310583464
 20
-20.01799874727632
 30
0.0
 10
-27.76025602879946
 20
-21.02249000029255
 30
0.0
 10
-27.72324000496205
 20
-21.89788426815349
 30
0.0
 10
-27.68706192554453
 20
-22.63583886300783
 30
0.0
 10
-27.649123756406
 20
-23.22559726224381
 30
0.0
 10
-27.61079385375457
 20
-23.65904018650966
 30
0.0
 10
-27.57266793206227
 20
-23.9082996416941
 30
0.0
 10
-27.54477384176643
 20
-24.00313217317337
 30
0.0
 10
-27.52896811012282
 20
-23.9588664835535
 30
0.0
 10
-27.52538445755056
 20
-23.94883007043163
 30
0.0
  0
SPLINE
  5
DC
330
1F
100
AcDbEntity
  8
0
  6
Continuous
 62
     7
370
    25
100
AcDbSpline
210
0.0
220
0.0
230
1.0
 70
     8
 71
     3
 72
    33
 73
    29
 74
     0
 42
0.000000001
 43
0.00000001
 40
0.0
 40
0.0
 40
0.0
 40
0.0
 40
0.0350222898806516
 40
0.0766213084832288
 40
0.1183650217847773
 40
0.1598920683486181
 40
0.2008854078353873
 40
0.2421128703447786
 40
0.2812602929253784
 40
0.3204909750938525
 40
0.3595049113584731
 40
0.398032985787273
 40
0.4367431689123955
 40
0.475863847691807
 40
0.490949907978267
 40
0.5326501073454168
 40
0.5739911862957872
 40
0.614930948070947
 40
0.6563719560693648
 40
0.6981011546447256
 40
0.7397579306526735
 40
0.7809853931620638
 40
0.8219787326488331
 40
0.863505779212674
 40
0.9052494925142226
 40
0.9468485111167999
 40
0.9879488989089482
 40
1.0
 40
1.0
 40
1.0
 40
1.0
 10
-26.63070902755791
 20
-3.666587929298294
 30
0.0
 10
-26.62035993552528
 20
-3.681444108670492
 30
0.0
 10
-26.59771832711374
 20
-3.713946263910445
 30
0.0
 10
-26.56146248552406
 20
-3.973945840511559
 30
0.0
 10
-26.52313033306487
 20
-4.400891597744042
 30
0.0
 10
-26.48519277965189
 20
-4.992381725931142
 30
0.0
 10
-26.44901447518227
 20
-5.729869903447895
 30
0.0
 10
-26.41274856286756
 20
-6.587685614393796
 30
0.0
 10
-26.37611356407639
 20
-7.548061817721427
 30
0.0
 10
-26.34007757664572
 20
-8.586571315512828
 30
0.0
 10
-26.30448691661786
 20
-9.69895106252343
 30
0.0
 10
-26.27046732023304
 20
-10.86801866549084
 30
0.0
 10
-26.2358028484157
 20
-12.08206127828924
 30
0.0
 10
-26.20736974603923
 20
-13.07280503690529
 30
0.0
 10
-26.1779706690165
 20
-14.0985096358675
 30
0.0
 10
-26.1478513260391
 20
-15.14923454314837
 30
0.0
 10
-26.11046049958747
 20
-16.45324523667991
 30
0.0
 10
-26.07447479514561
 20
-17.70996259410428
 30
0.0
 10
-26.03677306453331
 20
-18.90443403436659
 30
0.0
 10
-25.99845310583462
 20
-20.01799874727679
 30
0.0
 10
-25.96025602879947
 20
-21.02249000029242
 30
0.0
 10
-25.92324000496205
 20
-21.89788426815352
 30
0.0
 10
-25.88706192554454
 20
-22.63583886300783
 30
0.0
 10
-25.84912375640597
 20
-23.2255972622438
 30
0.0
 10
-25.81079385375458
 20
-23.65904018650967
 30
0.0
 10
-25.77266793206225
 20
-23.9082996416941
 30
0.0
 10
-25.74477384176643
 20
-24.00313217317337
 30
0.0
 10
-25.72896811012281
 20
-23.9588664835535
 30
0.0
 10
-25.72538445755056
 20
-23.94883007043163
 30
0.0
  0
SPLINE
  5
DD
330
1F
100
AcDbEntity
  8
0
  6
Continuous
 62
     7
370
    25
100
AcDbSpline
210
0.0
220
0.0
230
1.0
 70
    24
 71
     3
 72
    25
 73
    21
 74
     0
 42
0.000000001
 43
0.00000001
 40
0.0
 40
0.0
 40
0.0
 40
0.0
 40
0.0687532235923315
 40
0.1382092161129199
 40
0.1952389698806062
 40
0.2522664281610734
 40
0.3110209055452801
 40
0.3697753734101723
 40
0.4257035563292752
 40
0.4816317396801725
 40
0.5392009563792571
 40
0.596770183303364
 40
0.65244743994315
 40
0.7081241566047629
 40
0.7655031772529421
 40
0.822882191256557
 40
0.8772315848636688
 40
0.9315809817026941
 40
0.9875157837648995
 40
1.0
 40
1.0
 40
1.0
 40
1.0
 10
-35.2
 20
-13.32998504339974
 30
0.0
 10
-35.2
 20
-12.99221228886663
 30
0.0
 10
-35.20000000000002
 20
-12.31321419700802
 30
0.0
 10
-35.2
 20
-11.37424549115742
 30
0.0
 10
-35.2
 20
-10.5150875295426
 30
0.0
 10
-35.2
 20
-9.732140496965732
 30
0.0
 10
-35.2
 20
-8.974526233676679
 30
0.0
 10
-35.19999999999998
 20
-8.260408091314188
 30
0.0
 10
-35.2
 20
-7.600888913187297
 30
0.0
 10
-35.20000000000002
 20
-6.991602885661622
 30
0.0
 10
-35.2
 20
-6.428108367094903
 30
0.0
 10
-35.19999999999999
 20
-5.921199296558745
 30
0.0
 10
-35.2
 20
-5.479085594949088
 30
0.0
 10
-35.20000000000001
 20
-5.099145498282009
 30
0.0
 10
-35.19999999999999
 20
-4.781966776262376
 30
0.0
 10
-35.20000000000001
 20
-4.53653030761433
 30
0.0
 10
-35.2
 20
-4.362272990081757
 30
0.0
 10
-35.19999999999998
 20
-4.261836506318794
 30
0.0
 10
-35.2
 20
-4.221572910199312
 30
0.0
 10
-35.2
 20
-4.237854687370556
 30
0.0
 10
-35.2
 20
-4.240825575172749
 30
0.0
  0
SPLINE
  5
E1
330
1F
100
AcDbEntity
  8
0
  6
Continuous
 62
     7
370
    25
100
AcDbSpline
210
0.0
220
0.0
230
1.0
 70
    24
 71
     3
 72
    28
 73
    24
 74
     0
 42
0.000000001
 43
0.00000001
 40
0.0
 40
0.0
 40
0.0
 40
0.0
 40
0.0403390466185671
 40
0.0852924106665986
 40
0.1305764635088625
 40
0.1742686571853451
 40
0.2182641169440891
 40
0.2632138498906587
 40
0.308491109340114
 40
0.35242250619725
 40
0.3966367173473017
 40
0.4417396738171072
 40
0.4871489198513088
 40
0.5327505976786291
 40
0.5786687506305743
 40
0.6255797666388088
 40
0.6728281582593673
 40
0.7188222640816262
 40
0.7651154030556724
 40
0.8123486485303958
 40
0.8599059741086714
 40
0.9294293009480326
 40
1.0
 40
1.0
 40
1.0
 40
1.0
 10
-8.97674905935196
 20
-42.8
 30
0.0
 10
-8.967565200385117
 20
-42.8
 30
0.0
 10
-8.948146955875993
 20
-42.8
 30
0.0
 10
-8.837961050322278
 20
-42.79999999999998
 30
0.0
 10
-8.665551841920442
 20
-42.80000000000003
 30
0.0
 10
-8.430373913630156
 20
-42.79999999999999
 30
0.0
 10
-8.136371016722835
 20
-42.8
 30
0.0
 10
-7.779512811512186
 20
-42.80000000000003
 30
0.0
 10
-7.365167554389989
 20
-42.79999999999999
 30
0.0
 10
-6.901939417066794
 20
-42.79999999999998
 30
0.0
 10
-6.391488782481257
 20
-42.80000000000002
 30
0.0
 10
-5.829804651945581
 20
-42.8
 30
0.0
 10
-5.219487243222024
 20
-42.80000000000002
 30
0.0
 10
-4.566358746948308
 20
-42.79999999999999
 30
0.0
 10
-3.870836282052987
 20
-42.80000000000002
 30
0.0
 10
-3.135723971849728
 20
-42.8
 30
0.0
 10
-2.374162368011839
 20
-42.80000000000002
 30
0.0
 10
-1.596333397531111
 20
-42.79999999999998
 30
0.0
 10
-0.8039615967352252
 20
-42.79999999999998
 30
0.0
 10
0.0071172632181713
 20
-42.8
 30
0.0
 10
0.9561871675210637
 20
-42.80000000000002
 30
0.0
 10
2.041026831621856
 20
-42.8
 30
0.0
 10
2.829967761894739
 20
-42.79999999999998
 30
0.0
 10
3.227387370659891
 20
-42.79999999999998
 30
0.0
  0
SPLINE
  5
E2
330
1F
100
AcDbEntity
  8
0
  6
Continuous
 62
     7
370
    25
100
AcDbSpline
210
0.0
220
0.0
230
1.0
 70
     8
 71
     3
 72
    31
 73
    27
 74
     0
 42
0.000000001
 43
0.00000001
 40
0.0
 40
0.0
 40
0.0
 40
0.0
 40
0.0129673245410374
 40
0.0570737724165427
 40
0.1013339119717913
 40
0.1453639140703121
 40
0.1888270626420689
 40
0.2325388687667461
 40
0.2767066648924105
 40
0.3209513870374541
 40
0.3648900036953244
 40
0.4082962491446613
 40
0.4521287283297222
 40
0.4963426478943991
 40
0.540556567459075
 40
0.5843890466441359
 40
0.6277952920934728
 40
0.6717339087513431
 40
0.7159786308963868
 40
0.760146427022052
 40
0.8038582331467292
 40
0.8473213817184866
 40
0.8913513838170077
 40
0.935611523372257
 40
0.9797179712477627
 40
0.9999999999999999
 40
0.9999999999999999
 40
0.9999999999999999
 40
0.9999999999999999
 10
-8.906973899357594
 20
-42.76711530835185
 30
0.0
 10
-8.900983377372144
 20
-42.76248479980873
 30
0.0
 10
-8.874616975623518
 20
-42.74210429726742
 30
0.0
 10
-8.67329431212585
 20
-42.70455527258685
 30
0.0
 10
-8.302459402171241
 20
-42.6556257764902
 30
0.0
 10
-7.779326787547777
 20
-42.60713708935241
 30
0.0
 10
-7.129323182742736
 20
-42.56091192878544
 30
0.0
 10
-6.357101784720542
 20
-42.51361261138668
 30
0.0
 10
-5.47131619538784
 20
-42.46480585807722
 30
0.0
 10
-4.489268403117967
 20
-42.41584185149545
 30
0.0
 10
-3.435880741898278
 20
-42.36766739013078
 30
0.0
 10
-2.327598348986878
 20
-42.32168593967418
 30
0.0
 10
-1.177490270306045
 20
-42.27390359935595
 30
0.0
 10
0.000000003335849
 20
-42.22499999997056
 30
0.0
 10
1.177490257019791
 20
-42.17609640076133
 30
0.0
 10
2.327598394866589
 20
-42.12831405992092
 30
0.0
 10
3.4358805724035
 20
-42.08233261136513
 30
0.0
 10
4.489269046215546
 20
-42.03415814282884
 30
0.0
 10
5.471313779457106
 20
-41.98519416324494
 30
0.0
 10
6.357110742054303
 20
-41.93638730955904
 30
0.0
 10
7.129290215575769
 20
-41.88908836217137
 30
0.0
 10
7.779449759974916
 20
-41.84286182533555
 30
0.0
 10
8.3019926631571
 20
-41.79437834278677
 30
0.0
 10
8.675043041035755
 20
-41.74542929373725
 30
0.0
 10
8.884132928355955
 20
-41.70522953021997
 30
0.0
 10
8.911138761981261
 20
-41.68226119626583
 30
0.0
 10
8.919645456389226
 20
-41.6750262928476
 30
0.0
  0
SPLINE
  5
E3
330
1F
100
AcDbEntity
  8
0
  6
Continuous
 62
     7
370
    25
100
AcDbSpline
210
0.0
220
0.0
230
1.0
 70
     8
 71
     3
 72
    31
 73
    27
 74
     0
 42
0.000000001
 43
0.00000001
 40
0.0
 40
0.0
 40
0.0
 40
0.0
 40
0.0129673245410369
 40
0.0570737724165422
 40
0.1013339119717909
 40
0.1453639140703116
 40
0.1888270626420683
 40
0.2325388687667456
 40
0.27670666489241
 40
0.3209513870374536
 40
0.3648900036953239
 40
0.4082962491446607
 40
0.4521287283297217
 40
0.4963426478943986
 40
0.5405565674590745
 40
0.5843890466441354
 40
0.6277952920934723
 40
0.6717339087513424
 40
0.7159786308963861
 40
0.7601464270220514
 40
0.8038582331467286
 40
0.8473213817184858
 40
0.891351383817007
 40
0.9356115233722562
 40
0.9797179712477619
 40
0.9999999999999999
 40
0.9999999999999999
 40
0.9999999999999999
 40
0.9999999999999999
 10
-8.90697389935759
 20
-40.46711530835184
 30
0.0
 10
-8.900983377372144
 20
-40.46248479980873
 30
0.0
 10
-8.874616975623521
 20
-40.44210429726743
 30
0.0
 10
-8.673294312125849
 20
-40.40455527258686
 30
0.0
 10
-8.302459402171245
 20
-40.35562577649021
 30
0.0
 10
-7.779326787547776
 20
-40.30713708935241
 30
0.0
 10
-7.129323182742736
 20
-40.26091192878545
 30
0.0
 10
-6.357101784720541
 20
-40.21361261138665
 30
0.0
 10
-5.471316195387838
 20
-40.16480585807722
 30
0.0
 10
-4.489268403117966
 20
-40.11584185149546
 30
0.0
 10
-3.435880741898278
 20
-40.06766739013077
 30
0.0
 10
-2.327598348986878
 20
-40.02168593967418
 30
0.0
 10
-1.177490270306045
 20
-39.97390359935595
 30
0.0
 10
0.000000003335849
 20
-39.92499999997055
 30
0.0
 10
1.177490257019787
 20
-39.87609640076134
 30
0.0
 10
2.327598394866593
 20
-39.82831405992093
 30
0.0
 10
3.435880572403497
 20
-39.78233261136514
 30
0.0
 10
4.489269046215548
 20
-39.73415814282882
 30
0.0
 10
5.471313779457106
 20
-39.68519416324495
 30
0.0
 10
6.357110742054303
 20
-39.63638730955903
 30
0.0
 10
7.129290215575769
 20
-39.58908836217138
 30
0.0
 10
7.779449759974921
 20
-39.54286182533556
 30
0.0
 10
8.3019926631571
 20
-39.49437834278679
 30
0.0
 10
8.675043041035751
 20
-39.44542929373724
 30
0.0
 10
8.884132928355957
 20
-39.40522953022
 30
0.0
 10
8.911138761981258
 20
-39.38226119626583
 30
0.0
 10
8.919645456389226
 20
-39.3750262928476
 30
0.0
  0
SPLINE
  5
E4
330
1F
100
AcDbEntity
  8
0
  6
Continuous
 62
     7
370
    25
100
AcDbSpline
210
0.0
220
0.0
230
1.0
 70
     8
 71
     3
 72
    31
 73
    27
 74
     0
 42
0.000000001
 43
0.00000001
 40
0.0
 40
0.0
 40
0.0
 40
0.0
 40
0.0129673245410369
 40
0.0570737724165423
 40
0.1013339119717909
 40
0.1453639140703117
 40
0.1888270626420684
 40
0.2325388687667458
 40
0.2767066648924102
 40
0.3209513870374538
 40
0.3648900036953241
 40
0.408296249144661
 40
0.452128728329722
 40
0.4963426478943988
 40
0.5405565674590748
 40
0.5843890466441357
 40
0.6277952920934726
 40
0.6717339087513429
 40
0.7159786308963866
 40
0.7601464270220518
 40
0.803858233146729
 40
0.8473213817184864
 40
0.8913513838170075
 40
0.9356115233722567
 40
0.9797179712477625
 40
1.0
 40
1.0
 40
1.0
 40
1.0
 10
-8.906973899357592
 20
-38.16711530835185
 30
0.0
 10
-8.900983377372144
 20
-38.16248479980873
 30
0.0
 10
-8.874616975623521
 20
-38.14210429726744
 30
0.0
 10
-8.673294312125854
 20
-38.10455527258689
 30
0.0
 10
-8.302459402171237
 20
-38.05562577649019
 30
0.0
 10
-7.779326787547777
 20
-38.0071370893524
 30
0.0
 10
-7.129323182742736
 20
-37.96091192878544
 30
0.0
 10
-6.357101784720539
 20
-37.91361261138665
 30
0.0
 10
-5.471316195387843
 20
-37.86480585807725
 30
0.0
 10
-4.489268403117964
 20
-37.81584185149543
 30
0.0
 10
-3.435880741898278
 20
-37.7676673901308
 30
0.0
 10
-2.327598348986878
 20
-37.72168593967417
 30
0.0
 10
-1.177490270306045
 20
-37.67390359935594
 30
0.0
 10
0.0000000033358498
 20
-37.62499999997056
 30
0.0
 10
1.177490257019791
 20
-37.57609640076134
 30
0.0
 10
2.327598394866589
 20
-37.52831405992092
 30
0.0
 10
3.4358805724035
 20
-37.48233261136514
 30
0.0
 10
4.489269046215546
 20
-37.43415814282883
 30
0.0
 10
5.471313779457106
 20
-37.38519416324495
 30
0.0
 10
6.357110742054303
 20
-37.33638730955904
 30
0.0
 10
7.129290215575769
 20
-37.28908836217137
 30
0.0
 10
7.779449759974916
 20
-37.24286182533555
 30
0.0
 10
8.3019926631571
 20
-37.19437834278677
 30
0.0
 10
8.675043041035751
 20
-37.14542929373726
 30
0.0
 10
8.884132928355955
 20
-37.10522953021996
 30
0.0
 10
8.911138761981261
 20
-37.08226119626584
 30
0.0
 10
8.919645456389226
 20
-37.07502629284761
 30
0.0
  0
SPLINE
  5
E5
330
1F
100
AcDbEntity
  8
0
  6
Continuous
 62
     7
370
    25
100
AcDbSpline
210
0.0
220
0.0
230
1.0
 70
     8
 71
     3
 72
    31
 73
    27
 74
     0
 42
0.000000001
 43
0.00000001
 40
0.0
 40
0.0
 40
0.0
 40
0.0
 40
0.0129673245410378
 40
0.0570737724165432
 40
0.1013339119717918
 40
0.1453639140703125
 40
0.1888270626420693
 40
0.2325388687667466
 40
0.276706664892411
 40
0.3209513870374546
 40
0.3648900036953249
 40
0.4082962491446617
 40
0.4521287283297227
 40
0.4963426478943995
 40
0.5405565674590754
 40
0.5843890466441364
 40
0.6277952920934733
 40
0.6717339087513435
 40
0.7159786308963871
 40
0.7601464270220524
 40
0.8038582331467297
 40
0.8473213817184869
 40
0.8913513838170081
 40
0.9356115233722573
 40
0.979717971247763
 40
1.0
 40
1.0
 40
1.0
 40
1.0
 10
-8.906973899357594
 20
-35.86711530835186
 30
0.0
 10
-8.900983377372144
 20
-35.86248479980874
 30
0.0
 10
-8.87461697562352
 20
-35.84210429726743
 30
0.0
 10
-8.673294312125856
 20
-35.80455527258687
 30
0.0
 10
-8.30245940217124
 20
-35.75562577649021
 30
0.0
 10
-7.779326787547775
 20
-35.7071370893524
 30
0.0
 10
-7.129323182742738
 20
-35.66091192878544
 30
0.0
 10
-6.357101784720539
 20
-35.61361261138666
 30
0.0
 10
-5.47131619538784
 20
-35.56480585807724
 30
0.0
 10
-4.489268403117967
 20
-35.51584185149544
 30
0.0
 10
-3.435880741898278
 20
-35.4676673901308
 30
0.0
 10
-2.327598348986878
 20
-35.42168593967418
 30
0.0
 10
-1.177490270306045
 20
-35.37390359935594
 30
0.0
 10
0.000000003335849
 20
-35.32499999997057
 30
0.0
 10
1.177490257019791
 20
-35.27609640076133
 30
0.0
 10
2.327598394866589
 20
-35.22831405992091
 30
0.0
 10
3.435880572403502
 20
-35.18233261136514
 30
0.0
 10
4.489269046215543
 20
-35.13415814282882
 30
0.0
 10
5.471313779457108
 20
-35.08519416324495
 30
0.0
 10
6.357110742054306
 20
-35.03638730955905
 30
0.0
 10
7.129290215575765
 20
-34.98908836217135
 30
0.0
 10
7.779449759974921
 20
-34.94286182533557
 30
0.0
 10
8.3019926631571
 20
-34.89437834278677
 30
0.0
 10
8.675043041035751
 20
-34.84542929373725
 30
0.0
 10
8.884132928355955
 20
-34.80522953021997
 30
0.0
 10
8.911138761981261
 20
-34.78226119626584
 30
0.0
 10
8.919645456389226
 20
-34.77502629284761
 30
0.0
  0
SPLINE
  5
E6
330
1F
100
AcDbEntity
  8
0
  6
Continuous
 62
     7
370
    25
100
AcDbSpline
210
0.0
220
0.0
230
1.0
 70
     8
 71
     3
 72
    31
 73
    27
 74
     0
 42
0.000000001
 43
0.00000001
 40
0.0
 40
0.0
 40
0.0
 40
0.0
 40
0.0129673245410378
 40
0.0570737724165432
 40
0.1013339119717918
 40
0.1453639140703126
 40
0.1888270626420693
 40
0.2325388687667466
 40
0.276706664892411
 40
0.3209513870374546
 40
0.3648900036953249
 40
0.4082962491446617
 40
0.4521287283297227
 40
0.4963426478943995
 40
0.5405565674590754
 40
0.5843890466441364
 40
0.6277952920934733
 40
0.6717339087513435
 40
0.7159786308963871
 40
0.7601464270220524
 40
0.8038582331467297
 40
0.8473213817184869
 40
0.8913513838170081
 40
0.9356115233722573
 40
0.979717971247763
 40
1.0
 40
1.0
 40
1.0
 40
1.0
 10
-8.906973899357592
 20
-33.56711530835184
 30
0.0
 10
-8.900983377372144
 20
-33.56248479980873
 30
0.0
 10
-8.874616975623521
 20
-33.54210429726743
 30
0.0
 10
-8.673294312125854
 20
-33.50455527258688
 30
0.0
 10
-8.302459402171241
 20
-33.45562577649021
 30
0.0
 10
-7.779326787547775
 20
-33.40713708935239
 30
0.0
 10
-7.129323182742738
 20
-33.36091192878545
 30
0.0
 10
-6.357101784720539
 20
-33.31361261138666
 30
0.0
 10
-5.47131619538784
 20
-33.26480585807724
 30
0.0
 10
-4.489268403117966
 20
-33.21584185149545
 30
0.0
 10
-3.435880741898278
 20
-33.16766739013078
 30
0.0
 10
-2.327598348986878
 20
-33.12168593967418
 30
0.0
 10
-1.177490270306045
 20
-33.07390359935595
 30
0.0
 10
0.000000003335849
 20
-33.02499999997055
 30
0.0
 10
1.177490257019791
 20
-32.97609640076134
 30
0.0
 10
2.327598394866589
 20
-32.92831405992091
 30
0.0
 10
3.435880572403502
 20
-32.88233261136514
 30
0.0
 10
4.489269046215543
 20
-32.83415814282882
 30
0.0
 10
5.471313779457108
 20
-32.78519416324495
 30
0.0
 10
6.357110742054306
 20
-32.73638730955905
 30
0.0
 10
7.129290215575765
 20
-32.68908836217136
 30
0.0
 10
7.779449759974921
 20
-32.64286182533556
 30
0.0
 10
8.3019926631571
 20
-32.59437834278678
 30
0.0
 10
8.675043041035751
 20
-32.54542929373725
 30
0.0
 10
8.884132928355955
 20
-32.50522953021997
 30
0.0
 10
8.911138761981261
 20
-32.48226119626585
 30
0.0
 10
8.919645456389226
 20
-32.4750262928476
 30
0.0
  0
SPLINE
  5
E7
330
1F
100
AcDbEntity
  8
0
  6
Continuous
 62
     7
370
    25
100
AcDbSpline
210
0.0
220
0.0
230
1.0
 70
     8
 71
     3
 72
    31
 73
    27
 74
     0
 42
0.000000001
 43
0.00000001
 40
0.0
 40
0.0
 40
0.0
 40
0.0
 40
0.0129673245410378
 40
0.0570737724165431
 40
0.1013339119717918
 40
0.1453639140703126
 40
0.1888270626420693
 40
0.2325388687667466
 40
0.276706664892411
 40
0.3209513870374546
 40
0.3648900036953249
 40
0.4082962491446617
 40
0.4521287283297227
 40
0.4963426478943995
 40
0.5405565674590754
 40
0.5843890466441364
 40
0.6277952920934733
 40
0.6717339087513435
 40
0.7159786308963871
 40
0.7601464270220524
 40
0.8038582331467297
 40
0.8473213817184869
 40
0.8913513838170081
 40
0.9356115233722573
 40
0.979717971247763
 40
1.0
 40
1.0
 40
1.0
 40
1.0
 10
-8.906973899357592
 20
-31.26711530835184
 30
0.0
 10
-8.900983377372144
 20
-31.26248479980872
 30
0.0
 10
-8.874616975623525
 20
-31.24210429726743
 30
0.0
 10
-8.673294312125854
 20
-31.20455527258687
 30
0.0
 10
-8.302459402171237
 20
-31.15562577649019
 30
0.0
 10
-7.779326787547776
 20
-31.1071370893524
 30
0.0
 10
-7.129323182742738
 20
-31.06091192878545
 30
0.0
 10
-6.357101784720539
 20
-31.01361261138666
 30
0.0
 10
-5.47131619538784
 20
-30.96480585807723
 30
0.0
 10
-4.489268403117966
 20
-30.91584185149545
 30
0.0
 10
-3.435880741898278
 20
-30.86766739013078
 30
0.0
 10
-2.327598348986878
 20
-30.82168593967418
 30
0.0
 10
-1.177490270306045
 20
-30.77390359935595
 30
0.0
 10
0.000000003335849
 20
-30.72499999997056
 30
0.0
 10
1.177490257019791
 20
-30.67609640076133
 30
0.0
 10
2.327598394866589
 20
-30.62831405992092
 30
0.0
 10
3.435880572403502
 20
-30.58233261136515
 30
0.0
 10
4.489269046215543
 20
-30.53415814282882
 30
0.0
 10
5.471313779457108
 20
-30.48519416324494
 30
0.0
 10
6.357110742054306
 20
-30.43638730955905
 30
0.0
 10
7.129290215575765
 20
-30.38908836217136
 30
0.0
 10
7.779449759974921
 20
-30.34286182533556
 30
0.0
 10
8.3019926631571
 20
-30.29437834278678
 30
0.0
 10
8.675043041035751
 20
-30.24542929373725
 30
0.0
 10
8.884132928355955
 20
-30.20522953021997
 30
0.0
 10
8.911138761981261
 20
-30.18226119626584
 30
0.0
 10
8.919645456389226
 20
-30.1750262928476
 30
0.0
  0
SPLINE
  5
E8
330
1F
100
AcDbEntity
  8
0
  6
Continuous
 62
     7
370
    25
100
AcDbSpline
210
0.0
220
0.0
230
1.0
 70
     8
 71
     3
 72
    31
 73
    27
 74
     0
 42
0.000000001
 43
0.00000001
 40
0.0
 40
0.0
 40
0.0
 40
0.0
 40
0.0129673245410379
 40
0.0570737724165433
 40
0.101333911971792
 40
0.1453639140703128
 40
0.1888270626420696
 40
0.232538868766747
 40
0.2767066648924115
 40
0.3209513870374551
 40
0.3648900036953255
 40
0.4082962491446624
 40
0.4521287283297235
 40
0.4963426478944004
 40
0.5405565674590764
 40
0.5843890466441374
 40
0.6277952920934744
 40
0.6717339087513446
 40
0.7159786308963884
 40
0.7601464270220537
 40
0.803858233146731
 40
0.8473213817184884
 40
0.8913513838170096
 40
0.935611523372259
 40
0.9797179712477647
 40
0.9999999999999999
 40
0.9999999999999999
 40
0.9999999999999999
 40
0.9999999999999999
 10
-8.906973899357594
 20
-28.96711530835185
 30
0.0
 10
-8.900983377372144
 20
-28.96248479980874
 30
0.0
 10
-8.874616975623523
 20
-28.94210429726743
 30
0.0
 10
-8.673294312125853
 20
-28.90455527258687
 30
0.0
 10
-8.302459402171237
 20
-28.8556257764902
 30
0.0
 10
-7.779326787547773
 20
-28.80713708935239
 30
0.0
 10
-7.129323182742738
 20
-28.76091192878545
 30
0.0
 10
-6.357101784720539
 20
-28.71361261138666
 30
0.0
 10
-5.47131619538784
 20
-28.66480585807724
 30
0.0
 10
-4.489268403117967
 20
-28.61584185149545
 30
0.0
 10
-3.435880741898278
 20
-28.56766739013077
 30
0.0
 10
-2.327598348986878
 20
-28.52168593967417
 30
0.0
 10
-1.177490270306045
 20
-28.47390359935594
 30
0.0
 10
0.000000003335849
 20
-28.42499999997056
 30
0.0
 10
1.177490257019789
 20
-28.37609640076133
 30
0.0
 10
2.327598394866591
 20
-28.32831405992091
 30
0.0
 10
3.435880572403498
 20
-28.28233261136515
 30
0.0
 10
4.489269046215546
 20
-28.23415814282882
 30
0.0
 10
5.471313779457108
 20
-28.18519416324495
 30
0.0
 10
6.357110742054303
 20
-28.13638730955904
 30
0.0
 10
7.129290215575767
 20
-28.08908836217136
 30
0.0
 10
7.779449759974916
 20
-28.04286182533555
 30
0.0
 10
8.301992663157103
 20
-27.99437834278678
 30
0.0
 10
8.675043041035748
 20
-27.94542929373726
 30
0.0
 10
8.884132928355955
 20
-27.90522953021997
 30
0.0
 10
8.911138761981258
 20
-27.88226119626584
 30
0.0
 10
8.919645456389222
 20
-27.8750262928476
 30
0.0
  0
SPLINE
  5
E9
330
1F
100
AcDbEntity
  8
0
  6
Continuous
 62
     7
370
    25
100
AcDbSpline
210
0.0
220
0.0
230
1.0
 70
     8
 71
     3
 72
    17
 73
    13
 74
     0
 42
0.000000001
 43
0.00000001
 40
0.0
 40
0.0
 40
0.0
 40
0.0
 40
0.092377348745616
 40
0.1857931999063729
 40
0.2796235483650574
 40
0.3732275835750939
 40
0.4776680131634841
 40
0.5815147585659186
 40
0.6867148856359606
 40
0.7924644589794378
 40
0.8978470990048681
 40
0.9999999999999999
 40
0.9999999999999999
 40
0.9999999999999999
 40
0.9999999999999999
 10
3.227387370659899
 20
-42.80000000000001
 30
0.0
 10
3.593306280074893
 20
-42.78623167113332
 30
0.0
 10
4.329257744472039
 20
-42.75854023040413
 30
0.0
 10
5.367065869385168
 20
-42.71549772500936
 30
0.0
 10
6.33947785679656
 20
-42.67200348564512
 30
0.0
 10
7.259277207604533
 20
-42.626943473098
 30
0.0
 10
8.099261612632672
 20
-42.58144209619013
 30
0.0
 10
8.834090285206184
 20
-42.5352134409733
 30
0.0
 10
9.422394174013332
 20
-42.48673983418453
 30
0.0
 10
9.84716855317094
 20
-42.43775268784204
 30
0.0
 10
10.11212833682846
 20
-42.38937796003992
 30
0.0
 10
10.14314676471523
 20
-42.3584569819222
 30
0.0
 10
10.15841461896978
 20
-42.34323709427884
 30
0.0
  0
SPLINE
  5
EA
330
1F
100
AcDbEntity
  8
0
  6
Continuous
 62
     7
370
    25
100
AcDbSpline
210
0.0
220
0.0
230
1.0
 70
     8
 71
     3
 72
    33
 73
    29
 74
     0
 42
0.000000001
 43
0.00000001
 40
0.0
 40
0.0
 40
0.0
 40
0.0
 40
0.000780436585907
 40
0.0421267428283391
 40
0.0839751719741344
 40
0.1259693137625225
 40
0.167745265311629
 40
0.2089837763789785
 40
0.2504580449732296
 40
0.2923646376048412
 40
0.3343441624603462
 40
0.3760334717495804
 40
0.417218031459015
 40
0.4588067114580815
 40
0.500757032967767
 40
0.5350630292929076
 40
0.5691706797242801
 40
0.6028906740645692
 40
0.639574580756643
 40
0.6766708864427756
 40
0.7139317928714904
 40
0.7511028281985843
 40
0.7925770967928368
 40
0.8338156078601859
 40
0.875591559409292
 40
0.9175857011976797
 40
0.9594341303434745
 40
1.0
 40
1.0
 40
1.0
 40
1.0
 10
-10.15841461896978
 20
-41.19323709427884
 30
0.0
 10
-10.15894193749676
 20
-41.19294251621812
 30
0.0
 10
-10.1874057645087
 20
-41.17704165453278
 30
0.0
 10
-10.08618216961348
 20
-41.14567239801331
 30
0.0
 10
-9.839938348505147
 20
-41.09694331407851
 30
0.0
 10
-9.401704466787765
 20
-41.04796988130858
 30
0.0
 10
-8.809465368612601
 20
-40.99949266300941
 30
0.0
 10
-8.068677568041617
 20
-40.95326481974705
 30
0.0
 10
-7.190860734339156
 20
-40.90596640186669
 30
0.0
 10
-6.1842025465935
 20
-40.85715926792643
 30
0.0
 10
-5.068824285114074
 20
-40.808195110155
 30
0.0
 10
-3.872911138196288
 20
-40.76002072796448
 30
0.0
 10
-2.615159764497758
 20
-40.7140388786129
 30
0.0
 10
-1.31041640841338
 20
-40.66625979204365
 30
0.0
 10
-0.0562359633759146
 20
-40.62032334251657
 30
0.0
 10
1.117490611587909
 20
-40.57735019239608
 30
0.0
 10
2.190963345274402
 20
-40.53792441153953
 30
0.0
 10
3.263830773609502
 20
-40.49894284808417
 30
0.0
 10
4.327325945573852
 20
-40.45852470727086
 30
0.0
 10
5.367588411257658
 20
-40.41550192393871
 30
0.0
 10
6.339338466533999
 20
-40.37200236556293
 30
0.0
 10
7.259319363058466
 20
-40.3269438118417
 30
0.0
 10
8.09924987878156
 20
-40.28144200190177
 30
0.0
 10
8.834093466669229
 20
-40.23521346653821
 30
0.0
 10
9.42239331203176
 20
-40.18673982725799
 30
0.0
 10
9.84716878288484
 20
-40.13775268968789
 30
0.0
 10
10.11212828152929
 20
-40.08937795959557
 30
0.0
 10
10.14314674647441
 20
-40.05845698177561
 30
0.0
 10
10.15841461896978
 20
-40.04323709427884
 30
0.0
  0
SPLINE
  5
EB
330
1F
100
AcDbEntity
  8
0
  6
Continuous
 62
     7
370
    25
100
AcDbSpline
210
0.0
220
0.0
230
1.0
 70
     8
 71
     3
 72
    33
 73
    29
 74
     0
 42
0.000000001
 43
0.00000001
 40
0.0
 40
0.0
 40
0.0
 40
0.0
 40
0.000780436585907
 40
0.0421267428283391
 40
0.0839751719741344
 40
0.1259693137625225
 40
0.167745265311629
 40
0.2089837763789786
 40
0.2504580449732296
 40
0.2923646376048412
 40
0.3343441624603462
 40
0.3760334717495804
 40
0.417218031459015
 40
0.4588067114580815
 40
0.500757032967767
 40
0.5350630292929076
 40
0.5691706797242801
 40
0.6028906740645692
 40
0.639574580756643
 40
0.6766708864427756
 40
0.7139317928714904
 40
0.7511028281985843
 40
0.7925770967928368
 40
0.8338156078601859
 40
0.875591559409292
 40
0.9175857011976797
 40
0.9594341303434745
 40
1.0
 40
1.0
 40
1.0
 40
1.0
 10
-10.15841461896978
 20
-38.89323709427886
 30
0.0
 10
-10.15894193749677
 20
-38.89294251621814
 30
0.0
 10
-10.18740576450872
 20
-38.87704165453285
 30
0.0
 10
-10.08618216961347
 20
-38.84567239801328
 30
0.0
 10
-9.839938348505148
 20
-38.79694331407851
 30
0.0
 10
-9.401704466787765
 20
-38.74796988130859
 30
0.0
 10
-8.809465368612603
 20
-38.69949266300943
 30
0.0
 10
-8.068677568041617
 20
-38.65326481974704
 30
0.0
 10
-7.190860734339158
 20
-38.6059664018667
 30
0.0
 10
-6.1842025465935
 20
-38.55715926792643
 30
0.0
 10
-5.068824285114074
 20
-38.50819511015499
 30
0.0
 10
-3.872911138196288
 20
-38.46002072796448
 30
0.0
 10
-2.615159764497758
 20
-38.4140388786129
 30
0.0
 10
-1.31041640841338
 20
-38.36625979204365
 30
0.0
 10
-0.0562359633759146
 20
-38.32032334251656
 30
0.0
 10
1.117490611587909
 20
-38.27735019239609
 30
0.0
 10
2.190963345274402
 20
-38.23792441153954
 30
0.0
 10
3.263830773609502
 20
-38.19894284808417
 30
0.0
 10
4.327325945573852
 20
-38.15852470727086
 30
0.0
 10
5.367588411257658
 20
-38.11550192393872
 30
0.0
 10
6.339338466533999
 20
-38.07200236556291
 30
0.0
 10
7.259319363058466
 20
-38.02694381184172
 30
0.0
 10
8.09924987878156
 20
-37.98144200190176
 30
0.0
 10
8.834093466669229
 20
-37.93521346653823
 30
0.0
 10
9.42239331203176
 20
-37.886739827258
 30
0.0
 10
9.84716878288484
 20
-37.8377526896879
 30
0.0
 10
10.11212828152929
 20
-37.78937795959556
 30
0.0
 10
10.14314674647441
 20
-37.75845698177561
 30
0.0
 10
10.15841461896978
 20
-37.74323709427884
 30
0.0
  0
SPLINE
  5
EC
330
1F
100
AcDbEntity
  8
0
  6
Continuous
 62
     7
370
    25
100
AcDbSpline
210
0.0
220
0.0
230
1.0
 70
     8
 71
     3
 72
    33
 73
    29
 74
     0
 42
0.000000001
 43
0.00000001
 40
0.0
 40
0.0
 40
0.0
 40
0.0
 40
0.0007804365859061
 40
0.0421267428283383
 40
0.0839751719741336
 40
0.1259693137625217
 40
0.1677452653116282
 40
0.2089837763789778
 40
0.2504580449732289
 40
0.2923646376048405
 40
0.3343441624603455
 40
0.3760334717495798
 40
0.4172180314590144
 40
0.4588067114580809
 40
0.5007570329677663
 40
0.535063029292907
 40
0.5691706797242796
 40
0.6028906740645686
 40
0.6395745807566424
 40
0.6766708864427752
 40
0.71393179287149
 40
0.751102828198584
 40
0.7925770967928365
 40
0.8338156078601856
 40
0.8755915594092917
 40
0.9175857011976793
 40
0.9594341303434742
 40
1.0
 40
1.0
 40
1.0
 40
1.0
 10
-10.15841461896978
 20
-36.59323709427884
 30
0.0
 10
-10.15894193749677
 20
-36.59294251621813
 30
0.0
 10
-10.18740576450872
 20
-36.57704165453288
 30
0.0
 10
-10.08618216961347
 20
-36.54567239801326
 30
0.0
 10
-9.839938348505148
 20
-36.49694331407851
 30
0.0
 10
-9.401704466787765
 20
-36.44796988130859
 30
0.0
 10
-8.809465368612601
 20
-36.39949266300942
 30
0.0
 10
-8.068677568041613
 20
-36.35326481974705
 30
0.0
 10
-7.190860734339156
 20
-36.30596640186669
 30
0.0
 10
-6.184202546593499
 20
-36.25715926792643
 30
0.0
 10
-5.068824285114071
 20
-36.20819511015499
 30
0.0
 10
-3.87291113819629
 20
-36.16002072796448
 30
0.0
 10
-2.615159764497757
 20
-36.1140388786129
 30
0.0
 10
-1.310416408413384
 20
-36.06625979204366
 30
0.0
 10
-0.0562359633759103
 20
-36.02032334251655
 30
0.0
 10
1.117490611587908
 20
-35.97735019239609
 30
0.0
 10
2.190963345274402
 20
-35.93792441153953
 30
0.0
 10
3.263830773609502
 20
-35.89894284808417
 30
0.0
 10
4.327325945573852
 20
-35.85852470727087
 30
0.0
 10
5.367588411257652
 20
-35.81550192393872
 30
0.0
 10
6.339338466534002
 20
-35.7720023655629
 30
0.0
 10
7.259319363058458
 20
-35.72694381184171
 30
0.0
 10
8.09924987878156
 20
-35.68144200190176
 30
0.0
 10
8.834093466669229
 20
-35.63521346653823
 30
0.0
 10
9.422393312031765
 20
-35.58673982725801
 30
0.0
 10
9.84716878288484
 20
-35.53775268968791
 30
0.0
 10
10.11212828152929
 20
-35.48937795959556
 30
0.0
 10
10.14314674647441
 20
-35.4584569817756
 30
0.0
 10
10.15841461896978
 20
-35.44323709427884
 30
0.0
  0
SPLINE
  5
ED
330
1F
100
AcDbEntity
  8
0
  6
Continuous
 62
     7
370
    25
100
AcDbSpline
210
0.0
220
0.0
230
1.0
 70
     8
 71
     3
 72
    33
 73
    29
 74
     0
 42
0.000000001
 43
0.00000001
 40
0.0
 40
0.0
 40
0.0
 40
0.0
 40
0.000780436585907
 40
0.0421267428283391
 40
0.0839751719741344
 40
0.1259693137625225
 40
0.167745265311629
 40
0.2089837763789785
 40
0.2504580449732295
 40
0.2923646376048412
 40
0.3343441624603462
 40
0.3760334717495805
 40
0.417218031459015
 40
0.4588067114580815
 40
0.500757032967767
 40
0.5350630292929076
 40
0.5691706797242801
 40
0.6028906740645691
 40
0.6395745807566429
 40
0.6766708864427756
 40
0.7139317928714903
 40
0.7511028281985843
 40
0.7925770967928367
 40
0.8338156078601858
 40
0.8755915594092919
 40
0.9175857011976796
 40
0.9594341303434744
 40
1.0
 40
1.0
 40
1.0
 40
1.0
 10
-10.15841461896978
 20
-34.29323709427884
 30
0.0
 10
-10.15894193749676
 20
-34.29294251621813
 30
0.0
 10
-10.18740576450863
 20
-34.2770416545326
 30
0.0
 10
-10.08618216961351
 20
-34.24567239801336
 30
0.0
 10
-9.839938348505134
 20
-34.19694331407849
 30
0.0
 10
-9.401704466787772
 20
-34.1479698813086
 30
0.0
 10
-8.809465368612601
 20
-34.09949266300941
 30
0.0
 10
-8.068677568041617
 20
-34.05326481974706
 30
0.0
 10
-7.190860734339156
 20
-34.00596640186671
 30
0.0
 10
-6.184202546593501
 20
-33.95715926792642
 30
0.0
 10
-5.06882428511407
 20
-33.90819511015499
 30
0.0
 10
-3.872911138196291
 20
-33.86002072796447
 30
0.0
 10
-2.615159764497756
 20
-33.81403887861288
 30
0.0
 10
-1.31041640841338
 20
-33.76625979204368
 30
0.0
 10
-0.0562359633759146
 20
-33.72032334251657
 30
0.0
 10
1.117490611587909
 20
-33.67735019239608
 30
0.0
 10
2.1909633452744
 20
-33.63792441153954
 30
0.0
 10
3.263830773609502
 20
-33.59894284808415
 30
0.0
 10
4.327325945573855
 20
-33.55852470727087
 30
0.0
 10
5.367588411257649
 20
-33.5155019239387
 30
0.0
 10
6.339338466534002
 20
-33.47200236556289
 30
0.0
 10
7.259319363058462
 20
-33.42694381184172
 30
0.0
 10
8.09924987878156
 20
-33.38144200190175
 30
0.0
 10
8.834093466669229
 20
-33.33521346653824
 30
0.0
 10
9.42239331203176
 20
-33.286739827258
 30
0.0
 10
9.84716878288484
 20
-33.2377526896879
 30
0.0
 10
10.11212828152929
 20
-33.18937795959557
 30
0.0
 10
10.14314674647441
 20
-33.15845698177561
 30
0.0
 10
10.15841461896978
 20
-33.14323709427884
 30
0.0
  0
SPLINE
  5
EE
330
1F
100
AcDbEntity
  8
0
  6
Continuous
 62
     7
370
    25
100
AcDbSpline
210
0.0
220
0.0
230
1.0
 70
     8
 71
     3
 72
    33
 73
    29
 74
     0
 42
0.000000001
 43
0.00000001
 40
0.0
 40
0.0
 40
0.0
 40
0.0
 40
0.000780436585907
 40
0.0421267428283391
 40
0.0839751719741344
 40
0.1259693137625225
 40
0.167745265311629
 40
0.2089837763789785
 40
0.2504580449732296
 40
0.2923646376048412
 40
0.3343441624603462
 40
0.3760334717495804
 40
0.417218031459015
 40
0.4588067114580815
 40
0.500757032967767
 40
0.5350630292929076
 40
0.5691706797242801
 40
0.6028906740645692
 40
0.639574580756643
 40
0.6766708864427756
 40
0.7139317928714904
 40
0.7511028281985843
 40
0.7925770967928368
 40
0.8338156078601859
 40
0.875591559409292
 40
0.9175857011976797
 40
0.9594341303434745
 40
1.0
 40
1.0
 40
1.0
 40
1.0
 10
-10.15841461896978
 20
-31.99323709427886
 30
0.0
 10
-10.15894193749677
 20
-31.99294251621813
 30
0.0
 10
-10.18740576450872
 20
-31.97704165453284
 30
0.0
 10
-10.08618216961347
 20
-31.94567239801328
 30
0.0
 10
-9.839938348505148
 20
-31.89694331407851
 30
0.0
 10
-9.401704466787765
 20
-31.84796988130859
 30
0.0
 10
-8.809465368612601
 20
-31.79949266300942
 30
0.0
 10
-8.068677568041617
 20
-31.75326481974705
 30
0.0
 10
-7.190860734339156
 20
-31.7059664018667
 30
0.0
 10
-6.1842025465935
 20
-31.65715926792643
 30
0.0
 10
-5.068824285114074
 20
-31.608195110155
 30
0.0
 10
-3.872911138196288
 20
-31.56002072796448
 30
0.0
 10
-2.615159764497758
 20
-31.51403887861289
 30
0.0
 10
-1.31041640841338
 20
-31.46625979204367
 30
0.0
 10
-0.0562359633759146
 20
-31.42032334251656
 30
0.0
 10
1.117490611587909
 20
-31.37735019239608
 30
0.0
 10
2.190963345274402
 20
-31.33792441153954
 30
0.0
 10
3.263830773609502
 20
-31.29894284808416
 30
0.0
 10
4.327325945573852
 20
-31.25852470727086
 30
0.0
 10
5.367588411257658
 20
-31.21550192393871
 30
0.0
 10
6.339338466533999
 20
-31.1720023655629
 30
0.0
 10
7.259319363058466
 20
-31.12694381184171
 30
0.0
 10
8.09924987878156
 20
-31.08144200190176
 30
0.0
 10
8.834093466669229
 20
-31.03521346653822
 30
0.0
 10
9.42239331203176
 20
-30.98673982725801
 30
0.0
 10
9.84716878288484
 20
-30.93775268968791
 30
0.0
 10
10.11212828152929
 20
-30.88937795959556
 30
0.0
 10
10.14314674647441
 20
-30.85845698177561
 30
0.0
 10
10.15841461896978
 20
-30.84323709427884
 30
0.0
  0
SPLINE
  5
EF
330
1F
100
AcDbEntity
  8
0
  6
Continuous
 62
     7
370
    25
100
AcDbSpline
210
0.0
220
0.0
230
1.0
 70
     8
 71
     3
 72
    33
 73
    29
 74
     0
 42
0.000000001
 43
0.00000001
 40
0.0
 40
0.0
 40
0.0
 40
0.0
 40
0.000780436585907
 40
0.0421267428283391
 40
0.0839751719741344
 40
0.1259693137625225
 40
0.167745265311629
 40
0.2089837763789785
 40
0.2504580449732296
 40
0.2923646376048412
 40
0.3343441624603462
 40
0.3760334717495804
 40
0.417218031459015
 40
0.4588067114580815
 40
0.500757032967767
 40
0.5350630292929076
 40
0.5691706797242801
 40
0.6028906740645692
 40
0.639574580756643
 40
0.6766708864427756
 40
0.7139317928714904
 40
0.7511028281985843
 40
0.7925770967928368
 40
0.8338156078601859
 40
0.875591559409292
 40
0.9175857011976797
 40
0.9594341303434745
 40
1.0
 40
1.0
 40
1.0
 40
1.0
 10
-10.15841461896978
 20
-29.69323709427884
 30
0.0
 10
-10.15894193749677
 20
-29.69294251621813
 30
0.0
 10
-10.18740576450875
 20
-29.67704165453284
 30
0.0
 10
-10.08618216961346
 20
-29.64567239801328
 30
0.0
 10
-9.839938348505148
 20
-29.59694331407849
 30
0.0
 10
-9.401704466787765
 20
-29.54796988130859
 30
0.0
 10
-8.809465368612601
 20
-29.49949266300941
 30
0.0
 10
-8.068677568041617
 20
-29.45326481974704
 30
0.0
 10
-7.190860734339156
 20
-29.4059664018667
 30
0.0
 10
-6.1842025465935
 20
-29.35715926792642
 30
0.0
 10
-5.068824285114074
 20
-29.30819511015499
 30
0.0
 10
-3.872911138196288
 20
-29.26002072796448
 30
0.0
 10
-2.615159764497758
 20
-29.2140388786129
 30
0.0
 10
-1.31041640841338
 20
-29.16625979204366
 30
0.0
 10
-0.0562359633759146
 20
-29.12032334251657
 30
0.0
 10
1.117490611587909
 20
-29.07735019239608
 30
0.0
 10
2.190963345274402
 20
-29.03792441153953
 30
0.0
 10
3.263830773609502
 20
-28.99894284808417
 30
0.0
 10
4.327325945573852
 20
-28.95852470727087
 30
0.0
 10
5.367588411257658
 20
-28.91550192393871
 30
0.0
 10
6.339338466533999
 20
-28.87200236556291
 30
0.0
 10
7.259319363058466
 20
-28.82694381184171
 30
0.0
 10
8.09924987878156
 20
-28.78144200190177
 30
0.0
 10
8.834093466669229
 20
-28.73521346653822
 30
0.0
 10
9.42239331203176
 20
-28.68673982725801
 30
0.0
 10
9.84716878288484
 20
-28.6377526896879
 30
0.0
 10
10.11212828152929
 20
-28.58937795959557
 30
0.0
 10
10.14314674647441
 20
-28.55845698177561
 30
0.0
 10
10.15841461896978
 20
-28.54323709427884
 30
0.0
  0
SPLINE
  5
F2
330
1F
100
AcDbEntity
  8
0
  6
Continuous
 62
     7
370
    25
100
AcDbSpline
210
0.0
220
0.0
230
1.0
 70
     8
 71
     3
 72
    31
 73
    27
 74
     0
 42
0.000000001
 43
0.00000001
 40
0.0
 40
0.0
 40
0.0
 40
0.0
 40
0.0230488178103182
 40
0.0657328263063494
 40
0.1085654568606363
 40
0.1511755406140672
 40
0.1932374529173939
 40
0.2355398300717769
 40
0.2782831633925006
 40
0.3211008851604812
 40
0.3636225966850852
 40
0.4056294803943493
 40
0.4480485533835497
 40
0.4908364887082567
 40
0.5336244240329602
 40
0.5760434970221605
 40
0.6180503807314246
 40
0.6605720922560286
 40
0.7033898140240092
 40
0.7461331473447367
 40
0.7884355244991159
 40
0.8304974368024427
 40
0.8731075205558736
 40
0.9159401511101605
 40
0.9586241596061917
 40
1.0
 40
1.0
 40
1.0
 40
1.0
 10
10.11968843592322
 20
-27.17887547274891
 30
0.0
 10
10.1082297893766
 20
-27.18736766781534
 30
0.0
 10
10.07555092361638
 20
-27.21158652311
 30
0.0
 10
9.83117311399666
 20
-27.25306967791166
 30
0.0
 10
9.404043930525827
 20
-27.30202665115981
 30
0.0
 10
8.808848981410561
 20
-27.35050825035739
 30
0.0
 10
8.06884280346896
 20
-27.39673493627765
 30
0.0
 10
7.19081587432466
 20
-27.4440336610782
 30
0.0
 10
6.184214514570288
 20
-27.49284072773553
 30
0.0
 10
5.068821589051479
 20
-27.54180484389496
 30
0.0
 10
3.872910044853108
 20
-27.58997945766277
 30
0.0
 10
2.615166719187935
 20
-27.6359604306479
 30
0.0
 10
1.310389257149219
 20
-27.68374282589705
 30
0.0
 10
-0.0250172456436517
 20
-27.7326465835763
 30
0.0
 10
-1.359991036021219
 20
-27.78155034098366
 30
0.0
 10
-2.663489620845777
 20
-27.82933273703891
 30
0.0
 10
-3.919138483517368
 20
-27.87531370708965
 30
0.0
 10
-5.112164874440607
 20
-27.92348833192861
 30
0.0
 10
-6.223901012754995
 20
-27.97245240641059
 30
0.0
 10
-7.226191487425021
 20
-28.02125962802249
 30
0.0
 10
-8.09923652259214
 20
-28.06855778161908
 30
0.0
 10
-8.83409708800576
 20
-28.11478659215699
 30
0.0
 10
-9.422392330871467
 20
-28.16326015683923
 30
0.0
 10
-9.847169044359319
 20
-28.21224731455011
 30
0.0
 10
-10.1121282185844
 20
-28.26062203938424
 30
0.0
 10
-10.14314672571159
 20
-28.29154301788789
 30
0.0
 10
-10.15841461896977
 20
-28.30676290572118
 30
0.0
  0
SPLINE
  5
F3
330
1F
100
AcDbEntity
  8
0
  6
Continuous
 62
     7
370
    25
100
AcDbSpline
210
0.0
220
0.0
230
1.0
 70
     8
 71
     3
 72
    31
 73
    27
 74
     0
 42
0.000000001
 43
0.00000001
 40
0.0
 40
0.0
 40
0.0
 40
0.0
 40
0.0230488178103182
 40
0.0657328263063494
 40
0.1085654568606363
 40
0.1511755406140672
 40
0.1932374529173939
 40
0.2355398300717769
 40
0.2782831633925006
 40
0.3211008851604812
 40
0.3636225966850852
 40
0.4056294803943493
 40
0.4480485533835497
 40
0.4908364887082567
 40
0.5336244240329602
 40
0.5760434970221605
 40
0.6180503807314246
 40
0.6605720922560286
 40
0.7033898140240092
 40
0.7461331473447367
 40
0.7884355244991159
 40
0.8304974368024427
 40
0.8731075205558736
 40
0.9159401511101605
 40
0.9586241596061917
 40
1.0
 40
1.0
 40
1.0
 40
1.0
 10
10.11968843592322
 20
-29.47887547274891
 30
0.0
 10
10.1082297893766
 20
-29.48736766781534
 30
0.0
 10
10.07555092361638
 20
-29.51158652311
 30
0.0
 10
9.83117311399666
 20
-29.55306967791166
 30
0.0
 10
9.404043930525827
 20
-29.60202665115981
 30
0.0
 10
8.808848981410561
 20
-29.65050825035739
 30
0.0
 10
8.06884280346896
 20
-29.69673493627765
 30
0.0
 10
7.19081587432466
 20
-29.74403366107821
 30
0.0
 10
6.184214514570288
 20
-29.79284072773552
 30
0.0
 10
5.068821589051479
 20
-29.84180484389496
 30
0.0
 10
3.872910044853108
 20
-29.88997945766278
 30
0.0
 10
2.615166719187935
 20
-29.93596043064789
 30
0.0
 10
1.310389257149219
 20
-29.98374282589705
 30
0.0
 10
-0.0250172456436517
 20
-30.03264658357631
 30
0.0
 10
-1.359991036021219
 20
-30.08155034098366
 30
0.0
 10
-2.663489620845777
 20
-30.12933273703891
 30
0.0
 10
-3.919138483517368
 20
-30.17531370708965
 30
0.0
 10
-5.112164874440607
 20
-30.2234883319286
 30
0.0
 10
-6.223901012754995
 20
-30.2724524064106
 30
0.0
 10
-7.226191487425021
 20
-30.32125962802249
 30
0.0
 10
-8.09923652259214
 20
-30.36855778161907
 30
0.0
 10
-8.83409708800576
 20
-30.41478659215699
 30
0.0
 10
-9.422392330871467
 20
-30.46326015683923
 30
0.0
 10
-9.847169044359319
 20
-30.51224731455012
 30
0.0
 10
-10.1121282185844
 20
-30.56062203938423
 30
0.0
 10
-10.14314672571159
 20
-30.59154301788788
 30
0.0
 10
-10.15841461896977
 20
-30.60676290572118
 30
0.0
  0
SPLINE
  5
F4
330
1F
100
AcDbEntity
  8
0
  6
Continuous
 62
     7
370
    25
100
AcDbSpline
210
0.0
220
0.0
230
1.0
 70
     8
 71
     3
 72
    31
 73
    27
 74
     0
 42
0.000000001
 43
0.00000001
 40
0.0
 40
0.0
 40
0.0
 40
0.0
 40
0.0230488178103182
 40
0.0657328263063494
 40
0.1085654568606363
 40
0.1511755406140672
 40
0.1932374529173939
 40
0.2355398300717769
 40
0.2782831633925006
 40
0.3211008851604812
 40
0.3636225966850852
 40
0.4056294803943493
 40
0.4480485533835497
 40
0.4908364887082567
 40
0.5336244240329602
 40
0.5760434970221605
 40
0.6180503807314246
 40
0.6605720922560286
 40
0.7033898140240092
 40
0.7461331473447367
 40
0.7884355244991159
 40
0.8304974368024427
 40
0.8731075205558736
 40
0.9159401511101605
 40
0.9586241596061917
 40
1.0
 40
1.0
 40
1.0
 40
1.0
 10
10.11968843592322
 20
-31.77887547274891
 30
0.0
 10
10.1082297893766
 20
-31.78736766781534
 30
0.0
 10
10.07555092361638
 20
-31.81158652310999
 30
0.0
 10
9.83117311399666
 20
-31.85306967791167
 30
0.0
 10
9.404043930525827
 20
-31.90202665115981
 30
0.0
 10
8.808848981410561
 20
-31.95050825035741
 30
0.0
 10
8.06884280346896
 20
-31.99673493627765
 30
0.0
 10
7.19081587432466
 20
-32.0440336610782
 30
0.0
 10
6.184214514570288
 20
-32.09284072773552
 30
0.0
 10
5.068821589051479
 20
-32.14180484389497
 30
0.0
 10
3.872910044853108
 20
-32.18997945766277
 30
0.0
 10
2.615166719187935
 20
-32.23596043064789
 30
0.0
 10
1.310389257149219
 20
-32.28374282589704
 30
0.0
 10
-0.0250172456436517
 20
-32.3326465835763
 30
0.0
 10
-1.359991036021219
 20
-32.38155034098367
 30
0.0
 10
-2.663489620845777
 20
-32.42933273703891
 30
0.0
 10
-3.919138483517368
 20
-32.47531370708965
 30
0.0
 10
-5.112164874440607
 20
-32.52348833192859
 30
0.0
 10
-6.223901012754995
 20
-32.5724524064106
 30
0.0
 10
-7.226191487425021
 20
-32.62125962802249
 30
0.0
 10
-8.09923652259214
 20
-32.66855778161909
 30
0.0
 10
-8.83409708800576
 20
-32.71478659215698
 30
0.0
 10
-9.422392330871467
 20
-32.76326015683923
 30
0.0
 10
-9.847169044359319
 20
-32.81224731455011
 30
0.0
 10
-10.1121282185844
 20
-32.86062203938425
 30
0.0
 10
-10.14314672571159
 20
-32.89154301788788
 30
0.0
 10
-10.15841461896977
 20
-32.90676290572118
 30
0.0
  0
SPLINE
  5
F5
330
1F
100
AcDbEntity
  8
0
  6
Continuous
 62
     7
370
    25
100
AcDbSpline
210
0.0
220
0.0
230
1.0
 70
     8
 71
     3
 72
    31
 73
    27
 74
     0
 42
0.000000001
 43
0.00000001
 40
0.0
 40
0.0
 40
0.0
 40
0.0
 40
0.0230488178103182
 40
0.0657328263063494
 40
0.1085654568606363
 40
0.1511755406140672
 40
0.1932374529173939
 40
0.2355398300717769
 40
0.2782831633925006
 40
0.3211008851604812
 40
0.3636225966850852
 40
0.4056294803943493
 40
0.4480485533835497
 40
0.4908364887082567
 40
0.5336244240329602
 40
0.5760434970221605
 40
0.6180503807314246
 40
0.6605720922560286
 40
0.7033898140240092
 40
0.7461331473447367
 40
0.7884355244991159
 40
0.8304974368024427
 40
0.8731075205558736
 40
0.9159401511101605
 40
0.9586241596061917
 40
1.0
 40
1.0
 40
1.0
 40
1.0
 10
10.11968843592322
 20
-34.0788754727489
 30
0.0
 10
10.1082297893766
 20
-34.08736766781532
 30
0.0
 10
10.07555092361638
 20
-34.11158652311
 30
0.0
 10
9.83117311399666
 20
-34.15306967791167
 30
0.0
 10
9.404043930525827
 20
-34.20202665115981
 30
0.0
 10
8.808848981410561
 20
-34.25050825035739
 30
0.0
 10
8.06884280346896
 20
-34.29673493627765
 30
0.0
 10
7.19081587432466
 20
-34.3440336610782
 30
0.0
 10
6.184214514570288
 20
-34.39284072773552
 30
0.0
 10
5.068821589051479
 20
-34.44180484389496
 30
0.0
 10
3.872910044853108
 20
-34.48997945766277
 30
0.0
 10
2.615166719187935
 20
-34.5359604306479
 30
0.0
 10
1.310389257149219
 20
-34.58374282589705
 30
0.0
 10
-0.0250172456436517
 20
-34.6326465835763
 30
0.0
 10
-1.359991036021219
 20
-34.68155034098367
 30
0.0
 10
-2.663489620845777
 20
-34.72933273703892
 30
0.0
 10
-3.919138483517368
 20
-34.77531370708964
 30
0.0
 10
-5.112164874440607
 20
-34.82348833192861
 30
0.0
 10
-6.223901012754995
 20
-34.87245240641059
 30
0.0
 10
-7.226191487425021
 20
-34.92125962802249
 30
0.0
 10
-8.09923652259214
 20
-34.96855778161907
 30
0.0
 10
-8.83409708800576
 20
-35.01478659215699
 30
0.0
 10
-9.422392330871467
 20
-35.06326015683923
 30
0.0
 10
-9.847169044359319
 20
-35.11224731455012
 30
0.0
 10
-10.1121282185844
 20
-35.16062203938424
 30
0.0
 10
-10.14314672571159
 20
-35.19154301788788
 30
0.0
 10
-10.15841461896977
 20
-35.20676290572118
 30
0.0
  0
SPLINE
  5
F6
330
1F
100
AcDbEntity
  8
0
  6
Continuous
 62
     7
370
    25
100
AcDbSpline
210
0.0
220
0.0
230
1.0
 70
     8
 71
     3
 72
    31
 73
    27
 74
     0
 42
0.000000001
 43
0.00000001
 40
0.0
 40
0.0
 40
0.0
 40
0.0
 40
0.0230488178103183
 40
0.0657328263063495
 40
0.1085654568606364
 40
0.1511755406140674
 40
0.1932374529173941
 40
0.2355398300717772
 40
0.2782831633925009
 40
0.3211008851604815
 40
0.3636225966850856
 40
0.4056294803943497
 40
0.4480485533835501
 40
0.4908364887082571
 40
0.5336244240329606
 40
0.5760434970221611
 40
0.6180503807314253
 40
0.6605720922560293
 40
0.7033898140240099
 40
0.7461331473447373
 40
0.7884355244991167
 40
0.8304974368024435
 40
0.8731075205558744
 40
0.9159401511101614
 40
0.9586241596061926
 40
1.0
 40
1.0
 40
1.0
 40
1.0
 10
10.11968843592322
 20
-36.37887547274892
 30
0.0
 10
10.1082297893766
 20
-36.38736766781533
 30
0.0
 10
10.07555092361639
 20
-36.41158652311
 30
0.0
 10
9.83117311399666
 20
-36.45306967791167
 30
0.0
 10
9.40404393052583
 20
-36.50202665115983
 30
0.0
 10
8.808848981410557
 20
-36.55050825035737
 30
0.0
 10
8.068842803468963
 20
-36.59673493627766
 30
0.0
 10
7.19081587432466
 20
-36.6440336610782
 30
0.0
 10
6.184214514570286
 20
-36.69284072773552
 30
0.0
 10
5.068821589051479
 20
-36.74180484389497
 30
0.0
 10
3.872910044853111
 20
-36.78997945766278
 30
0.0
 10
2.615166719187934
 20
-36.83596043064789
 30
0.0
 10
1.310389257149221
 20
-36.88374282589704
 30
0.0
 10
-0.0250172456436517
 20
-36.9326465835763
 30
0.0
 10
-1.359991036021221
 20
-36.98155034098366
 30
0.0
 10
-2.663489620845778
 20
-37.02933273703892
 30
0.0
 10
-3.919138483517363
 20
-37.07531370708963
 30
0.0
 10
-5.11216487444061
 20
-37.12348833192861
 30
0.0
 10
-6.223901012754993
 20
-37.17245240641059
 30
0.0
 10
-7.226191487425026
 20
-37.22125962802249
 30
0.0
 10
-8.099236522592138
 20
-37.26855778161907
 30
0.0
 10
-8.83409708800576
 20
-37.31478659215699
 30
0.0
 10
-9.42239233087147
 20
-37.36326015683923
 30
0.0
 10
-9.847169044359317
 20
-37.41224731455011
 30
0.0
 10
-10.1121282185844
 20
-37.46062203938425
 30
0.0
 10
-10.14314672571159
 20
-37.49154301788788
 30
0.0
 10
-10.15841461896977
 20
-37.50676290572118
 30
0.0
  0
SPLINE
  5
F7
330
1F
100
AcDbEntity
  8
0
  6
Continuous
 62
     7
370
    25
100
AcDbSpline
210
0.0
220
0.0
230
1.0
 70
     8
 71
     3
 72
    31
 73
    27
 74
     0
 42
0.000000001
 43
0.00000001
 40
0.0
 40
0.0
 40
0.0
 40
0.0
 40
0.0230488178103191
 40
0.0657328263063504
 40
0.1085654568606373
 40
0.1511755406140682
 40
0.193237452917395
 40
0.235539830071778
 40
0.2782831633925018
 40
0.3211008851604824
 40
0.3636225966850864
 40
0.4056294803943505
 40
0.4480485533835509
 40
0.490836488708258
 40
0.5336244240329615
 40
0.576043497022162
 40
0.618050380731426
 40
0.6605720922560301
 40
0.7033898140240108
 40
0.7461331473447382
 40
0.7884355244991175
 40
0.8304974368024443
 40
0.8731075205558753
 40
0.9159401511101621
 40
0.9586241596061935
 40
1.0
 40
1.0
 40
1.0
 40
1.0
 10
10.11968843592322
 20
-38.67887547274891
 30
0.0
 10
10.1082297893766
 20
-38.68736766781534
 30
0.0
 10
10.07555092361638
 20
-38.71158652310998
 30
0.0
 10
9.831173113996657
 20
-38.75306967791168
 30
0.0
 10
9.404043930525827
 20
-38.80202665115981
 30
0.0
 10
8.808848981410557
 20
-38.85050825035739
 30
0.0
 10
8.06884280346896
 20
-38.89673493627765
 30
0.0
 10
7.19081587432466
 20
-38.9440336610782
 30
0.0
 10
6.184214514570289
 20
-38.99284072773551
 30
0.0
 10
5.068821589051477
 20
-39.04180484389497
 30
0.0
 10
3.872910044853111
 20
-39.08997945766277
 30
0.0
 10
2.615166719187934
 20
-39.1359604306479
 30
0.0
 10
1.310389257149221
 20
-39.18374282589704
 30
0.0
 10
-0.0250172456436526
 20
-39.23264658357632
 30
0.0
 10
-1.35999103602122
 20
-39.28155034098365
 30
0.0
 10
-2.663489620845775
 20
-39.32933273703891
 30
0.0
 10
-3.919138483517368
 20
-39.37531370708964
 30
0.0
 10
-5.112164874440611
 20
-39.42348833192861
 30
0.0
 10
-6.223901012754992
 20
-39.47245240641059
 30
0.0
 10
-7.226191487425021
 20
-39.52125962802248
 30
0.0
 10
-8.09923652259214
 20
-39.56855778161908
 30
0.0
 10
-8.83409708800576
 20
-39.61478659215698
 30
0.0
 10
-9.422392330871466
 20
-39.66326015683923
 30
0.0
 10
-9.84716904435932
 20
-39.71224731455012
 30
0.0
 10
-10.11212821858439
 20
-39.76062203938424
 30
0.0
 10
-10.14314672571159
 20
-39.79154301788788
 30
0.0
 10
-10.15841461896977
 20
-39.80676290572117
 30
0.0
  0
SPLINE
  5
F8
330
1F
100
AcDbEntity
  8
0
  6
Continuous
 62
     7
370
    25
100
AcDbSpline
210
0.0
220
0.0
230
1.0
 70
     8
 71
     3
 72
    31
 73
    27
 74
     0
 42
0.000000001
 43
0.00000001
 40
0.0
 40
0.0
 40
0.0
 40
0.0
 40
0.0230488178103191
 40
0.0657328263063504
 40
0.1085654568606373
 40
0.1511755406140682
 40
0.193237452917395
 40
0.235539830071778
 40
0.2782831633925018
 40
0.3211008851604824
 40
0.3636225966850864
 40
0.4056294803943505
 40
0.4480485533835509
 40
0.490836488708258
 40
0.5336244240329615
 40
0.576043497022162
 40
0.618050380731426
 40
0.6605720922560301
 40
0.7033898140240108
 40
0.7461331473447382
 40
0.7884355244991175
 40
0.8304974368024443
 40
0.8731075205558753
 40
0.9159401511101621
 40
0.9586241596061935
 40
1.0
 40
1.0
 40
1.0
 40
1.0
 10
10.11968843592322
 20
-40.97887547274891
 30
0.0
 10
10.1082297893766
 20
-40.98736766781533
 30
0.0
 10
10.07555092361639
 20
-41.01158652311
 30
0.0
 10
9.83117311399666
 20
-41.05306967791167
 30
0.0
 10
9.404043930525834
 20
-41.10202665115982
 30
0.0
 10
8.808848981410557
 20
-41.15050825035738
 30
0.0
 10
8.06884280346896
 20
-41.19673493627766
 30
0.0
 10
7.19081587432466
 20
-41.2440336610782
 30
0.0
 10
6.184214514570289
 20
-41.29284072773552
 30
0.0
 10
5.068821589051477
 20
-41.34180484389496
 30
0.0
 10
3.872910044853111
 20
-41.38997945766278
 30
0.0
 10
2.615166719187934
 20
-41.43596043064791
 30
0.0
 10
1.310389257149221
 20
-41.48374282589704
 30
0.0
 10
-0.0250172456436526
 20
-41.5326465835763
 30
0.0
 10
-1.35999103602122
 20
-41.58155034098365
 30
0.0
 10
-2.663489620845775
 20
-41.62933273703892
 30
0.0
 10
-3.919138483517368
 20
-41.67531370708964
 30
0.0
 10
-5.112164874440611
 20
-41.72348833192861
 30
0.0
 10
-6.223901012754992
 20
-41.77245240641059
 30
0.0
 10
-7.226191487425021
 20
-41.82125962802248
 30
0.0
 10
-8.09923652259214
 20
-41.86855778161909
 30
0.0
 10
-8.83409708800576
 20
-41.91478659215698
 30
0.0
 10
-9.422392330871466
 20
-41.96326015683923
 30
0.0
 10
-9.84716904435932
 20
-42.01224731455012
 30
0.0
 10
-10.11212821858439
 20
-42.06062203938423
 30
0.0
 10
-10.14314672571159
 20
-42.09154301788789
 30
0.0
 10
-10.15841461896977
 20
-42.10676290572118
 30
0.0
  0
LINE
  5
F9
330
1F
100
AcDbEntity
  8
0
  6
Continuous
 62
     7
370
    25
100
AcDbLine
 10
-35.1129196429
 20
-4.3516609099
 30
0.0
 11
-35.1970426142
 21
-4.2386269422
 31
0.0
  0
LINE
  5
FA
330
1F
100
AcDbEntity
  8
0
  6
Continuous
 62
     7
370
    25
100
AcDbLine
 10
-33.8361272831
 20
-3.6539290157
 30
0.0
 11
-34.8187172432
 21
-3.6539290157
 31
0.0
  0
LINE
  5
FB
330
1F
100
AcDbEntity
  8
0
  6
Continuous
 62
     7
370
    25
100
AcDbLine
 10
-32.0361272831
 20
-3.6539290157
 30
0.0
 11
-33.0187172432
 21
-3.6539290157
 31
0.0
  0
LINE
  5
FC
330
1F
100
AcDbEntity
  8
0
  6
Continuous
 62
     7
370
    25
100
AcDbLine
 10
-30.2361272831
 20
-3.6539290157
 30
0.0
 11
-31.2187172432
 21
-3.6539290157
 31
0.0
  0
LINE
  5
FD
330
1F
100
AcDbEntity
  8
0
  6
Continuous
 62
     7
370
    25
100
AcDbLine
 10
-28.4361272831
 20
-3.6539290157
 30
0.0
 11
-29.4187172432
 21
-3.6539290157
 31
0.0
  0
LINE
  5
FE
330
1F
100
AcDbEntity
  8
0
  6
Continuous
 62
     7
370
    25
100
AcDbLine
 10
-26.6361272831
 20
-3.6539290157
 30
0.0
 11
-27.6187172432
 21
-3.6539290157
 31
0.0
  0
LINE
  5
FF
330
1F
100
AcDbEntity
  8
0
  6
Continuous
 62
     7
370
    25
100
AcDbLine
 10
-24.5
 20
-3.6539290157
 30
0.0
 11
-25.8187172432
 21
-3.6539290157
 31
0.0
  0
LINE
  5
100
330
1F
100
AcDbEntity
  8
0
  6
Continuous
 62
     7
370
    25
100
AcDbLine
 10
-24.9187172432
 20
-23.9739290157
 30
0.0
 11
-24.5
 21
-23.9739290157
 31
0.0
  0
LINE
  5
101
330
1F
100
AcDbEntity
  8
0
  6
Continuous
 62
     7
370
    25
100
AcDbLine
 10
-26.7187172432
 20
-23.9739290157
 30
0.0
 11
-25.7361272831
 21
-23.9739290157
 31
0.0
  0
LINE
  5
102
330
1F
100
AcDbEntity
  8
0
  6
Continuous
 62
     7
370
    25
100
AcDbLine
 10
-28.5187172432
 20
-23.9739290157
 30
0.0
 11
-27.5361272831
 21
-23.9739290157
 31
0.0
  0
LINE
  5
103
330
1F
100
AcDbEntity
  8
0
  6
Continuous
 62
     7
370
    25
100
AcDbLine
 10
-30.3187172432
 20
-23.9739290157
 30
0.0
 11
-29.3361272831
 21
-23.9739290157
 31
0.0
  0
LINE
  5
104
330
1F
100
AcDbEntity
  8
0
  6
Continuous
 62
     7
370
    25
100
AcDbLine
 10
-32.1187172432
 20
-23.9739290157
 30
0.0
 11
-31.1361272831
 21
-23.9739290157
 31
0.0
  0
LINE
  5
105
330
1F
100
AcDbEntity
  8
0
  6
Continuous
 62
     7
370
    25
100
AcDbLine
 10
-33.9187172432
 20
-23.9739290157
 30
0.0
 11
-32.9361272831
 21
-23.9739290157
 31
0.0
  0
LINE
  5
106
330
1F
100
AcDbEntity
  8
0
  6
Continuous
 62
     7
370
    25
100
AcDbLine
 10
-35.2
 20
-23.9739290157
 30
0.0
 11
-34.7361272831
 21
-23.9739290157
 31
0.0
  0
LINE
  5
107
330
1F
100
AcDbEntity
  8
0
  6
Continuous
 62
     7
370
    25
100
AcDbLine
 10
-8.922723168
 20
-42.7672700438
 30
0.0
 11
-8.9773588744
 21
-42.7989444861
 31
0.0
  0
LINE
  5
108
330
1F
100
AcDbEntity
  8
0
  6
Continuous
 62
     7
370
    25
100
AcDbLine
 10
-10.16
 20
-41.1932370943
 30
0.0
 11
-10.16
 21
-42.1067629057
 31
0.0
  0
LINE
  5
109
330
1F
100
AcDbEntity
  8
0
  6
Continuous
 62
     7
370
    25
100
AcDbLine
 10
-10.16
 20
-38.8932370943
 30
0.0
 11
-10.16
 21
-39.8067629057
 31
0.0
  0
LINE
  5
10A
330
1F
100
AcDbEntity
  8
0
  6
Continuous
 62
     7
370
    25
100
AcDbLine
 10
-10.16
 20
-36.5932370943
 30
0.0
 11
-10.16
 21
-37.5067629057
 31
0.0
  0
LINE
  5
10B
330
1F
100
AcDbEntity
  8
0
  6
Continuous
 62
     7
370
    25
100
AcDbLine
 10
-10.16
 20
-34.2932370943
 30
0.0
 11
-10.16
 21
-35.2067629057
 31
0.0
  0
LINE
  5
10C
330
1F
100
AcDbEntity
  8
0
  6
Continuous
 62
     7
370
    25
100
AcDbLine
 10
-10.16
 20
-31.9932370943
 30
0.0
 11
-10.16
 21
-32.9067629057
 31
0.0
  0
LINE
  5
10D
330
1F
100
AcDbEntity
  8
0
  6
Continuous
 62
     7
370
    25
100
AcDbLine
 10
-10.16
 20
-29.6932370943
 30
0.0
 11
-10.16
 21
-30.6067629057
 31
0.0
  0
LINE
  5
10E
330
1F
100
AcDbEntity
  8
0
  6
Continuous
 62
     7
370
    25
100
AcDbLine
 10
-10.16
 20
-27.3932370943
 30
0.0
 11
-10.16
 21
-28.3067629057
 31
0.0
  0
LINE
  5
10F
330
1F
100
AcDbEntity
  8
0
  6
Continuous
 62
     7
370
    25
100
AcDbLine
 10
-10.16
 20
-25.8
 30
0.0
 11
-10.16
 21
-26.7
 31
0.0
  0
LINE
  5
110
330
1F
100
AcDbEntity
  8
0
  6
Continuous
 62
     7
370
    25
100
AcDbLine
 10
10.16
 20
-27.1567629057
 30
0.0
 11
10.16
 21
-25.8
 31
0.0
  0
LINE
  5
111
330
1F
100
AcDbEntity
  8
0
  6
Continuous
 62
     7
370
    25
100
AcDbLine
 10
10.16
 20
-29.4567629057
 30
0.0
 11
10.16
 21
-28.5432370943
 31
0.0
  0
LINE
  5
112
330
1F
100
AcDbEntity
  8
0
  6
Continuous
 62
     7
370
    25
100
AcDbLine
 10
10.16
 20
-31.7567629057
 30
0.0
 11
10.16
 21
-30.8432370943
 31
0.0
  0
LINE
  5
113
330
1F
100
AcDbEntity
  8
0
  6
Continuous
 62
     7
370
    25
100
AcDbLine
 10
10.16
 20
-34.0567629057
 30
0.0
 11
10.16
 21
-33.1432370943
 31
0.0
  0
LINE
  5
114
330
1F
100
AcDbEntity
  8
0
  6
Continuous
 62
     7
370
    25
100
AcDbLine
 10
10.16
 20
-36.3567629057
 30
0.0
 11
10.16
 21
-35.4432370943
 31
0.0
  0
LINE
  5
115
330
1F
100
AcDbEntity
  8
0
  6
Continuous
 62
     7
370
    25
100
AcDbLine
 10
10.16
 20
-38.6567629057
 30
0.0
 11
10.16
 21
-37.7432370943
 31
0.0
  0
LINE
  5
116
330
1F
100
AcDbEntity
  8
0
  6
Continuous
 62
     7
370
    25
100
AcDbLine
 10
10.16
 20
-40.9567629057
 30
0.0
 11
10.16
 21
-40.0432370943
 31
0.0
  0
LINE
  5
117
330
1F
100
AcDbEntity
  8
0
  6
Continuous
 62
     7
370
    25
100
AcDbLine
 10
10.16
 20
-42.8
 30
0.0
 11
10.16
 21
-42.3432370943
 31
0.0
  0
LINE
  5
118
330
1F
100
AcDbEntity
  8
0
  6
Continuous
 62
     7
370
    25
100
AcDbLine
 10
-24.5
 20
-22.8139290157
 30
0.0
 11
-21.0
 21
-22.8139290157
 31
0.0
  0
LINE
  5
119
330
1F
100
AcDbEntity
  8
0
  6
Continuous
 62
     7
370
    25
100
AcDbLine
 10
-21.0
 20
-4.8139290157
 30
0.0
 11
-24.5
 21
-4.8139290157
 31
0.0
  0
LINE
  5
11A
330
1F
100
AcDbEntity
  8
0
  6
Continuous
 62
     7
370
    25
100
AcDbLine
 10
21.0
 20
-25.8
 30
0.0
 11
21.0
 21
0.0
 31
0.0
  0
LINE
  5
11B
330
1F
100
AcDbEntity
  8
0
  6
Continuous
 62
     7
370
    25
100
AcDbLine
 10
21.0
 20
-25.8
 30
0.0
 11
-21.0
 21
-25.8
 31
0.0
  0
LINE
  5
11C
330
1F
100
AcDbEntity
  8
0
  6
Continuous
 62
     7
370
    25
100
AcDbLine
 10
-21.0
 20
-25.8
 30
0.0
 11
-21.0
 21
0.0
 31
0.0
  0
LINE
  5
11D
330
1F
100
AcDbEntity
  8
0
  6
Continuous
 62
     7
370
    25
100
AcDbLine
 10
21.0
 20
0.0
 30
0.0
 11
-21.0
 21
0.0
 31
0.0
  0
LINE
  5
11E
330
1F
100
AcDbEntity
  8
0
  6
Continuous
 62
     7
370
    25
100
AcDbLine
 10
-24.5
 20
-23.9739290157
 30
0.0
 11
-24.5
 21
-3.6539290157
 31
0.0
  0
LINE
  5
11F
330
1F
100
AcDbEntity
  8
0
  6
Continuous
 62
     7
370
    25
100
AcDbLine
 10
-35.2
 20
-23.9739290157
 30
0.0
 11
-35.2
 21
-13.3299850434
 31
0.0
  0
LINE
  5
120
330
1F
100
AcDbEntity
  8
0
  6
Continuous
 62
     7
370
    25
100
AcDbLine
 10
10.16
 20
-42.8
 30
0.0
 11
3.2273873707
 21
-42.8
 31
0.0
  0
LINE
  5
121
330
1F
100
AcDbEntity
  8
0
  6
Continuous
 62
     7
370
    25
100
AcDbLine
 10
-10.1599693775
 20
-27.3923534165
 30
0.0
 11
-10.16
 21
-26.7
 31
0.0
  0
SPLINE
  5
18D
330
23
100
AcDbEntity
 67
     1
  8
0
  6
Continuous
 62
     7
370
    25
100
AcDbSpline
210
0.0
220
0.0
230
1.0
 70
     8
 71
     3
 72
     9
 73
     5
 74
     0
 42
0.000000001
 43
0.00000001
 40
0.0
 40
0.0
 40
0.0
 40
0.0
 40
0.5191712003285978
 40
0.9999999999999999
 40
0.9999999999999999
 40
0.9999999999999999
 40
0.9999999999999999
 10
-39.2543147857037
 20
10.14128059866208
 30
0.0
 10
-39.370352378749
 20
9.940812680863713
 30
0.0
 10
-39.59385782930531
 20
9.554682021706425
 30
0.0
 10
-39.81747440045592
 20
9.168616344735113
 30
0.0
 10
-39.92499568794891
 20
8.982984848682673
 30
0.0
  0
SPLINE
  5
18E
330
23
100
AcDbEntity
 67
     1
  8
0
  6
Continuous
 62
     7
370
    25
100
AcDbSpline
210
0.0
220
0.0
230
1.0
 70
     8
 71
     3
 72
     9
 73
     5
 74
     0
 42
0.000000001
 43
0.00000001
 40
0.0
 40
0.0
 40
0.0
 40
0.0
 40
0.5191712003285949
 40
1.0
 40
1.0
 40
1.0
 40
1.0
 10
-36.9543147857037
 20
10.14128059866208
 30
0.0
 10
-37.070352378749
 20
9.940812680863713
 30
0.0
 10
-37.29385782930531
 20
9.554682021706427
 30
0.0
 10
-37.51747440045593
 20
9.168616344735113
 30
0.0
 10
-37.62499568794892
 20
8.982984848682669
 30
0.0
  0
SPLINE
  5
18F
330
23
100
AcDbEntity
 67
     1
  8
0
  6
Continuous
 62
     7
370
    25
100
AcDbSpline
210
0.0
220
0.0
230
1.0
 70
     8
 71
     3
 72
     9
 73
     5
 74
     0
 42
0.000000001
 43
0.00000001
 40
0.0
 40
0.0
 40
0.0
 40
0.0
 40
0.5191712003285931
 40
1.0
 40
1.0
 40
1.0
 40
1.0
 10
-34.6543147857037
 20
10.14128059866208
 30
0.0
 10
-34.77035237874901
 20
9.940812680863717
 30
0.0
 10
-34.99385782930533
 20
9.554682021706427
 30
0.0
 10
-35.21747440045593
 20
9.16861634473511
 30
0.0
 10
-35.32499568794891
 20
8.982984848682662
 30
0.0
  0
SPLINE
  5
190
330
23
100
AcDbEntity
 67
     1
  8
0
  6
Continuous
 62
     7
370
    25
100
AcDbSpline
210
0.0
220
0.0
230
1.0
 70
     8
 71
     3
 72
     9
 73
     5
 74
     0
 42
0.000000001
 43
0.00000001
 40
0.0
 40
0.0
 40
0.0
 40
0.0
 40
0.5191712003285949
 40
1.0
 40
1.0
 40
1.0
 40
1.0
 10
-32.3543147857037
 20
10.14128059866208
 30
0.0
 10
-32.47035237874901
 20
9.940812680863713
 30
0.0
 10
-32.69385782930532
 20
9.554682021706427
 30
0.0
 10
-32.91747440045594
 20
9.168616344735113
 30
0.0
 10
-33.02499568794892
 20
8.982984848682669
 30
0.0
  0
SPLINE
  5
191
330
23
100
AcDbEntity
 67
     1
  8
0
  6
Continuous
 62
     7
370
    25
100
AcDbSpline
210
0.0
220
0.0
230
1.0
 70
     8
 71
     3
 72
     9
 73
     5
 74
     0
 42
0.000000001
 43
0.00000001
 40
0.0
 40
0.0
 40
0.0
 40
0.0
 40
0.519171200328593
 40
1.0
 40
1.0
 40
1.0
 40
1.0
 10
-30.0543147857037
 20
10.14128059866208
 30
0.0
 10
-30.170352378749
 20
9.940812680863715
 30
0.0
 10
-30.39385782930531
 20
9.554682021706425
 30
0.0
 10
-30.61747440045593
 20
9.168616344735115
 30
0.0
 10
-30.72499568794891
 20
8.982984848682667
 30
0.0
  0
SPLINE
  5
192
330
23
100
AcDbEntity
 67
     1
  8
0
  6
Continuous
 62
     7
370
    25
100
AcDbSpline
210
0.0
220
0.0
230
1.0
 70
     8
 71
     3
 72
     9
 73
     5
 74
     0
 42
0.000000001
 43
0.00000001
 40
0.0
 40
0.0
 40
0.0
 40
0.0
 40
0.5191712003285973
 40
0.9999999999999999
 40
0.9999999999999999
 40
0.9999999999999999
 40
0.9999999999999999
 10
-27.7543147857037
 20
10.14128059866208
 30
0.0
 10
-27.870352378749
 20
9.940812680863711
 30
0.0
 10
-28.0938578293053
 20
9.554682021706418
 30
0.0
 10
-28.31747440045593
 20
9.168616344735112
 30
0.0
 10
-28.42499568794891
 20
8.982984848682669
 30
0.0
  0
SPLINE
  5
193
330
23
100
AcDbEntity
 67
     1
  8
0
  6
Continuous
 62
     7
370
    25
100
AcDbSpline
210
0.0
220
0.0
230
1.0
 70
     8
 71
     3
 72
     9
 73
     5
 74
     0
 42
0.000000001
 43
0.00000001
 40
0.0
 40
0.0
 40
0.0
 40
0.0
 40
0.4998943496315194
 40
1.0
 40
1.0
 40
1.0
 40
1.0
 10
-41.10884400871542
 20
-8.922871157032494
 30
0.0
 10
-40.9927045357414
 20
-9.123338018721508
 30
0.0
 10
-40.76037649870793
 20
-9.524356477595441
 30
0.0
 10
-40.5281940098096
 20
-9.925539612397483
 30
0.0
 10
-40.41207823519491
 20
-10.12617356494452
 30
0.0
  0
SPLINE
  5
194
330
23
100
AcDbEntity
 67
     1
  8
0
  6
Continuous
 62
     7
370
    25
100
AcDbSpline
210
0.0
220
0.0
230
1.0
 70
     8
 71
     3
 72
     9
 73
     5
 74
     0
 42
0.000000001
 43
0.00000001
 40
0.0
 40
0.0
 40
0.0
 40
0.0
 40
0.4998943496315172
 40
1.0
 40
1.0
 40
1.0
 40
1.0
 10
-38.80884400871541
 20
-8.922871157032493
 30
0.0
 10
-38.6927045357414
 20
-9.123338018721507
 30
0.0
 10
-38.46037649870793
 20
-9.524356477595436
 30
0.0
 10
-38.22819400980958
 20
-9.92553961239748
 30
0.0
 10
-38.11207823519491
 20
-10.12617356494452
 30
0.0
  0
SPLINE
  5
195
330
23
100
AcDbEntity
 67
     1
  8
0
  6
Continuous
 62
     7
370
    25
100
AcDbSpline
210
0.0
220
0.0
230
1.0
 70
     8
 71
     3
 72
     9
 73
     5
 74
     0
 42
0.000000001
 43
0.00000001
 40
0.0
 40
0.0
 40
0.0
 40
0.0
 40
0.4998943496315125
 40
1.0
 40
1.0
 40
1.0
 40
1.0
 10
-36.50884400871542
 20
-8.922871157032494
 30
0.0
 10
-36.39270453574142
 20
-9.123338018721508
 30
0.0
 10
-36.16037649870795
 20
-9.524356477595441
 30
0.0
 10
-35.92819400980959
 20
-9.925539612397484
 30
0.0
 10
-35.8120782351949
 20
-10.12617356494452
 30
0.0
  0
SPLINE
  5
196
330
23
100
AcDbEntity
 67
     1
  8
0
  6
Continuous
 62
     7
370
    25
100
AcDbSpline
210
0.0
220
0.0
230
1.0
 70
     8
 71
     3
 72
     9
 73
     5
 74
     0
 42
0.000000001
 43
0.00000001
 40
0.0
 40
0.0
 40
0.0
 40
0.0
 40
0.4998943496315137
 40
1.0
 40
1.0
 40
1.0
 40
1.0
 10
-34.20884400871541
 20
-8.922871157032493
 30
0.0
 10
-34.0927045357414
 20
-9.12333801872151
 30
0.0
 10
-33.86037649870794
 20
-9.524356477595443
 30
0.0
 10
-33.6281940098096
 20
-9.925539612397484
 30
0.0
 10
-33.51207823519491
 20
-10.12617356494452
 30
0.0
  0
SPLINE
  5
197
330
23
100
AcDbEntity
 67
     1
  8
0
  6
Continuous
 62
     7
370
    25
100
AcDbSpline
210
0.0
220
0.0
230
1.0
 70
     8
 71
     3
 72
     9
 73
     5
 74
     0
 42
0.000000001
 43
0.00000001
 40
0.0
 40
0.0
 40
0.0
 40
0.0
 40
0.4998943496315144
 40
1.0
 40
1.0
 40
1.0
 40
1.0
 10
-31.90884400871542
 20
-8.922871157032494
 30
0.0
 10
-31.7927045357414
 20
-9.123338018721508
 30
0.0
 10
-31.56037649870795
 20
-9.52435647759544
 30
0.0
 10
-31.32819400980959
 20
-9.925539612397484
 30
0.0
 10
-31.21207823519491
 20
-10.12617356494452
 30
0.0
  0
SPLINE
  5
198
330
23
100
AcDbEntity
 67
     1
  8
0
  6
Continuous
 62
     7
370
    25
100
AcDbSpline
210
0.0
220
0.0
230
1.0
 70
     8
 71
     3
 72
     9
 73
     5
 74
     0
 42
0.000000001
 43
0.00000001
 40
0.0
 40
0.0
 40
0.0
 40
0.0
 40
0.4998943496315122
 40
1.0
 40
1.0
 40
1.0
 40
1.0
 10
-29.60884400871541
 20
-8.922871157032493
 30
0.0
 10
-29.4927045357414
 20
-9.123338018721507
 30
0.0
 10
-29.26037649870794
 20
-9.524356477595436
 30
0.0
 10
-29.02819400980959
 20
-9.92553961239748
 30
0.0
 10
-28.9120782351949
 20
-10.12617356494452
 30
0.0
  0
SPLINE
  5
199
330
23
100
AcDbEntity
 67
     1
  8
0
  6
Continuous
 62
     7
370
    25
100
AcDbSpline
210
0.0
220
0.0
230
1.0
 70
     8
 71
     3
 72
     9
 73
     5
 74
     0
 42
0.000000001
 43
0.00000001
 40
0.0
 40
0.0
 40
0.0
 40
0.0
 40
0.4998943496315109
 40
1.0
 40
1.0
 40
1.0
 40
1.0
 10
-27.30884400871541
 20
-8.922871157032493
 30
0.0
 10
-27.19270453574141
 20
-9.123338018721507
 30
0.0
 10
-26.96037649870795
 20
-9.52435647759544
 30
0.0
 10
-26.72819400980959
 20
-9.925539612397479
 30
0.0
 10
-26.61207823519491
 20
-10.12617356494452
 30
0.0
  0
SPLINE
  5
19B
330
23
100
AcDbEntity
 67
     1
  8
0
  6
Continuous
 62
     7
370
    25
100
AcDbSpline
210
0.0
220
0.0
230
1.0
 70
     8
 71
     3
 72
     9
 73
     5
 74
     0
 42
0.000000001
 43
0.00000001
 40
0.0
 40
0.0
 40
0.0
 40
0.0
 40
0.5191712003285927
 40
1.0
 40
1.0
 40
1.0
 40
1.0
 10
-41.5543147857037
 20
10.14128059866208
 30
0.0
 10
-41.67035237874902
 20
9.940812680863717
 30
0.0
 10
-41.89385782930533
 20
9.554682021706428
 30
0.0
 10
-42.11747440045593
 20
9.168616344735115
 30
0.0
 10
-42.2249956879489
 20
8.982984848682667
 30
0.0
  0
SPLINE
  5
19C
330
23
100
AcDbEntity
 67
     1
  8
0
  6
Continuous
 62
     7
370
    25
100
AcDbSpline
210
0.0
220
0.0
230
1.0
 70
     8
 71
     3
 72
     9
 73
     5
 74
     0
 42
0.000000001
 43
0.00000001
 40
0.0
 40
0.0
 40
0.0
 40
0.0
 40
0.4999092400218096
 40
0.9999999999999999
 40
0.9999999999999999
 40
0.9999999999999999
 40
0.9999999999999999
 10
-39.89913614604905
 20
8.938334989040802
 30
0.0
 10
-40.01522157616572
 20
9.138749134703604
 30
0.0
 10
-40.24743458769479
 20
9.539650197572655
 30
0.0
 10
-40.47952226627915
 20
9.940604177031608
 30
0.0
 10
-40.59558716984399
 20
10.14111755733551
 30
0.0
  0
SPLINE
  5
19D
330
23
100
AcDbEntity
 67
     1
  8
0
  6
Continuous
 62
     7
370
    25
100
AcDbSpline
210
0.0
220
0.0
230
1.0
 70
     8
 71
     3
 72
     9
 73
     5
 74
     0
 42
0.000000001
 43
0.00000001
 40
0.0
 40
0.0
 40
0.0
 40
0.0
 40
0.4999092400218035
 40
0.9999999999999999
 40
0.9999999999999999
 40
0.9999999999999999
 40
0.9999999999999999
 10
-37.59913614604906
 20
8.938334989040802
 30
0.0
 10
-37.71522157616572
 20
9.138749134703607
 30
0.0
 10
-37.94743458769478
 20
9.539650197572662
 30
0.0
 10
-38.17952226627916
 20
9.940604177031611
 30
0.0
 10
-38.29558716984399
 20
10.14111755733551
 30
0.0
  0
SPLINE
  5
19E
330
23
100
AcDbEntity
 67
     1
  8
0
  6
Continuous
 62
     7
370
    25
100
AcDbSpline
210
0.0
220
0.0
230
1.0
 70
     8
 71
     3
 72
     9
 73
     5
 74
     0
 42
0.000000001
 43
0.00000001
 40
0.0
 40
0.0
 40
0.0
 40
0.0
 40
0.499909240021801
 40
0.9999999999999999
 40
0.9999999999999999
 40
0.9999999999999999
 40
0.9999999999999999
 10
-35.29913614604906
 20
8.938334989040802
 30
0.0
 10
-35.41522157616573
 20
9.138749134703605
 30
0.0
 10
-35.64743458769478
 20
9.539650197572664
 30
0.0
 10
-35.87952226627915
 20
9.940604177031608
 30
0.0
 10
-35.99558716984399
 20
10.14111755733551
 30
0.0
  0
SPLINE
  5
19F
330
23
100
AcDbEntity
 67
     1
  8
0
  6
Continuous
 62
     7
370
    25
100
AcDbSpline
210
0.0
220
0.0
230
1.0
 70
     8
 71
     3
 72
     9
 73
     5
 74
     0
 42
0.000000001
 43
0.00000001
 40
0.0
 40
0.0
 40
0.0
 40
0.0
 40
0.4999092400218035
 40
0.9999999999999999
 40
0.9999999999999999
 40
0.9999999999999999
 40
0.9999999999999999
 10
-32.99913614604905
 20
8.938334989040802
 30
0.0
 10
-33.11522157616572
 20
9.138749134703607
 30
0.0
 10
-33.34743458769479
 20
9.539650197572662
 30
0.0
 10
-33.57952226627916
 20
9.940604177031611
 30
0.0
 10
-33.69558716984399
 20
10.14111755733551
 30
0.0
  0
SPLINE
  5
1A0
330
23
100
AcDbEntity
 67
     1
  8
0
  6
Continuous
 62
     7
370
    25
100
AcDbSpline
210
0.0
220
0.0
230
1.0
 70
     8
 71
     3
 72
     9
 73
     5
 74
     0
 42
0.000000001
 43
0.00000001
 40
0.0
 40
0.0
 40
0.0
 40
0.0
 40
0.4999092400218054
 40
0.9999999999999999
 40
0.9999999999999999
 40
0.9999999999999999
 40
0.9999999999999999
 10
-30.69913614604905
 20
8.938334989040802
 30
0.0
 10
-30.81522157616572
 20
9.138749134703602
 30
0.0
 10
-31.04743458769479
 20
9.539650197572657
 30
0.0
 10
-31.27952226627916
 20
9.94060417703161
 30
0.0
 10
-31.39558716984399
 20
10.14111755733551
 30
0.0
  0
SPLINE
  5
1A1
330
23
100
AcDbEntity
 67
     1
  8
0
  6
Continuous
 62
     7
370
    25
100
AcDbSpline
210
0.0
220
0.0
230
1.0
 70
     8
 71
     3
 72
     9
 73
     5
 74
     0
 42
0.000000001
 43
0.00000001
 40
0.0
 40
0.0
 40
0.0
 40
0.0
 40
0.4999092400218014
 40
1.0
 40
1.0
 40
1.0
 40
1.0
 10
-28.39913614604906
 20
8.938334989040804
 30
0.0
 10
-28.51522157616573
 20
9.138749134703604
 30
0.0
 10
-28.7474345876948
 20
9.53965019757266
 30
0.0
 10
-28.97952226627916
 20
9.940604177031608
 30
0.0
 10
-29.09558716984399
 20
10.14111755733551
 30
0.0
  0
SPLINE
  5
1A2
330
23
100
AcDbEntity
 67
     1
  8
0
  6
Continuous
 62
     7
370
    25
100
AcDbSpline
210
0.0
220
0.0
230
1.0
 70
     8
 71
     3
 72
     9
 73
     5
 74
     0
 42
0.000000001
 43
0.00000001
 40
0.0
 40
0.0
 40
0.0
 40
0.0
 40
0.5189956751328091
 40
1.0
 40
1.0
 40
1.0
 40
1.0
 10
-39.445587169844
 20
-10.14111755733552
 30
0.0
 10
-39.32952266125231
 20
-9.940604010270741
 30
0.0
 10
-39.10588975995308
 20
-9.554254842691517
 30
0.0
 10
-38.88213609108185
 20
-9.167956664164661
 30
0.0
 10
-38.77450960864989
 20
-8.98214556960492
 30
0.0
  0
SPLINE
  5
1A3
330
23
100
AcDbEntity
 67
     1
  8
0
  6
Continuous
 62
     7
370
    25
100
AcDbSpline
210
0.0
220
0.0
230
1.0
 70
     8
 71
     3
 72
     9
 73
     5
 74
     0
 42
0.000000001
 43
0.00000001
 40
0.0
 40
0.0
 40
0.0
 40
0.0
 40
0.5189956751328108
 40
1.0
 40
1.0
 40
1.0
 40
1.0
 10
-37.145587169844
 20
-10.14111755733552
 30
0.0
 10
-37.02952266125232
 20
-9.940604010270743
 30
0.0
 10
-36.80588975995309
 20
-9.55425484269152
 30
0.0
 10
-36.58213609108184
 20
-9.167956664164663
 30
0.0
 10
-36.47450960864988
 20
-8.982145569604926
 30
0.0
  0
SPLINE
  5
1A4
330
23
100
AcDbEntity
 67
     1
  8
0
  6
Continuous
 62
     7
370
    25
100
AcDbSpline
210
0.0
220
0.0
230
1.0
 70
     8
 71
     3
 72
     9
 73
     5
 74
     0
 42
0.000000001
 43
0.00000001
 40
0.0
 40
0.0
 40
0.0
 40
0.0
 40
0.5189956751328108
 40
1.0
 40
1.0
 40
1.0
 40
1.0
 10
-34.84558716984399
 20
-10.14111755733552
 30
0.0
 10
-34.72952266125231
 20
-9.940604010270743
 30
0.0
 10
-34.50588975995308
 20
-9.55425484269152
 30
0.0
 10
-34.28213609108185
 20
-9.167956664164663
 30
0.0
 10
-34.17450960864988
 20
-8.982145569604926
 30
0.0
  0
SPLINE
  5
1A5
330
23
100
AcDbEntity
 67
     1
  8
0
  6
Continuous
 62
     7
370
    25
100
AcDbSpline
210
0.0
220
0.0
230
1.0
 70
     8
 71
     3
 72
     9
 73
     5
 74
     0
 42
0.000000001
 43
0.00000001
 40
0.0
 40
0.0
 40
0.0
 40
0.0
 40
0.5189956751328116
 40
1.0
 40
1.0
 40
1.0
 40
1.0
 10
-32.545587169844
 20
-10.14111755733552
 30
0.0
 10
-32.4295226612523
 20
-9.940604010270743
 30
0.0
 10
-32.20588975995307
 20
-9.554254842691526
 30
0.0
 10
-31.98213609108184
 20
-9.16795666416466
 30
0.0
 10
-31.87450960864988
 20
-8.98214556960492
 30
0.0
  0
SPLINE
  5
1A6
330
23
100
AcDbEntity
 67
     1
  8
0
  6
Continuous
 62
     7
370
    25
100
AcDbSpline
210
0.0
220
0.0
230
1.0
 70
     8
 71
     3
 72
     9
 73
     5
 74
     0
 42
0.000000001
 43
0.00000001
 40
0.0
 40
0.0
 40
0.0
 40
0.0
 40
0.5189956751328141
 40
1.0
 40
1.0
 40
1.0
 40
1.0
 10
-30.245587169844
 20
-10.14111755733552
 30
0.0
 10
-30.1295226612523
 20
-9.940604010270743
 30
0.0
 10
-29.90588975995306
 20
-9.554254842691527
 30
0.0
 10
-29.68213609108184
 20
-9.167956664164663
 30
0.0
 10
-29.57450960864988
 20
-8.982145569604924
 30
0.0
  0
SPLINE
  5
1A7
330
23
100
AcDbEntity
 67
     1
  8
0
  6
Continuous
 62
     7
370
    25
100
AcDbSpline
210
0.0
220
0.0
230
1.0
 70
     8
 71
     3
 72
     9
 73
     5
 74
     0
 42
0.000000001
 43
0.00000001
 40
0.0
 40
0.0
 40
0.0
 40
0.0
 40
0.5189956751328199
 40
1.0
 40
1.0
 40
1.0
 40
1.0
 10
-27.945587169844
 20
-10.14111755733552
 30
0.0
 10
-27.8295226612523
 20
-9.940604010270741
 30
0.0
 10
-27.60588975995307
 20
-9.554254842691522
 30
0.0
 10
-27.38213609108184
 20
-9.16795666416466
 30
0.0
 10
-27.27450960864988
 20
-8.982145569604924
 30
0.0
  0
SPLINE
  5
1A8
330
23
100
AcDbEntity
 67
     1
  8
0
  6
Continuous
 62
     7
370
    25
100
AcDbSpline
210
0.0
220
0.0
230
1.0
 70
     8
 71
     3
 72
     9
 73
     5
 74
     0
 42
0.000000001
 43
0.00000001
 40
0.0
 40
0.0
 40
0.0
 40
0.0
 40
0.5189956751328079
 40
1.0
 40
1.0
 40
1.0
 40
1.0
 10
-41.745587169844
 20
-10.14111755733552
 30
0.0
 10
-41.6295226612523
 20
-9.940604010270743
 30
0.0
 10
-41.40588975995308
 20
-9.55425484269152
 30
0.0
 10
-41.18213609108184
 20
-9.16795666416466
 30
0.0
 10
-41.07450960864988
 20
-8.98214556960492
 30
0.0
  0
SPLINE
  5
1A9
330
23
100
AcDbEntity
 67
     1
  8
0
  6
Continuous
 62
     7
370
    25
100
AcDbSpline
210
0.0
220
0.0
230
1.0
 70
     8
 71
     3
 72
     9
 73
     5
 74
     0
 42
0.000000001
 43
0.00000001
 40
0.0
 40
0.0
 40
0.0
 40
0.0
 40
0.5821795530676616
 40
1.0
 40
1.0
 40
1.0
 40
1.0
 10
-42.19913614604905
 20
8.938334989040802
 30
0.0
 10
-42.31522329438389
 20
9.138748409257913
 30
0.0
 10
-42.51462423129954
 20
9.482995161245466
 30
0.0
 10
-42.71391754661148
 20
9.827287351950506
 30
0.0
 10
-42.79718636868575
 20
9.9711396689462
 30
0.0
  0
SPLINE
  5
1AF
330
23
100
AcDbEntity
 67
     1
  8
0
  6
Continuous
 62
     7
370
    25
100
AcDbSpline
210
0.0
220
0.0
230
1.0
 70
     8
 71
     3
 72
    29
 73
    25
 74
     0
 42
0.000000001
 43
0.00000001
 40
0.0
 40
0.0
 40
0.0
 40
0.0
 40
0.0408922992135787
 40
0.0822443079995863
 40
0.1237798005915295
 40
0.1652151120329484
 40
0.2114473253917002
 40
0.2574167350252952
 40
0.3039852405287487
 40
0.3507969671434398
 40
0.3974462649026079
 40
0.4435358360171022
 40
0.4896254071315956
 40
0.5362747048907636
 40
0.5830864315054547
 40
0.6296549370089084
 40
0.6756243466425033
 40
0.7218565600012561
 40
0.7685706937847135
 40
0.8153661266061057
 40
0.8618380502148071
 40
0.9077473191690203
 40
0.9541070692549357
 40
1.0
 40
1.0
 40
1.0
 40
1.0
 10
-42.80000000000001
 20
9.633772405434176
 30
0.0
 10
-42.78623167115297
 20
9.49746849919182
 30
0.0
 10
-42.75854023046334
 20
9.223328363710745
 30
0.0
 10
-42.71549772476897
 20
8.65204345513705
 30
0.0
 10
-42.67200348654977
 20
7.969713399081636
 30
0.0
 10
-42.6269434695656
 20
7.145128332510554
 30
0.0
 10
-42.5814421110486
 20
6.181544471475003
 30
0.0
 10
-42.53521338576805
 20
5.076251785109948
 30
0.0
 10
-42.48674004365166
 20
3.879788406971117
 30
0.0
 10
-42.43775190305104
 20
2.610377645516832
 30
0.0
 10
-42.38907739883168
 20
1.300326908485025
 30
0.0
 10
-42.34235341663739
 20
-0.0250152030611743
 30
0.0
 10
-42.2956294334296
 20
-1.349933903570687
 30
0.0
 10
-42.24695493229134
 20
-2.65871098608243
 30
0.0
 10
-42.19796678034605
 20
-3.926004857419583
 30
0.0
 10
-42.14949348014787
 20
-5.119576313941191
 30
0.0
 10
-42.10326460026749
 20
-6.221218134269635
 30
0.0
 10
-42.05596646307228
 20
-7.218671509449163
 30
0.0
 10
-42.0071592454741
 20
-8.098214418502094
 30
0.0
 10
-41.95819513828575
 20
-8.838886993614171
 30
0.0
 10
-41.9100206389427
 20
-9.424543018057996
 30
0.0
 10
-41.86403920394361
 20
-9.84516770446351
 30
0.0
 10
-41.81655753304414
 20
-10.11110489292253
 30
0.0
 10
-41.78430693167216
 20
-10.14268234023216
 30
0.0
 10
-41.76826322863915
 20
-10.15839116938957
 30
0.0
  0
SPLINE
  5
1B0
330
23
100
AcDbEntity
 67
     1
  8
0
  6
Continuous
 62
     7
370
    25
100
AcDbSpline
210
0.0
220
0.0
230
1.0
 70
     8
 71
     3
 72
    32
 73
    28
 74
     0
 42
0.000000001
 43
0.00000001
 40
0.0
 40
0.0
 40
0.0
 40
0.0
 40
0.015954121256781
 40
0.0507380577242484
 40
0.0851266516608487
 40
0.1225379263636619
 40
0.1603697771022667
 40
0.1983694922847737
 40
0.2362775544026602
 40
0.2785741742393116
 40
0.3206303619519726
 40
0.3632346465090673
 40
0.4060614475785868
 40
0.4487396468171869
 40
0.4909057670662197
 40
0.5330718873152517
 40
0.5757500865538518
 40
0.6185768876233713
 40
0.6611811721804659
 40
0.703237359893127
 40
0.7455339797297794
 40
0.7882714957190141
 40
0.8310833900313009
 40
0.8735993143869548
 40
0.9156004809948985
 40
0.9580137807841661
 40
1.0
 40
1.0
 40
1.0
 40
1.0
 10
-40.5955815128362
 20
10.126455007382
 30
0.0
 10
-40.5894920742312
 20
10.11952437464293
 30
0.0
 10
-40.57012615100196
 20
10.09748324568817
 30
0.0
 10
-40.53793128273168
 20
9.936590577717764
 30
0.0
 10
-40.49894083637534
 20
9.644569816050655
 30
0.0
 10
-40.45852527230058
 20
9.217203162799178
 30
0.0
 10
-40.41550177087665
 20
8.653700291135104
 30
0.0
 10
-40.37200240723337
 20
7.969271431042733
 30
0.0
 10
-40.32694379598063
 20
7.145261995830056
 30
0.0
 10
-40.28144202019174
 20
6.181507266610917
 30
0.0
 10
-40.2352134104031
 20
5.076261872881506
 30
0.0
 10
-40.18674003697507
 20
3.879785672990255
 30
0.0
 10
-40.13775190483774
 20
2.610378377155605
 30
0.0
 10
-40.08907739836005
 20
1.300326715350195
 30
0.0
 10
-40.04235341676308
 20
-0.0250151515961798
 30
0.0
 10
-39.99562943339549
 20
-1.34993391754585
 30
0.0
 10
-39.94695493230058
 20
-2.658710982303356
 30
0.0
 10
-39.89796678034357
 20
-3.926004858428224
 30
0.0
 10
-39.84949348014853
 20
-5.119576313675444
 30
0.0
 10
-39.80326460026733
 20
-6.22121813434088
 30
0.0
 10
-39.75596646307232
 20
-7.218671509429805
 30
0.0
 10
-39.70715924547407
 20
-8.098214418507311
 30
0.0
 10
-39.65819513828578
 20
-8.838886993612787
 30
0.0
 10
-39.61002063894268
 20
-9.42454301805836
 30
0.0
 10
-39.56403920394362
 20
-9.845167704463417
 30
0.0
 10
-39.51655753304413
 20
-10.11110489292255
 30
0.0
 10
-39.48430693167214
 20
-10.14268234023216
 30
0.0
 10
-39.46826322863915
 20
-10.15839116938957
 30
0.0
  0
SPLINE
  5
1B1
330
23
100
AcDbEntity
 67
     1
  8
0
  6
Continuous
 62
     7
370
    25
100
AcDbSpline
210
0.0
220
0.0
230
1.0
 70
     8
 71
     3
 72
    32
 73
    28
 74
     0
 42
0.000000001
 43
0.00000001
 40
0.0
 40
0.0
 40
0.0
 40
0.0
 40
0.0159541212567809
 40
0.0507380577242484
 40
0.0851266516608487
 40
0.1225379263636619
 40
0.1603697771022667
 40
0.1983694922847737
 40
0.2362775544026602
 40
0.2785741742393116
 40
0.3206303619519726
 40
0.3632346465090673
 40
0.4060614475785868
 40
0.4487396468171869
 40
0.4909057670662197
 40
0.5330718873152517
 40
0.5757500865538518
 40
0.6185768876233713
 40
0.6611811721804659
 40
0.703237359893127
 40
0.7455339797297793
 40
0.788271495719014
 40
0.8310833900313009
 40
0.8735993143869548
 40
0.9156004809948985
 40
0.9580137807841661
 40
1.0
 40
1.0
 40
1.0
 40
1.0
 10
-38.2955815128362
 20
10.126455007382
 30
0.0
 10
-38.2894920742312
 20
10.11952437464293
 30
0.0
 10
-38.27012615100195
 20
10.09748324568816
 30
0.0
 10
-38.23793128273167
 20
9.936590577717762
 30
0.0
 10
-38.19894083637534
 20
9.644569816050655
 30
0.0
 10
-38.15852527230059
 20
9.217203162799178
 30
0.0
 10
-38.11550177087666
 20
8.653700291135104
 30
0.0
 10
-38.07200240723336
 20
7.969271431042735
 30
0.0
 10
-38.02694379598064
 20
7.145261995830055
 30
0.0
 10
-37.98144202019173
 20
6.181507266610916
 30
0.0
 10
-37.93521341040311
 20
5.076261872881505
 30
0.0
 10
-37.88674003697508
 20
3.879785672990255
 30
0.0
 10
-37.83775190483775
 20
2.610378377155605
 30
0.0
 10
-37.78907739836006
 20
1.300326715350195
 30
0.0
 10
-37.74235341676307
 20
-0.0250151515961798
 30
0.0
 10
-37.6956294333955
 20
-1.34993391754585
 30
0.0
 10
-37.64695493230056
 20
-2.658710982303356
 30
0.0
 10
-37.59796678034359
 20
-3.926004858428224
 30
0.0
 10
-37.54949348014851
 20
-5.119576313675444
 30
0.0
 10
-37.50326460026731
 20
-6.221218134340879
 30
0.0
 10
-37.45596646307234
 20
-7.218671509429806
 30
0.0
 10
-37.40715924547407
 20
-8.098214418507311
 30
0.0
 10
-37.35819513828577
 20
-8.838886993612785
 30
0.0
 10
-37.31002063894268
 20
-9.42454301805836
 30
0.0
 10
-37.26403920394363
 20
-9.845167704463417
 30
0.0
 10
-37.21655753304413
 20
-10.11110489292255
 30
0.0
 10
-37.18430693167215
 20
-10.14268234023216
 30
0.0
 10
-37.16826322863915
 20
-10.15839116938957
 30
0.0
  0
SPLINE
  5
1B2
330
23
100
AcDbEntity
 67
     1
  8
0
  6
Continuous
 62
     7
370
    25
100
AcDbSpline
210
0.0
220
0.0
230
1.0
 70
     8
 71
     3
 72
    32
 73
    28
 74
     0
 42
0.000000001
 43
0.00000001
 40
0.0
 40
0.0
 40
0.0
 40
0.0
 40
0.0159541212567805
 40
0.050738057724248
 40
0.0851266516608483
 40
0.1225379263636615
 40
0.1603697771022663
 40
0.1983694922847734
 40
0.2362775544026599
 40
0.2785741742393112
 40
0.3206303619519723
 40
0.363234646509067
 40
0.4060614475785865
 40
0.4487396468171866
 40
0.4909057670662195
 40
0.5330718873152515
 40
0.5757500865538516
 40
0.6185768876233712
 40
0.6611811721804659
 40
0.703237359893127
 40
0.7455339797297793
 40
0.788271495719014
 40
0.8310833900313009
 40
0.8735993143869548
 40
0.9156004809948985
 40
0.9580137807841662
 40
1.0
 40
1.0
 40
1.0
 40
1.0
 10
-35.9955815128362
 20
10.126455007382
 30
0.0
 10
-35.98949207423119
 20
10.11952437464293
 30
0.0
 10
-35.97012615100195
 20
10.09748324568817
 30
0.0
 10
-35.93793128273166
 20
9.936590577717759
 30
0.0
 10
-35.89894083637536
 20
9.64456981605066
 30
0.0
 10
-35.85852527230058
 20
9.217203162799173
 30
0.0
 10
-35.81550177087666
 20
8.653700291135104
 30
0.0
 10
-35.77200240723336
 20
7.969271431042735
 30
0.0
 10
-35.72694379598065
 20
7.145261995830056
 30
0.0
 10
-35.68144202019174
 20
6.181507266610918
 30
0.0
 10
-35.63521341040308
 20
5.076261872881502
 30
0.0
 10
-35.58674003697509
 20
3.879785672990258
 30
0.0
 10
-35.53775190483776
 20
2.610378377155604
 30
0.0
 10
-35.48907739836003
 20
1.300326715350196
 30
0.0
 10
-35.44235341676307
 20
-0.0250151515961799
 30
0.0
 10
-35.39562943339549
 20
-1.34993391754585
 30
0.0
 10
-35.34695493230057
 20
-2.658710982303357
 30
0.0
 10
-35.29796678034359
 20
-3.926004858428224
 30
0.0
 10
-35.24949348014852
 20
-5.119576313675442
 30
0.0
 10
-35.20326460026731
 20
-6.221218134340879
 30
0.0
 10
-35.15596646307234
 20
-7.218671509429806
 30
0.0
 10
-35.10715924547408
 20
-8.098214418507311
 30
0.0
 10
-35.05819513828578
 20
-8.838886993612784
 30
0.0
 10
-35.01002063894268
 20
-9.424543018058362
 30
0.0
 10
-34.96403920394362
 20
-9.845167704463416
 30
0.0
 10
-34.91655753304414
 20
-10.11110489292255
 30
0.0
 10
-34.88430693167215
 20
-10.14268234023216
 30
0.0
 10
-34.86826322863914
 20
-10.15839116938957
 30
0.0
  0
SPLINE
  5
1B3
330
23
100
AcDbEntity
 67
     1
  8
0
  6
Continuous
 62
     7
370
    25
100
AcDbSpline
210
0.0
220
0.0
230
1.0
 70
     8
 71
     3
 72
    32
 73
    28
 74
     0
 42
0.000000001
 43
0.00000001
 40
0.0
 40
0.0
 40
0.0
 40
0.0
 40
0.0159541212567805
 40
0.050738057724248
 40
0.0851266516608483
 40
0.1225379263636615
 40
0.1603697771022663
 40
0.1983694922847734
 40
0.2362775544026598
 40
0.2785741742393112
 40
0.3206303619519723
 40
0.3632346465090669
 40
0.4060614475785864
 40
0.4487396468171866
 40
0.4909057670662195
 40
0.5330718873152515
 40
0.5757500865538516
 40
0.6185768876233712
 40
0.6611811721804658
 40
0.7032373598931269
 40
0.7455339797297792
 40
0.7882714957190139
 40
0.8310833900313008
 40
0.8735993143869547
 40
0.9156004809948984
 40
0.9580137807841661
 40
1.0
 40
1.0
 40
1.0
 40
1.0
 10
-33.6955815128362
 20
10.126455007382
 30
0.0
 10
-33.6894920742312
 20
10.11952437464293
 30
0.0
 10
-33.67012615100195
 20
10.09748324568817
 30
0.0
 10
-33.63793128273166
 20
9.936590577717759
 30
0.0
 10
-33.59894083637536
 20
9.64456981605066
 30
0.0
 10
-33.55852527230058
 20
9.217203162799173
 30
0.0
 10
-33.51550177087667
 20
8.653700291135108
 30
0.0
 10
-33.47200240723335
 20
7.969271431042733
 30
0.0
 10
-33.42694379598063
 20
7.145261995830054
 30
0.0
 10
-33.38144202019173
 20
6.181507266610918
 30
0.0
 10
-33.33521341040309
 20
5.076261872881504
 30
0.0
 10
-33.28674003697508
 20
3.879785672990257
 30
0.0
 10
-33.23775190483775
 20
2.610378377155604
 30
0.0
 10
-33.18907739836003
 20
1.300326715350195
 30
0.0
 10
-33.14235341676307
 20
-0.0250151515961786
 30
0.0
 10
-33.0956294333955
 20
-1.34993391754585
 30
0.0
 10
-33.04695493230057
 20
-2.658710982303358
 30
0.0
 10
-32.99796678034359
 20
-3.926004858428221
 30
0.0
 10
-32.94949348014852
 20
-5.119576313675445
 30
0.0
 10
-32.90326460026731
 20
-6.221218134340879
 30
0.0
 10
-32.85596646307233
 20
-7.218671509429806
 30
0.0
 10
-32.80715924547407
 20
-8.098214418507311
 30
0.0
 10
-32.75819513828578
 20
-8.838886993612784
 30
0.0
 10
-32.71002063894269
 20
-9.424543018058362
 30
0.0
 10
-32.66403920394361
 20
-9.845167704463414
 30
0.0
 10
-32.61655753304414
 20
-10.11110489292255
 30
0.0
 10
-32.58430693167217
 20
-10.14268234023217
 30
0.0
 10
-32.56826322863915
 20
-10.15839116938957
 30
0.0
  0
SPLINE
  5
1B4
330
23
100
AcDbEntity
 67
     1
  8
0
  6
Continuous
 62
     7
370
    25
100
AcDbSpline
210
0.0
220
0.0
230
1.0
 70
     8
 71
     3
 72
    32
 73
    28
 74
     0
 42
0.000000001
 43
0.00000001
 40
0.0
 40
0.0
 40
0.0
 40
0.0
 40
0.0159541212567805
 40
0.050738057724248
 40
0.0851266516608483
 40
0.1225379263636615
 40
0.1603697771022663
 40
0.1983694922847734
 40
0.2362775544026598
 40
0.2785741742393112
 40
0.3206303619519723
 40
0.3632346465090669
 40
0.4060614475785864
 40
0.4487396468171866
 40
0.4909057670662195
 40
0.5330718873152515
 40
0.5757500865538516
 40
0.6185768876233712
 40
0.6611811721804658
 40
0.7032373598931269
 40
0.7455339797297792
 40
0.7882714957190139
 40
0.8310833900313008
 40
0.8735993143869547
 40
0.9156004809948984
 40
0.9580137807841661
 40
1.0
 40
1.0
 40
1.0
 40
1.0
 10
-31.3955815128362
 20
10.126455007382
 30
0.0
 10
-31.3894920742312
 20
10.11952437464293
 30
0.0
 10
-31.37012615100194
 20
10.09748324568817
 30
0.0
 10
-31.33793128273168
 20
9.936590577717764
 30
0.0
 10
-31.29894083637532
 20
9.644569816050653
 30
0.0
 10
-31.25852527230059
 20
9.217203162799178
 30
0.0
 10
-31.21550177087665
 20
8.653700291135102
 30
0.0
 10
-31.17200240723335
 20
7.969271431042733
 30
0.0
 10
-31.12694379598064
 20
7.145261995830054
 30
0.0
 10
-31.08144202019174
 20
6.181507266610918
 30
0.0
 10
-31.03521341040308
 20
5.076261872881504
 30
0.0
 10
-30.98674003697509
 20
3.879785672990257
 30
0.0
 10
-30.93775190483776
 20
2.610378377155604
 30
0.0
 10
-30.88907739836004
 20
1.300326715350195
 30
0.0
 10
-30.84235341676307
 20
-0.0250151515961786
 30
0.0
 10
-30.7956294333955
 20
-1.34993391754585
 30
0.0
 10
-30.74695493230058
 20
-2.658710982303358
 30
0.0
 10
-30.69796678034358
 20
-3.926004858428221
 30
0.0
 10
-30.64949348014852
 20
-5.119576313675445
 30
0.0
 10
-30.60326460026732
 20
-6.221218134340879
 30
0.0
 10
-30.55596646307234
 20
-7.218671509429806
 30
0.0
 10
-30.50715924547407
 20
-8.098214418507311
 30
0.0
 10
-30.45819513828578
 20
-8.838886993612784
 30
0.0
 10
-30.41002063894269
 20
-9.424543018058362
 30
0.0
 10
-30.36403920394361
 20
-9.845167704463414
 30
0.0
 10
-30.31655753304414
 20
-10.11110489292255
 30
0.0
 10
-30.28430693167217
 20
-10.14268234023217
 30
0.0
 10
-30.26826322863915
 20
-10.15839116938957
 30
0.0
  0
SPLINE
  5
1B5
330
23
100
AcDbEntity
 67
     1
  8
0
  6
Continuous
 62
     7
370
    25
100
AcDbSpline
210
0.0
220
0.0
230
1.0
 70
     8
 71
     3
 72
    32
 73
    28
 74
     0
 42
0.000000001
 43
0.00000001
 40
0.0
 40
0.0
 40
0.0
 40
0.0
 40
0.0159541212567805
 40
0.050738057724248
 40
0.0851266516608483
 40
0.1225379263636615
 40
0.1603697771022663
 40
0.1983694922847734
 40
0.2362775544026598
 40
0.2785741742393112
 40
0.3206303619519723
 40
0.3632346465090669
 40
0.4060614475785864
 40
0.4487396468171866
 40
0.4909057670662195
 40
0.5330718873152515
 40
0.5757500865538516
 40
0.6185768876233712
 40
0.6611811721804658
 40
0.7032373598931269
 40
0.7455339797297792
 40
0.7882714957190139
 40
0.8310833900313008
 40
0.8735993143869547
 40
0.9156004809948984
 40
0.9580137807841661
 40
1.0
 40
1.0
 40
1.0
 40
1.0
 10
-29.0955815128362
 20
10.126455007382
 30
0.0
 10
-29.0894920742312
 20
10.11952437464293
 30
0.0
 10
-29.07012615100195
 20
10.09748324568817
 30
0.0
 10
-29.03793128273168
 20
9.93659057771776
 30
0.0
 10
-28.99894083637534
 20
9.644569816050657
 30
0.0
 10
-28.95852527230058
 20
9.217203162799175
 30
0.0
 10
-28.91550177087666
 20
8.653700291135106
 30
0.0
 10
-28.87200240723336
 20
7.969271431042733
 30
0.0
 10
-28.82694379598064
 20
7.145261995830054
 30
0.0
 10
-28.78144202019174
 20
6.181507266610918
 30
0.0
 10
-28.73521341040309
 20
5.076261872881504
 30
0.0
 10
-28.68674003697508
 20
3.879785672990257
 30
0.0
 10
-28.63775190483775
 20
2.610378377155604
 30
0.0
 10
-28.58907739836004
 20
1.300326715350195
 30
0.0
 10
-28.54235341676307
 20
-0.0250151515961786
 30
0.0
 10
-28.4956294333955
 20
-1.34993391754585
 30
0.0
 10
-28.44695493230057
 20
-2.658710982303358
 30
0.0
 10
-28.39796678034358
 20
-3.926004858428221
 30
0.0
 10
-28.34949348014852
 20
-5.119576313675445
 30
0.0
 10
-28.30326460026732
 20
-6.221218134340879
 30
0.0
 10
-28.25596646307233
 20
-7.218671509429806
 30
0.0
 10
-28.20715924547407
 20
-8.098214418507311
 30
0.0
 10
-28.15819513828577
 20
-8.838886993612784
 30
0.0
 10
-28.11002063894269
 20
-9.424543018058362
 30
0.0
 10
-28.06403920394361
 20
-9.845167704463414
 30
0.0
 10
-28.01655753304414
 20
-10.11110489292255
 30
0.0
 10
-27.98430693167216
 20
-10.14268234023217
 30
0.0
 10
-27.96826322863915
 20
-10.15839116938957
 30
0.0
  0
SPLINE
  5
1B6
330
23
100
AcDbEntity
 67
     1
  8
0
  6
Continuous
 62
     7
370
    25
100
AcDbSpline
210
0.0
220
0.0
230
1.0
 70
     8
 71
     3
 72
    32
 73
    28
 74
     0
 42
0.000000001
 43
0.00000001
 40
0.0
 40
0.0
 40
0.0
 40
0.0
 40
0.0007804551089229
 40
0.0427327402891341
 40
0.0843233670304926
 40
0.1255098545655798
 40
0.1672011153075054
 40
0.2091826052005261
 40
0.2510911594557414
 40
0.2925673694367537
 40
0.3338078108551882
 40
0.3755857179126609
 40
0.4175818254227754
 40
0.4594322134695717
 40
0.5007804551089229
 40
0.5421286967482705
 40
0.5839790847950668
 40
0.6259751923051813
 40
0.6677530993626541
 40
0.7089935407810887
 40
0.7504697507621045
 40
0.7923783050173162
 40
0.834359794910337
 40
0.8760510556522625
 40
0.9172375431873496
 40
0.9588281699287081
 40
1.0
 40
1.0
 40
1.0
 40
1.0
 10
-26.58173677136087
 20
-10.15839116938955
 30
0.0
 10
-26.58204003301524
 20
-10.1589263149799
 30
0.0
 10
-26.5986447055555
 20
-10.18822747178934
 30
0.0
 10
-26.63157120939221
 20
-10.08496737811626
 30
0.0
 10
-26.67932722845419
 20
-9.83781828614568
 30
0.0
 10
-26.72531519668753
 20
-9.40389454136343
 30
0.0
 10
-26.77348792786452
 20
-8.814302322224764
 30
0.0
 10
-26.82245251381852
 20
-8.067639335057127
 30
0.0
 10
-26.87125960332228
 20
-7.183303801941082
 30
0.0
 10
-26.91855777443364
 20
-6.181514602062121
 30
0.0
 10
-26.96478664528247
 20
-5.076259883938347
 30
0.0
 10
-27.01325994793308
 20
-3.87978621203216
 30
0.0
 10
-27.06224809920098
 20
-2.610378232902876
 30
0.0
 10
-27.11092260057387
 20
-1.300326753429298
 30
0.0
 10
-27.15764658352104
 20
0.0250151617433225
 30
0.0
 10
-27.20437056652739
 20
1.349933914790586
 30
0.0
 10
-27.25304506772032
 20
2.658710983048569
 30
0.0
 10
-27.30203321965087
 20
3.926004858229462
 30
0.0
 10
-27.35050651985295
 20
5.119576313727932
 30
0.0
 10
-27.39673539973231
 20
6.221218134326928
 30
0.0
 10
-27.4440335369278
 20
7.218671509433713
 30
0.0
 10
-27.49284075452592
 20
8.098214418506362
 30
0.0
 10
-27.54180486171427
 20
8.83888699361311
 30
0.0
 10
-27.58997936105732
 20
9.424543018058326
 30
0.0
 10
-27.6359607960564
 20
9.845167704463442
 30
0.0
 10
-27.68344246695587
 20
10.11110489292256
 30
0.0
 10
-27.71569306832786
 20
10.14268234023216
 30
0.0
 10
-27.73173677136087
 20
10.15839116938955
 30
0.0
  0
SPLINE
  5
1B7
330
23
100
AcDbEntity
 67
     1
  8
0
  6
Continuous
 62
     7
370
    25
100
AcDbSpline
210
0.0
220
0.0
230
1.0
 70
     8
 71
     3
 72
    32
 73
    28
 74
     0
 42
0.000000001
 43
0.00000001
 40
0.0
 40
0.0
 40
0.0
 40
0.0
 40
0.0007804551089229
 40
0.0427327402891341
 40
0.0843233670304925
 40
0.1255098545655796
 40
0.1672011153075051
 40
0.2091826052005257
 40
0.251091159455741
 40
0.2925673694367532
 40
0.3338078108551876
 40
0.3755857179126603
 40
0.4175818254227747
 40
0.4594322134695709
 40
0.500780455108922
 40
0.5421286967482696
 40
0.5839790847950658
 40
0.6259751923051803
 40
0.6677530993626529
 40
0.7089935407810875
 40
0.7504697507621032
 40
0.7923783050173149
 40
0.8343597949103355
 40
0.876051055652261
 40
0.9172375431873481
 40
0.9588281699287065
 40
1.0
 40
1.0
 40
1.0
 40
1.0
 10
-28.88173677136087
 20
-10.15839116938955
 30
0.0
 10
-28.88204003301525
 20
-10.15892631497991
 30
0.0
 10
-28.8986447055555
 20
-10.18822747178934
 30
0.0
 10
-28.9315712093922
 20
-10.08496737811626
 30
0.0
 10
-28.97932722845421
 20
-9.837818286145685
 30
0.0
 10
-29.02531519668752
 20
-9.403894541363428
 30
0.0
 10
-29.07348792786453
 20
-8.814302322224766
 30
0.0
 10
-29.12245251381852
 20
-8.067639335057127
 30
0.0
 10
-29.17125960332227
 20
-7.183303801941081
 30
0.0
 10
-29.21855777443364
 20
-6.181514602062122
 30
0.0
 10
-29.26478664528248
 20
-5.076259883938348
 30
0.0
 10
-29.31325994793308
 20
-3.879786212032162
 30
0.0
 10
-29.36224809920098
 20
-2.610378232902874
 30
0.0
 10
-29.41092260057387
 20
-1.3003267534293
 30
0.0
 10
-29.45764658352104
 20
0.0250151617433254
 30
0.0
 10
-29.50437056652739
 20
1.349933914790582
 30
0.0
 10
-29.55304506772032
 20
2.658710983048573
 30
0.0
 10
-29.60203321965087
 20
3.926004858229458
 30
0.0
 10
-29.65050651985295
 20
5.119576313727935
 30
0.0
 10
-29.69673539973231
 20
6.221218134326925
 30
0.0
 10
-29.7440335369278
 20
7.218671509433715
 30
0.0
 10
-29.79284075452592
 20
8.098214418506362
 30
0.0
 10
-29.84180486171426
 20
8.838886993613109
 30
0.0
 10
-29.88997936105733
 20
9.424543018058328
 30
0.0
 10
-29.9359607960564
 20
9.845167704463442
 30
0.0
 10
-29.98344246695588
 20
10.11110489292256
 30
0.0
 10
-30.01569306832785
 20
10.14268234023216
 30
0.0
 10
-30.03173677136087
 20
10.15839116938956
 30
0.0
  0
SPLINE
  5
1B8
330
23
100
AcDbEntity
 67
     1
  8
0
  6
Continuous
 62
     7
370
    25
100
AcDbSpline
210
0.0
220
0.0
230
1.0
 70
     8
 71
     3
 72
    32
 73
    28
 74
     0
 42
0.000000001
 43
0.00000001
 40
0.0
 40
0.0
 40
0.0
 40
0.0
 40
0.0007804551089229
 40
0.0427327402891341
 40
0.0843233670304926
 40
0.1255098545655798
 40
0.1672011153075054
 40
0.2091826052005261
 40
0.2510911594557414
 40
0.2925673694367537
 40
0.3338078108551882
 40
0.3755857179126609
 40
0.4175818254227754
 40
0.4594322134695717
 40
0.5007804551089229
 40
0.5421286967482705
 40
0.5839790847950668
 40
0.6259751923051813
 40
0.6677530993626541
 40
0.7089935407810887
 40
0.7504697507621045
 40
0.7923783050173162
 40
0.834359794910337
 40
0.8760510556522625
 40
0.9172375431873496
 40
0.9588281699287081
 40
1.0
 40
1.0
 40
1.0
 40
1.0
 10
-31.18173677136087
 20
-10.15839116938955
 30
0.0
 10
-31.18204003301525
 20
-10.1589263149799
 30
0.0
 10
-31.19864470555549
 20
-10.18822747178934
 30
0.0
 10
-31.23157120939221
 20
-10.08496737811626
 30
0.0
 10
-31.2793272284542
 20
-9.83781828614568
 30
0.0
 10
-31.32531519668752
 20
-9.40389454136343
 30
0.0
 10
-31.37348792786452
 20
-8.814302322224764
 30
0.0
 10
-31.42245251381851
 20
-8.067639335057127
 30
0.0
 10
-31.47125960332229
 20
-7.183303801941082
 30
0.0
 10
-31.51855777443364
 20
-6.181514602062121
 30
0.0
 10
-31.56478664528248
 20
-5.076259883938347
 30
0.0
 10
-31.61325994793307
 20
-3.87978621203216
 30
0.0
 10
-31.66224809920099
 20
-2.610378232902876
 30
0.0
 10
-31.71092260057387
 20
-1.300326753429298
 30
0.0
 10
-31.75764658352103
 20
0.0250151617433225
 30
0.0
 10
-31.8043705665274
 20
1.349933914790586
 30
0.0
 10
-31.85304506772033
 20
2.658710983048569
 30
0.0
 10
-31.90203321965087
 20
3.926004858229462
 30
0.0
 10
-31.95050651985296
 20
5.119576313727932
 30
0.0
 10
-31.99673539973232
 20
6.221218134326928
 30
0.0
 10
-32.04403353692779
 20
7.218671509433713
 30
0.0
 10
-32.09284075452591
 20
8.098214418506362
 30
0.0
 10
-32.14180486171428
 20
8.83888699361311
 30
0.0
 10
-32.18997936105731
 20
9.424543018058326
 30
0.0
 10
-32.23596079605641
 20
9.845167704463442
 30
0.0
 10
-32.28344246695588
 20
10.11110489292256
 30
0.0
 10
-32.31569306832786
 20
10.14268234023216
 30
0.0
 10
-32.33173677136087
 20
10.15839116938955
 30
0.0
  0
SPLINE
  5
1B9
330
23
100
AcDbEntity
 67
     1
  8
0
  6
Continuous
 62
     7
370
    25
100
AcDbSpline
210
0.0
220
0.0
230
1.0
 70
     8
 71
     3
 72
    32
 73
    28
 74
     0
 42
0.000000001
 43
0.00000001
 40
0.0
 40
0.0
 40
0.0
 40
0.0
 40
0.0007804551089229
 40
0.0427327402891341
 40
0.0843233670304926
 40
0.1255098545655798
 40
0.1672011153075054
 40
0.2091826052005261
 40
0.2510911594557414
 40
0.2925673694367537
 40
0.3338078108551882
 40
0.3755857179126609
 40
0.4175818254227754
 40
0.4594322134695717
 40
0.5007804551089229
 40
0.5421286967482705
 40
0.5839790847950667
 40
0.6259751923051812
 40
0.667753099362654
 40
0.7089935407810886
 40
0.7504697507621044
 40
0.7923783050173161
 40
0.8343597949103368
 40
0.8760510556522624
 40
0.9172375431873496
 40
0.9588281699287081
 40
1.0
 40
1.0
 40
1.0
 40
1.0
 10
-33.48173677136088
 20
-10.15839116938955
 30
0.0
 10
-33.48204003301525
 20
-10.15892631497991
 30
0.0
 10
-33.49864470555546
 20
-10.18822747178937
 30
0.0
 10
-33.53157120939221
 20
-10.08496737811625
 30
0.0
 10
-33.5793272284542
 20
-9.837818286145684
 30
0.0
 10
-33.62531519668752
 20
-9.403894541363428
 30
0.0
 10
-33.67348792786451
 20
-8.814302322224764
 30
0.0
 10
-33.72245251381852
 20
-8.067639335057127
 30
0.0
 10
-33.77125960332227
 20
-7.183303801941082
 30
0.0
 10
-33.81855777443364
 20
-6.181514602062121
 30
0.0
 10
-33.86478664528246
 20
-5.076259883938347
 30
0.0
 10
-33.91325994793306
 20
-3.87978621203216
 30
0.0
 10
-33.962248099201
 20
-2.610378232902876
 30
0.0
 10
-34.01092260057386
 20
-1.300326753429298
 30
0.0
 10
-34.05764658352103
 20
0.0250151617433229
 30
0.0
 10
-34.1043705665274
 20
1.349933914790583
 30
0.0
 10
-34.15304506772031
 20
2.658710983048572
 30
0.0
 10
-34.20203321965086
 20
3.926004858229461
 30
0.0
 10
-34.25050651985296
 20
5.119576313727932
 30
0.0
 10
-34.29673539973233
 20
6.221218134326928
 30
0.0
 10
-34.3440335369278
 20
7.218671509433713
 30
0.0
 10
-34.39284075452592
 20
8.098214418506362
 30
0.0
 10
-34.44180486171426
 20
8.83888699361311
 30
0.0
 10
-34.48997936105731
 20
9.424543018058326
 30
0.0
 10
-34.53596079605641
 20
9.845167704463444
 30
0.0
 10
-34.58344246695587
 20
10.11110489292255
 30
0.0
 10
-34.61569306832786
 20
10.14268234023216
 30
0.0
 10
-34.63173677136087
 20
10.15839116938955
 30
0.0
  0
SPLINE
  5
1BA
330
23
100
AcDbEntity
 67
     1
  8
0
  6
Continuous
 62
     7
370
    25
100
AcDbSpline
210
0.0
220
0.0
230
1.0
 70
     8
 71
     3
 72
    32
 73
    28
 74
     0
 42
0.000000001
 43
0.00000001
 40
0.0
 40
0.0
 40
0.0
 40
0.0
 40
0.0007804551089221
 40
0.0427327402891333
 40
0.0843233670304917
 40
0.1255098545655789
 40
0.1672011153075045
 40
0.2091826052005252
 40
0.2510911594557406
 40
0.2925673694367529
 40
0.3338078108551873
 40
0.37558571791266
 40
0.4175818254227746
 40
0.4594322134695708
 40
0.500780455108922
 40
0.5421286967482697
 40
0.5839790847950659
 40
0.6259751923051804
 40
0.6677530993626533
 40
0.7089935407810878
 40
0.7504697507621036
 40
0.7923783050173153
 40
0.8343597949103361
 40
0.8760510556522616
 40
0.9172375431873487
 40
0.9588281699287072
 40
1.0
 40
1.0
 40
1.0
 40
1.0
 10
-35.78173677136087
 20
-10.15839116938956
 30
0.0
 10
-35.78204003301524
 20
-10.15892631497991
 30
0.0
 10
-35.79864470555562
 20
-10.18822747178934
 30
0.0
 10
-35.83157120939214
 20
-10.08496737811626
 30
0.0
 10
-35.87932722845421
 20
-9.837818286145678
 30
0.0
 10
-35.92531519668753
 20
-9.403894541363428
 30
0.0
 10
-35.97348792786452
 20
-8.814302322224766
 30
0.0
 10
-36.02245251381853
 20
-8.067639335057125
 30
0.0
 10
-36.07125960332228
 20
-7.183303801941085
 30
0.0
 10
-36.11855777443363
 20
-6.18151460206212
 30
0.0
 10
-36.16478664528247
 20
-5.07625988393835
 30
0.0
 10
-36.21325994793308
 20
-3.879786212032158
 30
0.0
 10
-36.26224809920097
 20
-2.610378232902878
 30
0.0
 10
-36.31092260057388
 20
-1.300326753429298
 30
0.0
 10
-36.35764658352102
 20
0.0250151617433252
 30
0.0
 10
-36.4043705665274
 20
1.34993391479058
 30
0.0
 10
-36.45304506772032
 20
2.658710983048573
 30
0.0
 10
-36.50203321965086
 20
3.926004858229461
 30
0.0
 10
-36.55050651985295
 20
5.119576313727932
 30
0.0
 10
-36.59673539973232
 20
6.221218134326928
 30
0.0
 10
-36.64403353692781
 20
7.218671509433713
 30
0.0
 10
-36.69284075452592
 20
8.098214418506362
 30
0.0
 10
-36.74180486171427
 20
8.83888699361311
 30
0.0
 10
-36.78997936105732
 20
9.424543018058326
 30
0.0
 10
-36.8359607960564
 20
9.845167704463442
 30
0.0
 10
-36.88344246695587
 20
10.11110489292256
 30
0.0
 10
-36.91569306832786
 20
10.14268234023216
 30
0.0
 10
-36.93173677136087
 20
10.15839116938956
 30
0.0
  0
SPLINE
  5
1BB
330
23
100
AcDbEntity
 67
     1
  8
0
  6
Continuous
 62
     7
370
    25
100
AcDbSpline
210
0.0
220
0.0
230
1.0
 70
     8
 71
     3
 72
    32
 73
    28
 74
     0
 42
0.000000001
 43
0.00000001
 40
0.0
 40
0.0
 40
0.0
 40
0.0
 40
0.000780455108922
 40
0.0427327402891333
 40
0.0843233670304917
 40
0.1255098545655789
 40
0.1672011153075045
 40
0.2091826052005252
 40
0.2510911594557406
 40
0.2925673694367529
 40
0.3338078108551873
 40
0.37558571791266
 40
0.4175818254227746
 40
0.4594322134695708
 40
0.500780455108922
 40
0.5421286967482697
 40
0.5839790847950659
 40
0.6259751923051804
 40
0.6677530993626533
 40
0.7089935407810878
 40
0.7504697507621036
 40
0.7923783050173153
 40
0.8343597949103361
 40
0.8760510556522616
 40
0.9172375431873487
 40
0.9588281699287072
 40
1.0
 40
1.0
 40
1.0
 40
1.0
 10
-38.08173677136088
 20
-10.15839116938956
 30
0.0
 10
-38.08204003301525
 20
-10.15892631497991
 30
0.0
 10
-38.09864470555547
 20
-10.18822747178934
 30
0.0
 10
-38.13157120939223
 20
-10.08496737811626
 30
0.0
 10
-38.17932722845418
 20
-9.837818286145676
 30
0.0
 10
-38.22531519668753
 20
-9.403894541363432
 30
0.0
 10
-38.27348792786452
 20
-8.814302322224764
 30
0.0
 10
-38.32245251381852
 20
-8.067639335057127
 30
0.0
 10
-38.37125960332229
 20
-7.183303801941085
 30
0.0
 10
-38.41855777443363
 20
-6.18151460206212
 30
0.0
 10
-38.46478664528248
 20
-5.07625988393835
 30
0.0
 10
-38.51325994793309
 20
-3.879786212032158
 30
0.0
 10
-38.56224809920098
 20
-2.610378232902878
 30
0.0
 10
-38.61092260057389
 20
-1.300326753429298
 30
0.0
 10
-38.65764658352102
 20
0.0250151617433252
 30
0.0
 10
-38.70437056652739
 20
1.34993391479058
 30
0.0
 10
-38.75304506772034
 20
2.658710983048573
 30
0.0
 10
-38.80203321965087
 20
3.926004858229461
 30
0.0
 10
-38.85050651985296
 20
5.119576313727932
 30
0.0
 10
-38.89673539973231
 20
6.221218134326928
 30
0.0
 10
-38.94403353692781
 20
7.218671509433713
 30
0.0
 10
-38.99284075452591
 20
8.098214418506362
 30
0.0
 10
-39.04180486171428
 20
8.83888699361311
 30
0.0
 10
-39.08997936105732
 20
9.424543018058326
 30
0.0
 10
-39.13596079605641
 20
9.845167704463442
 30
0.0
 10
-39.18344246695586
 20
10.11110489292256
 30
0.0
 10
-39.21569306832787
 20
10.14268234023216
 30
0.0
 10
-39.23173677136087
 20
10.15839116938956
 30
0.0
  0
SPLINE
  5
1BC
330
23
100
AcDbEntity
 67
     1
  8
0
  6
Continuous
 62
     7
370
    25
100
AcDbSpline
210
0.0
220
0.0
230
1.0
 70
     8
 71
     3
 72
    32
 73
    28
 74
     0
 42
0.000000001
 43
0.00000001
 40
0.0
 40
0.0
 40
0.0
 40
0.0
 40
0.0007804551089225
 40
0.0427327402891337
 40
0.0843233670304922
 40
0.1255098545655794
 40
0.1672011153075049
 40
0.2091826052005257
 40
0.251091159455741
 40
0.2925673694367533
 40
0.3338078108551878
 40
0.3755857179126605
 40
0.4175818254227749
 40
0.4594322134695712
 40
0.5007804551089224
 40
0.5421286967482701
 40
0.5839790847950663
 40
0.6259751923051808
 40
0.6677530993626537
 40
0.7089935407810882
 40
0.7504697507621041
 40
0.7923783050173158
 40
0.8343597949103365
 40
0.876051055652262
 40
0.9172375431873492
 40
0.9588281699287077
 40
1.0
 40
1.0
 40
1.0
 40
1.0
 10
-40.38173677136087
 20
-10.15839116938956
 30
0.0
 10
-40.38204003301524
 20
-10.15892631497991
 30
0.0
 10
-40.39864470555548
 20
-10.18822747178933
 30
0.0
 10
-40.43157120939221
 20
-10.08496737811627
 30
0.0
 10
-40.4793272284542
 20
-9.837818286145682
 30
0.0
 10
-40.52531519668753
 20
-9.40389454136343
 30
0.0
 10
-40.57348792786453
 20
-8.814302322224762
 30
0.0
 10
-40.6224525138185
 20
-8.067639335057127
 30
0.0
 10
-40.67125960332228
 20
-7.183303801941081
 30
0.0
 10
-40.71855777443364
 20
-6.181514602062122
 30
0.0
 10
-40.76478664528248
 20
-5.076259883938349
 30
0.0
 10
-40.81325994793307
 20
-3.879786212032159
 30
0.0
 10
-40.862248099201
 20
-2.610378232902876
 30
0.0
 10
-40.91092260057388
 20
-1.300326753429299
 30
0.0
 10
-40.95764658352102
 20
0.0250151617433255
 30
0.0
 10
-41.00437056652741
 20
1.34993391479058
 30
0.0
 10
-41.05304506772033
 20
2.658710983048573
 30
0.0
 10
-41.10203321965086
 20
3.926004858229461
 30
0.0
 10
-41.15050651985297
 20
5.119576313727932
 30
0.0
 10
-41.1967353997323
 20
6.221218134326928
 30
0.0
 10
-41.2440335369278
 20
7.218671509433713
 30
0.0
 10
-41.2928407545259
 20
8.098214418506362
 30
0.0
 10
-41.34180486171429
 20
8.83888699361311
 30
0.0
 10
-41.38997936105731
 20
9.424543018058326
 30
0.0
 10
-41.43596079605641
 20
9.84516770446344
 30
0.0
 10
-41.48344246695588
 20
10.11110489292256
 30
0.0
 10
-41.51569306832786
 20
10.14268234023216
 30
0.0
 10
-41.53173677136088
 20
10.15839116938956
 30
0.0
  0
SPLINE
  5
1BD
330
23
100
AcDbEntity
 67
     1
  8
0
  6
Continuous
 62
     7
370
    25
100
AcDbSpline
210
0.0
220
0.0
230
1.0
 70
     8
 71
     3
 72
    11
 73
     7
 74
     0
 42
0.000000001
 43
0.00000001
 40
0.0
 40
0.0
 40
0.0
 40
0.0
 40
0.0075842315140391
 40
0.4152641092061609
 40
0.8194294973422444
 40
1.0
 40
1.0
 40
1.0
 40
1.0
 10
-42.68173677136087
 20
-10.15839116938956
 30
0.0
 10
-42.68204003383099
 20
-10.15892640821328
 30
0.0
 10
-42.69864475103598
 20
-10.18823266988744
 30
0.0
 10
-42.73155686571829
 20
-10.08332800193642
 30
0.0
 10
-42.7707103988993
 20
-9.886959597960693
 30
0.0
 10
-42.79308925413579
 20
-9.693510752082501
 30
0.0
 10
-42.8
 20
-9.6337724054396
 30
0.0
  0
SPLINE
  5
1BE
330
23
100
AcDbEntity
 67
     1
  8
0
  6
Continuous
 62
     7
370
    25
100
AcDbSpline
210
0.0
220
0.0
230
1.0
 70
     8
 71
     3
 72
    31
 73
    27
 74
     0
 42
0.000000001
 43
0.00000001
 40
0.0
 40
0.0
 40
0.0
 40
0.0
 40
0.0208946176125517
 40
0.0647250364968801
 40
0.108129241680164
 40
0.1520657930484185
 40
0.196308435515672
 40
0.2404741555793758
 40
0.284183907075434
 40
0.3276450127064653
 40
0.371672945219892
 40
0.4159310043726714
 40
0.4600353790698273
 40
0.5036101724283963
 40
0.5471849657869644
 40
0.5912893404841202
 40
0.6355473996368997
 40
0.6795753321503263
 40
0.7230364377813577
 40
0.7667461892774169
 40
0.8109119093411197
 40
0.8551545518083732
 40
0.8990911031766278
 40
0.9424953083599117
 40
0.9863257272442401
 40
1.0
 40
1.0
 40
1.0
 40
1.0
 10
-42.19920724855398
 20
8.919018157585096
 30
0.0
 10
-42.19148848950476
 20
8.910180765804244
 30
0.0
 10
-42.16757817104692
 20
8.882805270537489
 30
0.0
 10
-42.12832839881197
 20
8.67337269416606
 30
0.0
 10
-42.08232873648262
 20
8.303885427785087
 30
0.0
 10
-42.03415918412465
 20
7.783682013088335
 30
0.0
 10
-41.98519392330797
 20
7.128385858683679
 30
0.0
 10
-41.93638722679052
 20
6.350469772559935
 30
0.0
 10
-41.88908892215244
 20
5.468948619170086
 30
0.0
 10
-41.84285966800112
 20
4.495807349624066
 30
0.0
 10
-41.79438654983078
 20
3.441932649985575
 30
0.0
 10
-41.74539853937876
 20
2.323385984236687
 30
0.0
 10
-41.69672422898013
 20
1.168628454482634
 30
0.0
 10
-41.6499999999865
 20
0.0000000031829037
 30
0.0
 10
-41.60327577107426
 20
-1.168628467291192
 30
0.0
 10
-41.55460146042828
 20
-2.32338593875421
 30
0.0
 10
-41.50561345088702
 20
-3.441932819132583
 30
0.0
 10
-41.45714032935144
 20
-4.495806725728223
 30
0.0
 10
-41.41091108761151
 20
-5.468950920092935
 30
0.0
 10
-41.36361273635972
 20
-6.350461088717325
 30
0.0
 10
-41.31480621589582
 20
-7.128418662744335
 30
0.0
 10
-41.26584029706036
 20
-7.783559751755398
 30
0.0
 10
-41.21767317486291
 20
-8.30433584586552
 30
0.0
 10
-41.17166453334831
 20
-8.671707122549766
 30
0.0
 10
-41.13506165096065
 20
-8.873277351332685
 30
0.0
 10
-41.11382872444933
 20
-8.899978470482058
 30
0.0
 10
-41.10877966114271
 20
-8.90632783738968
 30
0.0
  0
SPLINE
  5
1BF
330
23
100
AcDbEntity
 67
     1
  8
0
  6
Continuous
 62
     7
370
    25
100
AcDbSpline
210
0.0
220
0.0
230
1.0
 70
     8
 71
     3
 72
    31
 73
    27
 74
     0
 42
0.000000001
 43
0.00000001
 40
0.0
 40
0.0
 40
0.0
 40
0.0
 40
0.020894617612552
 40
0.0647250364968803
 40
0.1081292416801642
 40
0.1520657930484188
 40
0.1963084355156723
 40
0.2404741555793761
 40
0.2841839070754343
 40
0.3276450127064656
 40
0.3716729452198923
 40
0.4159310043726717
 40
0.4600353790698276
 40
0.5036101724283967
 40
0.5471849657869648
 40
0.5912893404841206
 40
0.6355473996369002
 40
0.6795753321503268
 40
0.7230364377813583
 40
0.7667461892774174
 40
0.8109119093411202
 40
0.8551545518083737
 40
0.8990911031766283
 40
0.9424953083599124
 40
0.9863257272442406
 40
1.0
 40
1.0
 40
1.0
 40
1.0
 10
-39.89920724855398
 20
8.919018157585098
 30
0.0
 10
-39.89148848950476
 20
8.910180765804244
 30
0.0
 10
-39.86757817104694
 20
8.88280527053749
 30
0.0
 10
-39.82832839881197
 20
8.673372694166058
 30
0.0
 10
-39.78232873648263
 20
8.303885427785088
 30
0.0
 10
-39.73415918412466
 20
7.783682013088337
 30
0.0
 10
-39.68519392330796
 20
7.128385858683678
 30
0.0
 10
-39.63638722679048
 20
6.350469772559932
 30
0.0
 10
-39.58908892215246
 20
5.468948619170086
 30
0.0
 10
-39.54285966800111
 20
4.495807349624067
 30
0.0
 10
-39.49438654983079
 20
3.441932649985574
 30
0.0
 10
-39.44539853937876
 20
2.323385984236686
 30
0.0
 10
-39.39672422898012
 20
1.168628454482634
 30
0.0
 10
-39.34999999998651
 20
0.0000000031829025
 30
0.0
 10
-39.30327577107423
 20
-1.168628467291189
 30
0.0
 10
-39.25460146042827
 20
-2.323385938754211
 30
0.0
 10
-39.20561345088704
 20
-3.441932819132583
 30
0.0
 10
-39.15714032935143
 20
-4.495806725728223
 30
0.0
 10
-39.11091108761151
 20
-5.468950920092935
 30
0.0
 10
-39.06361273635974
 20
-6.350461088717325
 30
0.0
 10
-39.01480621589582
 20
-7.128418662744335
 30
0.0
 10
-38.96584029706037
 20
-7.783559751755398
 30
0.0
 10
-38.9176731748629
 20
-8.304335845865523
 30
0.0
 10
-38.8716645333483
 20
-8.67170712254976
 30
0.0
 10
-38.83506165096068
 20
-8.873277351332687
 30
0.0
 10
-38.81382872444934
 20
-8.89997847048206
 30
0.0
 10
-38.80877966114271
 20
-8.906327837389679
 30
0.0
  0
SPLINE
  5
1C0
330
23
100
AcDbEntity
 67
     1
  8
0
  6
Continuous
 62
     7
370
    25
100
AcDbSpline
210
0.0
220
0.0
230
1.0
 70
     8
 71
     3
 72
    31
 73
    27
 74
     0
 42
0.000000001
 43
0.00000001
 40
0.0
 40
0.0
 40
0.0
 40
0.0
 40
0.0208946176125506
 40
0.064725036496879
 40
0.1081292416801631
 40
0.1520657930484177
 40
0.1963084355156713
 40
0.2404741555793752
 40
0.2841839070754335
 40
0.327645012706465
 40
0.3716729452198917
 40
0.4159310043726713
 40
0.4600353790698273
 40
0.5036101724283963
 40
0.5471849657869645
 40
0.5912893404841205
 40
0.6355473996369001
 40
0.6795753321503268
 40
0.7230364377813583
 40
0.7667461892774176
 40
0.8109119093411206
 40
0.8551545518083741
 40
0.8990911031766288
 40
0.9424953083599129
 40
0.9863257272442413
 40
1.0
 40
1.0
 40
1.0
 40
1.0
 10
-37.59920724855397
 20
8.919018157585095
 30
0.0
 10
-37.59148848950476
 20
8.91018076580424
 30
0.0
 10
-37.56757817104691
 20
8.882805270537489
 30
0.0
 10
-37.52832839881196
 20
8.673372694166057
 30
0.0
 10
-37.48232873648261
 20
8.303885427785085
 30
0.0
 10
-37.43415918412466
 20
7.783682013088338
 30
0.0
 10
-37.38519392330796
 20
7.128385858683676
 30
0.0
 10
-37.33638722679049
 20
6.350469772559935
 30
0.0
 10
-37.28908892215245
 20
5.468948619170087
 30
0.0
 10
-37.24285966800111
 20
4.495807349624065
 30
0.0
 10
-37.19438654983078
 20
3.441932649985574
 30
0.0
 10
-37.14539853937876
 20
2.323385984236686
 30
0.0
 10
-37.09672422898013
 20
1.168628454482636
 30
0.0
 10
-37.0499999999865
 20
0.0000000031829028
 30
0.0
 10
-37.00327577107424
 20
-1.168628467291193
 30
0.0
 10
-36.95460146042827
 20
-2.323385938754207
 30
0.0
 10
-36.90561345088704
 20
-3.441932819132584
 30
0.0
 10
-36.85714032935143
 20
-4.495806725728221
 30
0.0
 10
-36.81091108761152
 20
-5.468950920092937
 30
0.0
 10
-36.76361273635972
 20
-6.350461088717326
 30
0.0
 10
-36.71480621589583
 20
-7.128418662744335
 30
0.0
 10
-36.66584029706038
 20
-7.7835597517554
 30
0.0
 10
-36.6176731748629
 20
-8.30433584586552
 30
0.0
 10
-36.5716645333483
 20
-8.671707122549764
 30
0.0
 10
-36.53506165096067
 20
-8.873277351332682
 30
0.0
 10
-36.51382872444933
 20
-8.899978470482056
 30
0.0
 10
-36.5087796611427
 20
-8.906327837389677
 30
0.0
  0
SPLINE
  5
1C1
330
23
100
AcDbEntity
 67
     1
  8
0
  6
Continuous
 62
     7
370
    25
100
AcDbSpline
210
0.0
220
0.0
230
1.0
 70
     8
 71
     3
 72
    31
 73
    27
 74
     0
 42
0.000000001
 43
0.00000001
 40
0.0
 40
0.0
 40
0.0
 40
0.0
 40
0.020894617612552
 40
0.0647250364968803
 40
0.1081292416801642
 40
0.1520657930484188
 40
0.1963084355156723
 40
0.2404741555793761
 40
0.2841839070754343
 40
0.3276450127064657
 40
0.3716729452198924
 40
0.4159310043726718
 40
0.4600353790698277
 40
0.5036101724283968
 40
0.5471849657869648
 40
0.5912893404841206
 40
0.6355473996369002
 40
0.6795753321503268
 40
0.7230364377813583
 40
0.7667461892774174
 40
0.8109119093411202
 40
0.8551545518083737
 40
0.8990911031766283
 40
0.9424953083599124
 40
0.9863257272442406
 40
1.0
 40
1.0
 40
1.0
 40
1.0
 10
-35.29920724855397
 20
8.919018157585098
 30
0.0
 10
-35.29148848950475
 20
8.910180765804244
 30
0.0
 10
-35.26757817104692
 20
8.88280527053749
 30
0.0
 10
-35.22832839881195
 20
8.673372694166058
 30
0.0
 10
-35.18232873648262
 20
8.303885427785088
 30
0.0
 10
-35.13415918412466
 20
7.783682013088337
 30
0.0
 10
-35.08519392330797
 20
7.128385858683678
 30
0.0
 10
-35.03638722679051
 20
6.350469772559935
 30
0.0
 10
-34.98908892215243
 20
5.468948619170087
 30
0.0
 10
-34.94285966800113
 20
4.495807349624066
 30
0.0
 10
-34.89438654983077
 20
3.441932649985575
 30
0.0
 10
-34.84539853937876
 20
2.323385984236686
 30
0.0
 10
-34.79672422898011
 20
1.168628454482633
 30
0.0
 10
-34.74999999998652
 20
0.0000000031829047
 30
0.0
 10
-34.70327577107425
 20
-1.168628467291192
 30
0.0
 10
-34.65460146042828
 20
-2.323385938754211
 30
0.0
 10
-34.60561345088705
 20
-3.441932819132583
 30
0.0
 10
-34.55714032935143
 20
-4.495806725728223
 30
0.0
 10
-34.51091108761152
 20
-5.468950920092935
 30
0.0
 10
-34.46361273635972
 20
-6.350461088717325
 30
0.0
 10
-34.41480621589581
 20
-7.128418662744335
 30
0.0
 10
-34.36584029706038
 20
-7.783559751755398
 30
0.0
 10
-34.31767317486291
 20
-8.304335845865523
 30
0.0
 10
-34.27166453334829
 20
-8.67170712254976
 30
0.0
 10
-34.23506165096067
 20
-8.873277351332687
 30
0.0
 10
-34.21382872444934
 20
-8.89997847048206
 30
0.0
 10
-34.20877966114271
 20
-8.906327837389679
 30
0.0
  0
SPLINE
  5
1C2
330
23
100
AcDbEntity
 67
     1
  8
0
  6
Continuous
 62
     7
370
    25
100
AcDbSpline
210
0.0
220
0.0
230
1.0
 70
     8
 71
     3
 72
    31
 73
    27
 74
     0
 42
0.000000001
 43
0.00000001
 40
0.0
 40
0.0
 40
0.0
 40
0.0
 40
0.020894617612552
 40
0.0647250364968803
 40
0.1081292416801642
 40
0.1520657930484188
 40
0.1963084355156723
 40
0.2404741555793761
 40
0.2841839070754343
 40
0.3276450127064656
 40
0.3716729452198924
 40
0.4159310043726718
 40
0.4600353790698277
 40
0.5036101724283968
 40
0.5471849657869648
 40
0.5912893404841206
 40
0.6355473996369002
 40
0.6795753321503268
 40
0.7230364377813583
 40
0.7667461892774174
 40
0.8109119093411202
 40
0.8551545518083737
 40
0.8990911031766283
 40
0.9424953083599124
 40
0.9863257272442406
 40
1.0
 40
1.0
 40
1.0
 40
1.0
 10
-32.99920724855397
 20
8.919018157585098
 30
0.0
 10
-32.99148848950475
 20
8.910180765804244
 30
0.0
 10
-32.96757817104692
 20
8.88280527053749
 30
0.0
 10
-32.92832839881196
 20
8.673372694166058
 30
0.0
 10
-32.88232873648263
 20
8.303885427785088
 30
0.0
 10
-32.83415918412466
 20
7.783682013088337
 30
0.0
 10
-32.78519392330797
 20
7.128385858683678
 30
0.0
 10
-32.73638722679049
 20
6.350469772559932
 30
0.0
 10
-32.68908892215245
 20
5.468948619170086
 30
0.0
 10
-32.64285966800112
 20
4.495807349624066
 30
0.0
 10
-32.59438654983077
 20
3.441932649985575
 30
0.0
 10
-32.54539853937877
 20
2.323385984236687
 30
0.0
 10
-32.49672422898013
 20
1.168628454482632
 30
0.0
 10
-32.44999999998652
 20
0.0000000031829057
 30
0.0
 10
-32.40327577107424
 20
-1.168628467291192
 30
0.0
 10
-32.35460146042828
 20
-2.323385938754211
 30
0.0
 10
-32.30561345088704
 20
-3.441932819132583
 30
0.0
 10
-32.25714032935144
 20
-4.495806725728223
 30
0.0
 10
-32.21091108761151
 20
-5.468950920092935
 30
0.0
 10
-32.16361273635972
 20
-6.350461088717325
 30
0.0
 10
-32.11480621589582
 20
-7.128418662744335
 30
0.0
 10
-32.06584029706038
 20
-7.783559751755398
 30
0.0
 10
-32.01767317486291
 20
-8.304335845865523
 30
0.0
 10
-31.97166453334829
 20
-8.67170712254976
 30
0.0
 10
-31.93506165096068
 20
-8.873277351332687
 30
0.0
 10
-31.91382872444934
 20
-8.89997847048206
 30
0.0
 10
-31.9087796611427
 20
-8.906327837389679
 30
0.0
  0
SPLINE
  5
1C3
330
23
100
AcDbEntity
 67
     1
  8
0
  6
Continuous
 62
     7
370
    25
100
AcDbSpline
210
0.0
220
0.0
230
1.0
 70
     8
 71
     3
 72
    31
 73
    27
 74
     0
 42
0.000000001
 43
0.00000001
 40
0.0
 40
0.0
 40
0.0
 40
0.0
 40
0.0208946176125519
 40
0.0647250364968802
 40
0.108129241680164
 40
0.1520657930484185
 40
0.196308435515672
 40
0.2404741555793757
 40
0.2841839070754337
 40
0.327645012706465
 40
0.3716729452198916
 40
0.415931004372671
 40
0.4600353790698268
 40
0.5036101724283958
 40
0.5471849657869639
 40
0.5912893404841195
 40
0.635547399636899
 40
0.6795753321503255
 40
0.7230364377813568
 40
0.766746189277416
 40
0.8109119093411187
 40
0.8551545518083722
 40
0.8990911031766267
 40
0.9424953083599106
 40
0.9863257272442387
 40
1.0
 40
1.0
 40
1.0
 40
1.0
 10
-30.69920724855398
 20
8.919018157585098
 30
0.0
 10
-30.69148848950476
 20
8.910180765804244
 30
0.0
 10
-30.66757817104692
 20
8.882805270537489
 30
0.0
 10
-30.62832839881195
 20
8.673372694166055
 30
0.0
 10
-30.58232873648263
 20
8.30388542778509
 30
0.0
 10
-30.53415918412465
 20
7.783682013088335
 30
0.0
 10
-30.48519392330797
 20
7.128385858683679
 30
0.0
 10
-30.43638722679048
 20
6.350469772559934
 30
0.0
 10
-30.38908892215245
 20
5.468948619170085
 30
0.0
 10
-30.34285966800111
 20
4.495807349624067
 30
0.0
 10
-30.29438654983078
 20
3.441932649985574
 30
0.0
 10
-30.24539853937876
 20
2.323385984236687
 30
0.0
 10
-30.19672422898013
 20
1.168628454482633
 30
0.0
 10
-30.1499999999865
 20
0.0000000031829035
 30
0.0
 10
-30.10327577107424
 20
-1.16862846729119
 30
0.0
 10
-30.05460146042827
 20
-2.323385938754211
 30
0.0
 10
-30.00561345088704
 20
-3.441932819132583
 30
0.0
 10
-29.95714032935144
 20
-4.495806725728224
 30
0.0
 10
-29.91091108761151
 20
-5.468950920092936
 30
0.0
 10
-29.86361273635972
 20
-6.350461088717326
 30
0.0
 10
-29.81480621589582
 20
-7.128418662744337
 30
0.0
 10
-29.76584029706038
 20
-7.7835597517554
 30
0.0
 10
-29.7176731748629
 20
-8.30433584586552
 30
0.0
 10
-29.67166453334829
 20
-8.671707122549762
 30
0.0
 10
-29.63506165096068
 20
-8.873277351332693
 30
0.0
 10
-29.61382872444932
 20
-8.89997847048206
 30
0.0
 10
-29.6087796611427
 20
-8.906327837389682
 30
0.0
  0
SPLINE
  5
1C4
330
23
100
AcDbEntity
 67
     1
  8
0
  6
Continuous
 62
     7
370
    25
100
AcDbSpline
210
0.0
220
0.0
230
1.0
 70
     8
 71
     3
 72
    31
 73
    27
 74
     0
 42
0.000000001
 43
0.00000001
 40
0.0
 40
0.0
 40
0.0
 40
0.0
 40
0.0208946176125519
 40
0.0647250364968802
 40
0.108129241680164
 40
0.1520657930484185
 40
0.196308435515672
 40
0.2404741555793757
 40
0.2841839070754337
 40
0.327645012706465
 40
0.3716729452198916
 40
0.415931004372671
 40
0.4600353790698268
 40
0.5036101724283958
 40
0.5471849657869639
 40
0.5912893404841195
 40
0.635547399636899
 40
0.6795753321503255
 40
0.7230364377813568
 40
0.766746189277416
 40
0.8109119093411187
 40
0.8551545518083722
 40
0.8990911031766267
 40
0.9424953083599106
 40
0.9863257272442387
 40
1.0
 40
1.0
 40
1.0
 40
1.0
 10
-28.39920724855397
 20
8.919018157585098
 30
0.0
 10
-28.39148848950476
 20
8.910180765804245
 30
0.0
 10
-28.36757817104693
 20
8.88280527053749
 30
0.0
 10
-28.32832839881195
 20
8.673372694166057
 30
0.0
 10
-28.28232873648263
 20
8.30388542778509
 30
0.0
 10
-28.23415918412465
 20
7.783682013088335
 30
0.0
 10
-28.18519392330798
 20
7.128385858683679
 30
0.0
 10
-28.13638722679049
 20
6.350469772559934
 30
0.0
 10
-28.08908892215244
 20
5.468948619170085
 30
0.0
 10
-28.04285966800112
 20
4.495807349624067
 30
0.0
 10
-27.99438654983078
 20
3.441932649985574
 30
0.0
 10
-27.94539853937876
 20
2.323385984236687
 30
0.0
 10
-27.89672422898013
 20
1.168628454482633
 30
0.0
 10
-27.8499999999865
 20
0.0000000031829035
 30
0.0
 10
-27.80327577107424
 20
-1.16862846729119
 30
0.0
 10
-27.75460146042827
 20
-2.323385938754211
 30
0.0
 10
-27.70561345088703
 20
-3.441932819132583
 30
0.0
 10
-27.65714032935144
 20
-4.495806725728224
 30
0.0
 10
-27.61091108761151
 20
-5.468950920092936
 30
0.0
 10
-27.56361273635973
 20
-6.350461088717326
 30
0.0
 10
-27.51480621589582
 20
-7.128418662744337
 30
0.0
 10
-27.46584029706038
 20
-7.7835597517554
 30
0.0
 10
-27.4176731748629
 20
-8.30433584586552
 30
0.0
 10
-27.3716645333483
 20
-8.671707122549762
 30
0.0
 10
-27.33506165096067
 20
-8.873277351332693
 30
0.0
 10
-27.31382872444933
 20
-8.89997847048206
 30
0.0
 10
-27.3087796611427
 20
-8.906327837389682
 30
0.0
  0
SPLINE
  5
1C5
330
23
100
AcDbEntity
 67
     1
  8
0
  6
Continuous
 62
     7
370
    25
100
AcDbSpline
210
0.0
220
0.0
230
1.0
 70
    24
 71
     3
 72
    10
 73
     6
 74
     0
 42
0.000000001
 43
0.00000001
 40
0.0
 40
0.0
 40
0.0
 40
0.0
 40
0.3372671603644026
 40
0.6868113724825614
 40
1.0
 40
1.0
 40
1.0
 40
1.0
 10
-42.8
 20
-9.6337724054396
 30
0.0
 10
-42.79999999999998
 20
-9.698196360616658
 30
0.0
 10
-42.79999999999995
 20
-9.829389403627733
 30
0.0
 10
-42.80000000000003
 20
-9.942253734491423
 30
0.0
 10
-42.80000000000002
 20
-9.961529058511523
 30
0.0
 10
-42.8
 20
-9.970638026580962
 30
0.0
  0
SPLINE
  5
1C6
330
23
100
AcDbEntity
 67
     1
  8
0
  6
Continuous
 62
     7
370
    25
100
AcDbSpline
210
0.0
220
0.0
230
1.0
 70
    24
 71
     3
 72
    10
 73
     6
 74
     0
 42
0.000000001
 43
0.00000001
 40
0.0
 40
0.0
 40
0.0
 40
0.0
 40
0.079247555836538
 40
0.5361819090785004
 40
1.0
 40
1.0
 40
1.0
 40
1.0
 10
-42.8
 20
9.969511159326354
 30
0.0
 10
-42.80000000000001
 20
9.971496363056778
 30
0.0
 10
-42.80000000000003
 20
9.984928074796661
 30
0.0
 10
-42.8
 20
9.90387097346285
 30
0.0
 10
-42.79999999999998
 20
9.724252882238476
 30
0.0
 10
-42.79999999999998
 20
9.633772405434156
 30
0.0
  0
LINE
  5
1C7
330
23
100
AcDbEntity
 67
     1
  8
0
  6
Continuous
 62
     7
370
    25
100
AcDbLine
 10
-40.6182632286
 20
10.16
 30
0.0
 11
-41.5317367714
 21
10.16
 31
0.0
  0
LINE
  5
1C8
330
23
100
AcDbEntity
 67
     1
  8
0
  6
Continuous
 62
     7
370
    25
100
AcDbLine
 10
-38.3182632286
 20
10.16
 30
0.0
 11
-39.2317367714
 21
10.16
 31
0.0
  0
LINE
  5
1C9
330
23
100
AcDbEntity
 67
     1
  8
0
  6
Continuous
 62
     7
370
    25
100
AcDbLine
 10
-36.0182632286
 20
10.16
 30
0.0
 11
-36.9317367714
 21
10.16
 31
0.0
  0
LINE
  5
1CA
330
23
100
AcDbEntity
 67
     1
  8
0
  6
Continuous
 62
     7
370
    25
100
AcDbLine
 10
-33.7182632286
 20
10.16
 30
0.0
 11
-34.6317367714
 21
10.16
 31
0.0
  0
LINE
  5
1CB
330
23
100
AcDbEntity
 67
     1
  8
0
  6
Continuous
 62
     7
370
    25
100
AcDbLine
 10
-31.4182632286
 20
10.16
 30
0.0
 11
-32.3317367714
 21
10.16
 31
0.0
  0
LINE
  5
1CC
330
23
100
AcDbEntity
 67
     1
  8
0
  6
Continuous
 62
     7
370
    25
100
AcDbLine
 10
-29.1182632286
 20
10.16
 30
0.0
 11
-30.0317367714
 21
10.16
 31
0.0
  0
LINE
  5
1CD
330
23
100
AcDbEntity
 67
     1
  8
0
  6
Continuous
 62
     7
370
    25
100
AcDbLine
 10
-25.8
 20
10.16
 30
0.0
 11
-27.7317367714
 21
10.16
 31
0.0
  0
LINE
  5
1CE
330
23
100
AcDbEntity
 67
     1
  8
0
  6
Continuous
 62
     7
370
    25
100
AcDbLine
 10
-26.5817367714
 20
-10.16
 30
0.0
 11
-25.8
 21
-10.16
 31
0.0
  0
LINE
  5
1CF
330
23
100
AcDbEntity
 67
     1
  8
0
  6
Continuous
 62
     7
370
    25
100
AcDbLine
 10
-28.8817367714
 20
-10.16
 30
0.0
 11
-27.9682632286
 21
-10.16
 31
0.0
  0
LINE
  5
1D0
330
23
100
AcDbEntity
 67
     1
  8
0
  6
Continuous
 62
     7
370
    25
100
AcDbLine
 10
-31.1817367714
 20
-10.16
 30
0.0
 11
-30.2682632286
 21
-10.16
 31
0.0
  0
LINE
  5
1D1
330
23
100
AcDbEntity
 67
     1
  8
0
  6
Continuous
 62
     7
370
    25
100
AcDbLine
 10
-33.4817367714
 20
-10.16
 30
0.0
 11
-32.5682632286
 21
-10.16
 31
0.0
  0
LINE
  5
1D2
330
23
100
AcDbEntity
 67
     1
  8
0
  6
Continuous
 62
     7
370
    25
100
AcDbLine
 10
-35.7817367714
 20
-10.16
 30
0.0
 11
-34.8682632286
 21
-10.16
 31
0.0
  0
LINE
  5
1D3
330
23
100
AcDbEntity
 67
     1
  8
0
  6
Continuous
 62
     7
370
    25
100
AcDbLine
 10
-38.0817367714
 20
-10.16
 30
0.0
 11
-37.1682632286
 21
-10.16
 31
0.0
  0
LINE
  5
1D4
330
23
100
AcDbEntity
 67
     1
  8
0
  6
Continuous
 62
     7
370
    25
100
AcDbLine
 10
-40.3817367714
 20
-10.16
 30
0.0
 11
-39.4682632286
 21
-10.16
 31
0.0
  0
LINE
  5
1D5
330
23
100
AcDbEntity
 67
     1
  8
0
  6
Continuous
 62
     7
370
    25
100
AcDbLine
 10
-42.6817367714
 20
-10.16
 30
0.0
 11
-41.7682632286
 21
-10.16
 31
0.0
  0
LINE
  5
1D6
330
23
100
AcDbEntity
 67
     1
  8
0
  6
Continuous
 62
     7
370
    25
100
AcDbLine
 10
-42.8015799051
 20
-9.9715522922
 30
0.0
 11
-42.7120782352
 21
-10.1261735649
 31
0.0
  0
LINE
  5
1D7
330
23
100
AcDbEntity
 67
     1
  8
0
  6
Continuous
 62
     7
370
    25
100
AcDbLine
 10
-25.8
 20
-21.0
 30
0.0
 11
-25.8
 21
21.0
 31
0.0
  0
LINE
  5
1D8
330
23
100
AcDbEntity
 67
     1
  8
0
  6
Continuous
 62
     7
370
    25
100
AcDbLine
 10
-25.8
 20
21.0
 30
0.0
 11
0.0
 21
21.0
 31
0.0
  0
LINE
  5
1D9
330
23
100
AcDbEntity
 67
     1
  8
0
  6
Continuous
 62
     7
370
    25
100
AcDbLine
 10
0.0
 20
-21.0
 30
0.0
 11
0.0
 21
21.0
 31
0.0
  0
LINE
  5
1DA
330
23
100
AcDbEntity
 67
     1
  8
0
  6
Continuous
 62
     7
370
    25
100
AcDbLine
 10
-25.8
 20
-21.0
 30
0.0
 11
0.0
 21
-21.0
 31
0.0
  0
LINE
  5
1DB
330
23
100
AcDbEntity
 67
     1
  8
0
  6
Continuous
 62
     7
370
    25
100
AcDbLine
 10
-42.8
 20
-9.6337724054
 30
0.0
 11
-42.8
 21
9.6337724054
 31
0.0
  0
VIEWPORT
  5
1DE
330
23
100
AcDbEntity
 67
     1
  8
0
100
AcDbViewport
 10
0.0
 20
0.0
 30
0.0
 40
205.6
 41
156.0
 68
     1
 69
     1
 12
-7.1
 22
-21.4016153695
 13
0.0
 23
0.0
 14
10.0
 24
10.0
 15
10.0
 25
10.0
 16
0.0
 26
0.0
 36
1.0
 17
0.0
 27
0.0
 37
0.0
 42
50.0
 43
0.0
 44
0.0
 45
43.6592953537
 50
0.0
 51
0.0
 72
   100
 90
   557152
  1

281
     0
 71
     1
 74
     0
110
0.0
120
0.0
130
0.0
111
1.0
121
0.0
131
0.0
112
0.0
122
1.0
132
0.0
 79
     0
146
0.0
  0
ENDSEC
  0
SECTION
  2
OBJECTS
  0
DICTIONARY
  5
C
330
0
100
AcDbDictionary
281
     1
  3
ACAD_GROUP
350
D
  3
ACAD_LAYOUT
350
1A
  3
ACAD_MLINESTYLE
350
17
  3
ACAD_PLOTSETTINGS
350
19
  3
ACAD_PLOTSTYLENAME
350
E
  3
ACAD_SCALELIST
350
47
  0
DICTIONARY
  5
D
102
{ACAD_REACTORS
330
C
102
}
330
C
100
AcDbDictionary
281
     1
  0
DICTIONARY
  5
1A
102
{ACAD_REACTORS
330
C
102
}
330
C
100
AcDbDictionary
281
     1
  3
_Back
350
1E
  3
_Right
350
26
  3
Model
350
22
  0
DICTIONARY
  5
17
102
{ACAD_REACTORS
330
C
102
}
330
C
100
AcDbDictionary
281
     1
  3
Standard
350
18
  0
DICTIONARY
  5
19
102
{ACAD_REACTORS
330
C
102
}
330
C
100
AcDbDictionary
281
     1
  0
ACDBDICTIONARYWDFLT
  5
E
102
{ACAD_REACTORS
330
C
102
}
330
C
100
AcDbDictionary
281
     1
  3
Normal
350
F
100
AcDbDictionaryWithDefault
340
F
  0
DICTIONARY
  5
47
102
{ACAD_REACTORS
330
C
102
}
330
C
100
AcDbDictionary
281
     1
  3
A0
350
48
  3
A1
350
49
  3
A2
350
4A
  3
A3
350
4B
  3
A4
350
4C
  3
A5
350
4D
  3
A6
350
4E
  3
A7
350
4F
  3
A8
350
50
  3
A9
350
51
  3
B0
350
52
  3
B1
350
53
  3
B2
350
54
  3
B3
350
55
  3
B4
350
56
  3
B5
350
57
  3
B6
350
58
  3
B7
350
59
  3
B8
350
5A
  3
B9
350
5B
  3
C0
350
5C
  3
C1
350
5D
  3
C2
350
5E
  3
C3
350
5F
  3
C4
350
60
  3
C5
350
61
  3
C6
350
62
  3
C7
350
63
  3
C8
350
64
  3
C9
350
65
  3
D0
350
66
  3
D1
350
67
  3
D2
350
68
  0
LAYOUT
  5
1E
102
{ACAD_REACTORS
330
1A
102
}
330
1A
100
AcDbPlotSettings
  1

  2
none_device
  4
ISO_A4_(210.00_x_297.00_MM)
  6

 40
7.5
 41
20.0
 42
7.5
 43
20.0
 44
210.0
 45
297.0
 46
0.0
 47
0.0
 48
0.0
 49
0.0
140
0.0
141
0.0
142
1.0
143
0.2186770428
 70
   688
 72
     1
 73
     1
 74
     1
  7

 75
     0
147
4.5729537367
148
21.0
149
21.0
100
AcDbLayout
  1
_Back
 70
     1
 71
     1
 10
-25.373540856
 20
-22.640077821
 11
39.573540856
 21
23.2821011673
 12
0.0
 22
0.0
 32
0.0
 14
1.0000000000E+20
 24
1.0000000000E+20
 34
1.0000000000E+20
 15
-1.0000000000E+20
 25
-1.0000000000E+20
 35
-1.0000000000E+20
146
0.0
 13
0.0
 23
0.0
 33
0.0
 16
1.0
 26
0.0
 36
0.0
 17
0.0
 27
1.0
 37
0.0
 76
     0
330
1B
331
1DC
  0
LAYOUT
  5
26
102
{ACAD_REACTORS
330
1A
102
}
330
1A
100
AcDbPlotSettings
  1

  2
none_device
  4
ANSI_A_(11.00_x_8.50_Inches)
  6

 40
6.35
 41
19.05
 42
6.35000508
 43
19.05000254
 44
279.4
 45
215.9
 46
168.294883581
 47
194.2347891373
 48
0.0
 49
0.0
140
0.0
141
0.0
142
0.193772242
143
1.0
 70
  1696
 72
     0
 73
     0
 74
     1
  7

 75
     0
147
0.1635390549
148
894.08
149
1087.2020607694
100
AcDbLayout
  1
_Right
 70
     1
 71
     2
 10
0.0
 20
0.0
 11
0.0
 21
0.0
 12
0.0
 22
0.0
 32
0.0
 14
-35.2
 24
-42.803230739
 34
0.0
 15
21.0
 25
0.0
 35
0.0
146
0.0
 13
0.0
 23
0.0
 33
0.0
 16
1.0
 26
0.0
 36
0.0
 17
0.0
 27
1.0
 37
0.0
 76
     0
330
23
331
1DE
  0
LAYOUT
  5
22
102
{ACAD_REACTORS
330
1A
102
}
330
1A
100
AcDbPlotSettings
  1

  2
none_device
  4
Letter_(8.50_x_11.00_Inches)
  6

 40
6.35
 41
6.35
 42
6.35000508
 43
6.35000508
 44
215.9
 45
279.4
 46
0.0
 47
0.0
 48
0.0
 49
0.0
140
0.0
141
0.0
142
1.0
143
1.0
 70
  1712
 72
     1
 73
     0
 74
     0
  7

 75
     0
147
1.0
148
0.0
149
0.0
100
AcDbLayout
  1
Model
 70
     1
 71
     0
 10
0.0
 20
0.0
 11
420.0
 21
297.0
 12
0.0
 22
0.0
 32
0.0
 14
-35.2
 24
-42.803230739
 34
0.0
 15
21.0
 25
0.0
 35
0.0
146
0.0
 13
0.0
 23
0.0
 33
0.0
 16
1.0
 26
0.0
 36
0.0
 17
0.0
 27
1.0
 37
0.0
 76
     0
330
1F
331
29
  0
MLINESTYLE
  5
18
102
{ACAD_REACTORS
330
17
102
}
330
17
100
AcDbMlineStyle
  2
Standard
 70
     0
  3

 62
   256
 51
90.0
 52
90.0
 71
     2
 49
0.5
 62
   256
  6
BYLAYER
 49
-0.5
 62
   256
  6
BYLAYER
  0
ACDBPLACEHOLDER
  5
F
102
{ACAD_REACTORS
330
E
102
}
330
E
  0
SCALE
  5
48
102
{ACAD_REACTORS
330
47
102
}
330
47
100
AcDbScale
 70
     0
300
1:1
140
1.0
141
1.0
290
     1
  0
SCALE
  5
49
102
{ACAD_REACTORS
330
47
102
}
330
47
100
AcDbScale
 70
     0
300
1:2
140
1.0
141
2.0
290
     0
  0
SCALE
  5
4A
102
{ACAD_REACTORS
330
47
102
}
330
47
100
AcDbScale
 70
     0
300
1:4
140
1.0
141
4.0
290
     0
  0
SCALE
  5
4B
102
{ACAD_REACTORS
330
47
102
}
330
47
100
AcDbScale
 70
     0
300
1:5
140
1.0
141
5.0
290
     0
  0
SCALE
  5
4C
102
{ACAD_REACTORS
330
47
102
}
330
47
100
AcDbScale
 70
     0
300
1:8
140
1.0
141
8.0
290
     0
  0
SCALE
  5
4D
102
{ACAD_REACTORS
330
47
102
}
330
47
100
AcDbScale
 70
     0
300
1:10
140
1.0
141
10.0
290
     0
  0
SCALE
  5
4E
102
{ACAD_REACTORS
330
47
102
}
330
47
100
AcDbScale
 70
     0
300
1:16
140
1.0
141
16.0
290
     0
  0
SCALE
  5
4F
102
{ACAD_REACTORS
330
47
102
}
330
47
100
AcDbScale
 70
     0
300
1:20
140
1.0
141
20.0
290
     0
  0
SCALE
  5
50
102
{ACAD_REACTORS
330
47
102
}
330
47
100
AcDbScale
 70
     0
300
1:30
140
1.0
141
30.0
290
     0
  0
SCALE
  5
51
102
{ACAD_REACTORS
330
47
102
}
330
47
100
AcDbScale
 70
     0
300
1:40
140
1.0
141
40.0
290
     0
  0
SCALE
  5
52
102
{ACAD_REACTORS
330
47
102
}
330
47
100
AcDbScale
 70
     0
300
1:50
140
1.0
141
50.0
290
     0
  0
SCALE
  5
53
102
{ACAD_REACTORS
330
47
102
}
330
47
100
AcDbScale
 70
     0
300
1:100
140
1.0
141
100.0
290
     0
  0
SCALE
  5
54
102
{ACAD_REACTORS
330
47
102
}
330
47
100
AcDbScale
 70
     0
300
2:1
140
2.0
141
1.0
290
     0
  0
SCALE
  5
55
102
{ACAD_REACTORS
330
47
102
}
330
47
100
AcDbScale
 70
     0
300
4:1
140
4.0
141
1.0
290
     0
  0
SCALE
  5
56
102
{ACAD_REACTORS
330
47
102
}
330
47
100
AcDbScale
 70
     0
300
8:1
140
8.0
141
1.0
290
     0
  0
SCALE
  5
57
102
{ACAD_REACTORS
330
47
102
}
330
47
100
AcDbScale
 70
     0
300
10:1
140
10.0
141
1.0
290
     0
  0
SCALE
  5
58
102
{ACAD_REACTORS
330
47
102
}
330
47
100
AcDbScale
 70
     0
300
100:1
140
100.0
141
1.0
290
     0
  0
SCALE
  5
59
102
{ACAD_REACTORS
330
47
102
}
330
47
100
AcDbScale
 70
     0
300
1/128" = 1'-0"
140
0.0078125
141
12.0
290
     0
  0
SCALE
  5
5A
102
{ACAD_REACTORS
330
47
102
}
330
47
100
AcDbScale
 70
     0
300
1/64" = 1'-0"
140
0.015625
141
12.0
290
     0
  0
SCALE
  5
5B
102
{ACAD_REACTORS
330
47
102
}
330
47
100
AcDbScale
 70
     0
300
1/32" = 1'-0"
140
0.03125
141
12.0
290
     0
  0
SCALE
  5
5C
102
{ACAD_REACTORS
330
47
102
}
330
47
100
AcDbScale
 70
     0
300
1/16" = 1'-0"
140
0.0625
141
12.0
290
     0
  0
SCALE
  5
5D
102
{ACAD_REACTORS
330
47
102
}
330
47
100
AcDbScale
 70
     0
300
3/32" = 1'-0"
140
0.09375
141
12.0
290
     0
  0
SCALE
  5
5E
102
{ACAD_REACTORS
330
47
102
}
330
47
100
AcDbScale
 70
     0
300
1/8" = 1'-0"
140
0.125
141
12.0
290
     0
  0
SCALE
  5
5F
102
{ACAD_REACTORS
330
47
102
}
330
47
100
AcDbScale
 70
     0
300
3/16" = 1'-0"
140
0.1875
141
12.0
290
     0
  0
SCALE
  5
60
102
{ACAD_REACTORS
330
47
102
}
330
47
100
AcDbScale
 70
     0
300
1/4" = 1'-0"
140
0.25
141
12.0
290
     0
  0
SCALE
  5
61
102
{ACAD_REACTORS
330
47
102
}
330
47
100
AcDbScale
 70
     0
300
3/8" = 1'-0"
140
0.375
141
12.0
290
     0
  0
SCALE
  5
62
102
{ACAD_REACTORS
330
47
102
}
330
47
100
AcDbScale
 70
     0
300
1/2" = 1'-0"
140
0.5
141
12.0
290
     0
  0
SCALE
  5
63
102
{ACAD_REACTORS
330
47
102
}
330
47
100
AcDbScale
 70
     0
300
3/4" = 1'-0"
140
0.75
141
12.0
290
     0
  0
SCALE
  5
64
102
{ACAD_REACTORS
330
47
102
}
330
47
100
AcDbScale
 70
     0
300
1" = 1'-0"
140
1.0
141
12.0
290
     0
  0
SCALE
  5
65
102
{ACAD_REACTORS
330
47
102
}
330
47
100
AcDbScale
 70
     0
300
1-1/2" = 1'-0"
140
1.5
141
12.0
290
     0
  0
SCALE
  5
66
102
{ACAD_REACTORS
330
47
102
}
330
47
100
AcDbScale
 70
     0
300
3" = 1'-0"
140
3.0
141
12.0
290
     0
  0
SCALE
  5
67
102
{ACAD_REACTORS
330
47
102
}
330
47
100
AcDbScale
 70
     0
300
6" = 1'-0"
140
6.0
141
12.0
290
     0
  0
SCALE
  5
68
102
{ACAD_REACTORS
330
47
102
}
330
47
100
AcDbScale
 70
     0
300
1'-0" = 1'-0"
140
12.0
141
12.0
290
     0
  0
ENDSEC
  0
EOF
