  0
SECTION
  2
HEADER
  9
$ACADVER
  1
AC1015
  9
$ACADMAINTVER
 70
     6
  9
$DWGCODEPAGE
  3
ANSI_1252
  9
$INSBASE
 10
0.0
 20
0.0
 30
0.0
  9
$EXTMIN
 10
-17.5
 20
46.2
 30
0.0
  9
$EXTMAX
 10
17.5
 20
265.7
 30
0.0
  9
$LIMMIN
 10
0.0
 20
0.0
  9
$LIMMAX
 10
420.0
 20
297.0
  9
$ORTHOMODE
 70
     0
  9
$REGENMODE
 70
     1
  9
$FILLMODE
 70
     1
  9
$QTEXTMODE
 70
     0
  9
$MIRRTEXT
 70
     1
  9
$LTSCALE
 40
1.0
  9
$ATTMODE
 70
     1
  9
$TEXTSIZE
 40
3.5
  9
$TRACEWID
 40
1.0
  9
$TEXTSTYLE
  7
Standard
  9
$CLAYER
  8
0
  9
$CELTYPE
  6
ByLayer
  9
$CECOLOR
 62
   256
  9
$CELTSCALE
 40
1.0
  9
$DISPSILH
 70
     0
  9
$DIMSCALE
 40
1.0
  9
$DIMASZ
 40
3.302
  9
$DIMEXO
 40
1.0
  9
$DIMDLI
 40
3.75
  9
$DIMRND
 40
0.0
  9
$DIMDLE
 40
0.0
  9
$DIMEXE
 40
1.0
  9
$DIMTP
 40
0.0
  9
$DIMTM
 40
0.0
  9
$DIMTXT
 40
3.5
  9
$DIMCEN
 40
2.5
  9
$DIMTSZ
 40
0.0
  9
$DIMTOL
 70
     0
  9
$DIMLIM
 70
     0
  9
$DIMTIH
 70
     1
  9
$DIMTOH
 70
     1
  9
$DIMSE1
 70
     0
  9
$DIMSE2
 70
     0
  9
$DIMTAD
 70
     1
  9
$DIMZIN
 70
     1
  9
$DIMBLK
  1

  9
$DIMASO
 70
     1
  9
$DIMSHO
 70
     1
  9
$DIMPOST
  1

  9
$DIMAPOST
  1

  9
$DIMALT
 70
     0
  9
$DIMALTD
 70
     3
  9
$DIMALTF
 40
0.0393700787
  9
$DIMLFAC
 40
1.0
  9
$DIMTOFL
 70
     1
  9
$DIMTVP
 40
0.0
  9
$DIMTIX
 70
     0
  9
$DIMSOXD
 70
     0
  9
$DIMSAH
 70
     0
  9
$DIMBLK1
  1

  9
$DIMBLK2
  1

  9
$DIMSTYLE
  2
ISO-25
  9
$DIMCLRD
 70
     0
  9
$DIMCLRE
 70
     0
  9
$DIMCLRT
 70
     0
  9
$DIMTFAC
 40
1.0
  9
$DIMGAP
 40
1.524
  9
$DIMJUST
 70
     0
  9
$DIMSD1
 70
     0
  9
$DIMSD2
 70
     0
  9
$DIMTOLJ
 70
     0
  9
$DIMTZIN
 70
     1
  9
$DIMALTZ
 70
     0
  9
$DIMALTTZ
 70
     0
  9
$DIMUPT
 70
     0
  9
$DIMDEC
 70
     2
  9
$DIMTDEC
 70
     2
  9
$DIMALTU
 70
     2
  9
$DIMALTTD
 70
     3
  9
$DIMTXSTY
  7
Standard
  9
$DIMAUNIT
 70
     0
  9
$DIMADEC
 70
     2
  9
$DIMALTRND
 40
0.0
  9
$DIMAZIN
 70
     0
  9
$DIMDSEP
 70
    44
  9
$DIMATFIT
 70
     3
  9
$DIMFRAC
 70
     0
  9
$DIMLDRBLK
  1

  9
$DIMLUNIT
 70
     2
  9
$DIMLWD
 70
    -2
  9
$DIMLWE
 70
    -2
  9
$DIMTMOVE
 70
     0
  9
$LUNITS
 70
     2
  9
$LUPREC
 70
     2
  9
$SKETCHINC
 40
1.0
  9
$FILLETRAD
 40
10.0
  9
$AUNITS
 70
     0
  9
$AUPREC
 70
     2
  9
$MENU
  1
.
  9
$ELEVATION
 40
0.0
  9
$PELEVATION
 40
0.0
  9
$THICKNESS
 40
0.0
  9
$LIMCHECK
 70
     0
  9
$CHAMFERA
 40
0.0
  9
$CHAMFERB
 40
0.0
  9
$CHAMFERC
 40
0.0
  9
$CHAMFERD
 40
0.0
  9
$SKPOLY
 70
     0
  9
$TDCREATE
 40
2459885.424475544
  9
$TDUCREATE
 40
2459885.424475544
  9
$TDUPDATE
 40
2459885.424492592
  9
$TDUUPDATE
 40
2459885.424492592
  9
$TDINDWG
 40
0.0000000116
  9
$TDUSRTIMER
 40
0.0000000116
  9
$USRTIMER
 70
     1
  9
$ANGBASE
 50
0.0
  9
$ANGDIR
 70
     0
  9
$PDMODE
 70
     0
  9
$PDSIZE
 40
-1.0
  9
$PLINEWID
 40
0.0
  9
$SPLFRAME
 70
     0
  9
$SPLINETYPE
 70
     6
  9
$SPLINESEGS
 70
     8
  9
$HANDSEED
  5
34B
  9
$SURFTAB1
 70
     6
  9
$SURFTAB2
 70
     6
  9
$SURFTYPE
 70
     6
  9
$SURFU
 70
     6
  9
$SURFV
 70
     6
  9
$UCSBASE
  2

  9
$UCSNAME
  2

  9
$UCSORG
 10
0.0
 20
0.0
 30
0.0
  9
$UCSXDIR
 10
1.0
 20
0.0
 30
0.0
  9
$UCSYDIR
 10
0.0
 20
1.0
 30
0.0
  9
$UCSORTHOREF
  2

  9
$UCSORTHOVIEW
 70
     0
  9
$UCSORGTOP
 10
0.0
 20
0.0
 30
0.0
  9
$UCSORGBOTTOM
 10
0.0
 20
0.0
 30
0.0
  9
$UCSORGLEFT
 10
0.0
 20
0.0
 30
0.0
  9
$UCSORGRIGHT
 10
0.0
 20
0.0
 30
0.0
  9
$UCSORGFRONT
 10
0.0
 20
0.0
 30
0.0
  9
$UCSORGBACK
 10
0.0
 20
0.0
 30
0.0
  9
$PUCSBASE
  2

  9
$PUCSNAME
  2

  9
$PUCSORG
 10
0.0
 20
0.0
 30
0.0
  9
$PUCSXDIR
 10
1.0
 20
0.0
 30
0.0
  9
$PUCSYDIR
 10
0.0
 20
1.0
 30
0.0
  9
$PUCSORTHOREF
  2

  9
$PUCSORTHOVIEW
 70
     0
  9
$PUCSORGTOP
 10
0.0
 20
0.0
 30
0.0
  9
$PUCSORGBOTTOM
 10
0.0
 20
0.0
 30
0.0
  9
$PUCSORGLEFT
 10
0.0
 20
0.0
 30
0.0
  9
$PUCSORGRIGHT
 10
0.0
 20
0.0
 30
0.0
  9
$PUCSORGFRONT
 10
0.0
 20
0.0
 30
0.0
  9
$PUCSORGBACK
 10
0.0
 20
0.0
 30
0.0
  9
$USERI1
 70
     0
  9
$USERI2
 70
     0
  9
$USERI3
 70
     0
  9
$USERI4
 70
     0
  9
$USERI5
 70
     0
  9
$USERR1
 40
0.0
  9
$USERR2
 40
0.0
  9
$USERR3
 40
0.0
  9
$USERR4
 40
0.0
  9
$USERR5
 40
0.0
  9
$WORLDVIEW
 70
     1
  9
$SHADEDGE
 70
     3
  9
$SHADEDIF
 70
    70
  9
$TILEMODE
 70
     1
  9
$MAXACTVP
 70
    64
  9
$PINSBASE
 10
0.0
 20
0.0
 30
0.0
  9
$PLIMCHECK
 70
     0
  9
$PEXTMIN
 10
-17.5
 20
46.2
 30
0.0
  9
$PEXTMAX
 10
17.5
 20
265.7
 30
0.0
  9
$PLIMMIN
 10
-40.0128205128
 20
37.7576923077
  9
$PLIMMAX
 10
294.3025641026
 20
274.1423076923
  9
$UNITMODE
 70
     0
  9
$VISRETAIN
 70
     1
  9
$PLINEGEN
 70
     0
  9
$PSLTSCALE
 70
     1
  9
$TREEDEPTH
 70
  3020
  9
$CMLSTYLE
  2
Standard
  9
$CMLJUST
 70
     0
  9
$CMLSCALE
 40
20.0
  9
$PROXYGRAPHICS
 70
     1
  9
$MEASUREMENT
 70
     1
  9
$CELWEIGHT
370
    -1
  9
$ENDCAPS
280
     0
  9
$JOINSTYLE
280
     0
  9
$LWDISPLAY
290
     1
  9
$INSUNITS
 70
     4
  9
$HYPERLINKBASE
  1

  9
$STYLESHEET
  1

  9
$XEDIT
290
     1
  9
$CEPSNTYPE
380
     0
  9
$PSTYLEMODE
290
     1
  9
$FINGERPRINTGUID
  2
{c837d0e0-bbd8-47ae-b13d-9e4dd4abb752}
  9
$VERSIONGUID
  2
{FAEB1C32-E019-11D5-929B-00C0DF256EC4}
  9
$EXTNAMES
290
     1
  9
$PSVPSCALE
 40
0.0
  9
$OLESTARTUP
290
     0
  0
ENDSEC
  0
SECTION
  2
CLASSES
  0
CLASS
  1
ACDBDICTIONARYWDFLT
  2
AcDbDictionaryWithDefault
  3
ObjectDBX Classes
 90
        0
280
     0
281
     0
  0
CLASS
  1
VISUALSTYLE
  2
AcDbVisualStyle
  3
ObjectDBX Classes
 90
     4095
280
     0
281
     0
  0
CLASS
  1
MATERIAL
  2
AcDbMaterial
  3
ObjectDBX Classes
 90
     1153
280
     0
281
     0
  0
CLASS
  1
SCALE
  2
AcDbScale
  3
ObjectDBX Classes
 90
     1153
280
     0
281
     0
  0
CLASS
  1
TABLESTYLE
  2
AcDbTableStyle
  3
ObjectDBX Classes
 90
     4095
280
     0
281
     0
  0
CLASS
  1
MLEADERSTYLE
  2
AcDbMLeaderStyle
  3
ACDB_MLEADERSTYLE_CLASS
 90
     4095
280
     0
281
     0
  0
CLASS
  1
SUN
  2
AcDbSun
  3
SCENEOE
 90
     1153
280
     0
281
     0
  0
CLASS
  1
ACDBPLACEHOLDER
  2
AcDbPlaceHolder
  3
ObjectDBX Classes
 90
        0
280
     0
281
     0
  0
CLASS
  1
LAYOUT
  2
AcDbLayout
  3
ObjectDBX Classes
 90
        0
280
     0
281
     0
  0
ENDSEC
  0
SECTION
  2
TABLES
  0
TABLE
  2
VPORT
  5
8
330
0
100
AcDbSymbolTable
 70
     1
  0
VPORT
  5
29
330
8
100
AcDbSymbolTableRecord
100
AcDbViewportTableRecord
  2
*Active
 70
     0
 10
0.0
 20
0.0
 11
1.0
 21
1.0
 12
0.0
 22
155.95
 13
0.0
 23
0.0
 14
10.0
 24
10.0
 15
10.0
 25
10.0
 16
0.0
 26
0.0
 36
1.0
 17
0.0
 27
0.0
 37
0.0
 40
223.89
 41
0.159453303
 42
50.0
 43
0.0
 44
0.0
 50
0.0
 51
0.0
 71
     0
 72
   100
 73
     1
 74
     3
 75
     0
 76
     0
 77
     0
 78
     0
281
     0
 65
     1
110
0.0
120
0.0
130
0.0
111
1.0
121
0.0
131
0.0
112
0.0
122
1.0
132
0.0
 79
     0
146
0.0
  0
ENDTAB
  0
TABLE
  2
LTYPE
  5
5
330
0
100
AcDbSymbolTable
 70
     6
  0
LTYPE
  5
14
330
5
100
AcDbSymbolTableRecord
100
AcDbLinetypeTableRecord
  2
ByBlock
 70
     0
  3

 72
    65
 73
     0
 40
0.0
  0
LTYPE
  5
15
330
5
100
AcDbSymbolTableRecord
100
AcDbLinetypeTableRecord
  2
ByLayer
 70
     0
  3

 72
    65
 73
     0
 40
0.0
  0
LTYPE
  5
16
330
5
100
AcDbSymbolTableRecord
100
AcDbLinetypeTableRecord
  2
Continuous
 70
     0
  3
Solid line
 72
    65
 73
     0
 40
0.0
  0
LTYPE
  5
6E
330
5
100
AcDbSymbolTableRecord
100
AcDbLinetypeTableRecord
  2
HIDDEN
 70
     0
  3
Hidden __ __ __ __ __ __ __ __ __ __ __ __ __ __
 72
    65
 73
     2
 40
1.905
 49
1.27
 74
     0
 49
-0.635
 74
     0
  0
LTYPE
  5
6F
330
5
100
AcDbSymbolTableRecord
100
AcDbLinetypeTableRecord
  2
PHANTOM
 70
     0
  3
Phantom ______  __  __  ______  __  __  ______
 72
    65
 73
     6
 40
12.7
 49
6.35
 74
     0
 49
-1.27
 74
     0
 49
1.27
 74
     0
 49
-1.27
 74
     0
 49
1.27
 74
     0
 49
-1.27
 74
     0
  0
LTYPE
  5
70
330
5
100
AcDbSymbolTableRecord
100
AcDbLinetypeTableRecord
  2
CENTER
 70
     0
  3
Center ____ _ ____ _ ____ _ ____ _ ____ _ ____
 72
    65
 73
     4
 40
10.16
 49
6.35
 74
     0
 49
-1.27
 74
     0
 49
1.27
 74
     0
 49
-1.27
 74
     0
  0
LTYPE
  5
71
330
5
100
AcDbSymbolTableRecord
100
AcDbLinetypeTableRecord
  2
CENTERX2
 70
     0
  3
Center (2x) ________  __  ________  __  _____
 72
    65
 73
     4
 40
20.32
 49
12.7
 74
     0
 49
-2.54
 74
     0
 49
2.54
 74
     0
 49
-2.54
 74
     0
  0
LTYPE
  5
72
330
5
100
AcDbSymbolTableRecord
100
AcDbLinetypeTableRecord
  2
DOT2
 70
     0
  3
Dot (.5x) ........................................
 72
    65
 73
     2
 40
0.635
 49
0.0
 74
     0
 49
-0.635
 74
     0
  0
ENDTAB
  0
TABLE
  2
LAYER
  5
2
330
0
100
AcDbSymbolTable
 70
     1
  0
LAYER
  5
10
330
2
100
AcDbSymbolTableRecord
100
AcDbLayerTableRecord
  2
0
 70
     0
 62
     7
  6
Continuous
370
    -3
390
F
  0
ENDTAB
  0
TABLE
  2
STYLE
  5
3
330
0
100
AcDbSymbolTable
 70
     1
  0
STYLE
  5
11
330
3
100
AcDbSymbolTableRecord
100
AcDbTextStyleTableRecord
  2
Standard
 70
     0
 40
0.0
 41
1.0
 50
0.0
 71
     0
 42
3.5
  3
txt
  4

  0
ENDTAB
  0
TABLE
  2
VIEW
  5
6
330
0
100
AcDbSymbolTable
 70
     0
  0
ENDTAB
  0
TABLE
  2
UCS
  5
7
330
0
100
AcDbSymbolTable
 70
     0
  0
ENDTAB
  0
TABLE
  2
APPID
  5
9
330
0
100
AcDbSymbolTable
 70
     1
  0
APPID
  5
12
330
9
100
AcDbSymbolTableRecord
100
AcDbRegAppTableRecord
  2
ACAD
 70
     0
  0
ENDTAB
  0
TABLE
  2
DIMSTYLE
  5
A
330
0
100
AcDbSymbolTable
 70
     1
100
AcDbDimStyleTable
  0
DIMSTYLE
105
27
330
A
100
AcDbSymbolTableRecord
100
AcDbDimStyleTableRecord
  2
ISO-25
 70
     0
 41
2.5
 42
0.625
 43
3.75
 44
1.25
 73
     0
 74
     0
 77
     1
 78
     8
140
2.5
141
2.5
143
0.0393700787
147
0.625
171
     3
172
     1
178
     0
271
     2
272
     2
274
     3
278
    44
283
     0
284
     8
340
11
  0
ENDTAB
  0
TABLE
  2
BLOCK_RECORD
  5
1
330
0
100
AcDbSymbolTable
 70
     2
  0
BLOCK_RECORD
  5
1F
330
1
100
AcDbSymbolTableRecord
100
AcDbBlockTableRecord
  2
*Model_Space
340
22
  0
BLOCK_RECORD
  5
1B
330
1
100
AcDbSymbolTableRecord
100
AcDbBlockTableRecord
  2
*Paper_Space
340
1E
  0
BLOCK_RECORD
  5
23
330
1
100
AcDbSymbolTableRecord
100
AcDbBlockTableRecord
  2
*Paper_Space0
340
26
  0
BLOCK_RECORD
  5
31A
330
1
100
AcDbSymbolTableRecord
100
AcDbBlockTableRecord
  2
*Paper_Space1
340
31B
  0
ENDTAB
  0
ENDSEC
  0
SECTION
  2
BLOCKS
  0
BLOCK
  5
20
330
1F
100
AcDbEntity
  8
0
100
AcDbBlockBegin
  2
*Model_Space
 70
     0
 10
0.0
 20
0.0
 30
0.0
  3
*Model_Space
  1

  0
ENDBLK
  5
21
330
1F
100
AcDbEntity
  8
0
100
AcDbBlockEnd
  0
BLOCK
  5
1C
330
1B
100
AcDbEntity
 67
     1
  8
0
100
AcDbBlockBegin
  2
*Paper_Space
 70
     0
 10
0.0
 20
0.0
 30
0.0
  3
*Paper_Space
  1

  0
ENDBLK
  5
1D
330
1B
100
AcDbEntity
 67
     1
  8
0
100
AcDbBlockEnd
  0
BLOCK
  5
24
330
23
100
AcDbEntity
  8
0
100
AcDbBlockBegin
  2
*Paper_Space0
 70
     0
 10
0.0
 20
0.0
 30
0.0
  3
*Paper_Space0
  1

  0
SPLINE
  5
277
330
23
100
AcDbEntity
  8
0
  6
Continuous
 62
     7
370
    25
100
AcDbSpline
210
0.0
220
0.0
230
1.0
 70
     8
 71
     3
 72
     9
 73
     5
 74
     0
 42
0.000000001
 43
0.00000001
 40
0.0
 40
0.0
 40
0.0
 40
0.0
 40
0.6111875553680732
 40
0.9999999999999999
 40
0.9999999999999999
 40
0.9999999999999999
 40
0.9999999999999999
 10
-9.453917078459739
 20
47.83209965144361
 30
0.0
 10
-9.604970259964075
 20
47.74481010703683
 30
0.0
 10
-9.852117277565512
 20
47.60199053612098
 30
0.0
 10
-10.09927304533661
 20
47.45918636701563
 30
0.0
 10
-10.19537028360857
 20
47.40366232892215
 30
0.0
  0
SPLINE
  5
278
330
23
100
AcDbEntity
  8
0
  6
Continuous
 62
     7
370
    25
100
AcDbSpline
210
0.0
220
0.0
230
1.0
 70
     8
 71
     3
 72
     9
 73
     5
 74
     0
 42
0.000000001
 43
0.00000001
 40
0.0
 40
0.0
 40
0.0
 40
0.0
 40
0.5650160372624198
 40
1.0
 40
1.0
 40
1.0
 40
1.0
 10
-9.453917078459726
 20
49.1320996514436
 30
0.0
 10
-9.604970342272408
 20
49.04481025191373
 30
0.0
 10
-9.872313663259467
 20
48.890320124602
 30
0.0
 10
-10.13966644945536
 20
48.73584665769326
 30
0.0
 10
-10.25596062384379
 20
48.66865317691948
 30
0.0
  0
SPLINE
  5
279
330
23
100
AcDbEntity
  8
0
  6
Continuous
 62
     7
370
    25
100
AcDbSpline
210
0.0
220
0.0
230
1.0
 70
     8
 71
     3
 72
     9
 73
     5
 74
     0
 42
0.000000001
 43
0.00000001
 40
0.0
 40
0.0
 40
0.0
 40
0.0
 40
0.499982482860035
 40
1.0
 40
1.0
 40
1.0
 40
1.0
 10
-9.453917078459714
 20
50.43209965144361
 30
0.0
 10
-9.60497045820543
 20
50.34481045597591
 30
0.0
 10
-9.907087802160467
 20
50.17022594859806
 30
0.0
 10
-10.20921584247984
 20
49.99566026866958
 30
0.0
 10
-10.36028515505869
 20
49.90837437081391
 30
0.0
  0
SPLINE
  5
27A
330
23
100
AcDbEntity
  8
0
  6
Continuous
 62
     7
370
    25
100
AcDbSpline
210
0.0
220
0.0
230
1.0
 70
     8
 71
     3
 72
     9
 73
     5
 74
     0
 42
0.000000001
 43
0.00000001
 40
0.0
 40
0.0
 40
0.0
 40
0.0
 40
0.4999824828600303
 40
1.0
 40
1.0
 40
1.0
 40
1.0
 10
-9.4539170784597
 20
51.73209965144361
 30
0.0
 10
-9.604970458205417
 20
51.64481045597594
 30
0.0
 10
-9.907087802160452
 20
51.47022594859804
 30
0.0
 10
-10.20921584247982
 20
51.29566026866959
 30
0.0
 10
-10.36028515505868
 20
51.20837437081391
 30
0.0
  0
SPLINE
  5
27B
330
23
100
AcDbEntity
  8
0
  6
Continuous
 62
     7
370
    25
100
AcDbSpline
210
0.0
220
0.0
230
1.0
 70
     8
 71
     3
 72
     9
 73
     5
 74
     0
 42
0.000000001
 43
0.00000001
 40
0.0
 40
0.0
 40
0.0
 40
0.0
 40
0.4999824828600303
 40
1.0
 40
1.0
 40
1.0
 40
1.0
 10
-9.453917078459686
 20
53.03209965144361
 30
0.0
 10
-9.604970458205406
 20
52.94481045597593
 30
0.0
 10
-9.90708780216044
 20
52.77022594859804
 30
0.0
 10
-10.20921584247981
 20
52.5956602686696
 30
0.0
 10
-10.36028515505866
 20
52.5083743708139
 30
0.0
  0
SPLINE
  5
27C
330
23
100
AcDbEntity
  8
0
  6
Continuous
 62
     7
370
    25
100
AcDbSpline
210
0.0
220
0.0
230
1.0
 70
     8
 71
     3
 72
     9
 73
     5
 74
     0
 42
0.000000001
 43
0.00000001
 40
0.0
 40
0.0
 40
0.0
 40
0.0
 40
0.5698188001445432
 40
1.0
 40
1.0
 40
1.0
 40
1.0
 10
-9.453917078459671
 20
54.33209965144361
 30
0.0
 10
-9.604970333710634
 20
54.24481023684363
 30
0.0
 10
-9.870060315319959
 20
54.09162221535713
 30
0.0
 10
-10.13515968235988
 20
53.93845071385013
 30
0.0
 10
-10.24920044615403
 20
53.87255921354818
 30
0.0
  0
SPLINE
  5
27D
330
23
100
AcDbEntity
  8
0
  6
Continuous
 62
     7
370
    25
100
AcDbSpline
210
0.0
220
0.0
230
1.0
 70
     8
 71
     3
 72
     9
 73
     5
 74
     0
 42
0.000000001
 43
0.00000001
 40
0.0
 40
0.0
 40
0.0
 40
0.0
 40
0.4292666994574658
 40
0.9999999999999999
 40
0.9999999999999999
 40
0.9999999999999999
 40
0.9999999999999999
 10
10.23870308653605
 20
48.02862459719001
 30
0.0
 10
10.12816146157173
 20
48.09249433631188
 30
0.0
 10
9.870648765841946
 20
48.24128234899158
 30
0.0
 10
9.613145186948564
 20
48.39008640887862
 30
0.0
 10
9.466179319465235
 20
48.47501384111211
 30
0.0
  0
SPLINE
  5
27E
330
23
100
AcDbEntity
  8
0
  6
Continuous
 62
     7
370
    25
100
AcDbSpline
210
0.0
220
0.0
230
1.0
 70
     8
 71
     3
 72
     9
 73
     5
 74
     0
 42
0.000000001
 43
0.00000001
 40
0.0
 40
0.0
 40
0.0
 40
0.0
 40
0.5068751042525462
 40
1.0
 40
1.0
 40
1.0
 40
1.0
 10
10.36028515505974
 20
49.25837437081368
 30
0.0
 10
10.20921583025525
 20
49.34566024715012
 30
0.0
 10
9.911175300079158
 20
49.51786416011436
 30
0.0
 10
9.613145321554724
 20
49.69008664580871
 30
0.0
 10
9.46617931946525
 20
49.77501384111211
 30
0.0
  0
SPLINE
  5
27F
330
23
100
AcDbEntity
  8
0
  6
Continuous
 62
     7
370
    25
100
AcDbSpline
210
0.0
220
0.0
230
1.0
 70
     8
 71
     3
 72
     9
 73
     5
 74
     0
 42
0.000000001
 43
0.00000001
 40
0.0
 40
0.0
 40
0.0
 40
0.0
 40
0.5068751042525454
 40
1.0
 40
1.0
 40
1.0
 40
1.0
 10
10.36028515505975
 20
50.55837437081367
 30
0.0
 10
10.20921583025526
 20
50.64566024715013
 30
0.0
 10
9.911175300079172
 20
50.81786416011438
 30
0.0
 10
9.613145321554743
 20
50.99008664580873
 30
0.0
 10
9.466179319465265
 20
51.0750138411121
 30
0.0
  0
SPLINE
  5
280
330
23
100
AcDbEntity
  8
0
  6
Continuous
 62
     7
370
    25
100
AcDbSpline
210
0.0
220
0.0
230
1.0
 70
     8
 71
     3
 72
     9
 73
     5
 74
     0
 42
0.000000001
 43
0.00000001
 40
0.0
 40
0.0
 40
0.0
 40
0.0
 40
0.5068751042525342
 40
1.0
 40
1.0
 40
1.0
 40
1.0
 10
10.36028515505976
 20
51.85837437081369
 30
0.0
 10
10.20921583025527
 20
51.94566024715011
 30
0.0
 10
9.911175300079172
 20
52.11786416011435
 30
0.0
 10
9.61314532155475
 20
52.29008664580871
 30
0.0
 10
9.46617931946527
 20
52.37501384111211
 30
0.0
  0
SPLINE
  5
281
330
23
100
AcDbEntity
  8
0
  6
Continuous
 62
     7
370
    25
100
AcDbSpline
210
0.0
220
0.0
230
1.0
 70
     8
 71
     3
 72
     9
 73
     5
 74
     0
 42
0.000000001
 43
0.00000001
 40
0.0
 40
0.0
 40
0.0
 40
0.0
 40
0.4670083389995421
 40
1.0
 40
1.0
 40
1.0
 40
1.0
 10
10.29340695612485
 20
53.19701665311623
 30
0.0
 10
10.16463055823384
 20
53.27142211004457
 30
0.0
 10
9.888883024117241
 20
53.43074572530962
 30
0.0
 10
9.61314525240876
 20
53.5900865240998
 30
0.0
 10
9.466179319465292
 20
53.67501384111212
 30
0.0
  0
SPLINE
  5
282
330
23
100
AcDbEntity
  8
0
  6
Continuous
 62
     7
370
    25
100
AcDbSpline
210
0.0
220
0.0
230
1.0
 70
     8
 71
     3
 72
     9
 73
     5
 74
     0
 42
0.000000001
 43
0.00000001
 40
0.0
 40
0.0
 40
0.0
 40
0.0
 40
0.4128243033195556
 40
1.0
 40
1.0
 40
1.0
 40
1.0
 10
10.21707018690353
 20
54.54112410566869
 30
0.0
 10
10.11373958506338
 20
54.60082744155487
 30
0.0
 10
9.863437940975912
 20
54.74544910119575
 30
0.0
 10
9.613145158430497
 20
54.8900863586818
 30
0.0
 10
9.466179319465303
 20
54.97501384111212
 30
0.0
  0
SPLINE
  5
283
330
23
100
AcDbEntity
  8
0
  6
Continuous
 62
     7
370
    25
100
AcDbSpline
210
0.0
220
0.0
230
1.0
 70
     8
 71
     3
 72
     9
 73
     5
 74
     0
 42
0.000000001
 43
0.00000001
 40
0.0
 40
0.0
 40
0.0
 40
0.0
 40
0.3841229092617801
 40
1.0
 40
1.0
 40
1.0
 40
1.0
 10
10.18207633230529
 20
46.76134358570511
 30
0.0
 10
10.09041043654063
 20
46.8143072495896
 30
0.0
 10
9.85177354830913
 20
46.95218932485104
 30
0.0
 10
9.613145108649931
 20
47.09008627105954
 30
0.0
 10
9.466179319465223
 20
47.17501384111211
 30
0.0
  0
SPLINE
  5
284
330
23
100
AcDbEntity
  8
0
  6
Continuous
 62
     7
370
    25
100
AcDbSpline
210
0.0
220
0.0
230
1.0
 70
     8
 71
     3
 72
     9
 73
     5
 74
     0
 42
0.000000001
 43
0.00000001
 40
0.0
 40
0.0
 40
0.0
 40
0.0
 40
0.7918477756776308
 40
1.0
 40
1.0
 40
1.0
 40
1.0
 10
-9.453917078459755
 20
46.53209965144362
 30
0.0
 10
-9.604969937907455
 20
46.4448095401615
 30
0.0
 10
-9.795729909820533
 20
46.33457356556728
 30
0.0
 10
-9.986496635550385
 20
46.22434947885752
 30
0.0
 10
-10.02620515383775
 20
46.20140609003498
 30
0.0
  0
SPLINE
  5
285
330
23
100
AcDbEntity
  8
0
  6
Continuous
 62
     7
370
    25
100
AcDbSpline
210
0.0
220
0.0
230
1.0
 70
     8
 71
     3
 72
     9
 73
     5
 74
     0
 42
0.000000001
 43
0.00000001
 40
0.0
 40
0.0
 40
0.0
 40
0.0
 40
0.4385352686387365
 40
1.0
 40
1.0
 40
1.0
 40
1.0
 10
-10.25250549637569
 20
48.27933566934895
 30
0.0
 10
-10.13755945554933
 20
48.21292735368291
 30
0.0
 10
-9.8754458946876
 20
48.06149525593587
 30
0.0
 10
-9.61334162361222
 20
47.91004680495653
 30
0.0
 10
-9.466179319464244
 20
47.82501384111234
 30
0.0
  0
SPLINE
  5
286
330
23
100
AcDbEntity
  8
0
  6
Continuous
 62
     7
370
    25
100
AcDbSpline
210
0.0
220
0.0
230
1.0
 70
     8
 71
     3
 72
     9
 73
     5
 74
     0
 42
0.000000001
 43
0.00000001
 40
0.0
 40
0.0
 40
0.0
 40
0.0
 40
0.466476140325096
 40
1.0
 40
1.0
 40
1.0
 40
1.0
 10
-10.29368627936632
 20
49.60312773522181
 30
0.0
 10
-10.16501319728521
 20
49.52878893089126
 30
0.0
 10
-9.889172546589888
 20
49.3694264299952
 30
0.0
 10
-9.613341672191018
 20
49.21004671944105
 30
0.0
 10
-9.466179319464228
 20
49.12501384111233
 30
0.0
  0
SPLINE
  5
287
330
23
100
AcDbEntity
  8
0
  6
Continuous
 62
     7
370
    25
100
AcDbSpline
210
0.0
220
0.0
230
1.0
 70
     8
 71
     3
 72
     9
 73
     5
 74
     0
 42
0.000000001
 43
0.00000001
 40
0.0
 40
0.0
 40
0.0
 40
0.0
 40
0.506866732412036
 40
1.0
 40
1.0
 40
1.0
 40
1.0
 10
-10.36146495018191
 20
50.94228664585225
 30
0.0
 10
-10.21019878114062
 20
50.85489521755089
 30
0.0
 10
-9.911764973260869
 20
50.68248021630298
 30
0.0
 10
-9.613341742415264
 20
50.51004659582209
 30
0.0
 10
-9.466179319464214
 20
50.42501384111234
 30
0.0
  0
SPLINE
  5
288
330
23
100
AcDbEntity
  8
0
  6
Continuous
 62
     7
370
    25
100
AcDbSpline
210
0.0
220
0.0
230
1.0
 70
     8
 71
     3
 72
     9
 73
     5
 74
     0
 42
0.000000001
 43
0.00000001
 40
0.0
 40
0.0
 40
0.0
 40
0.0
 40
0.5068667324120375
 40
1.0
 40
1.0
 40
1.0
 40
1.0
 10
-10.3614649501819
 20
52.24228664585225
 30
0.0
 10
-10.2101987811406
 20
52.1548952175509
 30
0.0
 10
-9.911764973260855
 20
51.98248021630297
 30
0.0
 10
-9.613341742415255
 20
51.8100465958221
 30
0.0
 10
-9.466179319464203
 20
51.72501384111234
 30
0.0
  0
SPLINE
  5
289
330
23
100
AcDbEntity
  8
0
  6
Continuous
 62
     7
370
    25
100
AcDbSpline
210
0.0
220
0.0
230
1.0
 70
     8
 71
     3
 72
     9
 73
     5
 74
     0
 42
0.000000001
 43
0.00000001
 40
0.0
 40
0.0
 40
0.0
 40
0.0
 40
0.4592670677753523
 40
1.0
 40
1.0
 40
1.0
 40
1.0
 10
-10.28265378521388
 20
53.49675374695462
 30
0.0
 10
-10.15765823209565
 20
53.42453955096385
 30
0.0
 10
-9.885495122897135
 20
53.26730163634356
 30
0.0
 10
-9.613341659657076
 20
53.11004674150504
 30
0.0
 10
-9.466179319464187
 20
53.02501384111233
 30
0.0
  0
SPLINE
  5
28A
330
23
100
AcDbEntity
  8
0
  6
Continuous
 62
     7
370
    25
100
AcDbSpline
210
0.0
220
0.0
230
1.0
 70
     8
 71
     3
 72
     9
 73
     5
 74
     0
 42
0.000000001
 43
0.00000001
 40
0.0
 40
0.0
 40
0.0
 40
0.0
 40
0.3890552887828866
 40
1.0
 40
1.0
 40
1.0
 40
1.0
 10
-10.1888206508514
 20
54.74254195320803
 30
0.0
 10
-10.09510305663019
 20
54.68839791954788
 30
0.0
 10
-9.854218028400933
 20
54.54922995236891
 30
0.0
 10
-9.613341537584816
 20
54.41004695639434
 30
0.0
 10
-9.466179319464175
 20
54.32501384111232
 30
0.0
  0
SPLINE
  5
28B
330
23
100
AcDbEntity
  8
0
  6
Continuous
 62
     7
370
    25
100
AcDbSpline
210
0.0
220
0.0
230
1.0
 70
     8
 71
     3
 72
     9
 73
     5
 74
     0
 42
0.000000001
 43
0.00000001
 40
0.0
 40
0.0
 40
0.0
 40
0.0
 40
0.5496778228364414
 40
0.9999999999999999
 40
0.9999999999999999
 40
0.9999999999999999
 40
0.9999999999999999
 10
9.453915928548492
 20
48.46792802866926
 30
0.0
 10
9.605166023615423
 20
48.55532294065031
 30
0.0
 10
9.880327379564724
 20
48.71431591498948
 30
0.0
 10
10.15549848808251
 20
48.87329172144
 30
0.0
 10
10.27941414076276
 20
48.94488205271712
 30
0.0
  0
SPLINE
  5
28C
330
23
100
AcDbEntity
  8
0
  6
Continuous
 62
     7
370
    25
100
AcDbSpline
210
0.0
220
0.0
230
1.0
 70
     8
 71
     3
 72
     9
 73
     5
 74
     0
 42
0.000000001
 43
0.00000001
 40
0.0
 40
0.0
 40
0.0
 40
0.0
 40
0.4999824604945066
 40
1.0
 40
1.0
 40
1.0
 40
1.0
 10
9.453915928548506
 20
49.76792802866925
 30
0.0
 10
9.605166112417255
 20
49.85532278432846
 30
0.0
 10
9.907677091940725
 20
50.03011842730512
 30
0.0
 10
10.21019879338153
 20
50.20489519600435
 30
0.0
 10
10.36146495018298
 20
50.29228664585206
 30
0.0
  0
SPLINE
  5
28D
330
23
100
AcDbEntity
  8
0
  6
Continuous
 62
     7
370
    25
100
AcDbSpline
210
0.0
220
0.0
230
1.0
 70
     8
 71
     3
 72
     9
 73
     5
 74
     0
 42
0.000000001
 43
0.00000001
 40
0.0
 40
0.0
 40
0.0
 40
0.0
 40
0.4999824604945018
 40
1.0
 40
1.0
 40
1.0
 40
1.0
 10
9.45391592854852
 20
51.06792802866924
 30
0.0
 10
9.605166112417267
 20
51.15532278432844
 30
0.0
 10
9.907677091940737
 20
51.3301184273051
 30
0.0
 10
10.21019879338155
 20
51.50489519600435
 30
0.0
 10
10.36146495018299
 20
51.59228664585206
 30
0.0
  0
SPLINE
  5
28E
330
23
100
AcDbEntity
  8
0
  6
Continuous
 62
     7
370
    25
100
AcDbSpline
210
0.0
220
0.0
230
1.0
 70
     8
 71
     3
 72
     9
 73
     5
 74
     0
 42
0.000000001
 43
0.00000001
 40
0.0
 40
0.0
 40
0.0
 40
0.0
 40
0.4999824604945031
 40
1.0
 40
1.0
 40
1.0
 40
1.0
 10
9.453915928548533
 20
52.36792802866927
 30
0.0
 10
9.605166112417283
 20
52.45532278432844
 30
0.0
 10
9.907677091940759
 20
52.63011842730511
 30
0.0
 10
10.21019879338156
 20
52.80489519600435
 30
0.0
 10
10.36146495018301
 20
52.89228664585205
 30
0.0
  0
SPLINE
  5
28F
330
23
100
AcDbEntity
  8
0
  6
Continuous
 62
     7
370
    25
100
AcDbSpline
210
0.0
220
0.0
230
1.0
 70
     8
 71
     3
 72
     9
 73
     5
 74
     0
 42
0.000000001
 43
0.00000001
 40
0.0
 40
0.0
 40
0.0
 40
0.0
 40
0.5799478561198523
 40
1.0
 40
1.0
 40
1.0
 40
1.0
 10
9.453915928548545
 20
53.66792802866925
 30
0.0
 10
9.605165969525244
 20
53.7553230358678
 30
0.0
 10
9.865965348953317
 20
53.90601763069441
 30
0.0
 10
10.12677397192038
 20
54.05669595370008
 30
0.0
 10
10.23632719314012
 20
54.11998870631489
 30
0.0
  0
SPLINE
  5
290
330
23
100
AcDbEntity
  8
0
  6
Continuous
 62
     7
370
    25
100
AcDbSpline
210
0.0
220
0.0
230
1.0
 70
     8
 71
     3
 72
     9
 73
     5
 74
     0
 42
0.000000001
 43
0.00000001
 40
0.0
 40
0.0
 40
0.0
 40
0.0
 40
0.6668085691528105
 40
1.0
 40
1.0
 40
1.0
 40
1.0
 10
9.45391592854856
 20
54.96792802866926
 30
0.0
 10
9.605165814311807
 20
55.0553233090971
 30
0.0
 10
9.8319923620801
 20
55.18638833205994
 30
0.0
 10
10.05882694929309
 20
55.31743920282359
 30
0.0
 10
10.13440628997222
 20
55.36110422996711
 30
0.0
  0
SPLINE
  5
291
330
23
100
AcDbEntity
  8
0
  6
Continuous
 62
     7
370
    25
100
AcDbSpline
210
0.0
220
0.0
230
1.0
 70
     8
 71
     3
 72
     9
 73
     5
 74
     0
 42
0.000000001
 43
0.00000001
 40
0.0
 40
0.0
 40
0.0
 40
0.0
 40
0.6036002286825158
 40
1.0
 40
1.0
 40
1.0
 40
1.0
 10
9.453915928548478
 20
47.16792802866926
 30
0.0
 10
9.605165927260193
 20
47.25532311026875
 30
0.0
 10
9.855745684398213
 20
47.40011278635995
 30
0.0
 10
10.10633432286258
 20
47.54488682824953
 30
0.0
 10
10.20566760184462
 20
47.60227522534727
 30
0.0
  0
SPLINE
  5
292
330
23
100
AcDbEntity
  8
0
  6
Continuous
 62
     7
370
    25
100
AcDbSpline
210
0.0
220
0.0
230
1.0
 70
     8
 71
     3
 72
     9
 73
     5
 74
     0
 42
0.000000001
 43
0.00000001
 40
0.0
 40
0.0
 40
0.0
 40
0.0
 40
0.390865466128524
 40
1.0
 40
1.0
 40
1.0
 40
1.0
 10
-10.19096816963053
 20
46.94378267532509
 30
0.0
 10
-10.0965347305066
 20
46.88922507697285
 30
0.0
 10
-9.854933854227394
 20
46.74964355064198
 30
0.0
 10
-9.613341540732126
 20
46.61004695085415
 30
0.0
 10
-9.466179319464255
 20
46.52501384111233
 30
0.0
  0
SPLINE
  5
29E
330
23
100
AcDbEntity
  8
0
  6
Continuous
 62
     7
370
    25
100
AcDbSpline
210
0.0
220
0.0
230
1.0
 70
     8
 71
     3
 72
     9
 73
     5
 74
     0
 42
0.000000001
 43
0.00000001
 40
0.0
 40
0.0
 40
0.0
 40
0.0
 40
0.7461144890414627
 40
1.0
 40
1.0
 40
1.0
 40
1.0
 10
10.30023354366827
 20
48.96182201036632
 30
0.0
 10
10.30537926902314
 20
49.04117908621647
 30
0.0
 10
10.31227596575058
 20
49.14753954029655
 30
0.0
 10
10.31311202933219
 20
49.25409177560069
 30
0.0
 10
10.3133242937618
 20
49.28114384430467
 30
0.0
  0
SPLINE
  5
2A1
330
23
100
AcDbEntity
  8
0
  6
Continuous
 62
     7
370
    25
100
AcDbSpline
210
0.0
220
0.0
230
1.0
 70
     8
 71
     3
 72
    10
 73
     6
 74
     0
 42
0.000000001
 43
0.00000001
 40
0.0
 40
0.0
 40
0.0
 40
0.0
 40
0.330769499305895
 40
0.6693389141257335
 40
1.0
 40
1.0
 40
1.0
 40
1.0
 10
-7.049972862803648
 20
66.55564023529286
 30
0.0
 10
-7.480635949838251
 20
65.32892052142059
 30
0.0
 10
-8.352117642178916
 20
62.8465536679383
 30
0.0
 10
-9.522427161263458
 20
59.08394428415456
 30
0.0
 10
-9.949392247223079
 20
56.48440848160498
 30
0.0
 10
-10.16035205674668
 20
55.20000000000028
 30
0.0
  0
SPLINE
  5
2A3
330
23
100
AcDbEntity
  8
0
  6
Continuous
 62
     7
370
    25
100
AcDbSpline
210
0.0
220
0.0
230
1.0
 70
     8
 71
     3
 72
    10
 73
     6
 74
     0
 42
0.000000001
 43
0.00000001
 40
0.0
 40
0.0
 40
0.0
 40
0.0
 40
0.3165572398565515
 40
0.6557022412926635
 40
1.0
 40
1.0
 40
1.0
 40
1.0
 10
10.12847846511679
 20
55.36973332811591
 30
0.0
 10
9.926300024067794
 20
56.59714865531424
 30
0.0
 10
9.507516814443653
 20
59.13956083140474
 30
0.0
 10
8.335954649388713
 20
62.89494138108375
 30
0.0
 10
7.447721221231263
 20
65.42528801753572
 30
0.0
 10
7.000256127798488
 20
66.69999999999965
 30
0.0
  0
SPLINE
  5
2CB
330
23
100
AcDbEntity
  8
0
  6
Continuous
 62
     7
370
    25
100
AcDbSpline
210
0.0
220
0.0
230
1.0
 70
    24
 71
     3
 72
    11
 73
     7
 74
     0
 42
0.000000001
 43
0.00000001
 40
0.0
 40
0.0
 40
0.0
 40
0.0
 40
0.011134358170875
 40
0.477692066033889
 40
0.9570827123084812
 40
1.0
 40
1.0
 40
1.0
 40
1.0
 10
-10.02539285700027
 20
46.20000000000013
 30
0.0
 10
-10.0264768169304
 20
46.20000000000014
 30
0.0
 10
-10.07298143359311
 20
46.20000000000017
 30
0.0
 10
-9.90946336477505
 20
46.2000000000001
 30
0.0
 10
-9.646288295734667
 20
46.20000000000024
 30
0.0
 10
-9.439947877277117
 20
46.20000000000023
 30
0.0
 10
-9.422993183454862
 20
46.20000000000024
 30
0.0
  0
SPLINE
  5
2CC
330
23
100
AcDbEntity
  8
0
  6
Continuous
 62
     7
370
    25
100
AcDbSpline
210
0.0
220
0.0
230
1.0
 70
     8
 71
     3
 72
    23
 73
    19
 74
     0
 42
0.000000001
 43
0.00000001
 40
0.0
 40
0.0
 40
0.0
 40
0.0
 40
0.0517494623492826
 40
0.1163175539539779
 40
0.1808856455586732
 40
0.2442118837273425
 40
0.3075381218960117
 40
0.372106213500707
 40
0.4366743051054024
 40
0.5000005432740716
 40
0.5633267814427407
 40
0.6278948730474361
 40
0.6924629646521313
 40
0.7557892028208008
 40
0.8191154409894698
 40
0.8836835325941651
 40
0.9482516241988604
 40
1.0
 40
1.0
 40
1.0
 40
1.0
 10
-9.427411703582106
 20
46.53222266917557
 30
0.0
 10
-9.39723477477341
 20
46.5428669685023
 30
0.0
 10
-9.329405924278708
 20
46.5667922192205
 30
0.0
 10
-8.790689660245626
 20
46.60627591882163
 30
0.0
 10
-7.914713915779246
 20
46.64821656225909
 30
0.0
 10
-6.731045236212342
 20
46.68751498927283
 30
0.0
 10
-5.294847239794148
 20
46.72680847604142
 30
0.0
 10
-3.643947734812615
 20
46.76876423148425
 30
0.0
 10
-1.851389076079845
 20
46.81071962781417
 30
0.0
 10
-0.0000002879445431
 20
46.85001417124543
 30
0.0
 10
1.851388511613006
 20
46.88930871467936
 30
0.0
 10
3.643947201577586
 20
46.93126411100116
 30
0.0
 10
5.29484676567726
 20
46.97321986647363
 30
0.0
 10
6.731044812940659
 20
47.01251335313381
 30
0.0
 10
7.914713656477378
 20
47.05181178055279
 30
0.0
 10
8.790689207599728
 20
47.0937524224489
 30
0.0
 10
9.329403363406799
 20
47.13323589027173
 30
0.0
 10
9.397232098861087
 20
47.1571609198671
 30
0.0
 10
9.427408624770852
 20
47.16780499675634
 30
0.0
  0
SPLINE
  5
2CD
330
23
100
AcDbEntity
  8
0
  6
Continuous
 62
     7
370
    25
100
AcDbSpline
210
0.0
220
0.0
230
1.0
 70
     8
 71
     3
 72
    23
 73
    19
 74
     0
 42
0.000000001
 43
0.00000001
 40
0.0
 40
0.0
 40
0.0
 40
0.0
 40
0.0517494623492827
 40
0.116317553953978
 40
0.1808856455586733
 40
0.2442118837273426
 40
0.3075381218960117
 40
0.372106213500707
 40
0.4366743051054024
 40
0.5000005432740717
 40
0.5633267814427407
 40
0.6278948730474361
 40
0.6924629646521313
 40
0.7557892028208008
 40
0.8191154409894698
 40
0.883683532594165
 40
0.9482516241988604
 40
1.0
 40
1.0
 40
1.0
 40
1.0
 10
-9.427411703582091
 20
47.83222266917559
 30
0.0
 10
-9.397234774773395
 20
47.84286696850232
 30
0.0
 10
-9.329405924278694
 20
47.86679221922052
 30
0.0
 10
-8.790689660245611
 20
47.90627591882163
 30
0.0
 10
-7.914713915779232
 20
47.94821656225911
 30
0.0
 10
-6.731045236212328
 20
47.98751498927281
 30
0.0
 10
-5.294847239794137
 20
48.02680847604145
 30
0.0
 10
-3.643947734812599
 20
48.06876423148424
 30
0.0
 10
-1.851389076079831
 20
48.11071962781416
 30
0.0
 10
-0.0000002879445326
 20
48.15001417124544
 30
0.0
 10
1.851388511613022
 20
48.18930871467934
 30
0.0
 10
3.643947201577598
 20
48.23126411100115
 30
0.0
 10
5.294846765677275
 20
48.27321986647362
 30
0.0
 10
6.731044812940672
 20
48.3125133531338
 30
0.0
 10
7.914713656477391
 20
48.3518117805528
 30
0.0
 10
8.790689207599742
 20
48.39375242244889
 30
0.0
 10
9.329403363406815
 20
48.43323589027174
 30
0.0
 10
9.397232098861103
 20
48.45716091986709
 30
0.0
 10
9.427408624770868
 20
48.46780499675634
 30
0.0
  0
SPLINE
  5
2CE
330
23
100
AcDbEntity
  8
0
  6
Continuous
 62
     7
370
    25
100
AcDbSpline
210
0.0
220
0.0
230
1.0
 70
     8
 71
     3
 72
    23
 73
    19
 74
     0
 42
0.000000001
 43
0.00000001
 40
0.0
 40
0.0
 40
0.0
 40
0.0
 40
0.0517494623492822
 40
0.1163175539539776
 40
0.1808856455586729
 40
0.2442118837273422
 40
0.3075381218960114
 40
0.3721062135007068
 40
0.4366743051054022
 40
0.5000005432740714
 40
0.5633267814427405
 40
0.6278948730474359
 40
0.6924629646521311
 40
0.7557892028208005
 40
0.8191154409894696
 40
0.8836835325941649
 40
0.9482516241988603
 40
1.0
 40
1.0
 40
1.0
 40
1.0
 10
-9.427411703582077
 20
49.13222266917558
 30
0.0
 10
-9.397234774773384
 20
49.1428669685023
 30
0.0
 10
-9.329405924278682
 20
49.16679221922052
 30
0.0
 10
-8.790689660245596
 20
49.20627591882161
 30
0.0
 10
-7.91471391577922
 20
49.2482165622591
 30
0.0
 10
-6.731045236212315
 20
49.28751498927284
 30
0.0
 10
-5.294847239794121
 20
49.32680847604143
 30
0.0
 10
-3.643947734812588
 20
49.36876423148424
 30
0.0
 10
-1.851389076079818
 20
49.41071962781418
 30
0.0
 10
-0.000000287944516
 20
49.45001417124542
 30
0.0
 10
1.851388511613033
 20
49.48930871467937
 30
0.0
 10
3.643947201577614
 20
49.53126411100114
 30
0.0
 10
5.294846765677287
 20
49.57321986647361
 30
0.0
 10
6.731044812940686
 20
49.6125133531338
 30
0.0
 10
7.914713656477409
 20
49.6518117805528
 30
0.0
 10
8.790689207599753
 20
49.69375242244886
 30
0.0
 10
9.329403363406833
 20
49.73323589027176
 30
0.0
 10
9.397232098861114
 20
49.75716091986708
 30
0.0
 10
9.42740862477088
 20
49.76780499675633
 30
0.0
  0
SPLINE
  5
2CF
330
23
100
AcDbEntity
  8
0
  6
Continuous
 62
     7
370
    25
100
AcDbSpline
210
0.0
220
0.0
230
1.0
 70
     8
 71
     3
 72
    23
 73
    19
 74
     0
 42
0.000000001
 43
0.00000001
 40
0.0
 40
0.0
 40
0.0
 40
0.0
 40
0.0517494623492822
 40
0.1163175539539775
 40
0.1808856455586728
 40
0.2442118837273421
 40
0.3075381218960112
 40
0.3721062135007066
 40
0.4366743051054019
 40
0.5000005432740711
 40
0.5633267814427402
 40
0.6278948730474354
 40
0.6924629646521308
 40
0.7557892028208001
 40
0.8191154409894691
 40
0.8836835325941643
 40
0.9482516241988598
 40
1.0
 40
1.0
 40
1.0
 40
1.0
 10
-9.427411703582063
 20
50.43222266917557
 30
0.0
 10
-9.397234774773368
 20
50.44286696850231
 30
0.0
 10
-9.329405924278667
 20
50.46679221922052
 30
0.0
 10
-8.790689660245578
 20
50.50627591882159
 30
0.0
 10
-7.914713915779208
 20
50.54821656225912
 30
0.0
 10
-6.7310452362123
 20
50.58751498927283
 30
0.0
 10
-5.294847239794107
 20
50.62680847604143
 30
0.0
 10
-3.643947734812575
 20
50.66876423148425
 30
0.0
 10
-1.851389076079805
 20
50.71071962781418
 30
0.0
 10
-0.0000002879445005
 20
50.75001417124545
 30
0.0
 10
1.851388511613044
 20
50.78930871467935
 30
0.0
 10
3.643947201577632
 20
50.83126411100114
 30
0.0
 10
5.294846765677295
 20
50.87321986647361
 30
0.0
 10
6.731044812940704
 20
50.91251335313382
 30
0.0
 10
7.914713656477416
 20
50.95181178055277
 30
0.0
 10
8.79068920759977
 20
50.9937524224489
 30
0.0
 10
9.329403363406847
 20
51.03323589027174
 30
0.0
 10
9.397232098861133
 20
51.05716091986709
 30
0.0
 10
9.427408624770896
 20
51.06780499675634
 30
0.0
  0
SPLINE
  5
2D0
330
23
100
AcDbEntity
  8
0
  6
Continuous
 62
     7
370
    25
100
AcDbSpline
210
0.0
220
0.0
230
1.0
 70
     8
 71
     3
 72
    23
 73
    19
 74
     0
 42
0.000000001
 43
0.00000001
 40
0.0
 40
0.0
 40
0.0
 40
0.0
 40
0.0517494623492815
 40
0.1163175539539768
 40
0.1808856455586722
 40
0.2442118837273415
 40
0.3075381218960107
 40
0.3721062135007061
 40
0.4366743051054015
 40
0.5000005432740707
 40
0.56332678144274
 40
0.6278948730474353
 40
0.6924629646521305
 40
0.7557892028208
 40
0.8191154409894691
 40
0.8836835325941643
 40
0.9482516241988597
 40
1.0
 40
1.0
 40
1.0
 40
1.0
 10
-9.427411703582049
 20
51.73222266917557
 30
0.0
 10
-9.397234774773354
 20
51.74286696850231
 30
0.0
 10
-9.329405924278653
 20
51.7667922192205
 30
0.0
 10
-8.79068966024557
 20
51.80627591882161
 30
0.0
 10
-7.914713915779194
 20
51.84821656225912
 30
0.0
 10
-6.731045236212287
 20
51.8875149892728
 30
0.0
 10
-5.294847239794095
 20
51.92680847604142
 30
0.0
 10
-3.643947734812559
 20
51.96876423148425
 30
0.0
 10
-1.851389076079793
 20
52.01071962781416
 30
0.0
 10
-0.0000002879444859
 20
52.05001417124542
 30
0.0
 10
1.851388511613058
 20
52.08930871467935
 30
0.0
 10
3.64394720157764
 20
52.13126411100114
 30
0.0
 10
5.294846765677314
 20
52.17321986647361
 30
0.0
 10
6.731044812940715
 20
52.21251335313382
 30
0.0
 10
7.91471365647743
 20
52.2518117805528
 30
0.0
 10
8.790689207599781
 20
52.29375242244891
 30
0.0
 10
9.329403363406861
 20
52.33323589027175
 30
0.0
 10
9.397232098861144
 20
52.35716091986708
 30
0.0
 10
9.427408624770909
 20
52.36780499675633
 30
0.0
  0
SPLINE
  5
2D1
330
23
100
AcDbEntity
  8
0
  6
Continuous
 62
     7
370
    25
100
AcDbSpline
210
0.0
220
0.0
230
1.0
 70
     8
 71
     3
 72
    23
 73
    19
 74
     0
 42
0.000000001
 43
0.00000001
 40
0.0
 40
0.0
 40
0.0
 40
0.0
 40
0.0517494623492815
 40
0.1163175539539768
 40
0.1808856455586722
 40
0.2442118837273415
 40
0.3075381218960106
 40
0.372106213500706
 40
0.4366743051054015
 40
0.5000005432740707
 40
0.5633267814427398
 40
0.6278948730474351
 40
0.6924629646521304
 40
0.7557892028207999
 40
0.819115440989469
 40
0.8836835325941642
 40
0.9482516241988597
 40
1.0
 40
1.0
 40
1.0
 40
1.0
 10
-9.427411703582035
 20
53.03222266917557
 30
0.0
 10
-9.397234774773342
 20
53.0428669685023
 30
0.0
 10
-9.329405924278637
 20
53.0667922192205
 30
0.0
 10
-8.790689660245556
 20
53.10627591882162
 30
0.0
 10
-7.91471391577918
 20
53.1482165622591
 30
0.0
 10
-6.731045236212275
 20
53.18751498927283
 30
0.0
 10
-5.29484723979408
 20
53.22680847604141
 30
0.0
 10
-3.643947734812547
 20
53.26876423148425
 30
0.0
 10
-1.851389076079778
 20
53.31071962781418
 30
0.0
 10
-0.0000002879444753
 20
53.35001417124543
 30
0.0
 10
1.851388511613071
 20
53.38930871467934
 30
0.0
 10
3.643947201577659
 20
53.43126411100115
 30
0.0
 10
5.294846765677325
 20
53.47321986647361
 30
0.0
 10
6.73104481294073
 20
53.51251335313381
 30
0.0
 10
7.914713656477447
 20
53.55181178055281
 30
0.0
 10
8.790689207599794
 20
53.59375242244887
 30
0.0
 10
9.329403363406868
 20
53.63323589027175
 30
0.0
 10
9.397232098861156
 20
53.65716091986708
 30
0.0
 10
9.427408624770923
 20
53.66780499675633
 30
0.0
  0
SPLINE
  5
2D2
330
23
100
AcDbEntity
  8
0
  6
Continuous
 62
     7
370
    25
100
AcDbSpline
210
0.0
220
0.0
230
1.0
 70
     8
 71
     3
 72
    23
 73
    19
 74
     0
 42
0.000000001
 43
0.00000001
 40
0.0
 40
0.0
 40
0.0
 40
0.0
 40
0.0517494623492815
 40
0.1163175539539768
 40
0.1808856455586722
 40
0.2442118837273415
 40
0.3075381218960107
 40
0.3721062135007061
 40
0.4366743051054016
 40
0.5000005432740708
 40
0.56332678144274
 40
0.6278948730474353
 40
0.6924629646521305
 40
0.7557892028208
 40
0.8191154409894691
 40
0.8836835325941643
 40
0.9482516241988597
 40
1.0
 40
1.0
 40
1.0
 40
1.0
 10
-9.42741170358202
 20
54.33222266917558
 30
0.0
 10
-9.397234774773326
 20
54.34286696850229
 30
0.0
 10
-9.329405924278623
 20
54.3667922192205
 30
0.0
 10
-8.790689660245542
 20
54.40627591882161
 30
0.0
 10
-7.914713915779166
 20
54.44821656225909
 30
0.0
 10
-6.73104523621226
 20
54.48751498927285
 30
0.0
 10
-5.294847239794067
 20
54.52680847604141
 30
0.0
 10
-3.643947734812533
 20
54.56876423148427
 30
0.0
 10
-1.851389076079765
 20
54.61071962781418
 30
0.0
 10
-0.0000002879444623
 20
54.65001417124543
 30
0.0
 10
1.851388511613089
 20
54.68930871467936
 30
0.0
 10
3.643947201577668
 20
54.73126411100115
 30
0.0
 10
5.294846765677342
 20
54.77321986647362
 30
0.0
 10
6.731044812940744
 20
54.81251335313381
 30
0.0
 10
7.91471365647746
 20
54.8518117805528
 30
0.0
 10
8.79068920759981
 20
54.8937524224489
 30
0.0
 10
9.329403363406886
 20
54.93323589027177
 30
0.0
 10
9.397232098861172
 20
54.95716091986709
 30
0.0
 10
9.427408624770939
 20
54.96780499675636
 30
0.0
  0
SPLINE
  5
2D3
330
23
100
AcDbEntity
  8
0
  6
Continuous
 62
     7
370
    25
100
AcDbSpline
210
0.0
220
0.0
230
1.0
 70
     8
 71
     3
 72
    24
 73
    20
 74
     0
 42
0.000000001
 43
0.00000001
 40
0.0
 40
0.0
 40
0.0
 40
0.0
 40
0.0460785897869359
 40
0.0929253935102416
 40
0.1528944639996901
 40
0.2146024191114393
 40
0.2746888712635109
 40
0.3365173168589876
 40
0.3966555058748723
 40
0.458517003423985
 40
0.5189284524618571
 40
0.5810747195841259
 40
0.6416246078815944
 40
0.7039240142167933
 40
0.7645122599019419
 40
0.8268685504471116
 40
0.8872920348673011
 40
0.9494873752276417
 40
0.9999999999999999
 40
0.9999999999999999
 40
0.9999999999999999
 40
0.9999999999999999
 10
-9.419815656815915
 20
46.1999999999993
 30
0.0
 10
-9.244009365594053
 20
46.20885053149394
 30
0.0
 10
-8.889465772378454
 20
46.22669914894768
 30
0.0
 10
-8.101414441377168
 20
46.25588318507116
 30
0.0
 10
-7.059739514905042
 20
46.28559439480079
 30
0.0
 10
-5.731601283056056
 20
46.32047946370488
 30
0.0
 10
-4.230959766325037
 20
46.35571861569288
 30
0.0
 10
-2.621982940313859
 20
46.3926270257605
 30
0.0
 10
-0.9245741748807653
 20
46.42821070910651
 30
0.0
 10
0.7867271385722959
 20
46.46087008410323
 30
0.0
 10
2.493535039280157
 20
46.49589529455539
 30
0.0
 10
4.119455208336838
 20
46.52950249020979
 30
0.0
 10
5.642558232961743
 20
46.56465674607372
 30
0.0
 10
6.99571872705315
 20
46.59561397433341
 30
0.0
 10
8.158955253234836
 20
46.62701222780728
 30
0.0
 10
9.082918397783503
 20
46.65920155633063
 30
0.0
 10
9.746001945849255
 20
46.6925081445528
 30
0.0
 10
10.13322979511701
 20
46.72418306591794
 30
0.0
 10
10.1604572781095
 20
46.74374146621913
 30
0.0
 10
10.17265989067797
 20
46.75250700585422
 30
0.0
  0
SPLINE
  5
2D4
330
23
100
AcDbEntity
  8
0
  6
Continuous
 62
     7
370
    25
100
AcDbSpline
210
0.0
220
0.0
230
1.0
 70
     8
 71
     3
 72
    27
 73
    23
 74
     0
 42
0.000000001
 43
0.00000001
 40
0.0
 40
0.0
 40
0.0
 40
0.0
 40
0.0191222074346494
 40
0.064947616479727
 40
0.1117462942447665
 40
0.1575740953481657
 40
0.2043791826019225
 40
0.2575223215763391
 40
0.3122023616636008
 40
0.3655474677454096
 40
0.4204229880097208
 40
0.4741547602020624
 40
0.529416065276911
 40
0.5836160830500606
 40
0.6393829590587559
 40
0.6935252207501993
 40
0.7492475100976187
 40
0.8030865779492014
 40
0.8585091593209234
 40
0.9119281518689089
 40
0.9669249734611834
 40
1.0
 40
1.0
 40
1.0
 40
1.0
 10
-10.18703961197355
 20
47.38924362201644
 30
0.0
 10
-10.18983224981804
 20
47.39302859937111
 30
0.0
 10
-10.19931730390032
 20
47.40588408472529
 30
0.0
 10
-9.966481527197036
 20
47.43123140536491
 30
0.0
 10
-9.533229647624356
 20
47.46298618995451
 30
0.0
 10
-8.879324883705545
 20
47.49801168382176
 30
0.0
 10
-8.008149596075356
 20
47.5345575623016
 30
0.0
 10
-6.882548228218949
 20
47.5718660567335
 30
0.0
 10
-5.517002065323651
 20
47.61380128153278
 30
0.0
 10
-3.9843840621422
 20
47.65507617242895
 30
0.0
 10
-2.348406115063012
 20
47.69680518948783
 30
0.0
 10
-0.6287958411860874
 20
47.73411227391639
 30
0.0
 10
1.102273633055259
 20
47.76717822320226
 30
0.0
 10
2.823120481323867
 20
47.79955249120421
 30
0.0
 10
4.45392808037267
 20
47.82900365301187
 30
0.0
 10
5.970495420370175
 20
47.85789134922784
 30
0.0
 10
7.302545511179917
 20
47.88143906596893
 30
0.0
 10
8.43132318375285
 20
47.90727616620363
 30
0.0
 10
9.311084467255734
 20
47.93357337130706
 30
0.0
 10
9.915793384280107
 20
47.9633568093741
 30
0.0
 10
10.23346612742217
 20
47.98973895189068
 30
0.0
 10
10.22831584786845
 20
48.00720091342207
 30
0.0
 10
10.22638168120185
 20
48.01375868248595
 30
0.0
  0
SPLINE
  5
2D5
330
23
100
AcDbEntity
  8
0
  6
Continuous
 62
     7
370
    25
100
AcDbSpline
210
0.0
220
0.0
230
1.0
 70
     8
 71
     3
 72
    26
 73
    22
 74
     0
 42
0.000000001
 43
0.00000001
 40
0.0
 40
0.0
 40
0.0
 40
0.0
 40
0.0302899107647839
 40
0.0827998807909406
 40
0.1368216174234108
 40
0.1894441292536713
 40
0.2435601023160743
 40
0.2966589351096483
 40
0.3512577907229957
 40
0.4050453055284221
 40
0.4603624459847475
 40
0.5147568246275166
 40
0.5707117999994405
 40
0.6254583014780721
 40
0.6818276683303501
 40
0.7360542468155127
 40
0.7918944581056929
 40
0.8454311158774187
 40
0.9005537357830796
 40
0.953437583182202
 40
1.0
 40
1.0
 40
1.0
 40
1.0
 10
-10.24709526864149
 20
48.65331020987625
 30
0.0
 10
-10.24176836176713
 20
48.65947965286716
 30
0.0
 10
-10.2272068380437
 20
48.67634431609311
 30
0.0
 10
-9.886962580523411
 20
48.70982109809626
 30
0.0
 10
-9.269456687314873
 20
48.75180657348155
 30
0.0
 10
-8.374259201648984
 20
48.79809650723099
 30
0.0
 10
-7.260143447655188
 20
48.84250733643839
 30
0.0
 10
-5.929164709459611
 20
48.8899733977083
 30
0.0
 10
-4.439947117173371
 20
48.9366194024829
 30
0.0
 10
-2.806538592687801
 20
48.98307510891514
 30
0.0
 10
-1.097599754268533
 20
49.0246939820872
 30
0.0
 10
0.6643448924988555
 20
49.05886074586333
 30
0.0
 10
2.402240140019774
 20
49.09028811103927
 30
0.0
 10
4.092966426899679
 20
49.11670536298511
 30
0.0
 10
5.649116170115437
 20
49.14135018740193
 30
0.0
 10
7.054074075489305
 20
49.16067839308548
 30
0.0
 10
8.232953572607828
 20
49.17979740708922
 30
0.0
 10
9.184911703064124
 20
49.20158601110068
 30
0.0
 10
9.852764548643488
 20
49.22627381952655
 30
0.0
 10
10.25243160631494
 20
49.25321754449445
 30
0.0
 10
10.28262819179662
 20
49.27238089394906
 30
0.0
 10
10.29676674200505
 20
49.28135349711274
 30
0.0
  0
SPLINE
  5
2D7
330
23
100
AcDbEntity
  8
0
  6
Continuous
 62
     7
370
    25
100
AcDbSpline
210
0.0
220
0.0
230
1.0
 70
     8
 71
     3
 72
    27
 73
    23
 74
     0
 42
0.000000001
 43
0.00000001
 40
0.0
 40
0.0
 40
0.0
 40
0.0
 40
0.0169423342906227
 40
0.070896626307398
 40
0.1231017025661348
 40
0.1768125082999871
 40
0.2292988487415229
 40
0.2832692002241783
 40
0.3364892912188556
 40
0.3911964373546921
 40
0.4453444668994983
 40
0.5010066006698378
 40
0.5560231909012938
 40
0.6126278060540409
 40
0.6676502010777905
 40
0.7243196309013497
 40
0.7784669953949752
 40
0.8342460247804709
 40
0.8874261278244588
 40
0.9422015370486407
 40
0.9946005538293126
 40
1.0
 40
1.0
 40
1.0
 40
1.0
 10
-10.2997059196347
 20
49.92638874702243
 30
0.0
 10
-10.30218662833867
 20
49.92974482518955
 30
0.0
 10
-10.31256736306775
 20
49.94378861724283
 30
0.0
 10
-10.03940032907262
 20
49.97517712422849
 30
0.0
 10
-9.484767328890964
 20
50.0187486918943
 30
0.0
 10
-8.655047702045247
 20
50.06798878885358
 30
0.0
 10
-7.588325615236372
 20
50.11722910141661
 30
0.0
 10
-6.316216956379869
 20
50.16749442449623
 30
0.0
 10
-4.856609555936164
 20
50.2189413836924
 30
0.0
 10
-3.262700232915648
 20
50.26821025426792
 30
0.0
 10
-1.55547880484189
 20
50.31424752087477
 30
0.0
 10
0.198271530982409
 20
50.35033595128617
 30
0.0
 10
1.972171009602431
 20
50.38230944386724
 30
0.0
 10
3.68523424515964
 20
50.40754362106732
 30
0.0
 10
5.307546127268145
 20
50.43010190178406
 30
0.0
 10
6.755414579143698
 20
50.44719948338481
 30
0.0
 10
8.013331811231346
 20
50.46203644933725
 30
0.0
 10
9.01459525009439
 20
50.48041468828161
 30
0.0
 10
9.770431475272716
 20
50.50138241439406
 30
0.0
 10
10.20340195441968
 20
50.52855367794646
 30
0.0
 10
10.38812555429204
 20
50.54709530590673
 30
0.0
 10
10.34147647866948
 20
50.5599698987918
 30
0.0
 10
10.3371185916276
 20
50.56117262404955
 30
0.0
  0
SPLINE
  5
2D8
330
23
100
AcDbEntity
  8
0
  6
Continuous
 62
     7
370
    25
100
AcDbSpline
210
0.0
220
0.0
230
1.0
 70
     8
 71
     3
 72
    27
 73
    23
 74
     0
 42
0.000000001
 43
0.00000001
 40
0.0
 40
0.0
 40
0.0
 40
0.0
 40
0.0153367420418404
 40
0.0669113390760352
 40
0.1199690015608867
 40
0.1717001229594123
 40
0.2249023221467019
 40
0.2771876432802303
 40
0.3309482193971576
 40
0.3840728663165413
 40
0.4386970590921031
 40
0.4926761530080856
 40
0.5481875740342851
 40
0.602759282550072
 40
0.6589379816222982
 40
0.7130055285849628
 40
0.7686836539627654
 40
0.8218781045556516
 40
0.8766599590649927
 40
0.9289710625887213
 40
0.9828337350127314
 40
1.0
 40
1.0
 40
1.0
 40
1.0
 10
-10.3266837491338
 20
51.20748229098741
 30
0.0
 10
-10.33564675105347
 20
51.21043459479317
 30
0.0
 10
-10.37475065323485
 20
51.22331494450916
 30
0.0
 10
-10.15362909258897
 20
51.25405917986367
 30
0.0
 10
-9.672444400605503
 20
51.29718547553469
 30
0.0
 10
-8.89633762615929
 20
51.34780527127017
 30
0.0
 10
-7.891087943432221
 20
51.39908950617566
 30
0.0
 10
-6.655794931404239
 20
51.45082451747143
 30
0.0
 10
-5.241390032659867
 20
51.50420062693378
 30
0.0
 10
-3.66416320278884
 20
51.55527679918756
 30
0.0
 10
-1.983571701930225
 20
51.60353031825733
 30
0.0
 10
-0.2243951410447833
 20
51.6425184271756
 30
0.0
 10
1.541407393388493
 20
51.67483638172899
 30
0.0
 10
3.28721887906627
 20
51.70157379543261
 30
0.0
 10
4.925068284783
 20
51.72370290086504
 30
0.0
 10
6.430603519653083
 20
51.74199234626148
 30
0.0
 10
7.727430285470272
 20
51.75536269544756
 30
0.0
 10
8.80282753874956
 20
51.77299875664032
 30
0.0
 10
9.614985744532733
 20
51.79222044133037
 30
0.0
 10
10.13233466893288
 20
51.81850840873383
 30
0.0
 10
10.36828724520579
 20
51.83946563358147
 30
0.0
 10
10.33281951592998
 20
51.85505856771135
 30
0.0
 10
10.32424767941609
 20
51.85882706614255
 30
0.0
  0
SPLINE
  5
2D9
330
23
100
AcDbEntity
  8
0
  6
Continuous
 62
     7
370
    25
100
AcDbSpline
210
0.0
220
0.0
230
1.0
 70
     8
 71
     3
 72
    26
 73
    22
 74
     0
 42
0.000000001
 43
0.00000001
 40
0.0
 40
0.0
 40
0.0
 40
0.0
 40
0.0451287715663331
 40
0.0972397954596363
 40
0.1508434401055463
 40
0.2033015929845873
 40
0.2572296073376614
 40
0.3105053827648078
 40
0.3652689022985626
 40
0.4194700055720851
 40
0.4752068288768591
 40
0.5300385434979291
 40
0.586458370183837
 40
0.6413342003809482
 40
0.6978520793242813
 40
0.751962623512151
 40
0.8076962043719663
 40
0.8609754508901787
 40
0.9158440874141353
 40
0.9683917803356822
 40
1.0
 40
1.0
 40
1.0
 40
1.0
 10
-10.31690629227855
 20
52.52238682403721
 30
0.0
 10
-10.28825276525248
 20
52.53254333379896
 30
0.0
 10
-10.22651248271197
 20
52.55442775248659
 30
0.0
 10
-9.79042080047759
 20
52.59545206375074
 30
0.0
 10
-9.095418842121918
 20
52.64346814227223
 30
0.0
 10
-8.1377403071094
 20
52.69447745667591
 30
0.0
 10
-6.964783818427902
 20
52.74376294344485
 30
0.0
 10
-5.583469719461392
 20
52.79598745743394
 30
0.0
 10
-4.048919515885273
 20
52.84545124879899
 30
0.0
 10
-2.378207973731069
 20
52.89379573388081
 30
0.0
 10
-0.6410184021819667
 20
52.93420569724561
 30
0.0
 10
1.137457576319786
 20
52.96771091439884
 30
0.0
 10
2.875539102782998
 20
52.9971007799849
 30
0.0
 10
4.548569703292194
 20
53.02203268170152
 30
0.0
 10
6.06812601652279
 20
53.0444923918126
 30
0.0
 10
7.421470343899352
 20
53.06155824656901
 30
0.0
 10
8.534665650341974
 20
53.08141464339224
 30
0.0
 10
9.413926438793688
 20
53.10324700890559
 30
0.0
 10
9.99590982338621
 20
53.13014245214048
 30
0.0
 10
10.29951423264505
 20
53.15530464779729
 30
0.0
 10
10.28722909692283
 20
53.17308795728755
 30
0.0
 10
10.28261490813227
 20
53.17976721172679
 30
0.0
  0
SPLINE
  5
2DA
330
23
100
AcDbEntity
  8
0
  6
Continuous
 62
     7
370
    25
100
AcDbSpline
210
0.0
220
0.0
230
1.0
 70
     8
 71
     3
 72
    26
 73
    22
 74
     0
 42
0.000000001
 43
0.00000001
 40
0.0
 40
0.0
 40
0.0
 40
0.0
 40
0.0310793968386919
 40
0.0853843816952986
 40
0.1381163599718598
 40
0.1923624977071075
 40
0.2454860637413478
 40
0.3001256661112418
 40
0.3537918298121672
 40
0.4089909774595091
 40
0.4630774622985649
 40
0.5187117974671217
 40
0.5730523976694069
 40
0.6289747786734807
 40
0.6830502527554754
 40
0.7387149062272808
 40
0.7923623779318971
 40
0.8475967605304275
 40
0.9007389395500993
 40
0.9554460622395998
 40
1.0
 40
1.0
 40
1.0
 40
1.0
 10
-10.24103027411985
 20
53.85841952307604
 30
0.0
 10
-10.23311934150791
 20
53.86519035059997
 30
0.0
 10
-10.21138564785841
 20
53.88379183520073
 30
0.0
 10
-9.860331405880668
 20
53.91931010246888
 30
0.0
 10
-9.224061949399777
 20
53.96332797516035
 30
0.0
 10
-8.32546911594886
 20
54.00973190852654
 30
0.0
 10
-7.191664529346115
 20
54.05365645343682
 30
0.0
 10
-5.860663341220072
 20
54.09916046970958
 30
0.0
 10
-4.352143220157854
 20
54.14358107662196
 30
0.0
 10
-2.726004674136645
 20
54.18709935478729
 30
0.0
 10
-1.004788033435125
 20
54.22669581625644
 30
0.0
 10
0.7367274492068911
 20
54.2600456525653
 30
0.0
 10
2.475832143823249
 20
54.29324475556238
 30
0.0
 10
4.129897812612969
 20
54.32313894350414
 30
0.0
 10
5.676028329514433
 20
54.35371546245772
 30
0.0
 10
7.041826443089359
 20
54.37979945602603
 30
0.0
 10
8.211362936473524
 20
54.40712239241483
 30
0.0
 10
9.133795362272984
 20
54.43648384897841
 30
0.0
 10
9.792136593009225
 20
54.46874156888108
 30
0.0
 10
10.17382330120967
 20
54.50098434267441
 30
0.0
 10
10.198617270232
 20
54.52201779704502
 30
0.0
 10
10.209746195791
 20
54.53145879246321
 30
0.0
  0
SPLINE
  5
2DC
330
23
100
AcDbEntity
  8
0
  6
Continuous
 62
     7
370
    25
100
AcDbSpline
210
0.0
220
0.0
230
1.0
 70
     8
 71
     3
 72
    13
 73
     9
 74
     0
 42
0.000000001
 43
0.00000001
 40
0.0
 40
0.0
 40
0.0
 40
0.0
 40
0.037504718500889
 40
0.2273392419831031
 40
0.4225801195224895
 40
0.613916692471522
 40
0.8107671681728119
 40
1.0
 40
1.0
 40
1.0
 40
1.0
 10
10.11709692336306
 20
55.36759603063865
 30
0.0
 10
10.12451678626566
 20
55.36560641075422
 30
0.0
 10
10.16949315391537
 20
55.35354609689414
 30
0.0
 10
9.972345733744138
 20
55.3290513607411
 30
0.0
 10
9.523203678004327
 20
55.29627321135518
 30
0.0
 10
8.766787319033293
 20
55.2615245734825
 30
0.0
 10
7.7930898640883
 20
55.22970752430103
 30
0.0
 10
6.962901737797837
 20
55.20977139100669
 30
0.0
 10
6.555997717282359
 20
55.20000000000011
 30
0.0
  0
SPLINE
  5
2DD
330
23
100
AcDbEntity
  8
0
  6
Continuous
 62
     7
370
    25
100
AcDbSpline
210
0.0
220
0.0
230
1.0
 70
     8
 71
     3
 72
    21
 73
    17
 74
     0
 42
0.000000001
 43
0.00000001
 40
0.0
 40
0.0
 40
0.0
 40
0.0
 40
0.0558915085555647
 40
0.1127092071260967
 40
0.1855608789037931
 40
0.2605220139057415
 40
0.3335394547200182
 40
0.4086610785233483
 40
0.4820476274638513
 40
0.5575659542628438
 40
0.6310149288737968
 40
0.7065951825439605
 40
0.7800093870298485
 40
0.8555545782370154
 40
0.9287797883878319
 40
1.0
 40
1.0
 40
1.0
 40
1.0
 10
6.555997717282359
 20
55.20000000000011
 30
0.0
 10
6.217030229973984
 20
55.19142268757422
 30
0.0
 10
5.533478153399225
 20
55.17412592626328
 30
0.0
 10
4.27776773572881
 20
55.14514600208118
 30
0.0
 10
2.799842446414547
 20
55.11139039692761
 30
0.0
 10
1.123400688538311
 20
55.07567044539849
 30
0.0
 10
-0.6007423973866883
 20
55.04282566276619
 30
0.0
 10
-2.296488678938695
 20
55.00818725212428
 30
0.0
 10
-3.946461261646773
 20
54.97477841278528
 30
0.0
 10
-5.47234352755411
 20
54.94061085871275
 30
0.0
 10
-6.858638769796011
 20
54.90996770076795
 30
0.0
 10
-8.03721686719246
 20
54.88067117700876
 30
0.0
 10
-8.999539977992656
 20
54.8495849416389
 30
0.0
 10
-9.69158769902697
 20
54.81846773183255
 30
0.0
 10
-10.12687336080901
 20
54.78643988112603
 30
0.0
 10
-10.17546650517614
 20
54.76638155060407
 30
0.0
 10
-10.1994258247758
 20
54.75649159682824
 30
0.0
  0
SPLINE
  5
2DF
330
23
100
AcDbEntity
  8
0
  6
Continuous
 62
     7
370
    25
100
AcDbSpline
210
0.0
220
0.0
230
1.0
 70
     8
 71
     3
 72
    27
 73
    23
 74
     0
 42
0.000000001
 43
0.00000001
 40
0.0
 40
0.0
 40
0.0
 40
0.0
 40
0.012427050945365
 40
0.0668869383839557
 40
0.1195804733678075
 40
0.1738061214682024
 40
0.2204530018785557
 40
0.2681321234063795
 40
0.3147770098429694
 40
0.3624236013276122
 40
0.4162287789311388
 40
0.4715655827444918
 40
0.5259024601398399
 40
0.5818011060508446
 40
0.6364160589478118
 40
0.6926492160397844
 40
0.7467729467319992
 40
0.8025068586961521
 40
0.8560078336260784
 40
0.9110935994717818
 40
0.9640104772468664
 40
1.0
 40
1.0
 40
1.0
 40
1.0
 10
10.23014867272126
 20
54.13068389372305
 30
0.0
 10
10.23355557015457
 20
54.12828242521434
 30
0.0
 10
10.25189273958469
 20
54.11535684239661
 30
0.0
 10
9.999965301376486
 20
54.08761919985328
 30
0.0
 10
9.469901654837631
 20
54.04886512964976
 30
0.0
 10
8.68833902933333
 20
54.007393267543
 30
0.0
 10
7.731978274001407
 20
53.96789158070219
 30
0.0
 10
6.656821618240044
 20
53.93036910232528
 30
0.0
 10
5.432803124911454
 20
53.89036626056566
 30
0.0
 10
4.036842984277182
 20
53.84992809956876
 30
0.0
 10
2.455141746077102
 20
53.80698105975121
 30
0.0
 10
0.7381371597172937
 20
53.76790772572315
 30
0.0
 10
-1.021375173928628
 20
53.73440213398342
 30
0.0
 10
-2.745267351578872
 20
53.70345625126941
 30
0.0
 10
-4.410846973528987
 20
53.67640613154276
 30
0.0
 10
-5.932705454018549
 20
53.65120134500415
 30
0.0
 10
-7.295585895618647
 20
53.63137911255052
 30
0.0
 10
-8.42635946247531
 20
53.60998727968505
 30
0.0
 10
-9.32729027214602
 20
53.58704122308237
 30
0.0
 10
-9.936884672666539
 20
53.56052222701524
 30
0.0
 10
-10.26903916326957
 20
53.53521590899801
 30
0.0
 10
-10.26855605818956
 20
53.51774652476557
 30
0.0
 10
-10.26836049610218
 20
53.51067487640751
 30
0.0
  0
SPLINE
  5
2E0
330
23
100
AcDbEntity
  8
0
  6
Continuous
 62
     7
370
    25
100
AcDbSpline
210
0.0
220
0.0
230
1.0
 70
     8
 71
     3
 72
    26
 73
    22
 74
     0
 42
0.000000001
 43
0.00000001
 40
0.0
 40
0.0
 40
0.0
 40
0.0
 40
0.0273716765181627
 40
0.0813749278915622
 40
0.1336566971046294
 40
0.1874467139114043
 40
0.2400043647082684
 40
0.2940517866335497
 40
0.3473322052246933
 40
0.4021066194400931
 40
0.4562887680059124
 40
0.5119880222592692
 40
0.5670065497299404
 40
0.6236156472572729
 40
0.6785422410356376
 40
0.7351060390509495
 40
0.789215362510004
 40
0.8449530604221938
 40
0.8980920246502083
 40
0.9528229717434756
 40
1.0
 40
1.0
 40
1.0
 40
1.0
 10
10.29073896098561
 20
52.87075075989746
 30
0.0
 10
10.28706457549579
 20
52.86517539101609
 30
0.0
 10
10.27614077058812
 20
52.84860003654742
 30
0.0
 10
9.948449038572926
 20
52.81444135714234
 30
0.0
 10
9.33517962997531
 20
52.76982830066041
 30
0.0
 10
8.457582472251453
 20
52.72064814044302
 30
0.0
 10
7.345550002009577
 20
52.67203567508001
 30
0.0
 10
6.034964221247669
 20
52.62137659015553
 30
0.0
 10
4.544319336341595
 20
52.57079928669939
 30
0.0
 10
2.927491621947025
 20
52.52189233797716
 30
0.0
 10
1.206968509821658
 20
52.47773600032792
 30
0.0
 10
-0.5501758014110726
 20
52.44311160045928
 30
0.0
 10
-2.317175857287636
 20
52.4120630435439
 30
0.0
 10
-4.012312519420755
 20
52.38780967330216
 30
0.0
 10
-5.605480413332889
 20
52.36570120666597
 30
0.0
 10
-7.016807406434932
 20
52.34977344076025
 30
0.0
 10
-8.228725432977658
 20
52.33395216665732
 30
0.0
 10
-9.184694623401471
 20
52.31536993128705
 30
0.0
 10
-9.873186764016877
 20
52.29280025282821
 30
0.0
 10
-10.28244360402866
 20
52.2670383761685
 30
0.0
 10
-10.31973711200661
 20
52.24748100248795
 30
0.0
 10
-10.33700167715592
 20
52.23842715986587
 30
0.0
  0
SPLINE
  5
2E2
330
23
100
AcDbEntity
  8
0
  6
Continuous
 62
     7
370
    25
100
AcDbSpline
210
0.0
220
0.0
230
1.0
 70
     8
 71
     3
 72
    27
 73
    23
 74
     0
 42
0.000000001
 43
0.00000001
 40
0.0
 40
0.0
 40
0.0
 40
0.0
 40
0.0153572912242536
 40
0.067427735726424
 40
0.1209908357928868
 40
0.1732632298962365
 40
0.2270113950143813
 40
0.2799808078098578
 40
0.3344424462433611
 40
0.3882634607969246
 40
0.4436054271939363
 40
0.4982545625738261
 40
0.554462501487492
 40
0.6096136520727202
 40
0.6663995104459159
 40
0.7209396754231784
 40
0.777109111463914
 40
0.8307426819560937
 40
0.8859757001248436
 40
0.9387199947651937
 40
0.9930188634312578
 40
0.9999999999999999
 40
0.9999999999999999
 40
0.9999999999999999
 40
0.9999999999999999
 10
10.32104570996676
 20
51.58571178254284
 30
0.0
 10
10.324362194852
 20
51.5826634697789
 30
0.0
 10
10.33892355617006
 20
51.56927954520152
 30
0.0
 10
10.07590517094237
 20
51.53760741441577
 30
0.0
 10
9.541732519299277
 20
51.49336781107162
 30
0.0
 10
8.716459510032498
 20
51.44197147805643
 30
0.0
 10
7.667075438797197
 20
51.39100483313931
 30
0.0
 10
6.391329335215945
 20
51.3385906765881
 30
0.0
 10
4.943003241965066
 20
51.28562803137757
 30
0.0
 10
3.33827906756746
 20
51.23472755164969
 30
0.0
 10
1.639677877968272
 20
51.18784655680038
 30
0.0
 10
-0.1284160038608718
 20
51.15087174890803
 30
0.0
 10
-1.891695385592838
 20
51.11918615340819
 30
0.0
 10
-3.624254481875647
 20
51.09390669214753
 30
0.0
 10
-5.236412293669126
 20
51.07214443496594
 30
0.0
 10
-6.706922450235889
 20
51.05525564724472
 30
0.0
 10
-7.959483994342364
 20
51.04146420158144
 30
0.0
 10
-8.984498250854857
 20
51.02343906918229
 30
0.0
 10
-9.743851481139867
 20
51.00327389115058
 30
0.0
 10
-10.19792415299363
 20
50.97595905370296
 30
0.0
 10
-10.39041533700495
 20
50.95697222968082
 30
0.0
 10
-10.34458478630704
 20
50.94320267976513
 30
0.0
 10
-10.3393636814423
 20
50.94163402604057
 30
0.0
  0
SPLINE
  5
2E3
330
23
100
AcDbEntity
  8
0
  6
Continuous
 62
     7
370
    25
100
AcDbSpline
210
0.0
220
0.0
230
1.0
 70
     8
 71
     3
 72
    27
 73
    23
 74
     0
 42
0.000000001
 43
0.00000001
 40
0.0
 40
0.0
 40
0.0
 40
0.0
 40
0.0123708966081192
 40
0.0656691012385674
 40
0.117225036396202
 40
0.1702601551525652
 40
0.2221827391500258
 40
0.2755629248053684
 40
0.3282953267626804
 40
0.3824988438004885
 40
0.4361406794461367
 40
0.4912937523177475
 40
0.5456567138833471
 40
0.6015958287260543
 40
0.655927082355242
 40
0.7118855391639379
 40
0.7654089331511019
 40
0.8205415460274287
 40
0.8731952314267997
 40
0.9274241587574978
 40
0.9793427705768262
 40
1.0
 40
1.0
 40
1.0
 40
1.0
 10
10.31973072499088
 20
50.28563451513732
 30
0.0
 10
10.32737092644672
 20
50.28321640061061
 30
0.0
 10
10.36792782210109
 20
50.27038019215366
 30
0.0
 10
10.15651375474843
 20
50.24028984886278
 30
0.0
 10
9.682293547358078
 20
50.19704739982394
 30
0.0
 10
8.924480235394924
 20
50.14759935041427
 30
0.0
 10
7.923649461457608
 20
50.09687191241898
 30
0.0
 10
6.708359146731975
 20
50.04697527681684
 30
0.0
 10
5.293454794443959
 20
49.99467203183985
 30
0.0
 10
3.732435135500654
 20
49.9452963874846
 30
0.0
 10
2.044334755835317
 20
49.89761462815835
 30
0.0
 10
0.2979570847599741
 20
49.85902823862817
 30
0.0
 10
-1.481190966694277
 20
49.82605364568104
 30
0.0
 10
-3.210801285972772
 20
49.79820046614597
 30
0.0
 10
-4.864018261047191
 20
49.77393236816255
 30
0.0
 10
-6.354217245628472
 20
49.75322136159615
 30
0.0
 10
-7.668551083592994
 20
49.73705398291313
 30
0.0
 10
-8.735574740104326
 20
49.71719797908509
 30
0.0
 10
-9.564063428342756
 20
49.69556784895524
 30
0.0
 10
-10.08578064434182
 20
49.66807932554762
 30
0.0
 10
-10.33336203970774
 20
49.64542383405865
 30
0.0
 10
-10.30109845059579
 20
49.62948833295918
 30
0.0
 10
-10.29191527957234
 20
49.62495261836672
 30
0.0
  0
SPLINE
  5
2E4
330
23
100
AcDbEntity
  8
0
  6
Continuous
 62
     7
370
    25
100
AcDbSpline
210
0.0
220
0.0
230
1.0
 70
     8
 71
     3
 72
    26
 73
    22
 74
     0
 42
0.000000001
 43
0.00000001
 40
0.0
 40
0.0
 40
0.0
 40
0.0
 40
0.0417174629511295
 40
0.0958292038920701
 40
0.1484579681191674
 40
0.2025955804382712
 40
0.2556276424646988
 40
0.3101702196935559
 40
0.3638128688902443
 40
0.4189846141767867
 40
0.4731722485801453
 40
0.5289063241999951
 40
0.5834770060921001
 40
0.6396393223525072
 40
0.6938992813298984
 40
0.7497556069505612
 40
0.8034904913480092
 40
0.8588166506081514
 40
0.9119525326189616
 40
0.966659939308428
 40
1.0
 40
1.0
 40
1.0
 40
1.0
 10
10.27393098656313
 20
48.95437167248726
 30
0.0
 10
10.25049873365164
 20
48.94508249096067
 30
0.0
 10
10.19667249439696
 20
48.92374430767882
 30
0.0
 10
9.779215473153023
 20
48.8849539281124
 30
0.0
 10
9.08691478220726
 20
48.83895118090805
 30
0.0
 10
8.142218800134756
 20
48.79135780008637
 30
0.0
 10
6.965302443166014
 20
48.74545028434585
 30
0.0
 10
5.598927684210772
 20
48.69740206043954
 30
0.0
 10
4.06183129968034
 20
48.65116017047421
 30
0.0
 10
2.414021134752382
 20
48.60595335396506
 30
0.0
 10
0.6789457027179711
 20
48.56669329415861
 30
0.0
 10
-1.06988963678288
 20
48.53349726523398
 30
0.0
 10
-2.8086678335272
 20
48.50214374296953
 30
0.0
 10
-4.453713402175865
 20
48.47457281780235
 30
0.0
 10
-5.981320762600844
 20
48.4478063020823
 30
0.0
 10
-7.319005977601558
 20
48.42641434775341
 30
0.0
 10
-8.450549025547554
 20
48.40216952780756
 30
0.0
 10
-9.329543730001717
 20
48.3767465469995
 30
0.0
 10
-9.932361760642761
 20
48.34683593385922
 30
0.0
 10
-10.24854964137742
 20
48.31957472342594
 30
0.0
 10
-10.24278082628898
 20
48.30109832745559
 30
0.0
 10
-10.24059640632907
 20
48.29410205395295
 30
0.0
  0
SPLINE
  5
2E5
330
23
100
AcDbEntity
  8
0
  6
Continuous
 62
     7
370
    25
100
AcDbSpline
210
0.0
220
0.0
230
1.0
 70
     8
 71
     3
 72
    26
 73
    22
 74
     0
 42
0.000000001
 43
0.00000001
 40
0.0
 40
0.0
 40
0.0
 40
0.0
 40
0.0306267150563029
 40
0.0835184769060875
 40
0.1379265840780097
 40
0.191041563839296
 40
0.2456651815365611
 40
0.2992153583353541
 40
0.3542964118818141
 40
0.4081904835689857
 40
0.4636440013520681
 40
0.5176499269862788
 40
0.5732280760494891
 40
0.6272036311658884
 40
0.6827725580214884
 40
0.7363739325818779
 40
0.7915463535870575
 40
0.8448825015671753
 40
0.8997724709630919
 40
0.9529073485633335
 40
1.0
 40
1.0
 40
1.0
 40
1.0
 10
10.1967926323447
 20
47.61763624327528
 30
0.0
 10
10.19061481498951
 20
47.61105963188644
 30
0.0
 10
10.17376802305764
 20
47.59312533611268
 30
0.0
 10
9.829664943432675
 20
47.5594651983175
 30
0.0
 10
9.207113452517484
 20
47.51870091903296
 30
0.0
 10
8.305941213851714
 20
47.47544648668467
 30
0.0
 10
7.184459790010989
 20
47.43570658607449
 30
0.0
 10
5.844937753111774
 20
47.39357421571388
 30
0.0
 10
4.349567001446033
 20
47.35271378239181
 30
0.0
 10
2.712896333282081
 20
47.31129723710478
 30
0.0
 10
1.010412821395731
 20
47.27342193769105
 30
0.0
 10
-0.7379120585516818
 20
47.24001333271671
 30
0.0
 10
-2.450260930092567
 20
47.20625460620725
 30
0.0
 10
-4.108901956027525
 20
47.17429379240562
 30
0.0
 10
-5.630233892513174
 20
47.14166588269256
 30
0.0
 10
-7.002599832283492
 20
47.11253117630034
 30
0.0
 10
-8.156675538999426
 20
47.08312337463585
 30
0.0
 10
-9.08998119064229
 20
47.05132772728246
 30
0.0
 10
-9.747844204359927
 20
47.01811772206482
 30
0.0
 10
-10.14245646830798
 20
46.98470249528655
 30
0.0
 10
-10.17156947163021
 20
46.96380785997156
 30
0.0
 10
-10.18524843319797
 20
46.95399035985714
 30
0.0
  0
SPLINE
  5
2E6
330
23
100
AcDbEntity
  8
0
  6
Continuous
 62
     7
370
    25
100
AcDbSpline
210
0.0
220
0.0
230
1.0
 70
    24
 71
     3
 72
    14
 73
    10
 74
     0
 42
0.000000001
 43
0.00000001
 40
0.3883733643164735
 40
0.3883733643164735
 40
0.3883733643164735
 40
0.3883733643164735
 40
0.4375
 40
0.5
 40
0.5
 40
0.5625
 40
0.625
 40
0.6874999999999999
 40
0.75
 40
0.75
 40
0.75
 40
0.75
 10
6.555997717282343
 20
55.20000000000008
 30
0.0
 10
5.757041414648126
 20
55.20000000000002
 30
0.0
 10
3.704820346734744
 20
55.19999999999967
 30
0.0
 10
1.329940879407579
 20
55.20000000000014
 30
0.0
 10
-1.329940879406138
 20
55.20000000000017
 30
0.0
 10
-3.989341403287618
 20
55.20000000000011
 30
0.0
 10
-7.371540161112881
 20
55.19999999999989
 30
0.0
 10
-9.63130009515247
 20
55.20000000000036
 30
0.0
 10
-10.16035205674666
 20
55.20000000000047
 30
0.0
 10
-10.16035205674668
 20
55.20000000000029
 30
0.0
  0
SPLINE
  5
2E7
330
23
100
AcDbEntity
  8
0
  6
Continuous
 62
     7
370
    25
100
AcDbSpline
210
0.0
220
0.0
230
1.0
 70
    24
 71
     3
 72
    37
 73
    33
 74
     0
 42
0.000000001
 43
0.00000001
 40
0.0
 40
0.0
 40
0.0
 40
0.0
 40
0.0118930973415883
 40
0.0237628688138797
 40
0.0356220570017371
 40
0.0474834386010492
 40
0.0593597832286219
 40
0.0712638123482153
 40
0.1068731267638091
 40
0.1425021606454454
 40
0.1781114750610157
 40
0.2137405089426767
 40
0.2848926326310925
 40
0.3560447563195085
 40
0.4271968800079241
 40
0.4983490036963401
 40
0.5695011273847561
 40
0.640653251073172
 40
0.6762625654888645
 40
0.7118915993704007
 40
0.7475009137859966
 40
0.7831299476676326
 40
0.8048269414913296
 40
0.8264812560897051
 40
0.8481706511382794
 40
0.8698905294265108
 40
0.8915491095289365
 40
0.9132205498944278
 40
0.9349488210614157
 40
0.9566180187697032
 40
0.9782778452555578
 40
1.0
 40
1.0
 40
1.0
 40
1.0
 10
10.16000000000049
 20
46.19999999999991
 30
0.0
 10
10.15896438224398
 20
46.19999999999991
 30
0.0
 10
10.15689517788262
 20
46.1999999999999
 30
0.0
 10
10.14002340000724
 20
46.19999999999995
 30
0.0
 10
10.11306288824869
 20
46.19999999999992
 30
0.0
 10
10.07503315631463
 20
46.19999999999992
 30
0.0
 10
10.02619006273011
 20
46.19999999999994
 30
0.0
 10
9.926945026675673
 20
46.19999999999991
 30
0.0
 10
9.738384323560906
 20
46.19999999999995
 30
0.0
 10
9.40168763592322
 20
46.19999999999994
 30
0.0
 10
8.974913664513814
 20
46.19999999999995
 30
0.0
 10
8.290782614452539
 20
46.19999999999999
 30
0.0
 10
7.230440303288906
 20
46.19999999999996
 30
0.0
 10
5.680995897275476
 20
46.20000000000002
 30
0.0
 10
3.913137512487773
 20
46.20000000000006
 30
0.0
 10
1.994836089753018
 20
46.20000000000005
 30
0.0
 10
0.0002241586070923
 20
46.20000000000009
 30
0.0
 10
-1.663384177037223
 20
46.20000000000012
 30
0.0
 10
-2.953945715633874
 20
46.20000000000013
 30
0.0
 10
-3.89412213242872
 20
46.2000000000001
 30
0.0
 10
-4.797097455757203
 20
46.20000000000014
 30
0.0
 10
-5.542005412009921
 20
46.20000000000014
 30
0.0
 10
-6.142667514170799
 20
46.20000000000016
 30
0.0
 10
-6.615371449782582
 20
46.20000000000014
 30
0.0
 10
-7.064493930021521
 20
46.20000000000016
 30
0.0
 10
-7.488600865282399
 20
46.20000000000014
 30
0.0
 10
-7.885859216169869
 20
46.20000000000014
 30
0.0
 10
-8.254807161824484
 20
46.20000000000013
 30
0.0
 10
-8.594624310244514
 20
46.20000000000016
 30
0.0
 10
-8.903163717579934
 20
46.20000000000014
 30
0.0
 10
-9.182107079685071
 20
46.20000000000013
 30
0.0
 10
-9.340294526617248
 20
46.20000000000016
 30
0.0
 10
-9.419501886526596
 20
46.20000000000016
 30
0.0
  0
LINE
  5
2E8
330
23
100
AcDbEntity
  8
0
  6
Continuous
 62
     7
370
    25
100
AcDbLine
 10
-10.2201788061
 20
47.3812201663
 30
0.0
 11
-10.1985063488
 21
46.9533188695
 31
0.0
  0
LINE
  5
2E9
330
23
100
AcDbEntity
  8
0
  6
Continuous
 62
     7
370
    25
100
AcDbLine
 10
-10.2842106025
 20
48.6454648391
 30
0.0
 11
-10.2663486271
 21
48.2927977487
 31
0.0
  0
LINE
  5
2EA
330
23
100
AcDbEntity
  8
0
  6
Continuous
 62
     7
370
    25
100
AcDbLine
 10
-10.3214090815
 20
49.9196484899
 30
0.0
 11
-10.3176734933
 21
49.6246264662
 31
0.0
  0
LINE
  5
2EB
330
23
100
AcDbEntity
  8
0
  6
Continuous
 62
     7
370
    25
100
AcDbLine
 10
-10.3377139493
 20
51.2073426259
 30
0.0
 11
-10.3343503333
 21
50.9416975054
 31
0.0
  0
LINE
  5
2EC
330
23
100
AcDbEntity
  8
0
  6
Continuous
 62
     7
370
    25
100
AcDbLine
 10
-10.3303612374
 20
52.514669111
 30
0.0
 11
-10.3478068966
 21
52.2391112419
 31
0.0
  0
LINE
  5
2ED
330
23
100
AcDbEntity
  8
0
  6
Continuous
 62
     7
370
    25
100
AcDbLine
 10
-10.2457897325
 20
53.8504938803
 30
0.0
 11
-10.2673080038
 21
53.5106082428
 31
0.0
  0
LINE
  5
2EE
330
23
100
AcDbEntity
  8
0
  6
Continuous
 62
     7
370
    25
100
AcDbLine
 10
-10.1603520567
 20
55.2
 30
0.0
 11
-10.188474614
 21
54.7557982721
 31
0.0
  0
LINE
  5
2EF
330
23
100
AcDbEntity
  8
0
  6
Continuous
 62
     7
370
    25
100
AcDbLine
 10
10.2276468417
 20
54.1370646687
 30
0.0
 11
10.2027058393
 21
54.5310130652
 31
0.0
  0
LINE
  5
2F0
330
23
100
AcDbEntity
  8
0
  6
Continuous
 62
     7
370
    25
100
AcDbLine
 10
10.3073768833
 20
52.8777118338
 30
0.0
 11
10.2882311472
 21
53.1801227777
 31
0.0
  0
LINE
  5
2F1
330
23
100
AcDbEntity
  8
0
  6
Continuous
 62
     7
370
    25
100
AcDbLine
 10
10.3425835268
 20
51.5919226482
 30
0.0
 11
10.345959607
 21
51.8585521483
 31
0.0
  0
LINE
  5
2F2
330
23
100
AcDbEntity
  8
0
  6
Continuous
 62
     7
370
    25
100
AcDbLine
 10
10.3260422087
 20
50.2855545987
 30
0.0
 11
10.3295333184
 21
50.5612686693
 31
0.0
  0
LINE
  5
2F3
330
23
100
AcDbEntity
  8
0
  6
Continuous
 62
     7
370
    25
100
AcDbLine
 10
10.2324584906
 20
47.6236704254
 30
0.0
 11
10.2521496818
 21
48.012453578
 31
0.0
  0
LINE
  5
2F4
330
23
100
AcDbEntity
  8
0
  6
Continuous
 62
     7
370
    25
100
AcDbLine
 10
10.1603520567
 20
46.2
 30
0.0
 11
10.1882954677
 21
46.751715091
 31
0.0
  0
LINE
  5
2F5
330
23
100
AcDbEntity
  8
0
  6
Continuous
 62
     7
370
    25
100
AcDbLine
 10
-7.0002561278
 20
66.7
 30
0.0
 11
-7.0499728628
 21
66.5556402353
 31
0.0
  0
LINE
  5
2F6
330
23
100
AcDbEntity
  8
0
  6
Continuous
 62
     7
370
    25
100
AcDbLine
 10
-7.5
 20
67.2
 30
0.0
 11
-7.5
 21
265.7
 31
0.0
  0
LINE
  5
2F7
330
23
100
AcDbEntity
  8
0
  6
Continuous
 62
     7
370
    25
100
AcDbLine
 10
-7.5
 20
265.7
 30
0.0
 11
7.5
 21
265.7
 31
0.0
  0
LINE
  5
2F8
330
23
100
AcDbEntity
  8
0
  6
Continuous
 62
     7
370
    25
100
AcDbLine
 10
7.5
 20
265.7
 30
0.0
 11
7.5
 21
67.2
 31
0.0
  0
LINE
  5
2F9
330
23
100
AcDbEntity
  8
0
  6
Continuous
 62
     7
370
    25
100
AcDbLine
 10
-7.5
 20
264.7
 30
0.0
 11
7.5
 21
264.7
 31
0.0
  0
LINE
  5
2FA
330
23
100
AcDbEntity
  8
0
  6
Continuous
 62
     7
370
    25
100
AcDbLine
 10
-7.0
 20
264.7
 30
0.0
 11
-7.0
 21
66.7
 31
0.0
  0
LINE
  5
2FB
330
23
100
AcDbEntity
  8
0
  6
Continuous
 62
     7
370
    25
100
AcDbLine
 10
-7.5
 20
67.2
 30
0.0
 11
7.5
 21
67.2
 31
0.0
  0
LINE
  5
2FC
330
23
100
AcDbEntity
  8
0
  6
Continuous
 62
     7
370
    25
100
AcDbLine
 10
7.0
 20
66.7
 30
0.0
 11
7.0
 21
264.7
 31
0.0
  0
LINE
  5
2FD
330
23
100
AcDbEntity
  8
0
  6
Continuous
 62
     7
370
    25
100
AcDbLine
 10
7.0
 20
66.7
 30
0.0
 11
-7.0
 21
66.7
 31
0.0
  0
LINE
  5
2FE
330
23
100
AcDbEntity
  8
0
  6
Continuous
 62
     7
370
    25
100
AcDbLine
 10
10.5
 20
216.7
 30
0.0
 11
7.5
 21
216.7
 31
0.0
  0
LINE
  5
2FF
330
23
100
AcDbEntity
  8
0
  6
Continuous
 62
     7
370
    25
100
AcDbLine
 10
10.5
 20
216.7
 30
0.0
 11
10.5
 21
213.7
 31
0.0
  0
LINE
  5
300
330
23
100
AcDbEntity
  8
0
  6
Continuous
 62
     7
370
    25
100
AcDbLine
 10
10.5
 20
213.7
 30
0.0
 11
7.5
 21
213.7
 31
0.0
  0
LINE
  5
301
330
23
100
AcDbEntity
  8
0
  6
Continuous
 62
     7
370
    25
100
AcDbLine
 10
10.5
 20
222.7
 30
0.0
 11
7.5
 21
222.7
 31
0.0
  0
LINE
  5
302
330
23
100
AcDbEntity
  8
0
  6
Continuous
 62
     7
370
    25
100
AcDbLine
 10
10.5
 20
222.7
 30
0.0
 11
10.5
 21
219.7
 31
0.0
  0
LINE
  5
303
330
23
100
AcDbEntity
  8
0
  6
Continuous
 62
     7
370
    25
100
AcDbLine
 10
10.5
 20
219.7
 30
0.0
 11
7.5
 21
219.7
 31
0.0
  0
LINE
  5
304
330
23
100
AcDbEntity
  8
0
  6
Continuous
 62
     7
370
    25
100
AcDbLine
 10
10.5
 20
228.7
 30
0.0
 11
7.5
 21
228.7
 31
0.0
  0
LINE
  5
305
330
23
100
AcDbEntity
  8
0
  6
Continuous
 62
     7
370
    25
100
AcDbLine
 10
10.5
 20
228.7
 30
0.0
 11
10.5
 21
225.7
 31
0.0
  0
LINE
  5
306
330
23
100
AcDbEntity
  8
0
  6
Continuous
 62
     7
370
    25
100
AcDbLine
 10
10.5
 20
225.7
 30
0.0
 11
7.5
 21
225.7
 31
0.0
  0
LINE
  5
307
330
23
100
AcDbEntity
  8
0
  6
Continuous
 62
     7
370
    25
100
AcDbLine
 10
10.5
 20
234.7
 30
0.0
 11
7.5
 21
234.7
 31
0.0
  0
LINE
  5
308
330
23
100
AcDbEntity
  8
0
  6
Continuous
 62
     7
370
    25
100
AcDbLine
 10
10.5
 20
234.7
 30
0.0
 11
10.5
 21
231.7
 31
0.0
  0
LINE
  5
309
330
23
100
AcDbEntity
  8
0
  6
Continuous
 62
     7
370
    25
100
AcDbLine
 10
10.5
 20
231.7
 30
0.0
 11
7.5
 21
231.7
 31
0.0
  0
LINE
  5
30A
330
23
100
AcDbEntity
  8
0
  6
Continuous
 62
     7
370
    25
100
AcDbLine
 10
10.5
 20
240.7
 30
0.0
 11
7.5
 21
240.7
 31
0.0
  0
LINE
  5
30B
330
23
100
AcDbEntity
  8
0
  6
Continuous
 62
     7
370
    25
100
AcDbLine
 10
10.5
 20
240.7
 30
0.0
 11
10.5
 21
237.7
 31
0.0
  0
LINE
  5
30C
330
23
100
AcDbEntity
  8
0
  6
Continuous
 62
     7
370
    25
100
AcDbLine
 10
10.5
 20
237.7
 30
0.0
 11
7.5
 21
237.7
 31
0.0
  0
LINE
  5
30D
330
23
100
AcDbEntity
  8
0
  6
Continuous
 62
     7
370
    25
100
AcDbLine
 10
10.5
 20
246.7
 30
0.0
 11
7.5
 21
246.7
 31
0.0
  0
LINE
  5
30E
330
23
100
AcDbEntity
  8
0
  6
Continuous
 62
     7
370
    25
100
AcDbLine
 10
10.5
 20
246.7
 30
0.0
 11
10.5
 21
243.7
 31
0.0
  0
LINE
  5
30F
330
23
100
AcDbEntity
  8
0
  6
Continuous
 62
     7
370
    25
100
AcDbLine
 10
10.5
 20
243.7
 30
0.0
 11
7.5
 21
243.7
 31
0.0
  0
LINE
  5
310
330
23
100
AcDbEntity
  8
0
  6
Continuous
 62
     7
370
    25
100
AcDbLine
 10
10.5
 20
252.7
 30
0.0
 11
7.5
 21
252.7
 31
0.0
  0
LINE
  5
311
330
23
100
AcDbEntity
  8
0
  6
Continuous
 62
     7
370
    25
100
AcDbLine
 10
10.5
 20
252.7
 30
0.0
 11
10.5
 21
249.7
 31
0.0
  0
LINE
  5
312
330
23
100
AcDbEntity
  8
0
  6
Continuous
 62
     7
370
    25
100
AcDbLine
 10
10.5
 20
249.7
 30
0.0
 11
7.5
 21
249.7
 31
0.0
  0
LINE
  5
313
330
23
100
AcDbEntity
  8
0
  6
Continuous
 62
     7
370
    25
100
AcDbLine
 10
-9.4195018865
 20
46.2
 30
0.0
 11
-9.422993198
 21
46.2
 31
0.0
  0
LINE
  5
314
330
23
100
AcDbEntity
  8
0
  6
Continuous
 62
     7
370
    25
100
AcDbLine
 10
10.3123418446
 20
49.2858345386
 30
0.0
 11
10.3027418279
 21
49.2877309647
 31
0.0
  0
LINE
  5
315
330
23
100
AcDbEntity
  8
0
  6
Continuous
 62
     7
370
    25
100
AcDbLine
 10
10.2243502914
 20
54.5367283172
 30
0.0
 11
10.2155219754
 21
54.5384450559
 31
0.0
  0
LINE
  5
316
330
23
100
AcDbEntity
  8
0
  6
Continuous
 62
     7
370
    25
100
AcDbLine
 10
-10.2069434988
 20
54.7547561366
 30
0.0
 11
-10.1845329726
 21
54.7499624046
 31
0.0
  0
LINE
  5
317
330
23
100
AcDbEntity
  8
0
  6
Continuous
 62
     7
370
    25
100
AcDbLine
 10
-10.3481962289
 20
52.2354920646
 30
0.0
 11
-10.330396875
 21
52.2317281478
 31
0.0
  0
ARC
  5
318
330
23
100
AcDbEntity
  8
0
  6
Continuous
 62
     7
370
    25
100
AcDbCircle
 10
-7.0
 20
67.2
 30
0.0
 40
0.5000000000000027
100
AcDbArc
 50
180.0
 51
270.0
  0
ARC
  5
319
330
23
100
AcDbEntity
  8
0
  6
Continuous
 62
     7
370
    25
100
AcDbCircle
 10
7.0
 20
67.2
 30
0.0
 40
0.5000000000000284
100
AcDbArc
 50
270.0
 51
360.0
  0
VIEWPORT
  5
347
330
23
100
AcDbEntity
  8
0
100
AcDbViewport
 10
0.0
 20
0.0
 30
0.0
 40
205.6
 41
156.0
 68
     1
 69
     1
 12
0.0
 22
155.95
 13
0.0
 23
0.0
 14
10.0
 24
10.0
 15
10.0
 25
10.0
 16
0.0
 26
0.0
 36
1.0
 17
0.0
 27
0.0
 37
0.0
 42
50.0
 43
0.0
 44
0.0
 45
223.89
 50
0.0
 51
0.0
 72
   100
 90
   557152
  1

281
     0
 71
     1
 74
     0
110
0.0
120
0.0
130
0.0
111
1.0
121
0.0
131
0.0
112
0.0
122
1.0
132
0.0
 79
     0
146
0.0
  0
ENDBLK
  5
25
330
23
100
AcDbEntity
  8
0
100
AcDbBlockEnd
  0
BLOCK
  5
31C
330
31A
100
AcDbEntity
  8
0
100
AcDbBlockBegin
  2
*Paper_Space1
 70
     0
 10
0.0
 20
0.0
 30
0.0
  3
*Paper_Space1
  1

  0
SPLINE
  5
32E
330
31A
100
AcDbEntity
  8
0
  6
Continuous
 62
     7
370
    25
100
AcDbSpline
210
0.0
220
0.0
230
1.0
 70
     8
 71
     3
 72
    15
 73
    11
 74
     0
 42
0.000000001
 43
0.00000001
 40
0.0
 40
0.0
 40
0.0
 40
0.0
 40
0.1000193066705925
 40
0.2333435180660562
 40
0.3666706309489761
 40
0.4999999999999996
 40
0.6333293690510232
 40
0.7666564819339431
 40
0.8999806933294067
 40
1.0
 40
1.0
 40
1.0
 40
1.0
 10
-6.799668067111655
 20
7.499999999997675
 30
0.0
 10
-6.425087275908373
 20
7.83022481046094
 30
0.0
 10
-5.551195999025132
 20
8.600634260308196
 30
0.0
 10
-3.908159420412231
 20
9.441898149881512
 30
0.0
 10
-1.996056400155226
 20
10.02984574677436
 30
0.0
 10
-0.0000000000009167
 20
10.22560576383755
 30
0.0
 10
1.996056400153397
 20
10.02984574677441
 30
0.0
 10
3.908159420410415
 20
9.441898149881611
 30
0.0
 10
5.55119599902335
 20
8.600634260308356
 30
0.0
 10
6.425087275906618
 20
7.830224810461123
 30
0.0
 10
6.799668067109913
 20
7.499999999997866
 30
0.0
  0
SPLINE
  5
32F
330
31A
100
AcDbEntity
  8
0
  6
Continuous
 62
     7
370
    25
100
AcDbSpline
210
0.0
220
0.0
230
1.0
 70
     8
 71
     3
 72
    10
 73
     6
 74
     0
 42
0.000000001
 43
0.00000001
 40
0.0
 40
0.0
 40
0.0
 40
0.0
 40
0.3479398203132958
 40
0.9617904891199488
 40
1.0
 40
1.0
 40
1.0
 40
1.0
 10
6.715130602790618
 20
-7.500000000002133
 30
0.0
 10
6.484287052279772
 20
-7.714323298018704
 30
0.0
 10
5.846179200306699
 20
-8.306765144552822
 30
0.0
 10
5.079171506969427
 20
-8.82050360104471
 30
0.0
 10
4.532059730131138
 20
-9.043812097752042
 30
0.0
 10
4.500000000000477
 20
-9.056897559340333
 30
0.0
  0
SPLINE
  5
330
330
31A
100
AcDbEntity
  8
0
  6
Continuous
 62
     7
370
    25
100
AcDbSpline
210
0.0
220
0.0
230
1.0
 70
     8
 71
     3
 72
    10
 73
     6
 74
     0
 42
0.000000001
 43
0.00000001
 40
0.0
 40
0.0
 40
0.0
 40
0.0
 40
0.0400494849971117
 40
0.6093930235830414
 40
1.0
 40
1.0
 40
1.0
 40
1.0
 10
1.50000000000049
 20
-10.01438796730936
 30
0.0
 10
1.460807111268606
 20
-10.0234549082323
 30
0.0
 10
0.8644480577377406
 20
-10.16141749486926
 30
0.0
 10
-0.1573399524906908
 20
-10.18464180744552
 30
0.0
 10
-1.111677114935274
 20
-10.0547118065137
 30
0.0
 10
-1.499999999999509
 20
-10.00184286794172
 30
0.0
  0
SPLINE
  5
331
330
31A
100
AcDbEntity
  8
0
  6
Continuous
 62
     7
370
    25
100
AcDbSpline
210
0.0
220
0.0
230
1.0
 70
     8
 71
     3
 72
    10
 73
     6
 74
     0
 42
0.000000001
 43
0.00000001
 40
0.0
 40
0.0
 40
0.0
 40
0.0
 40
0.2634154619447747
 40
0.8820085396920745
 40
1.0
 40
1.0
 40
1.0
 40
1.0
 10
-4.49999999999952
 20
-9.057855645356574
 30
0.0
 10
-4.72356921531882
 20
-8.954874268874198
 30
0.0
 10
-5.472158366722619
 20
-8.610056038326501
 30
0.0
 10
-6.255250532660141
 20
-8.069930266907576
 30
0.0
 10
-6.737839100412404
 20
-7.578690373467809
 30
0.0
 10
-6.815143641704214
 20
-7.500000000002324
 30
0.0
  0
SPLINE
  5
332
330
31A
100
AcDbEntity
  8
0
  6
Continuous
 62
     7
370
    25
100
AcDbSpline
210
0.0
220
0.0
230
1.0
 70
     8
 71
     3
 72
     9
 73
     5
 74
     0
 42
0.000000001
 43
0.00000001
 40
0.0
 40
0.0
 40
0.0
 40
0.0
 40
0.3740569484077493
 40
0.9999999999999999
 40
0.9999999999999999
 40
0.9999999999999999
 40
0.9999999999999999
 10
3.154264539989588
 20
9.822310049738133
 30
0.0
 10
3.059062151949846
 20
9.863661748606534
 30
0.0
 10
2.804549066589476
 20
9.974210955203084
 30
0.0
 10
2.529618550397027
 20
10.01692003604986
 30
0.0
 10
2.357527704115692
 20
10.0436534884458
 30
0.0
  0
LINE
  5
334
330
31A
100
AcDbEntity
  8
0
  6
Continuous
 62
     7
370
    25
100
AcDbLine
 10
17.5
 20
-7.5
 30
0.0
 11
17.5
 21
7.5
 31
0.0
  0
LINE
  5
335
330
31A
100
AcDbEntity
  8
0
  6
Continuous
 62
     7
370
    25
100
AcDbLine
 10
-17.5
 20
-7.5
 30
0.0
 11
17.5
 21
-7.5
 31
0.0
  0
LINE
  5
336
330
31A
100
AcDbEntity
  8
0
  6
Continuous
 62
     7
370
    25
100
AcDbLine
 10
-17.5
 20
7.5
 30
0.0
 11
-17.5
 21
-7.5
 31
0.0
  0
LINE
  5
337
330
31A
100
AcDbEntity
  8
0
  6
Continuous
 62
     7
370
    25
100
AcDbLine
 10
17.5
 20
7.5
 30
0.0
 11
-17.5
 21
7.5
 31
0.0
  0
LINE
  5
338
330
31A
100
AcDbEntity
  8
0
  6
Continuous
 62
     7
370
    25
100
AcDbLine
 10
-7.5
 20
-10.5
 30
0.0
 11
-7.5
 21
-7.5
 31
0.0
  0
LINE
  5
339
330
31A
100
AcDbEntity
  8
0
  6
Continuous
 62
     7
370
    25
100
AcDbLine
 10
-10.5
 20
-10.5
 30
0.0
 11
-10.5
 21
-7.5
 31
0.0
  0
LINE
  5
33A
330
31A
100
AcDbEntity
  8
0
  6
Continuous
 62
     7
370
    25
100
AcDbLine
 10
-7.5
 20
-10.5
 30
0.0
 11
-10.5
 21
-10.5
 31
0.0
  0
LINE
  5
33B
330
31A
100
AcDbEntity
  8
0
  6
Continuous
 62
     7
370
    25
100
AcDbLine
 10
-1.5
 20
-10.5
 30
0.0
 11
-4.5
 21
-10.5
 31
0.0
  0
LINE
  5
33C
330
31A
100
AcDbEntity
  8
0
  6
Continuous
 62
     7
370
    25
100
AcDbLine
 10
-4.5
 20
-10.5
 30
0.0
 11
-4.5
 21
-7.5
 31
0.0
  0
LINE
  5
33D
330
31A
100
AcDbEntity
  8
0
  6
Continuous
 62
     7
370
    25
100
AcDbLine
 10
-1.5
 20
-10.5
 30
0.0
 11
-1.5
 21
-7.5
 31
0.0
  0
LINE
  5
33E
330
31A
100
AcDbEntity
  8
0
  6
Continuous
 62
     7
370
    25
100
AcDbLine
 10
4.5
 20
-10.5
 30
0.0
 11
4.5
 21
-7.5
 31
0.0
  0
LINE
  5
33F
330
31A
100
AcDbEntity
  8
0
  6
Continuous
 62
     7
370
    25
100
AcDbLine
 10
4.5
 20
-10.5
 30
0.0
 11
1.5
 21
-10.5
 31
0.0
  0
LINE
  5
340
330
31A
100
AcDbEntity
  8
0
  6
Continuous
 62
     7
370
    25
100
AcDbLine
 10
1.5
 20
-10.5
 30
0.0
 11
1.5
 21
-7.5
 31
0.0
  0
LINE
  5
341
330
31A
100
AcDbEntity
  8
0
  6
Continuous
 62
     7
370
    25
100
AcDbLine
 10
10.5
 20
-10.5
 30
0.0
 11
10.5
 21
-7.5
 31
0.0
  0
LINE
  5
342
330
31A
100
AcDbEntity
  8
0
  6
Continuous
 62
     7
370
    25
100
AcDbLine
 10
10.5
 20
-10.5
 30
0.0
 11
7.5
 21
-10.5
 31
0.0
  0
LINE
  5
343
330
31A
100
AcDbEntity
  8
0
  6
Continuous
 62
     7
370
    25
100
AcDbLine
 10
7.5
 20
-10.5
 30
0.0
 11
7.5
 21
-7.5
 31
0.0
  0
LINE
  5
344
330
31A
100
AcDbEntity
  8
0
  6
Continuous
 62
     7
370
    25
100
AcDbLine
 10
-4.5960578018
 20
-9.2033548968
 30
0.0
 11
-4.7008856195
 21
-9.145764782
 31
0.0
  0
VIEWPORT
  5
349
330
31A
100
AcDbEntity
  8
0
100
AcDbViewport
 10
0.0
 20
0.0
 30
0.0
 40
205.6
 41
156.0
 68
     1
 69
     1
 12
0.0
 22
155.95
 13
0.0
 23
0.0
 14
10.0
 24
10.0
 15
10.0
 25
10.0
 16
0.0
 26
0.0
 36
1.0
 17
0.0
 27
0.0
 37
0.0
 42
50.0
 43
0.0
 44
0.0
 45
223.89
 50
0.0
 51
0.0
 72
   100
 90
   557152
  1

281
     0
 71
     1
 74
     0
110
0.0
120
0.0
130
0.0
111
1.0
121
0.0
131
0.0
112
0.0
122
1.0
132
0.0
 79
     0
146
0.0
  0
ENDBLK
  5
31D
330
31A
100
AcDbEntity
  8
0
100
AcDbBlockEnd
  0
ENDSEC
  0
SECTION
  2
ENTITIES
  0
SPLINE
  5
84
330
1F
100
AcDbEntity
  8
0
  6
Continuous
 62
     7
370
    25
100
AcDbSpline
210
0.0
220
0.0
230
1.0
 70
     8
 71
     3
 72
     9
 73
     5
 74
     0
 42
0.000000001
 43
0.00000001
 40
0.0
 40
0.0
 40
0.0
 40
0.0
 40
0.6734041884147299
 40
1.0
 40
1.0
 40
1.0
 40
1.0
 10
-9.453917078459918
 20
48.15709965144356
 30
0.0
 10
-9.604970149052843
 20
48.06980991181354
 30
0.0
 10
-9.829282788017146
 20
47.94018532507685
 30
0.0
 10
-10.05360336871228
 20
47.8105747171586
 30
0.0
 10
-10.12686553081969
 20
47.7682444354755
 30
0.0
  0
SPLINE
  5
85
330
1F
100
AcDbEntity
  8
0
  6
Continuous
 62
     7
370
    25
100
AcDbSpline
210
0.0
220
0.0
230
1.0
 70
     8
 71
     3
 72
     9
 73
     5
 74
     0
 42
0.000000001
 43
0.00000001
 40
0.0
 40
0.0
 40
0.0
 40
0.0
 40
0.6615605465758685
 40
1.0
 40
1.0
 40
1.0
 40
1.0
 10
-9.453917078459908
 20
49.45709965144354
 30
0.0
 10
-9.604970170166077
 20
49.36980994897648
 30
0.0
 10
-9.83329861642545
 20
49.23786480363966
 30
0.0
 10
-10.06163514659313
 20
49.10593388737827
 30
0.0
 10
-10.13891323705984
 20
49.06128326018902
 30
0.0
  0
SPLINE
  5
86
330
1F
100
AcDbEntity
  8
0
  6
Continuous
 62
     7
370
    25
100
AcDbSpline
210
0.0
220
0.0
230
1.0
 70
     8
 71
     3
 72
     9
 73
     5
 74
     0
 42
0.000000001
 43
0.00000001
 40
0.0
 40
0.0
 40
0.0
 40
0.0
 40
0.6540663313216983
 40
1.0
 40
1.0
 40
1.0
 40
1.0
 10
-9.453917078459897
 20
50.75709965144355
 30
0.0
 10
-9.604970183525738
 20
50.66980997249182
 30
0.0
 10
-9.835914810748186
 20
50.53635305111911
 30
0.0
 10
-10.06686761450343
 20
50.40291052185693
 30
0.0
 10
-10.14676196519802
 20
50.35674825815155
 30
0.0
  0
SPLINE
  5
87
330
1F
100
AcDbEntity
  8
0
  6
Continuous
 62
     7
370
    25
100
AcDbSpline
210
0.0
220
0.0
230
1.0
 70
     8
 71
     3
 72
     9
 73
     5
 74
     0
 42
0.000000001
 43
0.00000001
 40
0.0
 40
0.0
 40
0.0
 40
0.0
 40
0.6704760339720376
 40
1.0
 40
1.0
 40
1.0
 40
1.0
 10
-9.45391707845989
 20
52.05709965144356
 30
0.0
 10
-9.604970154272733
 20
51.96980992100151
 30
0.0
 10
-9.830262436411397
 20
51.83961924151526
 30
0.0
 10
-10.05556269496463
 20
51.70944260189685
 30
0.0
 10
-10.12980452971021
 20
51.6665462793256
 30
0.0
  0
SPLINE
  5
88
330
1F
100
AcDbEntity
  8
0
  6
Continuous
 62
     7
370
    25
100
AcDbSpline
210
0.0
220
0.0
230
1.0
 70
     8
 71
     3
 72
     9
 73
     5
 74
     0
 42
0.000000001
 43
0.00000001
 40
0.0
 40
0.0
 40
0.0
 40
0.0
 40
0.6725628047862772
 40
1.0
 40
1.0
 40
1.0
 40
1.0
 10
-9.453917078459883
 20
53.35709965144355
 30
0.0
 10
-9.604970150552708
 20
53.26980991445362
 30
0.0
 10
-9.829563409379785
 20
53.14002316982734
 30
0.0
 10
-10.05416461987289
 20
53.0102504215072
 30
0.0
 10
-10.12770741027835
 20
52.96775799678208
 30
0.0
  0
SPLINE
  5
89
330
1F
100
AcDbEntity
  8
0
  6
Continuous
 62
     7
370
    25
100
AcDbSpline
210
0.0
220
0.0
230
1.0
 70
     8
 71
     3
 72
     9
 73
     5
 74
     0
 42
0.000000001
 43
0.00000001
 40
0.0
 40
0.0
 40
0.0
 40
0.0
 40
0.6660284441289196
 40
1.0
 40
1.0
 40
1.0
 40
1.0
 10
-9.453917078459872
 20
54.65709965144355
 30
0.0
 10
-9.604970162201278
 20
54.56980993495714
 30
0.0
 10
-9.831766908005374
 20
54.43874989201772
 30
0.0
 10
-10.05857168348875
 20
54.30770398270121
 30
0.0
 10
-10.13431802723593
 20
54.26393837647626
 30
0.0
  0
SPLINE
  5
8A
330
1F
100
AcDbEntity
  8
0
  6
Continuous
 62
     7
370
    25
100
AcDbSpline
210
0.0
220
0.0
230
1.0
 70
     8
 71
     3
 72
     9
 73
     5
 74
     0
 42
0.000000001
 43
0.00000001
 40
0.0
 40
0.0
 40
0.0
 40
0.0
 40
0.369468241412949
 40
1.0
 40
1.0
 40
1.0
 40
1.0
 10
9.9154317928031
 20
47.15248119612404
 30
0.0
 10
9.842809620482944
 20
47.19528140185625
 30
0.0
 10
9.646250987885924
 20
47.31112412102622
 30
0.0
 10
9.449797502820699
 20
47.42696899945499
 30
0.0
 10
9.32592734140197
 20
47.50001287437399
 30
0.0
  0
SPLINE
  5
8B
330
1F
100
AcDbEntity
  8
0
  6
Continuous
 62
     7
370
    25
100
AcDbSpline
210
0.0
220
0.0
230
1.0
 70
     8
 71
     3
 72
     9
 73
     5
 74
     0
 42
0.000000001
 43
0.00000001
 40
0.0
 40
0.0
 40
0.0
 40
0.0
 40
0.380575285930086
 40
1.0
 40
1.0
 40
1.0
 40
1.0
 10
9.926004707968968
 20
48.44624957589694
 30
0.0
 10
9.84985784758026
 20
48.49112698050615
 30
0.0
 10
9.649774281453224
 20
48.60904689351242
 30
0.0
 10
9.449797748282155
 20
48.72696900449566
 30
0.0
 10
9.325927341401973
 20
48.80001287437398
 30
0.0
  0
SPLINE
  5
8C
330
1F
100
AcDbEntity
  8
0
  6
Continuous
 62
     7
370
    25
100
AcDbSpline
210
0.0
220
0.0
230
1.0
 70
     8
 71
     3
 72
     9
 73
     5
 74
     0
 42
0.000000001
 43
0.00000001
 40
0.0
 40
0.0
 40
0.0
 40
0.0
 40
0.3750643191818259
 40
1.0
 40
1.0
 40
1.0
 40
1.0
 10
9.920711783822277
 20
49.74936919736894
 30
0.0
 10
9.846329424313947
 20
49.79320673211404
 30
0.0
 10
9.648010480857549
 20
49.91008677775723
 30
0.0
 10
9.449797626491897
 20
50.02696900199464
 30
0.0
 10
9.325927341401986
 20
50.10001287437397
 30
0.0
  0
SPLINE
  5
8D
330
1F
100
AcDbEntity
  8
0
  6
Continuous
 62
     7
370
    25
100
AcDbSpline
210
0.0
220
0.0
230
1.0
 70
     8
 71
     3
 72
     9
 73
     5
 74
     0
 42
0.000000001
 43
0.00000001
 40
0.0
 40
0.0
 40
0.0
 40
0.0
 40
0.3792273023807473
 40
1.0
 40
1.0
 40
1.0
 40
1.0
 10
9.924701375588056
 20
51.04701775310258
 30
0.0
 10
9.848989007009024
 20
51.09163909962244
 30
0.0
 10
9.649339962481594
 20
51.20930295515111
 30
0.0
 10
9.449797718492254
 20
51.32696900388392
 30
0.0
 10
9.325927341401993
 20
51.40001287437399
 30
0.0
  0
SPLINE
  5
8E
330
1F
100
AcDbEntity
  8
0
  6
Continuous
 62
     7
370
    25
100
AcDbSpline
210
0.0
220
0.0
230
1.0
 70
     8
 71
     3
 72
     9
 73
     5
 74
     0
 42
0.000000001
 43
0.00000001
 40
0.0
 40
0.0
 40
0.0
 40
0.0
 40
0.3974744642994137
 40
1.0
 40
1.0
 40
1.0
 40
1.0
 10
9.942838940950791
 20
52.33632756809571
 30
0.0
 10
9.861080042373885
 20
52.38451229575891
 30
0.0
 10
9.65538406459324
 20
52.50573952414986
 30
0.0
 10
9.449798121747587
 20
52.62696901216498
 30
0.0
 10
9.325927341402
 20
52.70001287437398
 30
0.0
  0
SPLINE
  5
8F
330
1F
100
AcDbEntity
  8
0
  6
Continuous
 62
     7
370
    25
100
AcDbSpline
210
0.0
220
0.0
230
1.0
 70
     8
 71
     3
 72
     9
 73
     5
 74
     0
 42
0.000000001
 43
0.00000001
 40
0.0
 40
0.0
 40
0.0
 40
0.0
 40
0.3850155937861708
 40
1.0
 40
1.0
 40
1.0
 40
1.0
 10
9.930338341460795
 20
53.64369535525856
 30
0.0
 10
9.8527467771043
 20
53.68942416347243
 30
0.0
 10
9.651218408880371
 20
53.80819547806823
 30
0.0
 10
9.449797846411307
 20
53.9269690065108
 30
0.0
 10
9.325927341402016
 20
54.00001287437398
 30
0.0
  0
SPLINE
  5
90
330
1F
100
AcDbEntity
  8
0
  6
Continuous
 62
     7
370
    25
100
AcDbSpline
210
0.0
220
0.0
230
1.0
 70
     8
 71
     3
 72
     9
 73
     5
 74
     0
 42
0.000000001
 43
0.00000001
 40
0.0
 40
0.0
 40
0.0
 40
0.0
 40
0.6676897934681686
 40
1.0
 40
1.0
 40
1.0
 40
1.0
 10
-9.453917078459925
 20
46.85709965144355
 30
0.0
 10
-9.604970159239702
 20
46.76980992974415
 30
0.0
 10
-9.83120258372408
 20
46.63907598330176
 30
0.0
 10
-10.05744301790824
 20
46.50835613531497
 30
0.0
 10
-10.13262502331784
 20
46.46491659563267
 30
0.0
  0
SPLINE
  5
91
330
1F
100
AcDbEntity
  8
0
  6
Continuous
 62
     7
370
    25
100
AcDbSpline
210
0.0
220
0.0
230
1.0
 70
     8
 71
     3
 72
     9
 73
     5
 74
     0
 42
0.000000001
 43
0.00000001
 40
0.0
 40
0.0
 40
0.0
 40
0.0
 40
0.3318834159685757
 40
0.9999999999999999
 40
0.9999999999999999
 40
0.9999999999999999
 40
0.9999999999999999
 10
-10.12698210997419
 20
48.53181493368114
 30
0.0
 10
-10.05387750683177
 20
48.48957965282963
 30
0.0
 10
-9.833605569081978
 20
48.36232026347971
 30
0.0
 10
-9.613341438184355
 20
48.23504713137385
 30
0.0
 10
-9.466179319464384
 20
48.1500138411123
 30
0.0
  0
SPLINE
  5
92
330
1F
100
AcDbEntity
  8
0
  6
Continuous
 62
     7
370
    25
100
AcDbSpline
210
0.0
220
0.0
230
1.0
 70
     8
 71
     3
 72
     9
 73
     5
 74
     0
 42
0.000000001
 43
0.00000001
 40
0.0
 40
0.0
 40
0.0
 40
0.0
 40
0.3343907820309404
 40
0.9999999999999999
 40
0.9999999999999999
 40
0.9999999999999999
 40
0.9999999999999999
 10
-10.12947140940451
 20
49.83325311847808
 30
0.0
 10
-10.05553703434183
 20
49.79053845227666
 30
0.0
 10
-9.83443532031239
 20
49.66279968525086
 30
0.0
 10
-9.613341442543726
 20
49.53504712369983
 30
0.0
 10
-9.466179319464377
 20
49.45001384111229
 30
0.0
  0
SPLINE
  5
93
330
1F
100
AcDbEntity
  8
0
  6
Continuous
 62
     7
370
    25
100
AcDbSpline
210
0.0
220
0.0
230
1.0
 70
     8
 71
     3
 72
     9
 73
     5
 74
     0
 42
0.000000001
 43
0.00000001
 40
0.0
 40
0.0
 40
0.0
 40
0.0
 40
0.3466680680387897
 40
1.0
 40
1.0
 40
1.0
 40
1.0
 10
-10.14193606078681
 20
51.14045453101166
 30
0.0
 10
-10.06384677418985
 20
51.09533944279801
 30
0.0
 10
-9.838590127280485
 20
50.96520029133569
 30
0.0
 10
-9.613341463889364
 20
50.83504708612411
 30
0.0
 10
-9.466179319464365
 20
50.7500138411123
 30
0.0
  0
SPLINE
  5
94
330
1F
100
AcDbEntity
  8
0
  6
Continuous
 62
     7
370
    25
100
AcDbSpline
210
0.0
220
0.0
230
1.0
 70
     8
 71
     3
 72
     9
 73
     5
 74
     0
 42
0.000000001
 43
0.00000001
 40
0.0
 40
0.0
 40
0.0
 40
0.0
 40
0.3473526488946955
 40
1.0
 40
1.0
 40
1.0
 40
1.0
 10
-10.14264489269881
 20
52.44086405638533
 30
0.0
 10
-10.06431932719669
 20
52.39561246253238
 30
0.0
 10
-9.838826400191946
 20
52.26533680752596
 30
0.0
 10
-9.61334146507959
 20
52.1350470840289
 30
0.0
 10
-9.466179319464356
 20
52.0500138411123
 30
0.0
  0
SPLINE
  5
95
330
1F
100
AcDbEntity
  8
0
  6
Continuous
 62
     7
370
    25
100
AcDbSpline
210
0.0
220
0.0
230
1.0
 70
     8
 71
     3
 72
     9
 73
     5
 74
     0
 42
0.000000001
 43
0.00000001
 40
0.0
 40
0.0
 40
0.0
 40
0.0
 40
0.3340225687164598
 40
1.0
 40
1.0
 40
1.0
 40
1.0
 10
-10.12910467502499
 20
53.7330412388614
 30
0.0
 10
-10.05529254555949
 20
53.69039719778351
 30
0.0
 10
-9.834313077767424
 20
53.56272905475433
 30
0.0
 10
-9.613341441903515
 20
53.43504712482677
 30
0.0
 10
-9.466179319464347
 20
53.35001384111229
 30
0.0
  0
SPLINE
  5
96
330
1F
100
AcDbEntity
  8
0
  6
Continuous
 62
     7
370
    25
100
AcDbSpline
210
0.0
220
0.0
230
1.0
 70
     8
 71
     3
 72
     9
 73
     5
 74
     0
 42
0.000000001
 43
0.00000001
 40
0.0
 40
0.0
 40
0.0
 40
0.0
 40
0.3460652849543044
 40
1.0
 40
1.0
 40
1.0
 40
1.0
 10
-10.14131315300774
 20
55.04009464803141
 30
0.0
 10
-10.06343150374212
 20
54.99509951833792
 30
0.0
 10
-9.838382495212112
 20
54.86508032355089
 30
0.0
 10
-9.61334146284132
 20
54.735047087969
 30
0.0
 10
-9.466179319464338
 20
54.65001384111229
 30
0.0
  0
SPLINE
  5
97
330
1F
100
AcDbEntity
  8
0
  6
Continuous
 62
     7
370
    25
100
AcDbSpline
210
0.0
220
0.0
230
1.0
 70
     8
 71
     3
 72
     9
 73
     5
 74
     0
 42
0.000000001
 43
0.00000001
 40
0.0
 40
0.0
 40
0.0
 40
0.0
 40
0.6447147342492122
 40
1.0
 40
1.0
 40
1.0
 40
1.0
 10
9.253844949307224
 20
48.75751617888027
 30
0.0
 10
9.401931214206146
 20
48.84483191191938
 30
0.0
 10
9.631623909334904
 20
48.98026503978292
 30
0.0
 10
9.86143969431926
 20
49.11569564005541
 30
0.0
 10
9.943089856561157
 20
49.16381213686401
 30
0.0
  0
SPLINE
  5
98
330
1F
100
AcDbEntity
  8
0
  6
Continuous
 62
     7
370
    25
100
AcDbSpline
210
0.0
220
0.0
230
1.0
 70
     8
 71
     3
 72
     9
 73
     5
 74
     0
 42
0.000000001
 43
0.00000001
 40
0.0
 40
0.0
 40
0.0
 40
0.0
 40
0.6591550483562665
 40
0.9999999999999999
 40
0.9999999999999999
 40
0.9999999999999999
 40
0.9999999999999999
 10
9.253844949307233
 20
50.05751617888027
 30
0.0
 10
9.401930832222092
 20
50.14483191976321
 30
0.0
 10
9.626590998724865
 20
50.27729808398468
 30
0.0
 10
9.851371558515595
 20
50.40976177598776
 30
0.0
 10
9.927986877547918
 20
50.45491135668312
 30
0.0
  0
SPLINE
  5
99
330
1F
100
AcDbEntity
  8
0
  6
Continuous
 62
     7
370
    25
100
AcDbSpline
210
0.0
220
0.0
230
1.0
 70
     8
 71
     3
 72
     9
 73
     5
 74
     0
 42
0.000000001
 43
0.00000001
 40
0.0
 40
0.0
 40
0.0
 40
0.0
 40
0.6669114533667951
 40
1.0
 40
1.0
 40
1.0
 40
1.0
 10
9.253844949307243
 20
51.35751617888026
 30
0.0
 10
9.401930627044912
 20
51.44483192397644
 30
0.0
 10
9.62397761242818
 20
51.57575746837276
 30
0.0
 10
9.846143590884884
 20
51.70668056930342
 30
0.0
 10
9.920144533760372
 20
51.75028955471313
 30
0.0
  0
SPLINE
  5
9A
330
1F
100
AcDbEntity
  8
0
  6
Continuous
 62
     7
370
    25
100
AcDbSpline
210
0.0
220
0.0
230
1.0
 70
     8
 71
     3
 72
     9
 73
     5
 74
     0
 42
0.000000001
 43
0.00000001
 40
0.0
 40
0.0
 40
0.0
 40
0.0
 40
0.66070933488538
 40
1.0
 40
1.0
 40
1.0
 40
1.0
 10
9.253844949307252
 20
52.65751617888027
 30
0.0
 10
9.401930791107175
 20
52.7448319206075
 30
0.0
 10
9.6260623932823
 20
52.87698646590751
 30
0.0
 10
9.850314105526033
 20
53.00913854480491
 30
0.0
 10
9.926400618126303
 20
53.05397651155027
 30
0.0
  0
SPLINE
  5
9B
330
1F
100
AcDbEntity
  8
0
  6
Continuous
 62
     7
370
    25
100
AcDbSpline
210
0.0
220
0.0
230
1.0
 70
     8
 71
     3
 72
     9
 73
     5
 74
     0
 42
0.000000001
 43
0.00000001
 40
0.0
 40
0.0
 40
0.0
 40
0.0
 40
0.6698648933209541
 40
1.0
 40
1.0
 40
1.0
 40
1.0
 10
9.25384494930726
 20
53.95751617888027
 30
0.0
 10
9.401930548918724
 20
54.04483192558072
 30
0.0
 10
9.622998410644259
 20
54.17518022054449
 30
0.0
 10
9.84418474080176
 20
54.30552608281586
 30
0.0
 10
9.91720611350425
 20
54.34855782796198
 30
0.0
  0
SPLINE
  5
9C
330
1F
100
AcDbEntity
  8
0
  6
Continuous
 62
     7
370
    25
100
AcDbSpline
210
0.0
220
0.0
230
1.0
 70
     8
 71
     3
 72
     9
 73
     5
 74
     0
 42
0.000000001
 43
0.00000001
 40
0.0
 40
0.0
 40
0.0
 40
0.0
 40
0.7854170053861703
 40
1.0
 40
1.0
 40
1.0
 40
1.0
 10
9.253844949307268
 20
55.25751617888028
 30
0.0
 10
9.401927492263264
 20
55.34483198834768
 30
0.0
 10
9.590467518695702
 20
55.45600326280267
 30
0.0
 10
9.77910858424874
 20
55.56717246246787
 30
0.0
 10
9.819587749002258
 20
55.59102748224083
 30
0.0
  0
SPLINE
  5
9D
330
1F
100
AcDbEntity
  8
0
  6
Continuous
 62
     7
370
    25
100
AcDbSpline
210
0.0
220
0.0
230
1.0
 70
     8
 71
     3
 72
     9
 73
     5
 74
     0
 42
0.000000001
 43
0.00000001
 40
0.0
 40
0.0
 40
0.0
 40
0.0
 40
0.6612784406273429
 40
0.9999999999999999
 40
0.9999999999999999
 40
0.9999999999999999
 40
0.9999999999999999
 10
9.253844949307215
 20
47.45751617888028
 30
0.0
 10
9.40193077605279
 20
47.54483192091663
 30
0.0
 10
9.625869464580262
 20
47.67687273258067
 30
0.0
 10
9.849928159807915
 20
47.80891107996477
 30
0.0
 10
9.925821670446426
 20
47.85363531488769
 30
0.0
  0
SPLINE
  5
9E
330
1F
100
AcDbEntity
  8
0
  6
Continuous
 62
     7
370
    25
100
AcDbSpline
210
0.0
220
0.0
230
1.0
 70
     8
 71
     3
 72
     9
 73
     5
 74
     0
 42
0.000000001
 43
0.00000001
 40
0.0
 40
0.0
 40
0.0
 40
0.0
 40
0.3407571151354599
 40
1.0
 40
1.0
 40
1.0
 40
1.0
 10
-10.13587694657339
 20
47.23695389712302
 30
0.0
 10
-10.05980737829809
 20
47.19300566295998
 30
0.0
 10
-9.836570459987351
 20
47.06403334745729
 30
0.0
 10
-9.613341453612437
 20
46.93504710421512
 30
0.0
 10
-9.466179319464393
 20
46.85001384111229
 30
0.0
  0
SPLINE
  5
A3
330
1F
100
AcDbEntity
  8
0
  6
Continuous
 62
     7
370
    25
100
AcDbSpline
210
0.0
220
0.0
230
1.0
 70
     8
 71
     3
 72
    27
 73
    23
 74
     0
 42
0.000000001
 43
0.00000001
 40
0.0
 40
0.0
 40
0.0
 40
0.0
 40
0.014449846689614
 40
0.0680057609659448
 40
0.1230996249205681
 40
0.1767782682695745
 40
0.2320078930889122
 40
0.2857205410016097
 40
0.3410005947697872
 40
0.3945671786445787
 40
0.4497045469708616
 40
0.5030624228784921
 40
0.5579819550815694
 40
0.6112040869065357
 40
0.6659740104870656
 40
0.7191661835801316
 40
0.7738898997251764
 40
0.8272149566005313
 40
0.8820634036459355
 40
0.9356620689100246
 40
0.9907913859042421
 40
1.0
 40
1.0
 40
1.0
 40
1.0
 10
-10.1254545034415
 20
46.4525054758658
 30
0.0
 10
-10.12891580720841
 20
46.45548535782765
 30
0.0
 10
-10.14520584831812
 20
46.4695096685874
 30
0.0
 10
-9.885072791977292
 20
46.49590072723013
 30
0.0
 10
-9.348727059020796
 20
46.52950110784347
 30
0.0
 10
-8.513323571627415
 20
46.56465695187562
 30
0.0
 10
-7.451094027045174
 20
46.59561458226668
 30
0.0
 10
-6.160669744481346
 20
46.62700965416677
 30
0.0
 10
-4.708542742776944
 20
46.6592114521932
 30
0.0
 10
-3.108027210782683
 20
46.69247205078128
 30
0.0
 10
-1.436765021500749
 20
46.72609056742219
 30
0.0
 10
0.2891015071922255
 20
46.75729186512049
 30
0.0
 10
1.987415132451101
 20
46.79175833921734
 30
0.0
 10
3.643887666499529
 20
46.82718531356438
 30
0.0
 10
5.180049311709558
 20
46.86509080246987
 30
0.0
 10
6.583308827780164
 20
46.90249954676126
 30
0.0
 10
7.789849596491
 20
46.93837133211007
 30
0.0
 10
8.78462619377022
 20
46.97745268086987
 30
0.0
 10
9.534477618180288
 20
47.01565719428888
 30
0.0
 10
9.992118216599348
 20
47.05525941273054
 30
0.0
 10
10.19069166315027
 20
47.08069965892019
 30
0.0
 10
10.14621838384849
 20
47.09390330066726
 30
0.0
 10
10.13985297452114
 20
47.09579312272787
 30
0.0
  0
SPLINE
  5
A4
330
1F
100
AcDbEntity
  8
0
  6
Continuous
 62
     7
370
    25
100
AcDbSpline
210
0.0
220
0.0
230
1.0
 70
     8
 71
     3
 72
    28
 73
    24
 74
     0
 42
0.000000001
 43
0.00000001
 40
0.0
 40
0.0
 40
0.0
 40
0.0
 40
0.0227288582082077
 40
0.0734955397013216
 40
0.1257298257498758
 40
0.1764424097588055
 40
0.2286349335178838
 40
0.2790635297029847
 40
0.3309753306880067
 40
0.3810104615198286
 40
0.4325234727626359
 40
0.4821510573399619
 40
0.5332344343194585
 40
0.5826845913158614
 40
0.6335699790797604
 40
0.6831006418038839
 40
0.7340468511532536
 40
0.7839543936890592
 40
0.8352720987461802
 40
0.885737379948057
 40
0.9376256723221382
 40
0.9887076969027907
 40
1.0
 40
1.0
 40
1.0
 40
1.0
 10
-10.1176127849517
 20
47.75223032564816
 30
0.0
 10
-10.11756530259683
 20
47.75725717079946
 30
0.0
 10
-10.11741176469074
 20
47.77351186753812
 30
0.0
 10
-9.807417492776427
 20
47.79945844678585
 30
0.0
 10
-9.209852176904949
 20
47.82902842935208
 30
0.0
 10
-8.319333670464355
 20
47.85788413195741
 30
0.0
 10
-7.204624354797629
 20
47.88144263579925
 30
0.0
 10
-5.867395420963548
 20
47.90726910301438
 30
0.0
 10
-4.380399329842862
 20
47.9335985098457
 30
0.0
 10
-2.754510950566655
 20
47.96326613546587
 30
0.0
 10
-1.073141927328169
 20
47.99379553679728
 30
0.0
 10
0.6504141498607516
 20
48.02486033306577
 30
0.0
 10
2.332783088222948
 20
48.06133181025486
 30
0.0
 10
3.962713875378034
 20
48.10038821675455
 30
0.0
 10
5.463874319581404
 20
48.14351466285341
 30
0.0
 10
6.826131657295825
 20
48.18624828635271
 30
0.0
 10
7.987503432152992
 20
48.22905976033439
 30
0.0
 10
8.93738568586945
 20
48.27413294592171
 30
0.0
 10
9.632450705035323
 20
48.3178256647685
 30
0.0
 10
10.06688579778933
 20
48.36081472724321
 30
0.0
 10
10.1937821680297
 20
48.39604023310595
 30
0.0
 10
10.13772483051238
 20
48.42103783047315
 30
0.0
 10
9.953068960336562
 20
48.43281943777342
 30
0.0
 10
9.9196386993248
 20
48.4349523903127
 30
0.0
  0
SPLINE
  5
A5
330
1F
100
AcDbEntity
  8
0
  6
Continuous
 62
     7
370
    25
100
AcDbSpline
210
0.0
220
0.0
230
1.0
 70
     8
 71
     3
 72
    27
 73
    23
 74
     0
 42
0.000000001
 43
0.00000001
 40
0.0
 40
0.0
 40
0.0
 40
0.0
 40
0.0095946399372012
 40
0.0655129507405385
 40
0.1202235795046349
 40
0.1765560102577831
 40
0.2307470567086114
 40
0.2865506786295151
 40
0.3400522564383291
 40
0.3951387571773784
 40
0.4479879523684137
 40
0.5023831732711849
 40
0.5548804194630531
 40
0.6088953839567524
 40
0.6614369538218564
 40
0.7154889612208997
 40
0.768331071181026
 40
0.822675178685151
 40
0.8761813896847949
 40
0.9312022391326563
 40
0.9854832990985608
 40
1.0
 40
1.0
 40
1.0
 40
1.0
 10
-10.13356043754787
 20
49.05201805162651
 30
0.0
 10
-10.13681461339234
 20
49.05406392066359
 30
0.0
 10
-10.15903438017832
 20
49.06803327421155
 30
0.0
 10
-9.91461009655704
 20
49.09002818485209
 30
0.0
 10
-9.386563047096896
 20
49.11677686690155
 30
0.0
 10
-8.558757871741578
 20
49.14133112085202
 30
0.0
 10
-7.482107018647418
 20
49.16068540831361
 30
0.0
 10
-6.200006118739403
 20
49.17978864853015
 30
0.0
 10
-4.730386802005727
 20
49.2016132131466
 30
0.0
 10
-3.148293860717784
 20
49.22617186710093
 30
0.0
 10
-1.466387127624114
 20
49.2549563246638
 30
0.0
 10
0.2316854635979168
 20
49.28422822945319
 30
0.0
 10
1.93439767626579
 20
49.32102952265499
 30
0.0
 10
3.564071792850903
 20
49.36154582826298
 30
0.0
 10
5.106431648880169
 20
49.40810734117157
 30
0.0
 10
6.494799088863854
 20
49.45587827625392
 30
0.0
 10
7.714924602917573
 20
49.50345496452098
 30
0.0
 10
8.712218125782238
 20
49.55343341252672
 30
0.0
 10
9.484508459079636
 20
49.60187282175851
 30
0.0
 10
9.963077616063357
 20
49.64841172322512
 30
0.0
 10
10.18065461826512
 20
49.67889754987552
 30
0.0
 10
10.13967168971205
 20
49.69248531577716
 30
0.0
 10
10.13102406937718
 20
49.69535240812183
 30
0.0
  0
SPLINE
  5
A6
330
1F
100
AcDbEntity
  8
0
  6
Continuous
 62
     7
370
    25
100
AcDbSpline
210
0.0
220
0.0
230
1.0
 70
     8
 71
     3
 72
    27
 73
    23
 74
     0
 42
0.000000001
 43
0.00000001
 40
0.0
 40
0.0
 40
0.0
 40
0.0
 40
0.0475692821328089
 40
0.1006299708260318
 40
0.1522074997189038
 40
0.2053289451377298
 40
0.2560862277939532
 40
0.3083730193540983
 40
0.3582235992878373
 40
0.409569605775917
 40
0.4586880020361422
 40
0.5092523493739065
 40
0.5580792436079561
 40
0.6083074538757184
 40
0.6573642760518825
 40
0.7077985303564421
 40
0.7575638688284602
 40
0.8087173930652101
 40
0.859421085307742
 40
0.9115555551753943
 40
0.9630004918797096
 40
1.0
 40
1.0
 40
1.0
 40
1.0
 10
-10.14408887536904
 20
50.35212266280528
 30
0.0
 10
-10.1068029433543
 20
50.36210282420623
 30
0.0
 10
-10.02792678456785
 20
50.38321525865103
 30
0.0
 10
-9.54605356751976
 20
50.40747313473559
 30
0.0
 10
-8.784158961587412
 20
50.4301218177102
 30
0.0
 10
-7.766095752797447
 20
50.44719204333818
 30
0.0
 10
-6.511458581884699
 20
50.46204669096235
 30
0.0
 10
-5.08947825463985
 20
50.48038066954014
 30
0.0
 10
-3.512509017017707
 20
50.5015030741722
 30
0.0
 10
-1.864273323403471
 20
50.52809648051546
 30
0.0
 10
-0.1554775010582849
 20
50.55673323345922
 30
0.0
 10
1.530186360382153
 20
50.59185462897993
 30
0.0
 10
3.183833520075782
 20
50.63353236273063
 30
0.0
 10
4.731893182040067
 20
50.68050320985165
 30
0.0
 10
6.161903094327055
 20
50.73174583261868
 30
0.0
 10
7.417101485350143
 20
50.78166111798288
 30
0.0
 10
8.478236245376461
 20
50.83485962879547
 30
0.0
 10
9.305104754824459
 20
50.88606277780826
 30
0.0
 10
9.879454007374386
 20
50.93618873429978
 30
0.0
 10
10.16403275327717
 20
50.97882403984138
 30
0.0
 10
10.1943788122502
 20
51.00999028372466
 30
0.0
 10
9.998423016213694
 20
51.02594483902523
 30
0.0
 10
9.916447623852441
 20
51.03261920618948
 30
0.0
  0
SPLINE
  5
A7
330
1F
100
AcDbEntity
  8
0
  6
Continuous
 62
     7
370
    25
100
AcDbSpline
210
0.0
220
0.0
230
1.0
 70
     8
 71
     3
 72
    27
 73
    23
 74
     0
 42
0.000000001
 43
0.00000001
 40
0.0
 40
0.0
 40
0.0
 40
0.0
 40
0.035536298676312
 40
0.0872595719652238
 40
0.1405059570273239
 40
0.1917513840749663
 40
0.2445233234819441
 40
0.2949412264631824
 40
0.3468636769255928
 40
0.3964443401884927
 40
0.4474955863676784
 40
0.4965090802719333
 40
0.5469582848871127
 40
0.5958162702447533
 40
0.6460760294188284
 40
0.6953367720372139
 40
0.745985943500911
 40
0.7960485728600483
 40
0.8475121862711956
 40
0.8984433557378719
 40
0.9508045889088255
 40
1.0
 40
1.0
 40
1.0
 40
1.0
 10
-10.12126303886847
 20
51.65176448954481
 30
0.0
 10
-10.10797555576553
 20
51.65942280053174
 30
0.0
 10
-10.07534806975133
 20
51.67822782422829
 30
0.0
 10
-9.682551106117463
 20
51.70141605844542
 30
0.0
 10
-8.9994264366073
 20
51.72374425034189
 30
0.0
 10
-8.030562868879569
 20
51.74197967540795
 30
0.0
 10
-6.843742823413468
 20
51.75537127657803
 30
0.0
 10
-5.445285068425791
 20
51.77297750124801
 30
0.0
 10
-3.916173517455592
 20
51.7922981994319
 30
0.0
 10
-2.264538076051101
 20
51.81823020564052
 30
0.0
 10
-0.5787861678868869
 20
51.84639142848238
 30
0.0
 10
1.132681029192075
 20
51.88022053183087
 30
0.0
 10
2.787325264427977
 20
51.92133620298123
 30
0.0
 10
4.375845467996253
 20
51.96787503618935
 30
0.0
 10
5.828395071377784
 20
52.01922944927684
 30
0.0
 10
7.135520405390039
 20
52.07012814704781
 30
0.0
 10
8.23992674040682
 20
52.12241373485692
 30
0.0
 10
9.12929537048109
 20
52.17461211865312
 30
0.0
 10
9.763636583930312
 20
52.22451738303026
 30
0.0
 10
10.12188233602777
 20
52.26962509108712
 30
0.0
 10
10.21361387293671
 20
52.30461286832875
 30
0.0
 10
10.0300602847546
 20
52.32400355669872
 30
0.0
 10
9.941144445781317
 20
52.33339666822416
 30
0.0
  0
SPLINE
  5
A8
330
1F
100
AcDbEntity
  8
0
  6
Continuous
 62
     7
370
    25
100
AcDbSpline
210
0.0
220
0.0
230
1.0
 70
     8
 71
     3
 72
    28
 73
    24
 74
     0
 42
0.000000001
 43
0.00000001
 40
0.0
 40
0.0
 40
0.0
 40
0.0
 40
0.0228832392583445
 40
0.0758150865497358
 40
0.1272983901081165
 40
0.1803222278826672
 40
0.2310875568467456
 40
0.283375583314771
 40
0.3333610069886585
 40
0.384837561600237
 40
0.4341366576914517
 40
0.4848758628595266
 40
0.5339139837143996
 40
0.5843557450895679
 40
0.633624627557503
 40
0.6842877479145484
 40
0.7341603821500343
 40
0.7854491941732378
 40
0.8359225418754854
 40
0.8878383991613722
 40
0.9387934500517229
 40
0.9912157707187671
 40
1.0
 40
1.0
 40
1.0
 40
1.0
 10
-10.11849564071782
 20
52.95181484156197
 30
0.0
 10
-10.11815025661372
 20
52.95688341903831
 30
0.0
 10
-10.11700595508148
 20
52.97367626185723
 30
0.0
 10
-9.800621552967511
 20
52.99690246997827
 30
0.0
 10
-9.18282653830636
 20
53.02208723166374
 30
0.0
 10
-8.282903520271425
 20
53.04447750398017
 30
0.0
 10
-7.138702917600101
 20
53.061565159323
 30
0.0
 10
-5.803059962412801
 20
53.08140193002282
 30
0.0
 10
-4.29292569538848
 20
53.10328939621489
 30
0.0
 10
-2.685604841527587
 20
53.12998263802629
 30
0.0
 10
-0.9940707174563497
 20
53.159947016925
 30
0.0
 10
0.6994293364508094
 20
53.19205065624033
 30
0.0
 10
2.384116209520351
 20
53.23221211406482
 30
0.0
 10
3.986269911468104
 20
53.27559997790786
 30
0.0
 10
5.490437763994138
 20
53.32470116799817
 30
0.0
 10
6.836794112064293
 20
53.37268095711484
 30
0.0
 10
8.005466814061153
 20
53.4210647049135
 30
0.0
 10
8.948067817679325
 20
53.47004461913793
 30
0.0
 10
9.646516929416997
 20
53.5171002325355
 30
0.0
 10
10.07391095902803
 20
53.56140919915743
 30
0.0
 10
10.19346637060949
 20
53.59726965283189
 30
0.0
 10
10.13502087716247
 20
53.62166560381173
 30
0.0
 10
9.951559184051153
 20
53.63299162325016
 30
0.0
 10
9.92522916581005
 20
53.63461710862182
 30
0.0
  0
SPLINE
  5
A9
330
1F
100
AcDbEntity
  8
0
  6
Continuous
 62
     7
370
    25
100
AcDbSpline
210
0.0
220
0.0
230
1.0
 70
     8
 71
     3
 72
    26
 73
    22
 74
     0
 42
0.000000001
 43
0.00000001
 40
0.0
 40
0.0
 40
0.0
 40
0.0
 40
0.0128530573927077
 40
0.0672546938253044
 40
0.1232398877411573
 40
0.1773761002595692
 40
0.2331032771594718
 40
0.2868110065613974
 40
0.3421074293009059
 40
0.3953092984650704
 40
0.4500778690687955
 40
0.502982455045072
 40
0.5574286641456034
 40
0.610332802998908
 40
0.6647575689191474
 40
0.7179526410253869
 40
0.7726629543789814
 40
0.8262530211829956
 40
0.8813753335116551
 40
0.9396902488773508
 40
1.0
 40
1.0
 40
1.0
 40
1.0
 10
-10.1275196409979
 20
54.2521712015854
 30
0.0
 10
-10.13123699602216
 20
54.25486530559738
 30
0.0
 10
-10.15068836594587
 20
54.26896242933405
 30
0.0
 10
-9.894186335979368
 20
54.29310073222833
 30
0.0
 10
-9.358173582277061
 20
54.32317661727645
 30
0.0
 10
-8.516087362678395
 20
54.35370487769026
 30
0.0
 10
-7.447626998995576
 20
54.37980333986188
 30
0.0
 10
-6.150681180837266
 20
54.40711726510006
 30
0.0
 10
-4.697667098336153
 20
54.43650074465467
 30
0.0
 10
-3.099525641820818
 20
54.46868110215779
 30
0.0
 10
-1.436232324194493
 20
54.50296828582729
 30
0.0
 10
0.2795563148965994
 20
54.53622301467947
 30
0.0
 10
1.967663926592584
 20
54.57414484834408
 30
0.0
 10
3.615174789018033
 20
54.61372534274317
 30
0.0
 10
5.147691740274808
 20
54.6559527581007
 30
0.0
 10
6.551669590111754
 20
54.69720639892267
 30
0.0
 10
7.764049057794099
 20
54.73581408092329
 30
0.0
 10
8.769938553144108
 20
54.77672689878471
 30
0.0
 10
9.538688962661691
 20
54.81672347469505
 30
0.0
 10
10.05855771300138
 20
54.85874094414064
 30
0.0
 10
10.1258067505702
 20
54.88339829651353
 30
0.0
 10
10.1599967115545
 20
54.89593429622566
 30
0.0
  0
SPLINE
  5
AB
330
1F
100
AcDbEntity
  8
0
  6
Continuous
 62
     7
370
    25
100
AcDbSpline
210
0.0
220
0.0
230
1.0
 70
    24
 71
     3
 72
     9
 73
     5
 74
     0
 42
0.000000001
 43
0.00000001
 40
0.3883733643164735
 40
0.3883733643164735
 40
0.3883733643164735
 40
0.3883733643164735
 40
0.4375
 40
0.5
 40
0.5
 40
0.5
 40
0.5
 10
-7.761799024157875
 20
55.20000000000008
 30
0.0
 10
-8.435991930595373
 20
55.20000000000002
 30
0.0
 10
-9.688158907183642
 20
55.19999999999967
 30
0.0
 10
-10.15999999999956
 20
55.20000000000014
 30
0.0
 10
-10.15999999999961
 20
55.20000000000015
 30
0.0
  0
SPLINE
  5
AC
330
1F
100
AcDbEntity
  8
0
  6
Continuous
 62
     7
370
    25
100
AcDbSpline
210
0.0
220
0.0
230
1.0
 70
     8
 71
     3
 72
    12
 73
     8
 74
     0
 42
0.000000001
 43
0.00000001
 40
0.0
 40
0.0
 40
0.0
 40
0.0
 40
0.1812505589767388
 40
0.3655046593190607
 40
0.6017553273247411
 40
0.8448467730875017
 40
0.9999999999999999
 40
0.9999999999999999
 40
0.9999999999999999
 40
0.9999999999999999
 10
-7.761799024157877
 20
55.20000000000011
 30
0.0
 10
-8.027456066927897
 20
55.19142272912071
 30
0.0
 10
-8.563172411536945
 20
55.17412605159124
 30
0.0
 10
-9.257115528563181
 20
55.14514543087615
 30
0.0
 10
-9.810862708779958
 20
55.11139325788114
 30
0.0
 10
-10.13094958541131
 20
55.07973307365322
 30
0.0
 10
-10.12900402275457
 20
55.06137184813512
 30
0.0
 10
-10.1282460456991
 20
55.05421844826648
 30
0.0
  0
SPLINE
  5
AD
330
1F
100
AcDbEntity
  8
0
  6
Continuous
 62
     7
370
    25
100
AcDbSpline
210
0.0
220
0.0
230
1.0
 70
     8
 71
     3
 72
    27
 73
    23
 74
     0
 42
0.000000001
 43
0.00000001
 40
0.0
 40
0.0
 40
0.0
 40
0.0
 40
0.0379444852517198
 40
0.0914376027603277
 40
0.1464750251090628
 40
0.1999627920644381
 40
0.2550089871107272
 40
0.3082300405851444
 40
0.363013119415286
 40
0.4158575499652402
 40
0.4702626645359724
 40
0.5226639211332572
 40
0.5766032392163464
 40
0.6287930889956234
 40
0.6825004067796895
 40
0.7287014005455149
 40
0.7759247684768481
 40
0.8221237873288397
 40
0.8693149361640836
 40
0.922605802630642
 40
0.9774136548495007
 40
1.0
 40
1.0
 40
1.0
 40
1.0
 10
10.1285532057033
 20
54.40433660475504
 30
0.0
 10
10.12708612359941
 20
54.39638727634571
 30
0.0
 10
10.12355078849754
 20
54.37723119797275
 30
0.0
 10
9.78212648159561
 20
54.3484906874073
 30
0.0
 10
9.163488265187075
 20
54.31875656352491
 30
0.0
 10
8.260235855771727
 20
54.28999848429623
 30
0.0
 10
7.13249173625972
 20
54.26654221960826
 30
0.0
 10
5.78477366658112
 20
54.24059130465506
 30
0.0
 10
4.2890852941539
 20
54.21447696159731
 30
0.0
 10
2.656531486154088
 20
54.18494008991223
 30
0.0
 10
0.9709649463493626
 20
54.15494140441171
 30
0.0
 10
-0.7539379596155409
 20
54.12402837097752
 30
0.0
 10
-2.434442129901228
 20
54.08780682274445
 30
0.0
 10
-4.059329197299292
 20
54.04881375419968
 30
0.0
 10
-5.495370807975881
 20
54.00740484987939
 30
0.0
 10
-6.74802043152544
 20
53.96788920580079
 30
0.0
 10
-7.790067413583574
 20
53.93036740289698
 30
0.0
 10
-8.668047211361865
 20
53.890375222968
 30
0.0
 10
-9.394405270133385
 20
53.84989114466929
 30
0.0
 10
-9.90510533290873
 20
53.80714104366693
 30
0.0
 10
-10.1619503622926
 20
53.77498383378493
 30
0.0
 10
-10.13335763756543
 20
53.75920354690197
 30
0.0
 10
-10.12501327621236
 20
53.75459830492998
 30
0.0
  0
SPLINE
  5
AE
330
1F
100
AcDbEntity
  8
0
  6
Continuous
 62
     7
370
    25
100
AcDbSpline
210
0.0
220
0.0
230
1.0
 70
     8
 71
     3
 72
    26
 73
    22
 74
     0
 42
0.000000001
 43
0.00000001
 40
0.0
 40
0.0
 40
0.0
 40
0.0
 40
0.0518629608060098
 40
0.1061085621845689
 40
0.1619461751834143
 40
0.2158118213214898
 40
0.2712736623292414
 40
0.3244271012771125
 40
0.3791563003446287
 40
0.4315925283778849
 40
0.4855769242038303
 40
0.537513067095636
 40
0.5909702296532051
 40
0.6427233179310881
 40
0.6959694021813138
 40
0.7479955822878664
 40
0.8014964687382041
 40
0.8542381079048609
 40
0.9084586351924188
 40
0.9620928859077018
 40
1.0
 40
1.0
 40
1.0
 40
1.0
 10
10.1515093781668
 20
53.10431784152003
 30
0.0
 10
10.12918911632189
 20
53.09369306812456
 30
0.0
 10
10.08352317563631
 20
53.07195540774015
 30
0.0
 10
9.647931843858998
 20
53.04517690159549
 30
0.0
 10
8.94585148649859
 20
53.02088684712358
 30
0.0
 10
7.966813087847149
 20
53.00041638787595
 30
0.0
 10
6.77037661767291
 20
52.98426842685905
 30
0.0
 10
5.365542956530408
 20
52.96422908730769
 30
0.0
 10
3.830270372526362
 20
52.94297270757439
 30
0.0
 10
2.17392515686473
 20
52.91596594543424
 30
0.0
 10
0.4831829819130289
 20
52.88775952524172
 30
0.0
 10
-1.231872079798697
 20
52.85432526137179
 30
0.0
 10
-2.888572183840878
 20
52.81462131197653
 30
0.0
 10
-4.476140196277866
 20
52.76977900469947
 30
0.0
 10
-5.923193356346522
 20
52.72066182243069
 30
0.0
 10
-7.220517623395367
 20
52.67202949033656
 30
0.0
 10
-8.309363501753127
 20
52.62138762569565
 30
0.0
 10
-9.183822248353936
 20
52.57076156206853
 30
0.0
 10
-9.78864899501153
 20
52.52203599882123
 30
0.0
 10
-10.12468030601179
 20
52.48194005004314
 30
0.0
 10
-10.12687873866835
 20
52.46282971547399
 30
0.0
 10
-10.12778910566704
 20
52.45491616039013
 30
0.0
  0
SPLINE
  5
AF
330
1F
100
AcDbEntity
  8
0
  6
Continuous
 62
     7
370
    25
100
AcDbSpline
210
0.0
220
0.0
230
1.0
 70
     8
 71
     3
 72
    26
 73
    22
 74
     0
 42
0.000000001
 43
0.00000001
 40
0.0
 40
0.0
 40
0.0
 40
0.0
 40
0.0375431717456861
 40
0.0934992030516828
 40
0.148038466478297
 40
0.2042130667293007
 40
0.2579229911542669
 40
0.3132528165801661
 40
0.3659970048002409
 40
0.4203230766291391
 40
0.4722227698051594
 40
0.5256461216417356
 40
0.5771672662852129
 40
0.6301653202189035
 40
0.6818862840633214
 40
0.735067450766402
 40
0.7874780803357742
 40
0.8413651938044583
 40
0.8946184414420362
 40
0.9493765961467852
 40
1.0
 40
1.0
 40
1.0
 40
1.0
 10
10.12880664981059
 20
51.80478591538064
 30
0.0
 10
10.12764090460367
 20
51.79690204754681
 30
0.0
 10
10.1247376803224
 20
51.77726770859373
 30
0.0
 10
9.7792563787954
 20
51.75288870933918
 30
0.0
 10
9.140267117621478
 20
51.72998093929457
 30
0.0
 10
8.224720145492679
 20
51.71081439159043
 30
0.0
 10
7.062911923696855
 20
51.69725781330584
 30
0.0
 10
5.7125092516919
 20
51.68059277155542
 30
0.0
 10
4.18986402548886
 20
51.66184781188043
 30
0.0
 10
2.57484968701607
 20
51.63757384068098
 30
0.0
 10
0.8794610876409361
 20
51.60966899777142
 30
0.0
 10
-0.8124701443242793
 20
51.57820677672592
 30
0.0
 10
-2.491408543716575
 20
51.53793074161408
 30
0.0
 10
-4.083368847094588
 20
51.49328246905227
 30
0.0
 10
-5.574206027437485
 20
51.44199519146103
 30
0.0
 10
-6.905553749936338
 20
51.39099712964084
 30
0.0
 10
-8.057467719618925
 20
51.33859790739638
 30
0.0
 10
-8.986149047332269
 20
51.28560641204474
 30
0.0
 10
-9.666567129034645
 20
51.23480648462055
 30
0.0
 10
-10.0867247428923
 20
51.18855040537232
 30
0.0
 10
-10.13042369123175
 20
51.16551733893229
 30
0.0
 10
-10.15141587942882
 20
51.15445266841187
 30
0.0
  0
SPLINE
  5
B0
330
1F
100
AcDbEntity
  8
0
  6
Continuous
 62
     7
370
    25
100
AcDbSpline
210
0.0
220
0.0
230
1.0
 70
     8
 71
     3
 72
    27
 73
    23
 74
     0
 42
0.000000001
 43
0.00000001
 40
0.0
 40
0.0
 40
0.0
 40
0.0
 40
0.0247549510825819
 40
0.0792822651412985
 40
0.1353955682886535
 40
0.1896533078463406
 40
0.2455258125665658
 40
0.2989772007407939
 40
0.3540356303872518
 40
0.4065198471468365
 40
0.4605744744690452
 40
0.5123301855721344
 40
0.5656075869359672
 40
0.6171433988667103
 40
0.6701578170436991
 40
0.7220601347045027
 40
0.7754194850945325
 40
0.8281313046283878
 40
0.8823136650395469
 40
0.9359345632930932
 40
0.9910661089090006
 40
1.0
 40
1.0
 40
1.0
 40
1.0
 10
10.1226261242329
 20
50.50497974829063
 30
0.0
 10
10.13104163390264
 20
50.49960141359455
 30
0.0
 10
10.15799384506676
 20
50.48237631159494
 30
0.0
 10
9.886161923706322
 20
50.45870661361726
 30
0.0
 10
9.328657307336984
 20
50.4347449773306
 30
0.0
 10
8.467022886699167
 20
50.4132691388077
 30
0.0
 10
7.374045814401318
 20
50.39802402037149
 30
0.0
 10
6.051361358277425
 20
50.3812758593161
 30
0.0
 10
4.578349287265018
 20
50.36213017188643
 30
0.0
 10
2.964155818360835
 20
50.33816074308417
 30
0.0
 10
1.296471136845359
 20
50.31002311308824
 30
0.0
 10
-0.4160550845760403
 20
50.2793350275369
 30
0.0
 10
-2.089881496891576
 20
50.24059274112211
 30
0.0
 10
-3.717126289029299
 20
50.19696487101971
 30
0.0
 10
-5.225417621684689
 20
50.14762079116701
 30
0.0
 10
-6.604159851348723
 20
50.09686748680654
 30
0.0
 10
-7.796503065796808
 20
50.04697088279217
 30
0.0
 10
-8.783068682981094
 20
49.99469390199088
 30
0.0
 10
-9.533014556948881
 20
49.9452109995221
 30
0.0
 10
-9.991837417769652
 20
49.89793349893631
 30
0.0
 10
-10.19191039243598
 20
49.86897938954837
 30
0.0
 10
-10.14631132593332
 20
49.85627089261121
 30
0.0
 10
-10.13995256035041
 20
49.85449869946928
 30
0.0
  0
SPLINE
  5
B1
330
1F
100
AcDbEntity
  8
0
  6
Continuous
 62
     7
370
    25
100
AcDbSpline
210
0.0
220
0.0
230
1.0
 70
     8
 71
     3
 72
    27
 73
    23
 74
     0
 42
0.000000001
 43
0.00000001
 40
0.0
 40
0.0
 40
0.0
 40
0.0
 40
0.0119052109213706
 40
0.0674394472943679
 40
0.1216592965885224
 40
0.177488873433843
 40
0.2311242863825156
 40
0.2863532217596142
 40
0.3392929648900445
 40
0.3937996043146721
 40
0.4460789642958015
 40
0.4998851464922748
 40
0.5518800265205327
 40
0.6053811389511594
 40
0.6574160094439057
 40
0.7109427013049437
 40
0.7633763185489457
 40
0.8173034054590143
 40
0.870340719650791
 40
0.9248898747184654
 40
0.9784660241853244
 40
1.0
 40
1.0
 40
1.0
 40
1.0
 10
10.13522987087764
 20
49.20469387803653
 30
0.0
 10
10.14281211648089
 20
49.20205883964604
 30
0.0
 10
10.18576326250512
 20
49.18713213789952
 30
0.0
 10
9.97198218752734
 20
49.16433133179546
 30
0.0
 10
9.483551553232644
 20
49.13703142378406
 30
0.0
 10
8.693948373691114
 20
49.11186743242989
 30
0.0
 10
7.651117742989766
 20
49.09115797439883
 30
0.0
 10
6.398856008411422
 20
49.07192009169167
 30
0.0
 10
4.952926748950122
 20
49.04903173769054
 30
0.0
 10
3.388818901126426
 20
49.02390585456342
 30
0.0
 10
1.718114611334491
 20
48.99368514635511
 30
0.0
 10
0.0241067042116796
 20
48.96327383938787
 30
0.0
 10
-1.682400925683846
 20
48.92617043506797
 30
0.0
 10
-3.322970344883971
 20
48.88506281484977
 30
0.0
 10
-4.8833394707777
 20
48.83892120189066
 30
0.0
 10
-6.296204607213452
 20
48.79136652709676
 30
0.0
 10
-7.548424652069637
 20
48.74544499365165
 30
0.0
 10
-8.581835127979494
 20
48.69741461301557
 30
0.0
 10
-9.392565240917836
 20
48.65111564091065
 30
0.0
 10
-9.914180417866802
 20
48.60612305068848
 30
0.0
 10
-10.16503322617297
 20
48.57430423962322
 30
0.0
 10
-10.13313332423068
 20
48.55898049322743
 30
0.0
 10
-10.12398766358452
 20
48.55458719494654
 30
0.0
  0
SPLINE
  5
B2
330
1F
100
AcDbEntity
  8
0
  6
Continuous
 62
     7
370
    25
100
AcDbSpline
210
0.0
220
0.0
230
1.0
 70
     8
 71
     3
 72
    27
 73
    23
 74
     0
 42
0.000000001
 43
0.00000001
 40
0.0
 40
0.0
 40
0.0
 40
0.0
 40
0.0013194360593838
 40
0.0552736812806586
 40
0.1108021616032539
 40
0.1645307809398466
 40
0.2198515386535481
 40
0.2730448321436224
 40
0.3278148095578264
 40
0.3805225061930023
 40
0.4347863443905227
 40
0.4871347351592945
 40
0.5410064985271018
 40
0.59328892985029
 40
0.6470702376978046
 40
0.6995733153885942
 40
0.7535676510091799
 40
0.8065009121241882
 40
0.8609474137822414
 40
0.9142206080031862
 40
0.9690352829871132
 40
1.0
 40
1.0
 40
1.0
 40
1.0
 10
10.15645398935317
 20
47.90427024833055
 30
0.0
 10
10.15763281116153
 20
47.903978424782
 30
0.0
 10
10.2070158945317
 20
47.89175338234966
 30
0.0
 10
10.03138914327665
 20
47.86988251878377
 30
0.0
 10
9.616607891786792
 20
47.83894749056594
 30
0.0
 10
8.877323518203886
 20
47.80870085442343
 30
0.0
 10
7.900674584827735
 20
47.78124760239391
 30
0.0
 10
6.684535869368383
 20
47.75638284522346
 30
0.0
 10
5.294577092954537
 20
47.72818536153162
 30
0.0
 10
3.743703926862783
 20
47.69887303772945
 30
0.0
 10
2.107536108986084
 20
47.66589124196186
 30
0.0
 10
0.4008493660378512
 20
47.63340847080499
 30
0.0
 10
-1.296821637413302
 20
47.59859290051111
 30
0.0
 10
-2.971601088761193
 20
47.55956315437561
 30
0.0
 10
-4.549140319667479
 20
47.51867501769323
 30
0.0
 10
-6.012819013214389
 20
47.47545381850643
 30
0.0
 10
-7.30202741673687
 20
47.43570371982217
 30
0.0
 10
-8.395217945207671
 20
47.39357839331443
 30
0.0
 10
-9.252081104261716
 20
47.35269965845343
 30
0.0
 10
-9.83794233175578
 20
47.31134880403388
 30
0.0
 10
-10.14106245803989
 20
47.27851859384128
 30
0.0
 10
-10.12937023922289
 20
47.26077742355184
 30
0.0
 10
-10.12514957224807
 20
47.2543732009909
 30
0.0
  0
SPLINE
  5
B4
330
1F
100
AcDbEntity
  8
0
  6
Continuous
 62
     7
370
    25
100
AcDbSpline
210
0.0
220
0.0
230
1.0
 70
    24
 71
     3
 72
    35
 73
    31
 74
     0
 42
0.000000001
 43
0.00000001
 40
0.0
 40
0.0
 40
0.0
 40
0.0
 40
0.0104417161501968
 40
0.0208629530153173
 40
0.0312748981333918
 40
0.0416887689886413
 40
0.0521157768501041
 40
0.0625670907101593
 40
0.0938308013055573
 40
0.1251118248899092
 40
0.156375535485264
 40
0.187656559069659
 40
0.2501255911119089
 40
0.3125946231541588
 40
0.3750636551964084
 40
0.4375326872386583
 40
0.5000017192809082
 40
0.562470751323158
 40
0.624939783365408
 40
0.6874088154076576
 40
0.7498778474499075
 40
0.8123468794921574
 40
0.843610590087464
 40
0.8748916136719062
 40
0.9061553242670525
 40
0.937436347851656
 40
0.9530929393519535
 40
0.9687138507742983
 40
0.9843369276966649
 40
1.0
 40
1.0
 40
1.0
 40
1.0
 10
10.16000000000032
 20
46.19999999999995
 30
0.0
 10
10.15896438224345
 20
46.19999999999995
 30
0.0
 10
10.15689517788157
 20
46.19999999999994
 30
0.0
 10
10.14002340000454
 20
46.19999999999994
 30
0.0
 10
10.1130628882435
 20
46.19999999999995
 30
0.0
 10
10.07503315631787
 20
46.19999999999992
 30
0.0
 10
10.02619006270422
 20
46.19999999999995
 30
0.0
 10
9.926945026838435
 20
46.19999999999991
 30
0.0
 10
9.738384321500146
 20
46.19999999999992
 30
0.0
 10
9.401687643367314
 20
46.19999999999991
 30
0.0
 10
8.974913636802496
 20
46.19999999999991
 30
0.0
 10
8.290782761516857
 20
46.1999999999999
 30
0.0
 10
7.230439120194009
 20
46.19999999999988
 30
0.0
 10
5.681000217031903
 20
46.19999999999988
 30
0.0
 10
3.913121416555985
 20
46.19999999999988
 30
0.0
 10
1.994896153722766
 20
46.19999999999991
 30
0.0
 10
-0.0000000013410706
 20
46.19999999999991
 30
0.0
 10
-1.994896148355686
 20
46.19999999999991
 30
0.0
 10
-3.913121435336602
 20
46.19999999999996
 30
0.0
 10
-5.681000147271052
 20
46.19999999999996
 30
0.0
 10
-7.230439380451482
 20
46.19999999999999
 30
0.0
 10
-8.290664482663054
 20
46.19999999999999
 30
0.0
 10
-8.974827813948306
 20
46.20000000000005
 30
0.0
 10
-9.401540213447435
 20
46.20000000000005
 30
0.0
 10
-9.738355384144782
 20
46.20000000000005
 30
0.0
 10
-9.940285942585739
 20
46.20000000000007
 30
0.0
 10
-10.05425206097754
 20
46.20000000000007
 30
0.0
 10
-10.1149828686238
 20
46.20000000000007
 30
0.0
 10
-10.15298629495115
 20
46.20000000000007
 30
0.0
 10
-10.1576601066913
 20
46.20000000000009
 30
0.0
 10
-10.15999999999968
 20
46.20000000000009
 30
0.0
  0
CIRCLE
  5
B5
330
1F
100
AcDbEntity
  8
0
  6
Continuous
 62
     7
370
    25
100
AcDbCircle
 10
-9.0
 20
251.2
 30
0.0
 40
0.2499999999999432
  0
CIRCLE
  5
BA
330
1F
100
AcDbEntity
  8
0
  6
Continuous
 62
     7
370
    25
100
AcDbCircle
 10
-9.0
 20
245.2
 30
0.0
 40
0.2499999999999716
  0
CIRCLE
  5
BF
330
1F
100
AcDbEntity
  8
0
  6
Continuous
 62
     7
370
    25
100
AcDbCircle
 10
-3.0
 20
251.2
 30
0.0
 40
0.2499999999999432
  0
CIRCLE
  5
C4
330
1F
100
AcDbEntity
  8
0
  6
Continuous
 62
     7
370
    25
100
AcDbCircle
 10
-9.0
 20
239.2
 30
0.0
 40
0.2500000000000284
  0
CIRCLE
  5
C9
330
1F
100
AcDbEntity
  8
0
  6
Continuous
 62
     7
370
    25
100
AcDbCircle
 10
-3.0
 20
245.2
 30
0.0
 40
0.2499999999999716
  0
CIRCLE
  5
CE
330
1F
100
AcDbEntity
  8
0
  6
Continuous
 62
     7
370
    25
100
AcDbCircle
 10
3.0
 20
251.2
 30
0.0
 40
0.2499999999999432
  0
CIRCLE
  5
D3
330
1F
100
AcDbEntity
  8
0
  6
Continuous
 62
     7
370
    25
100
AcDbCircle
 10
-9.0
 20
233.2
 30
0.0
 40
0.2500000000000284
  0
CIRCLE
  5
D8
330
1F
100
AcDbEntity
  8
0
  6
Continuous
 62
     7
370
    25
100
AcDbCircle
 10
-3.0
 20
239.2
 30
0.0
 40
0.25
  0
CIRCLE
  5
DD
330
1F
100
AcDbEntity
  8
0
  6
Continuous
 62
     7
370
    25
100
AcDbCircle
 10
3.0
 20
245.2
 30
0.0
 40
0.25
  0
CIRCLE
  5
E2
330
1F
100
AcDbEntity
  8
0
  6
Continuous
 62
     7
370
    25
100
AcDbCircle
 10
-9.0
 20
227.2
 30
0.0
 40
0.25
  0
CIRCLE
  5
E7
330
1F
100
AcDbEntity
  8
0
  6
Continuous
 62
     7
370
    25
100
AcDbCircle
 10
9.0
 20
251.2
 30
0.0
 40
0.2499999999999432
  0
CIRCLE
  5
EC
330
1F
100
AcDbEntity
  8
0
  6
Continuous
 62
     7
370
    25
100
AcDbCircle
 10
-3.0
 20
233.2
 30
0.0
 40
0.25
  0
CIRCLE
  5
F1
330
1F
100
AcDbEntity
  8
0
  6
Continuous
 62
     7
370
    25
100
AcDbCircle
 10
3.0
 20
239.2
 30
0.0
 40
0.25
  0
CIRCLE
  5
F6
330
1F
100
AcDbEntity
  8
0
  6
Continuous
 62
     7
370
    25
100
AcDbCircle
 10
-9.0
 20
221.2
 30
0.0
 40
0.25
  0
CIRCLE
  5
FB
330
1F
100
AcDbEntity
  8
0
  6
Continuous
 62
     7
370
    25
100
AcDbCircle
 10
9.0
 20
245.2
 30
0.0
 40
0.2499999999999716
  0
CIRCLE
  5
100
330
1F
100
AcDbEntity
  8
0
  6
Continuous
 62
     7
370
    25
100
AcDbCircle
 10
-3.0
 20
227.2
 30
0.0
 40
0.25
  0
CIRCLE
  5
105
330
1F
100
AcDbEntity
  8
0
  6
Continuous
 62
     7
370
    25
100
AcDbCircle
 10
3.0
 20
233.2
 30
0.0
 40
0.25
  0
CIRCLE
  5
10A
330
1F
100
AcDbEntity
  8
0
  6
Continuous
 62
     7
370
    25
100
AcDbCircle
 10
-9.0
 20
215.2
 30
0.0
 40
0.2499999999999716
  0
CIRCLE
  5
10F
330
1F
100
AcDbEntity
  8
0
  6
Continuous
 62
     7
370
    25
100
AcDbCircle
 10
9.0
 20
239.2
 30
0.0
 40
0.25
  0
CIRCLE
  5
114
330
1F
100
AcDbEntity
  8
0
  6
Continuous
 62
     7
370
    25
100
AcDbCircle
 10
-3.0
 20
221.2
 30
0.0
 40
0.25
  0
CIRCLE
  5
119
330
1F
100
AcDbEntity
  8
0
  6
Continuous
 62
     7
370
    25
100
AcDbCircle
 10
3.0
 20
227.2
 30
0.0
 40
0.25
  0
CIRCLE
  5
11E
330
1F
100
AcDbEntity
  8
0
  6
Continuous
 62
     7
370
    25
100
AcDbCircle
 10
9.0
 20
233.2
 30
0.0
 40
0.2499999999999716
  0
CIRCLE
  5
123
330
1F
100
AcDbEntity
  8
0
  6
Continuous
 62
     7
370
    25
100
AcDbCircle
 10
-3.0
 20
215.2
 30
0.0
 40
0.25
  0
CIRCLE
  5
128
330
1F
100
AcDbEntity
  8
0
  6
Continuous
 62
     7
370
    25
100
AcDbCircle
 10
3.0
 20
221.2
 30
0.0
 40
0.25
  0
CIRCLE
  5
12D
330
1F
100
AcDbEntity
  8
0
  6
Continuous
 62
     7
370
    25
100
AcDbCircle
 10
9.0
 20
227.2
 30
0.0
 40
0.2499999999999716
  0
CIRCLE
  5
132
330
1F
100
AcDbEntity
  8
0
  6
Continuous
 62
     7
370
    25
100
AcDbCircle
 10
3.0
 20
215.2
 30
0.0
 40
0.25
  0
CIRCLE
  5
137
330
1F
100
AcDbEntity
  8
0
  6
Continuous
 62
     7
370
    25
100
AcDbCircle
 10
9.0
 20
221.2
 30
0.0
 40
0.2499999999999716
  0
CIRCLE
  5
13C
330
1F
100
AcDbEntity
  8
0
  6
Continuous
 62
     7
370
    25
100
AcDbCircle
 10
9.0
 20
215.2
 30
0.0
 40
0.2499999999999716
  0
SPLINE
  5
142
330
1F
100
AcDbEntity
  8
0
  6
Continuous
 62
     7
370
    25
100
AcDbSpline
210
0.0
220
0.0
230
1.0
 70
     8
 71
     3
 72
    42
 73
    38
 74
     0
 42
0.000000001
 43
0.00000001
 40
0.0
 40
0.0
 40
0.0
 40
0.0
 40
0.0624999999999999
 40
0.0624999999999999
 40
0.0937499999999999
 40
0.0937499999999999
 40
0.1249999999999998
 40
0.1249999999999998
 40
0.1874999999999998
 40
0.1874999999999998
 40
0.2499999999999997
 40
0.2499999999999997
 40
0.3749999999999996
 40
0.3749999999999996
 40
0.4374999999999997
 40
0.4374999999999997
 40
0.4999999999999997
 40
0.4999999999999997
 40
0.5312499999999998
 40
0.5312499999999998
 40
0.5624999999999998
 40
0.5624999999999998
 40
0.625
 40
0.625
 40
0.6875000000000001
 40
0.6875000000000001
 40
0.7500000000000002
 40
0.7500000000000002
 40
0.7812500000000002
 40
0.7812500000000002
 40
0.8125000000000001
 40
0.8125000000000001
 40
0.8750000000000001
 40
0.8750000000000001
 40
0.9375
 40
0.9375
 40
1.0
 40
1.0
 40
1.0
 40
1.0
 10
10.04045230506455
 20
55.63505454475234
 30
0.0
 10
10.04250596772258
 20
55.62631298030784
 30
0.0
 10
10.00484875644588
 20
55.61747121463112
 30
0.0
 10
9.890908374891897
 20
55.60448082298586
 30
0.0
 10
9.843297244750886
 20
55.60018892051333
 30
0.0
 10
9.728506590168728
 20
55.59166486214306
 30
0.0
 10
9.661183909705672
 20
55.58742991585844
 30
0.0
 10
9.432735530561988
 20
55.57488754937573
 30
0.0
 10
9.244368466119612
 20
55.56657444073297
 30
0.0
 10
8.796446689771017
 20
55.54973137009078
 30
0.0
 10
8.535716171391876
 20
55.54132993786131
 30
0.0
 10
7.652257921458512
 20
55.51696144773996
 30
0.0
 10
6.948950494526454
 20
55.50243537366392
 30
0.0
 10
5.721536612556246
 20
55.47689689389004
 30
0.0
 10
5.289987533790128
 20
55.46822304719666
 30
0.0
 10
4.395113828781415
 20
55.45067924220542
 30
0.0
 10
3.929938066350246
 20
55.44169665737557
 30
0.0
 10
3.204672738954331
 20
55.4274801154698
 30
0.0
 10
2.957285872052801
 20
55.42263565262937
 30
0.0
 10
2.460533310039714
 20
55.4130172495198
 30
0.0
 10
2.210787282426832
 20
55.40823568538877
 30
0.0
 10
1.457545102866408
 20
55.39403115062606
 30
0.0
 10
0.950074279833325
 20
55.38477875490055
 30
0.0
 10
-0.075656042306759
 20
55.36627932224661
 30
0.0
 10
-0.5972737636162129
 20
55.35672179903797
 30
0.0
 10
-1.618135787156953
 20
55.33696995485982
 30
0.0
 10
-2.1209158525068
 20
55.32698542685033
 30
0.0
 10
-2.863736957932184
 20
55.3119879066919
 30
0.0
 10
-3.109441718081107
 20
55.3069773492749
 30
0.0
 10
-3.596933990951427
 20
55.2968602091816
 30
0.0
 10
-3.839072731251617
 20
55.29173591281889
 30
0.0
 10
-4.547171153312656
 20
55.2763418731631
 30
0.0
 10
-4.999150902552092
 20
55.26609066464902
 30
0.0
 10
-5.864425193124162
 20
55.24632271989164
 30
0.0
 10
-6.278733552647632
 20
55.2367822536568
 30
0.0
 10
-7.062215809682828
 20
55.21825931430494
 30
0.0
 10
-7.425947823991017
 20
55.20934223851287
 30
0.0
 10
-7.761799024157871
 20
55.20000000000008
 30
0.0
  0
SPLINE
  5
143
330
1F
100
AcDbEntity
  8
0
  6
Continuous
 62
     7
370
    25
100
AcDbSpline
210
0.0
220
0.0
230
1.0
 70
    24
 71
     3
 72
     9
 73
     5
 74
     0
 42
0.000000001
 43
0.00000001
 40
0.2486470008218331
 40
0.2486470008218331
 40
0.2486470008218331
 40
0.2486470008218331
 40
0.249999999999595
 40
0.2513529991777619
 40
0.2513529991777619
 40
0.2513529991777619
 40
0.2513529991777619
 10
-0.0595010788617933
 20
66.70000000000087
 30
0.0
 10
-0.0396678576793144
 20
66.70000000000087
 30
0.0
 10
0.0000000000065014
 20
66.70000000000087
 30
0.0
 10
0.0396678576923172
 20
66.70000000000088
 30
0.0
 10
0.0595010788807326
 20
66.70000000000088
 30
0.0
  0
SPLINE
  5
144
330
1F
100
AcDbEntity
  8
0
  6
Continuous
 62
     7
370
    25
100
AcDbSpline
210
0.0
220
0.0
230
1.0
 70
     8
 71
     3
 72
    22
 73
    18
 74
     0
 42
0.000000001
 43
0.00000001
 40
0.0
 40
0.0
 40
0.0
 40
0.0
 40
0.0548440328054063
 40
0.123273237156332
 40
0.1917024415072577
 40
0.2588155307239777
 40
0.3259286199406973
 40
0.394357824291623
 40
0.4627870286425487
 40
0.5299001178592688
 40
0.5970132070759887
 40
0.6654424114269144
 40
0.73387161577784
 40
0.80098470499456
 40
0.86809779421128
 40
0.9365269985622059
 40
1.0
 40
1.0
 40
1.0
 40
1.0
 10
-9.4274117035823
 20
46.85722266917553
 30
0.0
 10
-9.397234774985618
 20
46.86786696850123
 30
0.0
 10
-9.32940592496747
 20
46.89179221921713
 30
0.0
 10
-8.790689656678204
 20
46.93127591883871
 30
0.0
 10
-7.914713928951551
 20
46.97321656219544
 30
0.0
 10
-6.73104518811356
 20
47.01251498950471
 30
0.0
 10
-5.294847420904435
 20
47.05180847516763
 30
0.0
 10
-3.643947044095874
 20
47.09376423481591
 30
0.0
 10
-1.851391631268083
 20
47.13571961548848
 30
0.0
 10
0.0000090437732517
 20
47.17501421625886
 30
0.0
 10
1.851353373931476
 20
47.21430854518482
 30
0.0
 10
3.644081209595097
 20
47.25626475741843
 30
0.0
 10
5.294351026103819
 20
47.29821747516366
 30
0.0
 10
6.732855287068692
 20
47.3375220863575
 30
0.0
 10
7.907896491261165
 20
47.37677889644345
 30
0.0
 10
8.794606209284359
 20
47.41785489441627
 30
0.0
 10
9.096985334146037
 20
47.44465668229414
 30
0.0
 10
9.242493974523498
 20
47.45755403992616
 30
0.0
  0
SPLINE
  5
145
330
1F
100
AcDbEntity
  8
0
  6
Continuous
 62
     7
370
    25
100
AcDbSpline
210
0.0
220
0.0
230
1.0
 70
     8
 71
     3
 72
    22
 73
    18
 74
     0
 42
0.000000001
 43
0.00000001
 40
0.0
 40
0.0
 40
0.0
 40
0.0
 40
0.0548440328054062
 40
0.1232732371563319
 40
0.1917024415072575
 40
0.2588155307239776
 40
0.3259286199406972
 40
0.3943578242916229
 40
0.4627870286425487
 40
0.5299001178592687
 40
0.5970132070759887
 40
0.6654424114269144
 40
0.73387161577784
 40
0.80098470499456
 40
0.8680977942112799
 40
0.9365269985622058
 40
0.9999999999999999
 40
0.9999999999999999
 40
0.9999999999999999
 40
0.9999999999999999
 10
-9.42741170358229
 20
48.15722266917552
 30
0.0
 10
-9.397234774985609
 20
48.16786696850123
 30
0.0
 10
-9.329405924967459
 20
48.19179221921711
 30
0.0
 10
-8.790689656678198
 20
48.23127591883872
 30
0.0
 10
-7.91471392895154
 20
48.27321656219544
 30
0.0
 10
-6.731045188113553
 20
48.3125149895047
 30
0.0
 10
-5.294847420904424
 20
48.35180847516762
 30
0.0
 10
-3.643947044095865
 20
48.39376423481593
 30
0.0
 10
-1.851391631268077
 20
48.43571961548848
 30
0.0
 10
0.000009043773264
 20
48.47501421625886
 30
0.0
 10
1.851353373931483
 20
48.51430854518482
 30
0.0
 10
3.644081209595108
 20
48.55626475741843
 30
0.0
 10
5.294351026103828
 20
48.59821747516366
 30
0.0
 10
6.732855287068702
 20
48.63752208635749
 30
0.0
 10
7.907896491261171
 20
48.67677889644345
 30
0.0
 10
8.794606209284368
 20
48.71785489441627
 30
0.0
 10
9.096985334146048
 20
48.74465668229413
 30
0.0
 10
9.242493974523509
 20
48.75755403992616
 30
0.0
  0
SPLINE
  5
146
330
1F
100
AcDbEntity
  8
0
  6
Continuous
 62
     7
370
    25
100
AcDbSpline
210
0.0
220
0.0
230
1.0
 70
     8
 71
     3
 72
    22
 73
    18
 74
     0
 42
0.000000001
 43
0.00000001
 40
0.0
 40
0.0
 40
0.0
 40
0.0
 40
0.054844032805407
 40
0.1232732371563327
 40
0.1917024415072583
 40
0.2588155307239783
 40
0.3259286199406979
 40
0.3943578242916235
 40
0.4627870286425492
 40
0.5299001178592693
 40
0.5970132070759891
 40
0.6654424114269147
 40
0.7338716157778403
 40
0.8009847049945602
 40
0.8680977942112801
 40
0.9365269985622059
 40
1.0
 40
1.0
 40
1.0
 40
1.0
 10
-9.427411703582283
 20
49.45722266917551
 30
0.0
 10
-9.397234774985602
 20
49.46786696850122
 30
0.0
 10
-9.329405924967451
 20
49.49179221921712
 30
0.0
 10
-8.79068965667819
 20
49.53127591883874
 30
0.0
 10
-7.914713928951529
 20
49.57321656219541
 30
0.0
 10
-6.731045188113542
 20
49.6125149895047
 30
0.0
 10
-5.294847420904416
 20
49.65180847516762
 30
0.0
 10
-3.643947044095856
 20
49.69376423481592
 30
0.0
 10
-1.851391631268066
 20
49.73571961548846
 30
0.0
 10
0.000009043773271
 20
49.77501421625888
 30
0.0
 10
1.851353373931492
 20
49.81430854518482
 30
0.0
 10
3.644081209595117
 20
49.85626475741843
 30
0.0
 10
5.294351026103837
 20
49.89821747516365
 30
0.0
 10
6.73285528706871
 20
49.93752208635746
 30
0.0
 10
7.90789649126118
 20
49.97677889644348
 30
0.0
 10
8.794606209284376
 20
50.01785489441627
 30
0.0
 10
9.096985334146057
 20
50.04465668229413
 30
0.0
 10
9.242493974523516
 20
50.05755403992615
 30
0.0
  0
SPLINE
  5
147
330
1F
100
AcDbEntity
  8
0
  6
Continuous
 62
     7
370
    25
100
AcDbSpline
210
0.0
220
0.0
230
1.0
 70
     8
 71
     3
 72
    22
 73
    18
 74
     0
 42
0.000000001
 43
0.00000001
 40
0.0
 40
0.0
 40
0.0
 40
0.0
 40
0.0548440328054061
 40
0.1232732371563317
 40
0.1917024415072573
 40
0.2588155307239773
 40
0.3259286199406969
 40
0.3943578242916225
 40
0.4627870286425482
 40
0.5299001178592683
 40
0.5970132070759882
 40
0.6654424114269137
 40
0.7338716157778393
 40
0.8009847049945592
 40
0.8680977942112792
 40
0.9365269985622051
 40
1.0
 40
1.0
 40
1.0
 40
1.0
 10
-9.427411703582273
 20
50.75722266917554
 30
0.0
 10
-9.39723477498559
 20
50.76786696850122
 30
0.0
 10
-9.329405924967439
 20
50.79179221921712
 30
0.0
 10
-8.790689656678175
 20
50.83127591883871
 30
0.0
 10
-7.914713928951522
 20
50.87321656219545
 30
0.0
 10
-6.731045188113533
 20
50.91251498950469
 30
0.0
 10
-5.294847420904409
 20
50.95180847516763
 30
0.0
 10
-3.643947044095846
 20
50.99376423481591
 30
0.0
 10
-1.851391631268057
 20
51.03571961548847
 30
0.0
 10
0.0000090437732801
 20
51.07501421625887
 30
0.0
 10
1.851353373931501
 20
51.11430854518483
 30
0.0
 10
3.644081209595127
 20
51.15626475741844
 30
0.0
 10
5.294351026103845
 20
51.19821747516365
 30
0.0
 10
6.732855287068721
 20
51.23752208635752
 30
0.0
 10
7.907896491261189
 20
51.27677889644345
 30
0.0
 10
8.794606209284389
 20
51.31785489441626
 30
0.0
 10
9.096985334146073
 20
51.34465668229413
 30
0.0
 10
9.242493974523532
 20
51.35755403992614
 30
0.0
  0
SPLINE
  5
148
330
1F
100
AcDbEntity
  8
0
  6
Continuous
 62
     7
370
    25
100
AcDbSpline
210
0.0
220
0.0
230
1.0
 70
     8
 71
     3
 72
    22
 73
    18
 74
     0
 42
0.000000001
 43
0.00000001
 40
0.0
 40
0.0
 40
0.0
 40
0.0
 40
0.054844032805406
 40
0.1232732371563317
 40
0.1917024415072573
 40
0.2588155307239772
 40
0.3259286199406968
 40
0.3943578242916225
 40
0.4627870286425481
 40
0.5299001178592682
 40
0.5970132070759879
 40
0.6654424114269136
 40
0.7338716157778392
 40
0.8009847049945591
 40
0.8680977942112791
 40
0.9365269985622049
 40
1.0
 40
1.0
 40
1.0
 40
1.0
 10
-9.427411703582262
 20
52.05722266917552
 30
0.0
 10
-9.397234774985582
 20
52.06786696850123
 30
0.0
 10
-9.32940592496743
 20
52.09179221921713
 30
0.0
 10
-8.790689656678174
 20
52.13127591883873
 30
0.0
 10
-7.914713928951509
 20
52.17321656219542
 30
0.0
 10
-6.731045188113525
 20
52.21251498950469
 30
0.0
 10
-5.294847420904399
 20
52.25180847516765
 30
0.0
 10
-3.643947044095838
 20
52.29376423481591
 30
0.0
 10
-1.851391631268047
 20
52.33571961548848
 30
0.0
 10
0.000009043773287
 20
52.37501421625885
 30
0.0
 10
1.851353373931514
 20
52.41430854518484
 30
0.0
 10
3.644081209595133
 20
52.45626475741841
 30
0.0
 10
5.294351026103855
 20
52.49821747516367
 30
0.0
 10
6.73285528706873
 20
52.53752208635748
 30
0.0
 10
7.907896491261196
 20
52.57677889644346
 30
0.0
 10
8.794606209284398
 20
52.61785489441625
 30
0.0
 10
9.096985334146082
 20
52.64465668229413
 30
0.0
 10
9.242493974523542
 20
52.65755403992615
 30
0.0
  0
SPLINE
  5
149
330
1F
100
AcDbEntity
  8
0
  6
Continuous
 62
     7
370
    25
100
AcDbSpline
210
0.0
220
0.0
230
1.0
 70
     8
 71
     3
 72
    22
 73
    18
 74
     0
 42
0.000000001
 43
0.00000001
 40
0.0
 40
0.0
 40
0.0
 40
0.0
 40
0.0548440328054061
 40
0.1232732371563317
 40
0.1917024415072573
 40
0.2588155307239773
 40
0.3259286199406969
 40
0.3943578242916225
 40
0.4627870286425482
 40
0.5299001178592683
 40
0.5970132070759882
 40
0.6654424114269137
 40
0.7338716157778393
 40
0.8009847049945592
 40
0.8680977942112792
 40
0.9365269985622051
 40
1.0
 40
1.0
 40
1.0
 40
1.0
 10
-9.427411703582253
 20
53.35722266917553
 30
0.0
 10
-9.39723477498557
 20
53.36786696850121
 30
0.0
 10
-9.329405924967423
 20
53.39179221921711
 30
0.0
 10
-8.790689656678161
 20
53.43127591883871
 30
0.0
 10
-7.914713928951505
 20
53.47321656219545
 30
0.0
 10
-6.731045188113515
 20
53.51251498950468
 30
0.0
 10
-5.29484742090439
 20
53.55180847516763
 30
0.0
 10
-3.643947044095827
 20
53.59376423481592
 30
0.0
 10
-1.851391631268039
 20
53.63571961548846
 30
0.0
 10
0.0000090437732985
 20
53.67501421625887
 30
0.0
 10
1.851353373931519
 20
53.71430854518483
 30
0.0
 10
3.644081209595146
 20
53.75626475741843
 30
0.0
 10
5.294351026103862
 20
53.79821747516365
 30
0.0
 10
6.732855287068739
 20
53.8375220863575
 30
0.0
 10
7.907896491261206
 20
53.87677889644345
 30
0.0
 10
8.794606209284407
 20
53.91785489441628
 30
0.0
 10
9.096985334146089
 20
53.94465668229414
 30
0.0
 10
9.24249397452355
 20
53.95755403992615
 30
0.0
  0
SPLINE
  5
14A
330
1F
100
AcDbEntity
  8
0
  6
Continuous
 62
     7
370
    25
100
AcDbSpline
210
0.0
220
0.0
230
1.0
 70
     8
 71
     3
 72
    22
 73
    18
 74
     0
 42
0.000000001
 43
0.00000001
 40
0.0
 40
0.0
 40
0.0
 40
0.0
 40
0.0548440328054061
 40
0.1232732371563317
 40
0.1917024415072573
 40
0.2588155307239773
 40
0.3259286199406969
 40
0.3943578242916225
 40
0.4627870286425482
 40
0.5299001178592683
 40
0.5970132070759882
 40
0.6654424114269137
 40
0.7338716157778393
 40
0.8009847049945592
 40
0.8680977942112791
 40
0.936526998562205
 40
1.0
 40
1.0
 40
1.0
 40
1.0
 10
-9.427411703582244
 20
54.65722266917552
 30
0.0
 10
-9.397234774985563
 20
54.66786696850123
 30
0.0
 10
-9.329405924967412
 20
54.69179221921711
 30
0.0
 10
-8.790689656678154
 20
54.73127591883873
 30
0.0
 10
-7.914713928951496
 20
54.77321656219544
 30
0.0
 10
-6.731045188113504
 20
54.81251498950471
 30
0.0
 10
-5.29484742090438
 20
54.85180847516763
 30
0.0
 10
-3.643947044095818
 20
54.89376423481591
 30
0.0
 10
-1.85139163126803
 20
54.93571961548847
 30
0.0
 10
0.0000090437733076
 20
54.97501421625888
 30
0.0
 10
1.851353373931528
 20
55.01430854518483
 30
0.0
 10
3.644081209595154
 20
55.05626475741843
 30
0.0
 10
5.294351026103874
 20
55.09821747516366
 30
0.0
 10
6.732855287068747
 20
55.1375220863575
 30
0.0
 10
7.907896491261215
 20
55.17677889644344
 30
0.0
 10
8.794606209284415
 20
55.21785489441625
 30
0.0
 10
9.096985334146096
 20
55.24465668229414
 30
0.0
 10
9.242493974523558
 20
55.25755403992616
 30
0.0
  0
LINE
  5
15E
330
1F
100
AcDbEntity
  8
0
  6
Continuous
 62
     7
370
    25
100
AcDbLine
 10
-10.16
 20
46.4458354234
 30
0.0
 11
-10.16
 21
46.2
 31
0.0
  0
LINE
  5
15F
330
1F
100
AcDbEntity
  8
0
  6
Continuous
 62
     7
370
    25
100
AcDbLine
 10
-10.16
 20
47.745594214
 30
0.0
 11
-10.16
 21
47.254373201
 31
0.0
  0
LINE
  5
160
330
1F
100
AcDbEntity
  8
0
  6
Continuous
 62
     7
370
    25
100
AcDbLine
 10
-10.16
 20
49.0452388212
 30
0.0
 11
-10.16
 21
48.5545871949
 31
0.0
  0
LINE
  5
161
330
1F
100
AcDbEntity
  8
0
  6
Continuous
 62
     7
370
    25
100
AcDbLine
 10
-10.16
 20
50.3453904744
 30
0.0
 11
-10.16
 21
49.8544986995
 31
0.0
  0
LINE
  5
162
330
1F
100
AcDbEntity
  8
0
  6
Continuous
 62
     7
370
    25
100
AcDbLine
 10
-10.16
 20
51.6454790193
 30
0.0
 11
-10.16
 21
51.1544526684
 31
0.0
  0
LINE
  5
163
330
1F
100
AcDbEntity
  8
0
  6
Continuous
 62
     7
370
    25
100
AcDbLine
 10
-10.16
 20
52.945259372
 30
0.0
 11
-10.16
 21
52.4549161604
 31
0.0
  0
LINE
  5
164
330
1F
100
AcDbEntity
  8
0
  6
Continuous
 62
     7
370
    25
100
AcDbLine
 10
-10.16
 20
54.2454559893
 30
0.0
 11
-10.16
 21
53.7545983049
 31
0.0
  0
LINE
  5
165
330
1F
100
AcDbEntity
  8
0
  6
Continuous
 62
     7
370
    25
100
AcDbLine
 10
-10.16
 20
55.2
 30
0.0
 11
-10.16
 21
55.0542184483
 31
0.0
  0
LINE
  5
166
330
1F
100
AcDbEntity
  8
0
  6
Continuous
 62
     7
370
    25
100
AcDbLine
 10
10.16
 20
54.4043366048
 30
0.0
 11
10.16
 21
54.8957698889
 31
0.0
  0
LINE
  5
167
330
1F
100
AcDbEntity
  8
0
  6
Continuous
 62
     7
370
    25
100
AcDbLine
 10
10.16
 20
53.1043178415
 30
0.0
 11
10.16
 21
53.5957040696
 31
0.0
  0
LINE
  5
168
330
1F
100
AcDbEntity
  8
0
  6
Continuous
 62
     7
370
    25
100
AcDbLine
 10
10.16
 20
51.8047859154
 30
0.0
 11
10.16
 21
52.2951150843
 31
0.0
  0
LINE
  5
169
330
1F
100
AcDbEntity
  8
0
  6
Continuous
 62
     7
370
    25
100
AcDbLine
 10
10.16
 20
50.5049797483
 30
0.0
 11
10.16
 21
50.9950261782
 31
0.0
  0
LINE
  5
16A
330
1F
100
AcDbEntity
  8
0
  6
Continuous
 62
     7
370
    25
100
AcDbLine
 10
10.16
 20
49.204693878
 30
0.0
 11
10.16
 21
49.6953524081
 31
0.0
  0
LINE
  5
16B
330
1F
100
AcDbEntity
  8
0
  6
Continuous
 62
     7
370
    25
100
AcDbLine
 10
10.16
 20
47.9042702483
 30
0.0
 11
10.16
 21
48.3957632314
 31
0.0
  0
LINE
  5
16C
330
1F
100
AcDbEntity
  8
0
  6
Continuous
 62
     7
370
    25
100
AcDbLine
 10
10.16
 20
46.604220067
 30
0.0
 11
10.16
 21
47.0957931227
 31
0.0
  0
LINE
  5
16D
330
1F
100
AcDbEntity
  8
0
  6
Continuous
 62
     7
370
    25
100
AcDbLine
 10
-7.0
 20
66.7
 30
0.0
 11
-10.16
 21
55.2
 31
0.0
  0
LINE
  5
16E
330
1F
100
AcDbEntity
  8
0
  6
Continuous
 62
     7
370
    25
100
AcDbLine
 10
10.040453402
 20
55.6350588218
 30
0.0
 11
7.0
 21
66.7
 31
0.0
  0
LINE
  5
16F
330
1F
100
AcDbEntity
  8
0
  6
Continuous
 62
     7
370
    25
100
AcDbLine
 10
17.5
 20
265.7
 30
0.0
 11
17.5
 21
67.2
 31
0.0
  0
LINE
  5
170
330
1F
100
AcDbEntity
  8
0
  6
Continuous
 62
     7
370
    25
100
AcDbLine
 10
-17.5
 20
264.7
 30
0.0
 11
17.5
 21
264.7
 31
0.0
  0
LINE
  5
171
330
1F
100
AcDbEntity
  8
0
  6
Continuous
 62
     7
370
    25
100
AcDbLine
 10
-17.5
 20
265.7
 30
0.0
 11
17.5
 21
265.7
 31
0.0
  0
LINE
  5
172
330
1F
100
AcDbEntity
  8
0
  6
Continuous
 62
     7
370
    25
100
AcDbLine
 10
-17.5
 20
67.2
 30
0.0
 11
-17.5
 21
265.7
 31
0.0
  0
LINE
  5
173
330
1F
100
AcDbEntity
  8
0
  6
Continuous
 62
     7
370
    25
100
AcDbLine
 10
10.1599997971
 20
55.2000000002
 30
0.0
 11
10.1599967116
 21
54.8959342962
 31
0.0
  0
LINE
  5
174
330
1F
100
AcDbEntity
  8
0
  6
Continuous
 62
     7
370
    25
100
AcDbLine
 10
10.16
 20
46.2
 30
0.0
 11
10.1599967046
 21
46.6040562525
 31
0.0
  0
LINE
  5
175
330
1F
100
AcDbEntity
  8
0
  6
Continuous
 62
     7
370
    25
100
AcDbLine
 10
-10.5
 20
249.7
 30
0.0
 11
-7.5
 21
249.7
 31
0.0
  0
LINE
  5
176
330
1F
100
AcDbEntity
  8
0
  6
Continuous
 62
     7
370
    25
100
AcDbLine
 10
-7.5
 20
252.7
 30
0.0
 11
-10.5
 21
252.7
 31
0.0
  0
LINE
  5
177
330
1F
100
AcDbEntity
  8
0
  6
Continuous
 62
     7
370
    25
100
AcDbLine
 10
-7.5
 20
249.7
 30
0.0
 11
-7.5
 21
252.7
 31
0.0
  0
LINE
  5
178
330
1F
100
AcDbEntity
  8
0
  6
Continuous
 62
     7
370
    25
100
AcDbLine
 10
-10.5
 20
252.7
 30
0.0
 11
-10.5
 21
249.7
 31
0.0
  0
LINE
  5
179
330
1F
100
AcDbEntity
  8
0
  6
Continuous
 62
     7
370
    25
100
AcDbLine
 10
-10.5
 20
243.7
 30
0.0
 11
-7.5
 21
243.7
 31
0.0
  0
LINE
  5
17A
330
1F
100
AcDbEntity
  8
0
  6
Continuous
 62
     7
370
    25
100
AcDbLine
 10
-10.5
 20
246.7
 30
0.0
 11
-10.5
 21
243.7
 31
0.0
  0
LINE
  5
17B
330
1F
100
AcDbEntity
  8
0
  6
Continuous
 62
     7
370
    25
100
AcDbLine
 10
-7.5
 20
246.7
 30
0.0
 11
-10.5
 21
246.7
 31
0.0
  0
LINE
  5
17C
330
1F
100
AcDbEntity
  8
0
  6
Continuous
 62
     7
370
    25
100
AcDbLine
 10
-7.5
 20
243.7
 30
0.0
 11
-7.5
 21
246.7
 31
0.0
  0
LINE
  5
17D
330
1F
100
AcDbEntity
  8
0
  6
Continuous
 62
     7
370
    25
100
AcDbLine
 10
-4.5
 20
249.7
 30
0.0
 11
-1.5
 21
249.7
 31
0.0
  0
LINE
  5
17E
330
1F
100
AcDbEntity
  8
0
  6
Continuous
 62
     7
370
    25
100
AcDbLine
 10
-1.5
 20
252.7
 30
0.0
 11
-4.5
 21
252.7
 31
0.0
  0
LINE
  5
17F
330
1F
100
AcDbEntity
  8
0
  6
Continuous
 62
     7
370
    25
100
AcDbLine
 10
-1.5
 20
249.7
 30
0.0
 11
-1.5
 21
252.7
 31
0.0
  0
LINE
  5
180
330
1F
100
AcDbEntity
  8
0
  6
Continuous
 62
     7
370
    25
100
AcDbLine
 10
-4.5
 20
252.7
 30
0.0
 11
-4.5
 21
249.7
 31
0.0
  0
LINE
  5
181
330
1F
100
AcDbEntity
  8
0
  6
Continuous
 62
     7
370
    25
100
AcDbLine
 10
-10.5
 20
237.7
 30
0.0
 11
-7.5
 21
237.7
 31
0.0
  0
LINE
  5
182
330
1F
100
AcDbEntity
  8
0
  6
Continuous
 62
     7
370
    25
100
AcDbLine
 10
-10.5
 20
240.7
 30
0.0
 11
-10.5
 21
237.7
 31
0.0
  0
LINE
  5
183
330
1F
100
AcDbEntity
  8
0
  6
Continuous
 62
     7
370
    25
100
AcDbLine
 10
-7.5
 20
240.7
 30
0.0
 11
-10.5
 21
240.7
 31
0.0
  0
LINE
  5
184
330
1F
100
AcDbEntity
  8
0
  6
Continuous
 62
     7
370
    25
100
AcDbLine
 10
-7.5
 20
237.7
 30
0.0
 11
-7.5
 21
240.7
 31
0.0
  0
LINE
  5
185
330
1F
100
AcDbEntity
  8
0
  6
Continuous
 62
     7
370
    25
100
AcDbLine
 10
-1.5
 20
243.7
 30
0.0
 11
-1.5
 21
246.7
 31
0.0
  0
LINE
  5
186
330
1F
100
AcDbEntity
  8
0
  6
Continuous
 62
     7
370
    25
100
AcDbLine
 10
-4.5
 20
243.7
 30
0.0
 11
-1.5
 21
243.7
 31
0.0
  0
LINE
  5
187
330
1F
100
AcDbEntity
  8
0
  6
Continuous
 62
     7
370
    25
100
AcDbLine
 10
-4.5
 20
246.7
 30
0.0
 11
-4.5
 21
243.7
 31
0.0
  0
LINE
  5
188
330
1F
100
AcDbEntity
  8
0
  6
Continuous
 62
     7
370
    25
100
AcDbLine
 10
-1.5
 20
246.7
 30
0.0
 11
-4.5
 21
246.7
 31
0.0
  0
LINE
  5
189
330
1F
100
AcDbEntity
  8
0
  6
Continuous
 62
     7
370
    25
100
AcDbLine
 10
1.5
 20
249.7
 30
0.0
 11
4.5
 21
249.7
 31
0.0
  0
LINE
  5
18A
330
1F
100
AcDbEntity
  8
0
  6
Continuous
 62
     7
370
    25
100
AcDbLine
 10
1.5
 20
252.7
 30
0.0
 11
1.5
 21
249.7
 31
0.0
  0
LINE
  5
18B
330
1F
100
AcDbEntity
  8
0
  6
Continuous
 62
     7
370
    25
100
AcDbLine
 10
4.5
 20
249.7
 30
0.0
 11
4.5
 21
252.7
 31
0.0
  0
LINE
  5
18C
330
1F
100
AcDbEntity
  8
0
  6
Continuous
 62
     7
370
    25
100
AcDbLine
 10
4.5
 20
252.7
 30
0.0
 11
1.5
 21
252.7
 31
0.0
  0
LINE
  5
18D
330
1F
100
AcDbEntity
  8
0
  6
Continuous
 62
     7
370
    25
100
AcDbLine
 10
-10.5
 20
231.7
 30
0.0
 11
-7.5
 21
231.7
 31
0.0
  0
LINE
  5
18E
330
1F
100
AcDbEntity
  8
0
  6
Continuous
 62
     7
370
    25
100
AcDbLine
 10
-7.5
 20
231.7
 30
0.0
 11
-7.5
 21
234.7
 31
0.0
  0
LINE
  5
18F
330
1F
100
AcDbEntity
  8
0
  6
Continuous
 62
     7
370
    25
100
AcDbLine
 10
-10.5
 20
234.7
 30
0.0
 11
-10.5
 21
231.7
 31
0.0
  0
LINE
  5
190
330
1F
100
AcDbEntity
  8
0
  6
Continuous
 62
     7
370
    25
100
AcDbLine
 10
-7.5
 20
234.7
 30
0.0
 11
-10.5
 21
234.7
 31
0.0
  0
LINE
  5
191
330
1F
100
AcDbEntity
  8
0
  6
Continuous
 62
     7
370
    25
100
AcDbLine
 10
-1.5
 20
237.7
 30
0.0
 11
-1.5
 21
240.7
 31
0.0
  0
LINE
  5
192
330
1F
100
AcDbEntity
  8
0
  6
Continuous
 62
     7
370
    25
100
AcDbLine
 10
-4.5
 20
237.7
 30
0.0
 11
-1.5
 21
237.7
 31
0.0
  0
LINE
  5
193
330
1F
100
AcDbEntity
  8
0
  6
Continuous
 62
     7
370
    25
100
AcDbLine
 10
-1.5
 20
240.7
 30
0.0
 11
-4.5
 21
240.7
 31
0.0
  0
LINE
  5
194
330
1F
100
AcDbEntity
  8
0
  6
Continuous
 62
     7
370
    25
100
AcDbLine
 10
-4.5
 20
240.7
 30
0.0
 11
-4.5
 21
237.7
 31
0.0
  0
LINE
  5
195
330
1F
100
AcDbEntity
  8
0
  6
Continuous
 62
     7
370
    25
100
AcDbLine
 10
4.5
 20
243.7
 30
0.0
 11
4.5
 21
246.7
 31
0.0
  0
LINE
  5
196
330
1F
100
AcDbEntity
  8
0
  6
Continuous
 62
     7
370
    25
100
AcDbLine
 10
1.5
 20
243.7
 30
0.0
 11
4.5
 21
243.7
 31
0.0
  0
LINE
  5
197
330
1F
100
AcDbEntity
  8
0
  6
Continuous
 62
     7
370
    25
100
AcDbLine
 10
1.5
 20
246.7
 30
0.0
 11
1.5
 21
243.7
 31
0.0
  0
LINE
  5
198
330
1F
100
AcDbEntity
  8
0
  6
Continuous
 62
     7
370
    25
100
AcDbLine
 10
4.5
 20
246.7
 30
0.0
 11
1.5
 21
246.7
 31
0.0
  0
LINE
  5
199
330
1F
100
AcDbEntity
  8
0
  6
Continuous
 62
     7
370
    25
100
AcDbLine
 10
-10.5
 20
225.7
 30
0.0
 11
-7.5
 21
225.7
 31
0.0
  0
LINE
  5
19A
330
1F
100
AcDbEntity
  8
0
  6
Continuous
 62
     7
370
    25
100
AcDbLine
 10
-10.5
 20
228.7
 30
0.0
 11
-10.5
 21
225.7
 31
0.0
  0
LINE
  5
19B
330
1F
100
AcDbEntity
  8
0
  6
Continuous
 62
     7
370
    25
100
AcDbLine
 10
-7.5
 20
228.7
 30
0.0
 11
-10.5
 21
228.7
 31
0.0
  0
LINE
  5
19C
330
1F
100
AcDbEntity
  8
0
  6
Continuous
 62
     7
370
    25
100
AcDbLine
 10
-7.5
 20
225.7
 30
0.0
 11
-7.5
 21
228.7
 31
0.0
  0
LINE
  5
19D
330
1F
100
AcDbEntity
  8
0
  6
Continuous
 62
     7
370
    25
100
AcDbLine
 10
7.5
 20
249.7
 30
0.0
 11
10.5
 21
249.7
 31
0.0
  0
LINE
  5
19E
330
1F
100
AcDbEntity
  8
0
  6
Continuous
 62
     7
370
    25
100
AcDbLine
 10
10.5
 20
249.7
 30
0.0
 11
10.5
 21
252.7
 31
0.0
  0
LINE
  5
19F
330
1F
100
AcDbEntity
  8
0
  6
Continuous
 62
     7
370
    25
100
AcDbLine
 10
10.5
 20
252.7
 30
0.0
 11
7.5
 21
252.7
 31
0.0
  0
LINE
  5
1A0
330
1F
100
AcDbEntity
  8
0
  6
Continuous
 62
     7
370
    25
100
AcDbLine
 10
7.5
 20
252.7
 30
0.0
 11
7.5
 21
249.7
 31
0.0
  0
LINE
  5
1A1
330
1F
100
AcDbEntity
  8
0
  6
Continuous
 62
     7
370
    25
100
AcDbLine
 10
-1.5
 20
231.7
 30
0.0
 11
-1.5
 21
234.7
 31
0.0
  0
LINE
  5
1A2
330
1F
100
AcDbEntity
  8
0
  6
Continuous
 62
     7
370
    25
100
AcDbLine
 10
-4.5
 20
231.7
 30
0.0
 11
-1.5
 21
231.7
 31
0.0
  0
LINE
  5
1A3
330
1F
100
AcDbEntity
  8
0
  6
Continuous
 62
     7
370
    25
100
AcDbLine
 10
-4.5
 20
234.7
 30
0.0
 11
-4.5
 21
231.7
 31
0.0
  0
LINE
  5
1A4
330
1F
100
AcDbEntity
  8
0
  6
Continuous
 62
     7
370
    25
100
AcDbLine
 10
-1.5
 20
234.7
 30
0.0
 11
-4.5
 21
234.7
 31
0.0
  0
LINE
  5
1A5
330
1F
100
AcDbEntity
  8
0
  6
Continuous
 62
     7
370
    25
100
AcDbLine
 10
4.5
 20
237.7
 30
0.0
 11
4.5
 21
240.7
 31
0.0
  0
LINE
  5
1A6
330
1F
100
AcDbEntity
  8
0
  6
Continuous
 62
     7
370
    25
100
AcDbLine
 10
1.5
 20
237.7
 30
0.0
 11
4.5
 21
237.7
 31
0.0
  0
LINE
  5
1A7
330
1F
100
AcDbEntity
  8
0
  6
Continuous
 62
     7
370
    25
100
AcDbLine
 10
4.5
 20
240.7
 30
0.0
 11
1.5
 21
240.7
 31
0.0
  0
LINE
  5
1A8
330
1F
100
AcDbEntity
  8
0
  6
Continuous
 62
     7
370
    25
100
AcDbLine
 10
1.5
 20
240.7
 30
0.0
 11
1.5
 21
237.7
 31
0.0
  0
LINE
  5
1A9
330
1F
100
AcDbEntity
  8
0
  6
Continuous
 62
     7
370
    25
100
AcDbLine
 10
-10.5
 20
219.7
 30
0.0
 11
-7.5
 21
219.7
 31
0.0
  0
LINE
  5
1AA
330
1F
100
AcDbEntity
  8
0
  6
Continuous
 62
     7
370
    25
100
AcDbLine
 10
-7.5
 20
222.7
 30
0.0
 11
-10.5
 21
222.7
 31
0.0
  0
LINE
  5
1AB
330
1F
100
AcDbEntity
  8
0
  6
Continuous
 62
     7
370
    25
100
AcDbLine
 10
-7.5
 20
219.7
 30
0.0
 11
-7.5
 21
222.7
 31
0.0
  0
LINE
  5
1AC
330
1F
100
AcDbEntity
  8
0
  6
Continuous
 62
     7
370
    25
100
AcDbLine
 10
-10.5
 20
222.7
 30
0.0
 11
-10.5
 21
219.7
 31
0.0
  0
LINE
  5
1AD
330
1F
100
AcDbEntity
  8
0
  6
Continuous
 62
     7
370
    25
100
AcDbLine
 10
7.5
 20
243.7
 30
0.0
 11
10.5
 21
243.7
 31
0.0
  0
LINE
  5
1AE
330
1F
100
AcDbEntity
  8
0
  6
Continuous
 62
     7
370
    25
100
AcDbLine
 10
10.5
 20
246.7
 30
0.0
 11
7.5
 21
246.7
 31
0.0
  0
LINE
  5
1AF
330
1F
100
AcDbEntity
  8
0
  6
Continuous
 62
     7
370
    25
100
AcDbLine
 10
10.5
 20
243.7
 30
0.0
 11
10.5
 21
246.7
 31
0.0
  0
LINE
  5
1B0
330
1F
100
AcDbEntity
  8
0
  6
Continuous
 62
     7
370
    25
100
AcDbLine
 10
7.5
 20
246.7
 30
0.0
 11
7.5
 21
243.7
 31
0.0
  0
LINE
  5
1B1
330
1F
100
AcDbEntity
  8
0
  6
Continuous
 62
     7
370
    25
100
AcDbLine
 10
-1.5
 20
225.7
 30
0.0
 11
-1.5
 21
228.7
 31
0.0
  0
LINE
  5
1B2
330
1F
100
AcDbEntity
  8
0
  6
Continuous
 62
     7
370
    25
100
AcDbLine
 10
-4.5
 20
225.7
 30
0.0
 11
-1.5
 21
225.7
 31
0.0
  0
LINE
  5
1B3
330
1F
100
AcDbEntity
  8
0
  6
Continuous
 62
     7
370
    25
100
AcDbLine
 10
-4.5
 20
228.7
 30
0.0
 11
-4.5
 21
225.7
 31
0.0
  0
LINE
  5
1B4
330
1F
100
AcDbEntity
  8
0
  6
Continuous
 62
     7
370
    25
100
AcDbLine
 10
-1.5
 20
228.7
 30
0.0
 11
-4.5
 21
228.7
 31
0.0
  0
LINE
  5
1B5
330
1F
100
AcDbEntity
  8
0
  6
Continuous
 62
     7
370
    25
100
AcDbLine
 10
4.5
 20
231.7
 30
0.0
 11
4.5
 21
234.7
 31
0.0
  0
LINE
  5
1B6
330
1F
100
AcDbEntity
  8
0
  6
Continuous
 62
     7
370
    25
100
AcDbLine
 10
1.5
 20
231.7
 30
0.0
 11
4.5
 21
231.7
 31
0.0
  0
LINE
  5
1B7
330
1F
100
AcDbEntity
  8
0
  6
Continuous
 62
     7
370
    25
100
AcDbLine
 10
1.5
 20
234.7
 30
0.0
 11
1.5
 21
231.7
 31
0.0
  0
LINE
  5
1B8
330
1F
100
AcDbEntity
  8
0
  6
Continuous
 62
     7
370
    25
100
AcDbLine
 10
4.5
 20
234.7
 30
0.0
 11
1.5
 21
234.7
 31
0.0
  0
LINE
  5
1B9
330
1F
100
AcDbEntity
  8
0
  6
Continuous
 62
     7
370
    25
100
AcDbLine
 10
-10.5
 20
213.7
 30
0.0
 11
-7.5
 21
213.7
 31
0.0
  0
LINE
  5
1BA
330
1F
100
AcDbEntity
  8
0
  6
Continuous
 62
     7
370
    25
100
AcDbLine
 10
-7.5
 20
216.7
 30
0.0
 11
-10.5
 21
216.7
 31
0.0
  0
LINE
  5
1BB
330
1F
100
AcDbEntity
  8
0
  6
Continuous
 62
     7
370
    25
100
AcDbLine
 10
-7.5
 20
213.7
 30
0.0
 11
-7.5
 21
216.7
 31
0.0
  0
LINE
  5
1BC
330
1F
100
AcDbEntity
  8
0
  6
Continuous
 62
     7
370
    25
100
AcDbLine
 10
-10.5
 20
216.7
 30
0.0
 11
-10.5
 21
213.7
 31
0.0
  0
LINE
  5
1BD
330
1F
100
AcDbEntity
  8
0
  6
Continuous
 62
     7
370
    25
100
AcDbLine
 10
7.5
 20
237.7
 30
0.0
 11
10.5
 21
237.7
 31
0.0
  0
LINE
  5
1BE
330
1F
100
AcDbEntity
  8
0
  6
Continuous
 62
     7
370
    25
100
AcDbLine
 10
10.5
 20
237.7
 30
0.0
 11
10.5
 21
240.7
 31
0.0
  0
LINE
  5
1BF
330
1F
100
AcDbEntity
  8
0
  6
Continuous
 62
     7
370
    25
100
AcDbLine
 10
10.5
 20
240.7
 30
0.0
 11
7.5
 21
240.7
 31
0.0
  0
LINE
  5
1C0
330
1F
100
AcDbEntity
  8
0
  6
Continuous
 62
     7
370
    25
100
AcDbLine
 10
7.5
 20
240.7
 30
0.0
 11
7.5
 21
237.7
 31
0.0
  0
LINE
  5
1C1
330
1F
100
AcDbEntity
  8
0
  6
Continuous
 62
     7
370
    25
100
AcDbLine
 10
-1.5
 20
219.7
 30
0.0
 11
-1.5
 21
222.7
 31
0.0
  0
LINE
  5
1C2
330
1F
100
AcDbEntity
  8
0
  6
Continuous
 62
     7
370
    25
100
AcDbLine
 10
-4.5
 20
219.7
 30
0.0
 11
-1.5
 21
219.7
 31
0.0
  0
LINE
  5
1C3
330
1F
100
AcDbEntity
  8
0
  6
Continuous
 62
     7
370
    25
100
AcDbLine
 10
-4.5
 20
222.7
 30
0.0
 11
-4.5
 21
219.7
 31
0.0
  0
LINE
  5
1C4
330
1F
100
AcDbEntity
  8
0
  6
Continuous
 62
     7
370
    25
100
AcDbLine
 10
-1.5
 20
222.7
 30
0.0
 11
-4.5
 21
222.7
 31
0.0
  0
LINE
  5
1C5
330
1F
100
AcDbEntity
  8
0
  6
Continuous
 62
     7
370
    25
100
AcDbLine
 10
4.5
 20
225.7
 30
0.0
 11
4.5
 21
228.7
 31
0.0
  0
LINE
  5
1C6
330
1F
100
AcDbEntity
  8
0
  6
Continuous
 62
     7
370
    25
100
AcDbLine
 10
1.5
 20
225.7
 30
0.0
 11
4.5
 21
225.7
 31
0.0
  0
LINE
  5
1C7
330
1F
100
AcDbEntity
  8
0
  6
Continuous
 62
     7
370
    25
100
AcDbLine
 10
1.5
 20
228.7
 30
0.0
 11
1.5
 21
225.7
 31
0.0
  0
LINE
  5
1C8
330
1F
100
AcDbEntity
  8
0
  6
Continuous
 62
     7
370
    25
100
AcDbLine
 10
4.5
 20
228.7
 30
0.0
 11
1.5
 21
228.7
 31
0.0
  0
LINE
  5
1C9
330
1F
100
AcDbEntity
  8
0
  6
Continuous
 62
     7
370
    25
100
AcDbLine
 10
7.5
 20
231.7
 30
0.0
 11
10.5
 21
231.7
 31
0.0
  0
LINE
  5
1CA
330
1F
100
AcDbEntity
  8
0
  6
Continuous
 62
     7
370
    25
100
AcDbLine
 10
10.5
 20
234.7
 30
0.0
 11
7.5
 21
234.7
 31
0.0
  0
LINE
  5
1CB
330
1F
100
AcDbEntity
  8
0
  6
Continuous
 62
     7
370
    25
100
AcDbLine
 10
10.5
 20
231.7
 30
0.0
 11
10.5
 21
234.7
 31
0.0
  0
LINE
  5
1CC
330
1F
100
AcDbEntity
  8
0
  6
Continuous
 62
     7
370
    25
100
AcDbLine
 10
7.5
 20
234.7
 30
0.0
 11
7.5
 21
231.7
 31
0.0
  0
LINE
  5
1CD
330
1F
100
AcDbEntity
  8
0
  6
Continuous
 62
     7
370
    25
100
AcDbLine
 10
-1.5
 20
213.7
 30
0.0
 11
-1.5
 21
216.7
 31
0.0
  0
LINE
  5
1CE
330
1F
100
AcDbEntity
  8
0
  6
Continuous
 62
     7
370
    25
100
AcDbLine
 10
-4.5
 20
213.7
 30
0.0
 11
-1.5
 21
213.7
 31
0.0
  0
LINE
  5
1CF
330
1F
100
AcDbEntity
  8
0
  6
Continuous
 62
     7
370
    25
100
AcDbLine
 10
-1.5
 20
216.7
 30
0.0
 11
-4.5
 21
216.7
 31
0.0
  0
LINE
  5
1D0
330
1F
100
AcDbEntity
  8
0
  6
Continuous
 62
     7
370
    25
100
AcDbLine
 10
-4.5
 20
216.7
 30
0.0
 11
-4.5
 21
213.7
 31
0.0
  0
LINE
  5
1D1
330
1F
100
AcDbEntity
  8
0
  6
Continuous
 62
     7
370
    25
100
AcDbLine
 10
4.5
 20
219.7
 30
0.0
 11
4.5
 21
222.7
 31
0.0
  0
LINE
  5
1D2
330
1F
100
AcDbEntity
  8
0
  6
Continuous
 62
     7
370
    25
100
AcDbLine
 10
1.5
 20
219.7
 30
0.0
 11
4.5
 21
219.7
 31
0.0
  0
LINE
  5
1D3
330
1F
100
AcDbEntity
  8
0
  6
Continuous
 62
     7
370
    25
100
AcDbLine
 10
1.5
 20
222.7
 30
0.0
 11
1.5
 21
219.7
 31
0.0
  0
LINE
  5
1D4
330
1F
100
AcDbEntity
  8
0
  6
Continuous
 62
     7
370
    25
100
AcDbLine
 10
4.5
 20
222.7
 30
0.0
 11
1.5
 21
222.7
 31
0.0
  0
LINE
  5
1D5
330
1F
100
AcDbEntity
  8
0
  6
Continuous
 62
     7
370
    25
100
AcDbLine
 10
7.5
 20
225.7
 30
0.0
 11
10.5
 21
225.7
 31
0.0
  0
LINE
  5
1D6
330
1F
100
AcDbEntity
  8
0
  6
Continuous
 62
     7
370
    25
100
AcDbLine
 10
7.5
 20
228.7
 30
0.0
 11
7.5
 21
225.7
 31
0.0
  0
LINE
  5
1D7
330
1F
100
AcDbEntity
  8
0
  6
Continuous
 62
     7
370
    25
100
AcDbLine
 10
10.5
 20
225.7
 30
0.0
 11
10.5
 21
228.7
 31
0.0
  0
LINE
  5
1D8
330
1F
100
AcDbEntity
  8
0
  6
Continuous
 62
     7
370
    25
100
AcDbLine
 10
10.5
 20
228.7
 30
0.0
 11
7.5
 21
228.7
 31
0.0
  0
LINE
  5
1D9
330
1F
100
AcDbEntity
  8
0
  6
Continuous
 62
     7
370
    25
100
AcDbLine
 10
4.5
 20
213.7
 30
0.0
 11
4.5
 21
216.7
 31
0.0
  0
LINE
  5
1DA
330
1F
100
AcDbEntity
  8
0
  6
Continuous
 62
     7
370
    25
100
AcDbLine
 10
1.5
 20
213.7
 30
0.0
 11
4.5
 21
213.7
 31
0.0
  0
LINE
  5
1DB
330
1F
100
AcDbEntity
  8
0
  6
Continuous
 62
     7
370
    25
100
AcDbLine
 10
1.5
 20
216.7
 30
0.0
 11
1.5
 21
213.7
 31
0.0
  0
LINE
  5
1DC
330
1F
100
AcDbEntity
  8
0
  6
Continuous
 62
     7
370
    25
100
AcDbLine
 10
4.5
 20
216.7
 30
0.0
 11
1.5
 21
216.7
 31
0.0
  0
LINE
  5
1DD
330
1F
100
AcDbEntity
  8
0
  6
Continuous
 62
     7
370
    25
100
AcDbLine
 10
7.5
 20
219.7
 30
0.0
 11
10.5
 21
219.7
 31
0.0
  0
LINE
  5
1DE
330
1F
100
AcDbEntity
  8
0
  6
Continuous
 62
     7
370
    25
100
AcDbLine
 10
7.5
 20
222.7
 30
0.0
 11
7.5
 21
219.7
 31
0.0
  0
LINE
  5
1DF
330
1F
100
AcDbEntity
  8
0
  6
Continuous
 62
     7
370
    25
100
AcDbLine
 10
10.5
 20
222.7
 30
0.0
 11
7.5
 21
222.7
 31
0.0
  0
LINE
  5
1E0
330
1F
100
AcDbEntity
  8
0
  6
Continuous
 62
     7
370
    25
100
AcDbLine
 10
10.5
 20
219.7
 30
0.0
 11
10.5
 21
222.7
 31
0.0
  0
LINE
  5
1E1
330
1F
100
AcDbEntity
  8
0
  6
Continuous
 62
     7
370
    25
100
AcDbLine
 10
7.5
 20
213.7
 30
0.0
 11
10.5
 21
213.7
 31
0.0
  0
LINE
  5
1E2
330
1F
100
AcDbEntity
  8
0
  6
Continuous
 62
     7
370
    25
100
AcDbLine
 10
10.5
 20
216.7
 30
0.0
 11
7.5
 21
216.7
 31
0.0
  0
LINE
  5
1E3
330
1F
100
AcDbEntity
  8
0
  6
Continuous
 62
     7
370
    25
100
AcDbLine
 10
10.5
 20
213.7
 30
0.0
 11
10.5
 21
216.7
 31
0.0
  0
LINE
  5
1E4
330
1F
100
AcDbEntity
  8
0
  6
Continuous
 62
     7
370
    25
100
AcDbLine
 10
7.5
 20
216.7
 30
0.0
 11
7.5
 21
213.7
 31
0.0
  0
LINE
  5
1E5
330
1F
100
AcDbEntity
  8
0
  6
Continuous
 62
     7
370
    25
100
AcDbLine
 10
10.0404523051
 20
55.6350545448
 30
0.0
 11
10.1599997971
 21
55.2000000002
 31
0.0
  0
LINE
  5
1E6
330
1F
100
AcDbEntity
  8
0
  6
Continuous
 62
     7
370
    25
100
AcDbLine
 10
9.4600000001
 20
55.3000141712
 30
0.0
 11
10.1599967116
 21
54.8959342962
 31
0.0
  0
LINE
  5
1E7
330
1F
100
AcDbEntity
  8
0
  6
Continuous
 62
     7
370
    25
100
AcDbLine
 10
-17.5
 20
67.2
 30
0.0
 11
17.5
 21
67.2
 31
0.0
  0
LINE
  5
1E8
330
1F
100
AcDbEntity
  8
0
  6
Continuous
 62
     7
370
    25
100
AcDbLine
 10
-17.0
 20
264.7
 30
0.0
 11
-17.0
 21
66.7
 31
0.0
  0
LINE
  5
1E9
330
1F
100
AcDbEntity
  8
0
  6
Continuous
 62
     7
370
    25
100
AcDbLine
 10
17.0
 20
66.7
 30
0.0
 11
17.0
 21
264.7
 31
0.0
  0
LINE
  5
1EA
330
1F
100
AcDbEntity
  8
0
  6
Continuous
 62
     7
370
    25
100
AcDbLine
 10
-0.0595010789
 20
66.7
 30
0.0
 11
-17.0
 21
66.7
 31
0.0
  0
LINE
  5
1EB
330
1F
100
AcDbEntity
  8
0
  6
Continuous
 62
     7
370
    25
100
AcDbLine
 10
-0.0595010789
 20
66.7
 30
0.0
 11
-0.0595010789
 21
67.2
 31
0.0
  0
LINE
  5
1EC
330
1F
100
AcDbEntity
  8
0
  6
Continuous
 62
     7
370
    25
100
AcDbLine
 10
0.0595010789
 20
66.7
 30
0.0
 11
0.0595010789
 21
67.2
 31
0.0
  0
LINE
  5
1ED
330
1F
100
AcDbEntity
  8
0
  6
Continuous
 62
     7
370
    25
100
AcDbLine
 10
17.0
 20
66.7
 30
0.0
 11
0.0595010789
 21
66.7
 31
0.0
  0
ARC
  5
1EE
330
1F
100
AcDbEntity
  8
0
  6
Continuous
 62
     7
370
    25
100
AcDbCircle
 10
-17.0
 20
67.2
 30
0.0
 40
0.5000000000000142
100
AcDbArc
 50
180.0
 51
270.0
  0
ARC
  5
1EF
330
1F
100
AcDbEntity
  8
0
  6
Continuous
 62
     7
370
    25
100
AcDbCircle
 10
17.0
 20
67.2
 30
0.0
 40
0.5000000000000142
100
AcDbArc
 50
270.0
 51
360.0
  0
SPLINE
  5
202
330
1B
100
AcDbEntity
 67
     1
  8
0
  6
Continuous
 62
     7
370
    25
100
AcDbSpline
210
0.0
220
0.0
230
1.0
 70
     8
 71
     3
 72
     9
 73
     5
 74
     0
 42
0.000000001
 43
0.00000001
 40
0.0
 40
0.0
 40
0.0
 40
0.0
 40
0.670790046067857
 40
1.0
 40
1.0
 40
1.0
 40
1.0
 10
-9.253847772026411
 20
47.54251187623854
 30
0.0
 10
-9.4017406918184
 20
47.45530159005357
 30
0.0
 10
-9.62221641392986
 20
47.32529028965313
 30
0.0
 10
-9.842810141809966
 20
47.19528141256198
 30
0.0
 10
-9.9154317928031
 20
47.15248119612404
 30
0.0
  0
SPLINE
  5
203
330
1B
100
AcDbEntity
 67
     1
  8
0
  6
Continuous
 62
     7
370
    25
100
AcDbSpline
210
0.0
220
0.0
230
1.0
 70
     8
 71
     3
 72
     9
 73
     5
 74
     0
 42
0.000000001
 43
0.00000001
 40
0.0
 40
0.0
 40
0.0
 40
0.0
 40
0.6602411164551717
 40
0.9999999999999999
 40
0.9999999999999999
 40
0.9999999999999999
 40
0.9999999999999999
 10
-9.25384777202642
 20
48.84251187623853
 30
0.0
 10
-9.401740970159276
 20
48.75530159576943
 30
0.0
 10
-9.625739740376579
 20
48.6232130628145
 30
0.0
 10
-9.849858401786701
 20
48.49112699188704
 30
0.0
 10
-9.926004707968968
 20
48.44624957589692
 30
0.0
  0
SPLINE
  5
204
330
1B
100
AcDbEntity
 67
     1
  8
0
  6
Continuous
 62
     7
370
    25
100
AcDbSpline
210
0.0
220
0.0
230
1.0
 70
     8
 71
     3
 72
     9
 73
     5
 74
     0
 42
0.000000001
 43
0.00000001
 40
0.0
 40
0.0
 40
0.0
 40
0.0
 40
0.6654802306673809
 40
1.0
 40
1.0
 40
1.0
 40
1.0
 10
-9.253847772026429
 20
50.14251187623853
 30
0.0
 10
-9.401740831921597
 20
50.05530159293065
 30
0.0
 10
-9.62397592333348
 20
49.92425294672154
 30
0.0
 10
-9.846329962072968
 20
49.79320674315719
 30
0.0
 10
-9.920711783822277
 20
49.74936919736893
 30
0.0
  0
SPLINE
  5
205
330
1B
100
AcDbEntity
 67
     1
  8
0
  6
Continuous
 62
     7
370
    25
100
AcDbSpline
210
0.0
220
0.0
230
1.0
 70
     8
 71
     3
 72
     9
 73
     5
 74
     0
 42
0.000000001
 43
0.00000001
 40
0.0
 40
0.0
 40
0.0
 40
0.0
 40
0.6615235282924765
 40
1.0
 40
1.0
 40
1.0
 40
1.0
 10
-9.253847772026438
 20
51.44251187623852
 30
0.0
 10
-9.401740936321966
 20
51.35530159507456
 30
0.0
 10
-9.62530541735754
 20
51.22346912437009
 30
0.0
 10
-9.848989557168057
 20
51.09163911092024
 30
0.0
 10
-9.924701375588056
 20
51.04701775310258
 30
0.0
  0
SPLINE
  5
206
330
1B
100
AcDbEntity
 67
     1
  8
0
  6
Continuous
 62
     7
370
    25
100
AcDbSpline
210
0.0
220
0.0
230
1.0
 70
     8
 71
     3
 72
     9
 73
     5
 74
     0
 42
0.000000001
 43
0.00000001
 40
0.0
 40
0.0
 40
0.0
 40
0.0
 40
0.6441130440254516
 40
1.0
 40
1.0
 40
1.0
 40
1.0
 10
-9.253847772026448
 20
52.74251187623853
 30
0.0
 10
-9.401741395709756
 20
52.65530160450835
 30
0.0
 10
-9.631349575601641
 20
52.51990569452155
 30
0.0
 10
-9.861080648665373
 20
52.38451230820942
 30
0.0
 10
-9.942838940950791
 20
52.33632756809571
 30
0.0
  0
SPLINE
  5
207
330
1B
100
AcDbEntity
 67
     1
  8
0
  6
Continuous
 62
     7
370
    25
100
AcDbSpline
210
0.0
220
0.0
230
1.0
 70
     8
 71
     3
 72
     9
 73
     5
 74
     0
 42
0.000000001
 43
0.00000001
 40
0.0
 40
0.0
 40
0.0
 40
0.0
 40
0.6560125673742866
 40
1.0
 40
1.0
 40
1.0
 40
1.0
 10
-9.253847772026456
 20
54.04251187623853
 30
0.0
 10
-9.401741081732531
 20
53.95530159806066
 30
0.0
 10
-9.627183881247827
 20
53.82236164764641
 30
0.0
 10
-9.852747344754846
 20
53.68942417512942
 30
0.0
 10
-9.930338341460795
 20
53.64369535525856
 30
0.0
  0
SPLINE
  5
208
330
1B
100
AcDbEntity
 67
     1
  8
0
  6
Continuous
 62
     7
370
    25
100
AcDbSpline
210
0.0
220
0.0
230
1.0
 70
     8
 71
     3
 72
     9
 73
     5
 74
     0
 42
0.000000001
 43
0.00000001
 40
0.0
 40
0.0
 40
0.0
 40
0.0
 40
0.3326574304420803
 40
0.9999999999999999
 40
0.9999999999999999
 40
0.9999999999999999
 40
0.9999999999999999
 10
10.12686553081968
 20
47.7682444354755
 30
0.0
 10
10.05360336347153
 20
47.81057470793398
 30
0.0
 10
9.833370292919662
 20
47.93782354888798
 30
0.0
 10
9.613145019385959
 20
48.06508611394117
 30
0.0
 10
9.466179319464382
 20
48.1500138411123
 30
0.0
  0
SPLINE
  5
209
330
1B
100
AcDbEntity
 67
     1
  8
0
  6
Continuous
 62
     7
370
    25
100
AcDbSpline
210
0.0
220
0.0
230
1.0
 70
     8
 71
     3
 72
     9
 73
     5
 74
     0
 42
0.000000001
 43
0.00000001
 40
0.0
 40
0.0
 40
0.0
 40
0.0
 40
0.3446084004478658
 40
1.0
 40
1.0
 40
1.0
 40
1.0
 10
10.13891323705984
 20
49.06128326018902
 30
0.0
 10
10.06163514096723
 20
49.10593387747571
 30
0.0
 10
9.837386120942815
 20
49.2355030267729
 30
0.0
 10
9.613145040114045
 20
49.3650861504262
 30
0.0
 10
9.466179319464375
 20
49.45001384111229
 30
0.0
  0
SPLINE
  5
20A
330
1B
100
AcDbEntity
 67
     1
  8
0
  6
Continuous
 62
     7
370
    25
100
AcDbSpline
210
0.0
220
0.0
230
1.0
 70
     8
 71
     3
 72
     9
 73
     5
 74
     0
 42
0.000000001
 43
0.00000001
 40
0.0
 40
0.0
 40
0.0
 40
0.0
 40
0.3521665006540906
 40
1.0
 40
1.0
 40
1.0
 40
1.0
 10
10.14676196519802
 20
50.35674825815155
 30
0.0
 10
10.06686760862683
 20
50.40291051151311
 30
0.0
 10
9.840002315014859
 20
50.53399127381108
 30
0.0
 10
9.61314505322301
 20
50.66508617350027
 30
0.0
 10
9.466179319464366
 20
50.7500138411123
 30
0.0
  0
SPLINE
  5
20B
330
1B
100
AcDbEntity
 67
     1
  8
0
  6
Continuous
 62
     7
370
    25
100
AcDbSpline
210
0.0
220
0.0
230
1.0
 70
     8
 71
     3
 72
     9
 73
     5
 74
     0
 42
0.000000001
 43
0.00000001
 40
0.0
 40
0.0
 40
0.0
 40
0.0
 40
0.3356128460675733
 40
1.0
 40
1.0
 40
1.0
 40
1.0
 10
10.12980452971022
 20
51.6665462793256
 30
0.0
 10
10.05556268962992
 20
51.70944259250682
 30
0.0
 10
9.83434994121996
 20
51.83725746516103
 30
0.0
 10
9.61314502451189
 20
51.96508612296375
 30
0.0
 10
9.466179319464358
 20
52.0500138411123
 30
0.0
  0
SPLINE
  5
20C
330
1B
100
AcDbEntity
 67
     1
  8
0
  6
Continuous
 62
     7
370
    25
100
AcDbSpline
210
0.0
220
0.0
230
1.0
 70
     8
 71
     3
 72
     9
 73
     5
 74
     0
 42
0.000000001
 43
0.00000001
 40
0.0
 40
0.0
 40
0.0
 40
0.0
 40
0.3335066962118855
 40
0.9999999999999999
 40
0.9999999999999999
 40
0.9999999999999999
 40
0.9999999999999999
 10
10.12770741027835
 20
52.96775799678208
 30
0.0
 10
10.05416461460522
 20
53.0102504122352
 30
0.0
 10
9.833650914255388
 20
53.13766139359111
 30
0.0
 10
9.613145020858914
 20
53.26508611653386
 30
0.0
 10
9.466179319464347
 20
53.35001384111229
 30
0.0
  0
SPLINE
  5
20D
330
1B
100
AcDbEntity
 67
     1
  8
0
  6
Continuous
 62
     7
370
    25
100
AcDbSpline
210
0.0
220
0.0
230
1.0
 70
     8
 71
     3
 72
     9
 73
     5
 74
     0
 42
0.000000001
 43
0.00000001
 40
0.0
 40
0.0
 40
0.0
 40
0.0
 40
0.3401009307047665
 40
1.0
 40
1.0
 40
1.0
 40
1.0
 10
10.13431802723593
 20
54.26393837647626
 30
0.0
 10
10.05857167800973
 20
54.30770397305722
 30
0.0
 10
9.835854412669622
 20
54.43638811540946
 30
0.0
 10
9.613145032296128
 20
54.56508613666539
 30
0.0
 10
9.466179319464338
 20
54.65001384111229
 30
0.0
  0
SPLINE
  5
20E
330
1B
100
AcDbEntity
 67
     1
  8
0
  6
Continuous
 62
     7
370
    25
100
AcDbSpline
210
0.0
220
0.0
230
1.0
 70
     8
 71
     3
 72
     9
 73
     5
 74
     0
 42
0.000000001
 43
0.00000001
 40
0.0
 40
0.0
 40
0.0
 40
0.0
 40
0.338424583691907
 40
0.9999999999999999
 40
0.9999999999999999
 40
0.9999999999999999
 40
0.9999999999999999
 10
10.13262502331784
 20
46.46491659563268
 30
0.0
 10
10.05744301248336
 20
46.50835612576623
 30
0.0
 10
9.835290088442454
 20
46.63671420678879
 30
0.0
 10
9.61314502938868
 20
46.76508613154768
 30
0.0
 10
9.466179319464393
 20
46.85001384111229
 30
0.0
  0
SPLINE
  5
20F
330
1B
100
AcDbEntity
 67
     1
  8
0
  6
Continuous
 62
     7
370
    25
100
AcDbSpline
210
0.0
220
0.0
230
1.0
 70
     8
 71
     3
 72
     9
 73
     5
 74
     0
 42
0.000000001
 43
0.00000001
 40
0.0
 40
0.0
 40
0.0
 40
0.0
 40
0.3967872058863167
 40
0.9999999999999999
 40
0.9999999999999999
 40
0.9999999999999999
 40
0.9999999999999999
 10
-9.943089856561159
 20
49.16381213686402
 30
0.0
 10
-9.861439089331485
 20
49.11569565247856
 30
0.0
 10
-9.655659351430682
 20
48.99443044112177
 30
0.0
 10
-9.449989828807517
 20
48.8731629665472
 30
0.0
 10
-9.325927341401973
 20
48.80001287437398
 30
0.0
  0
SPLINE
  5
210
330
1B
100
AcDbEntity
 67
     1
  8
0
  6
Continuous
 62
     7
370
    25
100
AcDbSpline
210
0.0
220
0.0
230
1.0
 70
     8
 71
     3
 72
     9
 73
     5
 74
     0
 42
0.000000001
 43
0.00000001
 40
0.0
 40
0.0
 40
0.0
 40
0.0
 40
0.3816586379789967
 40
1.0
 40
1.0
 40
1.0
 40
1.0
 10
-9.927986877547916
 20
50.45491135668311
 30
0.0
 10
-9.85137100024634
 20
50.40976178745154
 30
0.0
 10
-9.650626487539174
 20
50.29146348436418
 30
0.0
 10
-9.449989493542
 20
50.17316297343174
 30
0.0
 10
-9.325927341401986
 20
50.10001287437397
 30
0.0
  0
SPLINE
  5
211
330
1B
100
AcDbEntity
 67
     1
  8
0
  6
Continuous
 62
     7
370
    25
100
AcDbSpline
210
0.0
220
0.0
230
1.0
 70
     8
 71
     3
 72
     9
 73
     5
 74
     0
 42
0.000000001
 43
0.00000001
 40
0.0
 40
0.0
 40
0.0
 40
0.0
 40
0.3734997345674158
 40
1.0
 40
1.0
 40
1.0
 40
1.0
 10
-9.920144533760373
 20
51.75028955471314
 30
0.0
 10
-9.846143056982646
 20
51.70668058026687
 30
0.0
 10
-9.648013125609502
 20
51.58992286825193
 30
0.0
 10
-9.449989312731828
 20
51.4731629771446
 30
0.0
 10
-9.325927341401993
 20
51.40001287437399
 30
0.0
  0
SPLINE
  5
212
330
1B
100
AcDbEntity
 67
     1
  8
0
  6
Continuous
 62
     7
370
    25
100
AcDbSpline
210
0.0
220
0.0
230
1.0
 70
     8
 71
     3
 72
     9
 73
     5
 74
     0
 42
0.000000001
 43
0.00000001
 40
0.0
 40
0.0
 40
0.0
 40
0.0
 40
0.3800255383861855
 40
0.9999999999999999
 40
0.9999999999999999
 40
0.9999999999999999
 40
0.9999999999999999
 10
-9.926400618126301
 20
53.05397651155027
 30
0.0
 10
-9.85031355218046
 20
53.00913855616758
 30
0.0
 10
-9.650097887020282
 20
52.89115186618591
 30
0.0
 10
-9.449989457350751
 20
52.77316297417491
 30
0.0
 10
-9.325927341402002
 20
52.70001287437398
 30
0.0
  0
SPLINE
  5
213
330
1B
100
AcDbEntity
 67
     1
  8
0
  6
Continuous
 62
     7
370
    25
100
AcDbSpline
210
0.0
220
0.0
230
1.0
 70
     8
 71
     3
 72
     9
 73
     5
 74
     0
 42
0.000000001
 43
0.00000001
 40
0.0
 40
0.0
 40
0.0
 40
0.0
 40
0.3703869774978998
 40
1.0
 40
1.0
 40
1.0
 40
1.0
 10
-9.917206113504252
 20
54.348557827962
 30
0.0
 10
-9.844184216043642
 20
54.30552609359152
 30
0.0
 10
-9.64703393296971
 20
54.18934562023589
 30
0.0
 10
-9.44998924374977
 20
54.0731629785611
 30
0.0
 10
-9.325927341402018
 20
54.00001287437398
 30
0.0
  0
SPLINE
  5
214
330
1B
100
AcDbEntity
 67
     1
  8
0
  6
Continuous
 62
     7
370
    25
100
AcDbSpline
210
0.0
220
0.0
230
1.0
 70
     8
 71
     3
 72
     9
 73
     5
 74
     0
 42
0.000000001
 43
0.00000001
 40
0.0
 40
0.0
 40
0.0
 40
0.0
 40
0.6741636081077604
 40
1.0
 40
1.0
 40
1.0
 40
1.0
 10
9.453915928547657
 20
48.14292802866946
 30
0.0
 10
9.60516580116801
 20
48.2303233322333
 30
0.0
 10
9.829517680743473
 20
48.35995848683497
 30
0.0
 10
10.05387751205431
 20
48.48957964363613
 30
0.0
 10
10.12698210997419
 20
48.53181493368114
 30
0.0
  0
SPLINE
  5
215
330
1B
100
AcDbEntity
 67
     1
  8
0
  6
Continuous
 62
     7
370
    25
100
AcDbSpline
210
0.0
220
0.0
230
1.0
 70
     8
 71
     3
 72
     9
 73
     5
 74
     0
 42
0.000000001
 43
0.00000001
 40
0.0
 40
0.0
 40
0.0
 40
0.0
 40
0.6716794769009894
 40
0.9999999999999999
 40
0.9999999999999999
 40
0.9999999999999999
 40
0.9999999999999999
 10
9.453915928547648
 20
49.44292802866946
 30
0.0
 10
9.605165805606951
 20
49.5303233244192
 30
0.0
 10
9.830347432053458
 20
49.66043790846603
 30
0.0
 10
10.05553703964395
 20
49.79053844294312
 30
0.0
 10
10.12947140940451
 20
49.83325311847808
 30
0.0
  0
SPLINE
  5
216
330
1B
100
AcDbEntity
 67
     1
  8
0
  6
Continuous
 62
     7
370
    25
100
AcDbSpline
210
0.0
220
0.0
230
1.0
 70
     8
 71
     3
 72
     9
 73
     5
 74
     0
 42
0.000000001
 43
0.00000001
 40
0.0
 40
0.0
 40
0.0
 40
0.0
 40
0.6595110538219741
 40
1.0
 40
1.0
 40
1.0
 40
1.0
 10
9.453915928547639
 20
50.74292802866945
 30
0.0
 10
9.605165827350987
 20
50.83032328614219
 30
0.0
 10
9.834502239419944
 20
50.96283851384955
 30
0.0
 10
10.06384677989036
 20
51.09533943276312
 30
0.0
 10
10.14193606078681
 20
51.14045453101164
 30
0.0
  0
SPLINE
  5
217
330
1B
100
AcDbEntity
 67
     1
  8
0
  6
Continuous
 62
     7
370
    25
100
AcDbSpline
210
0.0
220
0.0
230
1.0
 70
     8
 71
     3
 72
     9
 73
     5
 74
     0
 42
0.000000001
 43
0.00000001
 40
0.0
 40
0.0
 40
0.0
 40
0.0
 40
0.6588323032127303
 40
1.0
 40
1.0
 40
1.0
 40
1.0
 10
9.45391592854763
 20
52.04292802866944
 30
0.0
 10
9.605165828563855
 20
52.13032328400712
 30
0.0
 10
9.83473851235405
 20
52.26297502999996
 30
0.0
 10
10.06431933291984
 20
52.39561245245763
 30
0.0
 10
10.14264489269881
 20
52.44086405638533
 30
0.0
  0
SPLINE
  5
218
330
1B
100
AcDbEntity
 67
     1
  8
0
  6
Continuous
 62
     7
370
    25
100
AcDbSpline
210
0.0
220
0.0
230
1.0
 70
     8
 71
     3
 72
     9
 73
     5
 74
     0
 42
0.000000001
 43
0.00000001
 40
0.0
 40
0.0
 40
0.0
 40
0.0
 40
0.6720442993984179
 40
1.0
 40
1.0
 40
1.0
 40
1.0
 10
9.453915928547621
 20
53.34292802866944
 30
0.0
 10
9.605165804955018
 20
53.43032332556678
 30
0.0
 10
9.830225189496767
 20
53.56036727799013
 30
0.0
 10
10.05529255084988
 20
53.69039718847063
 30
0.0
 10
10.12910467502499
 20
53.7330412388614
 30
0.0
  0
SPLINE
  5
219
330
1B
100
AcDbEntity
 67
     1
  8
0
  6
Continuous
 62
     7
370
    25
100
AcDbSpline
210
0.0
220
0.0
230
1.0
 70
     8
 71
     3
 72
     9
 73
     5
 74
     0
 42
0.000000001
 43
0.00000001
 40
0.0
 40
0.0
 40
0.0
 40
0.0
 40
0.6601086823018069
 40
1.0
 40
1.0
 40
1.0
 40
1.0
 10
9.453915928547612
 20
54.64292802866945
 30
0.0
 10
9.605165826283041
 20
54.73032328802209
 30
0.0
 10
9.83429460733167
 20
54.86271854609976
 30
0.0
 10
10.06343150942273
 20
54.99509950833809
 30
0.0
 10
10.14131315300774
 20
55.04009464803141
 30
0.0
  0
SPLINE
  5
21A
330
1B
100
AcDbEntity
 67
     1
  8
0
  6
Continuous
 62
     7
370
    25
100
AcDbSpline
210
0.0
220
0.0
230
1.0
 70
     8
 71
     3
 72
     9
 73
     5
 74
     0
 42
0.000000001
 43
0.00000001
 40
0.0
 40
0.0
 40
0.0
 40
0.0
 40
0.6653706115841084
 40
1.0
 40
1.0
 40
1.0
 40
1.0
 10
9.453915928547666
 20
46.84292802866945
 30
0.0
 10
9.60516581688043
 20
46.93032330457403
 30
0.0
 10
9.83248257193318
 20
47.06167157031199
 30
0.0
 10
10.05980738380498
 20
47.19300565326595
 30
0.0
 10
10.13587694657339
 20
47.236953897123
 30
0.0
  0
SPLINE
  5
21B
330
1B
100
AcDbEntity
 67
     1
  8
0
  6
Continuous
 62
     7
370
    25
100
AcDbSpline
210
0.0
220
0.0
230
1.0
 70
     8
 71
     3
 72
     9
 73
     5
 74
     0
 42
0.000000001
 43
0.00000001
 40
0.0
 40
0.0
 40
0.0
 40
0.0
 40
0.3794273443061034
 40
1.0
 40
1.0
 40
1.0
 40
1.0
 10
-9.925821670446425
 20
47.85363531488768
 30
0.0
 10
-9.84992760826004
 20
47.80891109129053
 30
0.0
 10
-9.649904960115958
 20
47.69103813282216
 30
0.0
 10
-9.449989444094083
 20
47.57316297444714
 30
0.0
 10
-9.32592734140197
 20
47.50001287437399
 30
0.0
  0
SPLINE
  5
220
330
1B
100
AcDbEntity
 67
     1
  8
0
  6
Continuous
 62
     7
370
    25
100
AcDbSpline
210
0.0
220
0.0
230
1.0
 70
     8
 71
     3
 72
    15
 73
    11
 74
     0
 42
0.000000001
 43
0.00000001
 40
0.0
 40
0.0
 40
0.0
 40
0.0
 40
0.1071370689376799
 40
0.216060307761207
 40
0.3554940549497596
 40
0.498970872955269
 40
0.6386775435848082
 40
0.7824345133337007
 40
0.9222614770531674
 40
1.0
 40
1.0
 40
1.0
 40
1.0
 10
3.807847198721235
 20
46.1999999999993
 30
0.0
 10
4.201089057043511
 20
46.20885053353549
 30
0.0
 10
4.994128831009349
 20
46.22669915510637
 30
0.0
 10
6.190967385948856
 20
46.25588315702051
 30
0.0
 10
7.378711437010042
 20
46.28559453504224
 30
0.0
 10
8.447922016084254
 20
46.32047893368289
 30
0.0
 10
9.295072991522684
 20
46.35572055657228
 30
0.0
 10
9.856904302208969
 20
46.39261962887908
 30
0.0
 10
10.1456972925289
 20
46.42272983404744
 30
0.0
 10
10.12905101295835
 20
46.43975289719005
 30
0.0
 10
10.12310311558637
 20
46.44583542344463
 30
0.0
  0
SPLINE
  5
221
330
1B
100
AcDbEntity
 67
     1
  8
0
  6
Continuous
 62
     7
370
    25
100
AcDbSpline
210
0.0
220
0.0
230
1.0
 70
     8
 71
     3
 72
    27
 73
    23
 74
     0
 42
0.000000001
 43
0.00000001
 40
0.0
 40
0.0
 40
0.0
 40
0.0
 40
0.0441958542300518
 40
0.0990254973340117
 40
0.1524167849144338
 40
0.2073750750774123
 40
0.2605327239359178
 40
0.3152527654411119
 40
0.368153076902445
 40
0.4226066712386832
 40
0.4752289779980378
 40
0.529384151537259
 40
0.5747602775249939
 40
0.6211001300779073
 40
0.6664786246716631
 40
0.7128248238731633
 40
0.7654469350498415
 40
0.8195908792004176
 40
0.8724129773516015
 40
0.9267504851457268
 40
0.9799554584422142
 40
1.0
 40
1.0
 40
1.0
 40
1.0
 10
-10.13985297452114
 20
47.09579312272787
 30
0.0
 10
-10.12891170900618
 20
47.10504667598404
 30
0.0
 10
-10.10439664355586
 20
47.12578024317634
 30
0.0
 10
-9.720731580245186
 20
47.15660603114791
 30
0.0
 10
-9.059391669281707
 20
47.18882294546184
 30
0.0
 10
-8.135755033501596
 20
47.21957316045997
 30
0.0
 10
-6.972906143716764
 20
47.24627329060696
 30
0.0
 10
-5.622000756435232
 20
47.27537573631648
 30
0.0
 10
-4.100247359632506
 20
47.30466521318019
 30
0.0
 10
-2.47876618283343
 20
47.33650261961012
 30
0.0
 10
-0.7746471436769186
 20
47.36805476246632
 30
0.0
 10
0.8561822954258232
 20
47.39821168051692
 30
0.0
 10
2.395431808774781
 20
47.4311309983476
 30
0.0
 10
3.793099400801479
 20
47.46301264836669
 30
0.0
 10
5.119358933766971
 20
47.49800463471814
 30
0.0
 10
6.393834307207642
 20
47.53455929483489
 30
0.0
 10
7.587482191853476
 20
47.57186757522233
 30
0.0
 10
8.615065883938252
 20
47.61379322034819
 30
0.0
 10
9.416457382432249
 20
47.65510634043954
 30
0.0
 10
9.926168804985144
 20
47.69668977223243
 30
0.0
 10
10.16795711488645
 20
47.72644974035254
 30
0.0
 10
10.1345031302042
 20
47.7414809595254
 30
0.0
 10
10.12534853324105
 20
47.74559421403602
 30
0.0
  0
SPLINE
  5
222
330
1B
100
AcDbEntity
 67
     1
  8
0
  6
Continuous
 62
     7
370
    25
100
AcDbSpline
210
0.0
220
0.0
230
1.0
 70
     8
 71
     3
 72
    27
 73
    23
 74
     0
 42
0.000000001
 43
0.00000001
 40
0.0
 40
0.0
 40
0.0
 40
0.0
 40
0.0002670334642111
 40
0.0541019758783334
 40
0.1094885390400364
 40
0.1634225457093394
 40
0.2189551668216658
 40
0.2723386265958313
 40
0.327311364309608
 40
0.3800842011347553
 40
0.4344247013887712
 40
0.4866631925685638
 40
0.5404329705483288
 40
0.5924202796825498
 40
0.645904307970525
 40
0.6980030387177759
 40
0.7515803654481645
 40
0.8041506760716666
 40
0.8582060789548119
 40
0.9114582167556577
 40
0.9662247549938551
 40
1.0
 40
1.0
 40
1.0
 40
1.0
 10
-10.15927908879656
 20
48.39576323139833
 30
0.0
 10
-10.15951927727068
 20
48.39582310341076
 30
0.0
 10
-10.20818235802449
 20
48.4079533964529
 30
0.0
 10
-10.03724322861244
 20
48.42910724450708
 30
0.0
 10
-9.630118581852296
 20
48.45869285563459
 30
0.0
 10
-8.896426364141398
 20
48.48624100811358
 30
0.0
 10
-7.921490614204593
 20
48.51020930715
 30
0.0
 10
-6.704346079471368
 20
48.53082976564161
 30
0.0
 10
-5.311740649465842
 20
48.55452963201809
 30
0.0
 10
-3.756921481433015
 20
48.57939023598576
 30
0.0
 10
-2.117993108757303
 20
48.60837622130845
 30
0.0
 10
-0.4089311113366557
 20
48.63790745562186
 30
0.0
 10
1.287968953293161
 20
48.67097699075008
 30
0.0
 10
2.960524097411043
 20
48.70968195094905
 30
0.0
 10
4.533240224166439
 20
48.7518433431878
 30
0.0
 10
5.991593006361974
 20
48.79808587565883
 30
0.0
 10
7.275940072036956
 20
48.84251236448847
 30
0.0
 10
8.36648707907491
 20
48.8899639022266
 30
0.0
 10
9.225342193092029
 20
48.93665315395572
 30
0.0
 10
9.819054440900656
 20
48.98295051814598
 30
0.0
 10
10.13445005073662
 20
49.01993360999492
 30
0.0
 10
10.12862984359559
 20
49.03825132548112
 30
0.0
 10
10.1264096610448
 20
49.04523882116769
 30
0.0
  0
SPLINE
  5
223
330
1B
100
AcDbEntity
 67
     1
  8
0
  6
Continuous
 62
     7
370
    25
100
AcDbSpline
210
0.0
220
0.0
230
1.0
 70
     8
 71
     3
 72
    26
 73
    22
 74
     0
 42
0.000000001
 43
0.00000001
 40
0.0
 40
0.0
 40
0.0
 40
0.0
 40
0.0408201321060541
 40
0.0951270924351283
 40
0.1510195992453279
 40
0.2050133351239384
 40
0.2606061374869997
 40
0.3138756981749056
 40
0.3687299645095949
 40
0.4212369941457652
 40
0.4753048638872351
 40
0.5271874340082568
 40
0.5805931113899541
 40
0.6322673592791516
 40
0.6854320261798177
 40
0.7373846783190592
 40
0.7908062518717865
 40
0.8434851936879926
 40
0.8976360700648979
 40
0.9512335150248913
 40
1.0
 40
1.0
 40
1.0
 40
1.0
 10
-10.13102406937718
 20
49.69535240812183
 30
0.0
 10
-10.12663059413986
 20
49.7038763730199
 30
0.0
 10
-10.11639205488364
 20
49.72374059086874
 30
0.0
 10
-9.754219334309619
 20
49.74944065160816
 30
0.0
 10
-9.110495402212246
 20
49.77362267936375
 30
0.0
 10
-8.17944580390569
 20
49.7948405774716
 30
0.0
 10
-7.025154690455651
 20
49.81041227241642
 30
0.0
 10
-5.653217887853415
 20
49.82951105757603
 30
0.0
 10
-4.142273162887409
 20
49.84980482440017
 30
0.0
 10
-2.50094683607086
 20
49.87572646882892
 30
0.0
 10
-0.8171377864767858
 20
49.9037969632457
 30
0.0
 10
0.8993188175590857
 20
49.93573398261236
 30
0.0
 10
2.564880458026082
 20
49.97491840341356
 30
0.0
 10
4.170682715593913
 20
50.01881940266577
 30
0.0
 10
5.643929017073129
 20
50.06796971290265
 30
0.0
 10
6.975657750516049
 20
50.11723580384915
 30
0.0
 10
8.106683722375623
 20
50.16748694260909
 30
0.0
 10
9.027751898477412
 20
50.21896449286645
 30
0.0
 10
9.689024543976249
 20
50.26812300464917
 30
0.0
 10
10.09367790196013
 20
50.31276713795864
 30
0.0
 10
10.12830964682538
 20
50.33486363604345
 30
0.0
 10
10.14480831453678
 20
50.34539047437936
 30
0.0
  0
SPLINE
  5
224
330
1B
100
AcDbEntity
 67
     1
  8
0
  6
Continuous
 62
     7
370
    25
100
AcDbSpline
210
0.0
220
0.0
230
1.0
 70
     8
 71
     3
 72
    27
 73
    23
 74
     0
 42
0.000000001
 43
0.00000001
 40
0.0
 40
0.0
 40
0.0
 40
0.0
 40
0.0267278517866892
 40
0.0825557304098859
 40
0.1371071921515609
 40
0.1932908902336485
 40
0.2470767696774426
 40
0.3024811663947871
 40
0.3553227065410998
 40
0.4097454439756052
 40
0.4617296510203018
 40
0.5152390126217028
 40
0.5668133634933213
 40
0.6198707727370106
 40
0.6716016472258781
 40
0.7248035924821402
 40
0.7770886640608472
 40
0.830848983581646
 40
0.8839733769401547
 40
0.9385973089975956
 40
0.9925761452744769
 40
0.9999999999999999
 40
0.9999999999999999
 40
0.9999999999999999
 40
0.9999999999999999
 10
-10.1236696180817
 20
50.99502617823642
 30
0.0
 10
-10.13076183318735
 20
51.00079737818727
 30
0.0
 10
-10.15266793334624
 20
51.01862318892159
 30
0.0
 10
-9.868879767329961
 20
51.04215864058416
 30
0.0
 10
-9.291517155093533
 20
51.06564189544134
 30
0.0
 10
-8.426043169262849
 20
51.0858638470405
 30
0.0
 10
-7.310369546739402
 20
51.10009030105014
 30
0.0
 10
-5.996543192524039
 20
51.11577312302212
 30
0.0
 10
-4.501722240025275
 20
51.13411993667971
 30
0.0
 10
-2.904818379056644
 20
51.1570498428587
 30
0.0
 10
-1.217540638898307
 20
51.18467972169312
 30
0.0
 10
0.4756095916734917
 20
51.21465901796114
 30
0.0
 10
2.165159589975497
 20
51.25375228914334
 30
0.0
 10
3.775840500031458
 20
51.29726617607857
 30
0.0
 10
5.293909759132261
 20
51.34778366003406
 30
0.0
 10
6.657375227573586
 20
51.39909343786288
 30
0.0
 10
7.849701759572815
 20
51.45083010339827
 30
0.0
 10
8.819029771246429
 20
51.50417347099032
 30
0.0
 10
9.561512138237902
 20
51.55537940224242
 30
0.0
 10
10.002695563375
 20
51.6031367667002
 30
0.0
 10
10.19498164734776
 20
51.63201532118733
 30
0.0
 10
10.14809803987113
 20
51.64402678108201
 30
0.0
 10
10.14242960604139
 20
51.64547901927946
 30
0.0
  0
SPLINE
  5
225
330
1B
100
AcDbEntity
 67
     1
  8
0
  6
Continuous
 62
     7
370
    25
100
AcDbSpline
210
0.0
220
0.0
230
1.0
 70
     8
 71
     3
 72
    27
 73
    23
 74
     0
 42
0.000000001
 43
0.00000001
 40
0.0
 40
0.0
 40
0.0
 40
0.0
 40
0.0138552781646891
 40
0.0683758060244494
 40
0.1244769695434733
 40
0.178845194151352
 40
0.2348382216316577
 40
0.2883472709037572
 40
0.3434685868904137
 40
0.395999893208928
 40
0.4501059708635437
 40
0.5018844565204009
 40
0.5551856629607791
 40
0.6067175544312646
 40
0.6597254785121902
 40
0.7116006411733538
 40
0.764929330100123
 40
0.8176130287151963
 40
0.8717679374909945
 40
0.9253666803825285
 40
0.98048407618216
 40
1.0
 40
1.0
 40
1.0
 40
1.0
 10
-10.13170379089936
 20
52.29511508431941
 30
0.0
 10
-10.14020174127173
 20
52.29821813138152
 30
0.0
 10
-10.18213913143888
 20
52.31353167048778
 30
0.0
 10
-9.960828456351026
 20
52.33588269670535
 30
0.0
 10
-9.465622860315687
 20
52.36084702232778
 30
0.0
 10
-8.654821044065983
 20
52.38315924256709
 30
0.0
 10
-7.607153658519228
 20
52.39971930939272
 30
0.0
 10
-6.323326844387928
 20
52.41562052910694
 30
0.0
 10
-4.880244121760614
 20
52.43474341859527
 30
0.0
 10
-3.287931749603629
 20
52.45751609163523
 30
0.0
 10
-1.632066692842649
 20
52.48541448976357
 30
0.0
 10
0.0777295232979207
 20
52.51528158397608
 30
0.0
 10
1.75813629064037
 20
52.55250895431499
 30
0.0
 10
3.400760675730466
 20
52.59532469007888
 30
0.0
 10
4.9331035720518
 20
52.64350212240226
 30
0.0
 10
6.343164600048613
 20
52.69446707086959
 30
0.0
 10
7.574736202020102
 20
52.74376987303005
 30
0.0
 10
8.606637389035855
 20
52.79597015721138
 30
0.0
 10
9.405640057630253
 20
52.84551514320891
 30
0.0
 10
9.925114376911853
 20
52.89355801848986
 30
0.0
 10
10.16935825999982
 20
52.92626297426509
 30
0.0
 10
10.13533551909581
 20
52.94132166378066
 30
0.0
 10
10.1264388865601
 20
52.94525937201725
 30
0.0
  0
SPLINE
  5
226
330
1B
100
AcDbEntity
 67
     1
  8
0
  6
Continuous
 62
     7
370
    25
100
AcDbSpline
210
0.0
220
0.0
230
1.0
 70
     8
 71
     3
 72
    27
 73
    23
 74
     0
 42
0.000000001
 43
0.00000001
 40
0.0
 40
0.0
 40
0.0
 40
0.0
 40
0.0013160815070876
 40
0.0567427759147205
 40
0.110861732668883
 40
0.1665794123382357
 40
0.2201861952155013
 40
0.2753766609000039
 40
0.3283745481249472
 40
0.3829355315001032
 40
0.4353472893443407
 40
0.4892920960111991
 40
0.5414336018049112
 40
0.5950931730478959
 40
0.6471984328612667
 40
0.7007998563797038
 40
0.753292049938412
 40
0.8072822617725101
 40
0.8603106042359393
 40
0.9148537111635204
 40
0.9682973792571106
 40
1.0
 40
1.0
 40
1.0
 40
1.0
 10
-10.15658673712292
 20
53.59570406955044
 30
0.0
 10
-10.15772052732243
 20
53.5960010576752
 30
0.0
 10
-10.20660382435092
 20
53.60880568301293
 30
0.0
 10
-10.03053948891257
 20
53.62981686393395
 30
0.0
 10
-9.606814957287693
 20
53.6589877166911
 30
0.0
 10
-8.869652329680433
 20
53.68567762112755
 30
0.0
 10
-7.876605562619129
 20
53.70935919123092
 30
0.0
 10
-6.66711990971371
 20
53.72980972245861
 30
0.0
 10
-5.255266494228737
 20
53.75444793090248
 30
0.0
 10
-3.715575996593035
 20
53.78033541025612
 30
0.0
 10
-2.058731492661068
 20
53.81157577172055
 30
0.0
 10
-0.3680824559855068
 20
53.84282670833812
 30
0.0
 10
1.345336440112537
 20
53.8787003857889
 30
0.0
 10
3.001084772989866
 20
53.91918257643258
 30
0.0
 10
4.585637807799012
 20
53.96336293073772
 30
0.0
 10
6.029228049935895
 20
54.00972224371511
 30
0.0
 10
7.320706444066118
 20
54.0536606177423
 30
0.0
 10
8.398831456415389
 20
54.09915354162195
 30
0.0
 10
9.257972625797521
 20
54.14360440448817
 30
0.0
 10
9.836465119479469
 20
54.18701089485628
 30
0.0
 10
10.14041989191951
 20
54.22130845141285
 30
0.0
 10
10.12777965676978
 20
54.23890444992474
 30
0.0
 10
10.12307330272278
 20
54.2454559893405
 30
0.0
  0
SPLINE
  5
228
330
1B
100
AcDbEntity
 67
     1
  8
0
  6
Continuous
 62
     7
370
    25
100
AcDbSpline
210
0.0
220
0.0
230
1.0
 70
    24
 71
     3
 72
    15
 73
    11
 74
     0
 42
0.000000001
 43
0.00000001
 40
0.5
 40
0.5
 40
0.5
 40
0.5
 40
0.5625
 40
0.625
 40
0.6874999999999999
 40
0.75
 40
0.8125
 40
0.875
 40
0.9375
 40
0.9999683798455646
 40
0.9999683798455646
 40
0.9999683798455646
 40
0.9999683798455646
 10
10.15999999999961
 20
55.20000000000015
 30
0.0
 10
10.15999999999966
 20
55.20000000000017
 30
0.0
 10
9.631630258845824
 20
55.20000000000011
 30
0.0
 10
7.371327210314855
 20
55.19999999999989
 30
0.0
 10
3.989476416833
 20
55.20000000000036
 30
0.0
 10
-0.0000000000002386
 20
55.20000000000053
 30
0.0
 10
-3.989476416833493
 20
55.19999999999925
 30
0.0
 10
-7.371327210315433
 20
55.20000000000078
 30
0.0
 10
-9.631249079478609
 20
55.19999999999944
 30
0.0
 10
-10.15973262326179
 20
55.20000000000002
 30
0.0
 10
-10.15999979714259
 20
55.2
 30
0.0
  0
SPLINE
  5
229
330
1B
100
AcDbEntity
 67
     1
  8
0
  6
Continuous
 62
     7
370
    25
100
AcDbSpline
210
0.0
220
0.0
230
1.0
 70
     8
 71
     3
 72
    27
 73
    23
 74
     0
 42
0.000000001
 43
0.00000001
 40
0.0
 40
0.0
 40
0.0
 40
0.0
 40
0.007655833710546
 40
0.0625143100037323
 40
0.1161057268483836
 40
0.1712539003123867
 40
0.2248909042595138
 40
0.2800843005717735
 40
0.3336959132136409
 40
0.3888637047373231
 40
0.4423373019753009
 40
0.4973648635520834
 40
0.5506615109222915
 40
0.6055061054474353
 40
0.6587267173020471
 40
0.7134995474396618
 40
0.766633726661402
 40
0.821303795545231
 40
0.8746439939701278
 40
0.9295166090897153
 40
0.9832234046672452
 40
1.0
 40
1.0
 40
1.0
 40
1.0
 10
10.13700119532048
 20
55.04755902093142
 30
0.0
 10
10.1398265172183
 20
55.04597720067
 30
0.0
 10
10.16289690454104
 20
55.03306072338872
 30
0.0
 10
9.929878869012946
 20
55.00818192161096
 30
0.0
 10
9.424656262318335
 20
54.97477982207409
 30
0.0
 10
8.625654693296704
 20
54.94061068772355
 30
0.0
 10
7.582114408917158
 20
54.90996702308462
 30
0.0
 10
6.328443991883569
 20
54.88067413216832
 30
0.0
 10
4.882852492670144
 20
54.84957404947527
 30
0.0
 10
3.311938718854968
 20
54.818509216671
 30
0.0
 10
1.631970453578746
 20
54.78568692865304
 30
0.0
 10
-0.076458006931944
 20
54.75568937590793
 30
0.0
 10
-1.79669103678118
 20
54.72186339337839
 30
0.0
 10
-3.448556457588205
 20
54.68679429636253
 30
0.0
 10
-5.015722253646195
 20
54.64826083061135
 30
0.0
 10
-6.425564673030124
 20
54.60962180037178
 30
0.0
 10
-7.665367153745883
 20
54.57204931394773
 30
0.0
 10
-8.676504709614424
 20
54.53151084567148
 30
0.0
 10
-9.460350494542919
 20
54.49127789383129
 30
0.0
 10
-9.949681064022473
 20
54.45044032795257
 30
0.0
 10
-10.17535844712925
 20
54.42205303706668
 30
0.0
 10
-10.13755197625855
 20
54.40774276407765
 30
0.0
 10
-10.1285532057033
 20
54.40433660475504
 30
0.0
  0
SPLINE
  5
22A
330
1B
100
AcDbEntity
 67
     1
  8
0
  6
Continuous
 62
     7
370
    25
100
AcDbSpline
210
0.0
220
0.0
230
1.0
 70
     8
 71
     3
 72
    27
 73
    23
 74
     0
 42
0.000000001
 43
0.00000001
 40
0.0
 40
0.0
 40
0.0
 40
0.0
 40
0.0207902888175001
 40
0.0766357034456391
 40
0.1311986474976878
 40
0.187378254757767
 40
0.2414504443872017
 40
0.2971312819416864
 40
0.3505813088480306
 40
0.4056146175020468
 40
0.4584811034788452
 40
0.5128934910026409
 40
0.5654400473571182
 40
0.619501013866323
 40
0.6721196824570477
 40
0.7262458524500712
 40
0.7792028669040141
 40
0.8336660340330652
 40
0.8872412126099974
 40
0.9423361461938544
 40
0.99664446787631
 40
1.0
 40
1.0
 40
1.0
 40
1.0
 10
10.12047912290297
 20
53.74797153993334
 30
0.0
 10
10.12190690167863
 20
53.74363704440984
 30
0.0
 10
10.12716987959094
 20
53.72765953123334
 30
0.0
 10
9.83184356602681
 20
53.7036158207459
 30
0.0
 10
9.24038133272044
 20
53.67636218614072
 30
0.0
 10
8.363885404814425
 20
53.65121336173262
 30
0.0
 10
7.242419296457721
 20
53.63137366922683
 30
0.0
 10
5.923771494314154
 20
53.60999697387059
 30
0.0
 10
4.426101268169863
 20
53.58700893050921
 30
0.0
 10
2.82388911185069
 20
53.56064403750788
 30
0.0
 10
1.131192469258642
 20
53.5315295029693
 30
0.0
 10
-0.5692486086194303
 20
53.50151636015517
 30
0.0
 10
-2.264922732712579
 20
53.4641450755485
 30
0.0
 10
-3.879317854725168
 20
53.4237404339756
 30
0.0
 10
-5.397308279363916
 20
53.37739941501871
 30
0.0
 10
-6.754730248676516
 20
53.33116166026372
 30
0.0
 10
-7.935428741160313
 20
53.28406435962625
 30
0.0
 10
-8.88742596140717
 20
53.23527113336282
 30
0.0
 10
-9.60956114327321
 20
53.18767302853578
 30
0.0
 10
-10.02483870498275
 20
53.14271640836868
 30
0.0
 10
-10.20249840057667
 20
53.11623283639585
 30
0.0
 10
-10.15431332809262
 20
53.10497306194631
 30
0.0
 10
-10.1515093781668
 20
53.10431784152003
 30
0.0
  0
SPLINE
  5
22B
330
1B
100
AcDbEntity
 67
     1
  8
0
  6
Continuous
 62
     7
370
    25
100
AcDbSpline
210
0.0
220
0.0
230
1.0
 70
     8
 71
     3
 72
    27
 73
    23
 74
     0
 42
0.000000001
 43
0.00000001
 40
0.0
 40
0.0
 40
0.0
 40
0.0
 40
0.0067506597922281
 40
0.0617457473689297
 40
0.1183307273615924
 40
0.1732339204130845
 40
0.2297736201929664
 40
0.283859891112032
 40
0.3395738427374848
 40
0.3926901678338391
 40
0.4473977975528381
 40
0.4997583087307156
 40
0.5536609502444315
 40
0.6057386847737258
 40
0.6593137683079459
 40
0.7116581711877146
 40
0.765472989043788
 40
0.818586859902111
 40
0.8731782205215239
 40
0.9273131273274406
 40
0.9829688718355254
 40
1.0
 40
1.0
 40
1.0
 40
1.0
 10
10.13850927525944
 20
52.44802327815587
 30
0.0
 10
10.14136391271774
 20
52.44655597909873
 30
0.0
 10
10.16747420841555
 20
52.43313514621934
 30
0.0
 10
9.93425125415646
 20
52.41245593603097
 30
0.0
 10
9.42742279868887
 20
52.38770659084454
 30
0.0
 10
8.600465362599763
 20
52.36572996566985
 30
0.0
 10
7.539793814090932
 20
52.34976394167673
 30
0.0
 10
6.243859596282758
 20
52.33396216621317
 30
0.0
 10
4.790895224256625
 20
52.31533904793589
 30
0.0
 10
3.190636335076066
 20
52.29290914627149
 30
0.0
 10
1.52945977622406
 20
52.26576091039637
 30
0.0
 10
-0.1832028425138916
 20
52.23653902277829
 30
0.0
 10
-1.863326476985505
 20
52.19965108869692
 30
0.0
 10
-3.502653159259831
 20
52.157268649726
 30
0.0
 10
-5.027601007812271
 20
52.10906409168064
 30
0.0
 10
-6.427037435047521
 20
52.05802868203698
 30
0.0
 10
-7.644341694376906
 20
52.00793109608623
 30
0.0
 10
-8.660051146055464
 20
51.95466982638655
 30
0.0
 10
-9.442679054797743
 20
51.90389810781709
 30
0.0
 10
-9.944252346948353
 20
51.85489822240819
 30
0.0
 10
-10.17530924782331
 20
51.82247162351899
 30
0.0
 10
-10.13763421729255
 20
51.80814318548446
 30
0.0
 10
-10.12880664981059
 20
51.80478591538064
 30
0.0
  0
SPLINE
  5
22C
330
1B
100
AcDbEntity
 67
     1
  8
0
  6
Continuous
 62
     7
370
    25
100
AcDbSpline
210
0.0
220
0.0
230
1.0
 70
     8
 71
     3
 72
    27
 73
    23
 74
     0
 42
0.000000001
 43
0.00000001
 40
0.0
 40
0.0
 40
0.0
 40
0.0
 40
0.0459715423039395
 40
0.0976929123398643
 40
0.1509473297466036
 40
0.2020957105995125
 40
0.254772040201786
 40
0.3050702065380814
 40
0.3568683529156844
 40
0.4063325463446437
 40
0.4572546367998479
 40
0.5062575695876625
 40
0.5566892290141287
 40
0.6056088661905082
 40
0.6559297437130623
 40
0.7052776279991141
 40
0.7560185517680256
 40
0.8061646731642709
 40
0.8577195606214225
 40
0.908704981376407
 40
0.9611260407678869
 40
1.0
 40
1.0
 40
1.0
 40
1.0
 10
10.1375841512529
 20
51.1479860274717
 30
0.0
 10
10.10520980500696
 20
51.1383226935701
 30
0.0
 10
10.03641193546943
 20
51.11778739750545
 30
0.0
 10
9.569274879594985
 20
51.09399934246201
 30
0.0
 10
8.82761115614883
 20
51.0721198530053
 30
0.0
 10
7.810661626986917
 20
51.05526440688693
 30
0.0
 10
6.581903609453704
 20
51.04145408057095
 30
0.0
 10
5.151206342893992
 20
51.02346979345781
 30
0.0
 10
3.598994627282528
 20
51.00315911398853
 30
0.0
 10
1.934446931740732
 20
50.97637028820692
 30
0.0
 10
0.2444157203834525
 20
50.94787173673447
 30
0.0
 10
-1.462614286603639
 20
50.91216671561194
 30
0.0
 10
-3.105970616541776
 20
50.87024646608959
 30
0.0
 10
-4.67436063508949
 20
50.82229755527849
 30
0.0
 10
-6.10014250345432
 20
50.77072905900011
 30
0.0
 10
-7.372284839078556
 20
50.71998590302938
 30
0.0
 10
-8.43502223375533
 20
50.66704832454978
 30
0.0
 10
-9.276793551700445
 20
50.61548114528694
 30
0.0
 10
-9.858263122477993
 20
50.56584347603687
 30
0.0
 10
-10.15811377545272
 20
50.52271320017268
 30
0.0
 10
-10.19863632128827
 20
50.49103401530925
 30
0.0
 10
-10.00392754558156
 20
50.47421040197758
 30
0.0
 10
-9.921019396560157
 20
50.46704680785545
 30
0.0
  0
SPLINE
  5
22D
330
1B
100
AcDbEntity
 67
     1
  8
0
  6
Continuous
 62
     7
370
    25
100
AcDbSpline
210
0.0
220
0.0
230
1.0
 70
     8
 71
     3
 72
    27
 73
    23
 74
     0
 42
0.000000001
 43
0.00000001
 40
0.0
 40
0.0
 40
0.0
 40
0.0
 40
0.0330134813399464
 40
0.0860497022842014
 40
0.1375615000621674
 40
0.1906160592440681
 40
0.2413619202962423
 40
0.2936334917353846
 40
0.34355477669355
 40
0.3949695582747036
 40
0.4441939154228555
 40
0.4948598415835222
 40
0.5438240517440418
 40
0.5941885751250275
 40
0.6434026460096214
 40
0.6940022355227743
 40
0.7438985547827996
 40
0.7952053544030644
 40
0.8457716272079622
 40
0.8977797066014747
 40
0.9488688000768857
 40
1.0
 40
1.0
 40
1.0
 40
1.0
 10
10.12088192732816
 20
49.84811956581048
 30
0.0
 10
10.11027522664042
 20
49.84095677422246
 30
0.0
 10
10.0826288410018
 20
49.82228694424221
 30
0.0
 10
9.703966300962737
 20
49.79834260535168
 30
0.0
 10
9.025371406682828
 20
49.77389313483964
 30
0.0
 10
8.076373520099848
 20
49.75323265105546
 30
0.0
 10
6.886218023819335
 20
49.73704674405738
 30
0.0
 10
5.514341646576633
 20
49.71721576480441
 30
0.0
 10
3.976223074525489
 20
49.69550637748335
 30
0.0
 10
2.351153831141777
 20
49.66831178847298
 30
0.0
 10
0.6517504298552578
 20
49.63873104971459
 30
0.0
 10
-1.039648080711691
 20
49.60537288480896
 30
0.0
 10
-2.712686335597785
 20
49.56447651911714
 30
0.0
 10
-4.294243858907933
 20
49.51984319845479
 30
0.0
 10
-5.769461894613604
 20
49.4699923082386
 30
0.0
 10
-7.080662393203238
 20
49.42181109243962
 30
0.0
 10
-8.207073473822469
 20
49.37192814818609
 30
0.0
 10
-9.103180826248083
 20
49.32258306922266
 30
0.0
 10
-9.752040524854904
 20
49.27464191548525
 30
0.0
 10
-10.11567099240928
 20
49.23118067845261
 30
0.0
 10
-10.21479547860054
 20
49.19613320377497
 30
0.0
 10
-10.0329964419045
 20
49.17577573032011
 30
0.0
 10
-9.942059480347421
 20
49.16559280078095
 30
0.0
  0
SPLINE
  5
22E
330
1B
100
AcDbEntity
 67
     1
  8
0
  6
Continuous
 62
     7
370
    25
100
AcDbSpline
210
0.0
220
0.0
230
1.0
 70
     8
 71
     3
 72
    28
 73
    24
 74
     0
 42
0.000000001
 43
0.00000001
 40
0.0
 40
0.0
 40
0.0
 40
0.0
 40
0.0217908240483833
 40
0.0729860199694621
 40
0.1256743992354193
 40
0.1765780921012973
 40
0.228979407870729
 40
0.2793905048030154
 40
0.3312944478119
 40
0.3811435938306585
 40
0.4324670573955617
 40
0.4818898479567004
 40
0.532758479260994
 40
0.5820873884321847
 40
0.6328367823077377
 40
0.6824480484179039
 40
0.7334692474179311
 40
0.7835807751384922
 40
0.8351125342408057
 40
0.8861457832025995
 40
0.9386601487287694
 40
0.9896946552810582
 40
1.0
 40
1.0
 40
1.0
 40
1.0
 10
10.11764880682981
 20
48.54797012033171
 30
0.0
 10
10.1184447151101
 20
48.54313863158968
 30
0.0
 10
10.12111052423735
 20
48.52695608002466
 30
0.0
 10
9.814430751671145
 20
48.50229678979657
 30
0.0
 10
9.21758555185967
 20
48.47453276393324
 30
0.0
 10
8.324456463758493
 20
48.44781775959805
 30
0.0
 10
7.208010883489175
 20
48.42640937990994
 30
0.0
 10
5.868980649549562
 20
48.40217803798559
 30
0.0
 10
4.383079414542848
 20
48.37671697351811
 30
0.0
 10
2.759971759247489
 20
48.34694200675832
 30
0.0
 10
1.083908052347704
 20
48.31543724139506
 30
0.0
 10
-0.6337118903907117
 20
48.28278983397827
 30
0.0
 10
-2.310809534330253
 20
48.24410603802795
 30
0.0
 10
-3.936620303737388
 20
48.20274542063048
 30
0.0
 10
-5.437438398780825
 20
48.15746444219909
 30
0.0
 10
-6.802299806831448
 20
48.11317866657612
 30
0.0
 10
-7.969765763391883
 20
48.06965274301172
 30
0.0
 10
-8.926506394818627
 20
48.02448193812686
 30
0.0
 10
-9.629640138099866
 20
47.98116310786813
 30
0.0
 10
-10.06980631780069
 20
47.93859070126044
 30
0.0
 10
-10.19381502994642
 20
47.90355737435567
 30
0.0
 10
-10.13514137659429
 20
47.87849618529388
 30
0.0
 10
-9.950839090397213
 20
47.86625236046416
 30
0.0
 10
-9.919875556049018
 20
47.86419534804998
 30
0.0
  0
SPLINE
  5
22F
330
1B
100
AcDbEntity
 67
     1
  8
0
  6
Continuous
 62
     7
370
    25
100
AcDbSpline
210
0.0
220
0.0
230
1.0
 70
     8
 71
     3
 72
    26
 73
    22
 74
     0
 42
0.000000001
 43
0.00000001
 40
0.0
 40
0.0
 40
0.0
 40
0.0
 40
0.011958026664693
 40
0.0675742060999061
 40
0.1215866949838872
 40
0.1771936459010244
 40
0.2308316981890595
 40
0.2860418719393463
 40
0.3394145161609377
 40
0.3943420450292463
 40
0.4475132811479977
 40
0.5022172651867828
 40
0.5554155067810581
 40
0.6101457726893367
 40
0.6634815958414824
 40
0.7183582813941944
 40
0.7718369942890028
 40
0.8268658581660343
 40
0.8804571065896691
 40
0.9356075106532544
 40
1.0
 40
1.0
 40
1.0
 40
1.0
 10
10.12968068712055
 20
47.2476798725481
 30
0.0
 10
10.13303080261239
 20
47.24519240010015
 30
0.0
 10
10.1519621364396
 20
47.23113581864411
 30
0.0
 10
9.898488155605994
 20
47.20633117158315
 30
0.0
 10
9.361197617745244
 20
47.17427278165327
 30
0.0
 10
8.534074631801161
 20
47.14167157638699
 30
0.0
 10
7.463800174422088
 20
47.11252881763561
 30
0.0
 10
6.190745430522027
 20
47.08312707656604
 30
0.0
 10
4.731952597098958
 20
47.05131557575737
 30
0.0
 10
3.155770304337112
 20
47.01816358574534
 30
0.0
 10
1.477349375177395
 20
46.98290407633179
 30
0.0
 10
-0.2254121136626474
 20
46.95023493705821
 30
0.0
 10
-1.936837392414436
 20
46.91314030071331
 30
0.0
 10
-3.580123746241437
 20
46.87561694041223
 30
0.0
 10
-5.136399604796564
 20
46.83520629861781
 30
0.0
 10
-6.536790197013319
 20
46.79652088238137
 30
0.0
 10
-7.764184725156994
 20
46.75976088092656
 30
0.0
 10
-8.763341190217766
 20
46.72105057253331
 30
0.0
 10
-9.51798953673493
 20
46.68325206974141
 30
0.0
 10
-10.0494629912727
 20
46.64220185059913
 30
0.0
 10
-10.12130082756525
 20
46.61741034445234
 30
0.0
 10
-10.15999670463661
 20
46.60405625246155
 30
0.0
  0
SPLINE
  5
231
330
1B
100
AcDbEntity
 67
     1
  8
0
  6
Continuous
 62
     7
370
    25
100
AcDbSpline
210
0.0
220
0.0
230
1.0
 70
    24
 71
     3
 72
    21
 73
    17
 74
     0
 42
0.000000001
 43
0.00000001
 40
0.0
 40
0.0
 40
0.0
 40
0.0
 40
0.0276455000389248
 40
0.0552342926245504
 40
0.0827959625197584
 40
0.1103601818201735
 40
0.137956614397946
 40
0.1656148204776418
 40
0.2483698000199917
 40
0.3311706070099982
 40
0.4139255865521234
 40
0.4967263935423616
 40
0.6620817966678634
 40
0.8274371997933653
 40
0.9927926029188673
 40
1.0
 40
1.0
 40
1.0
 40
1.0
 10
10.15999999999968
 20
46.20000000000009
 30
0.0
 10
10.15895904808544
 20
46.20000000000009
 30
0.0
 10
10.15687927949532
 20
46.2000000000001
 30
0.0
 10
10.13999943812865
 20
46.2000000000001
 30
0.0
 10
10.11303629814458
 20
46.20000000000013
 30
0.0
 10
10.07501006567656
 20
46.2000000000001
 30
0.0
 10
10.02617673606225
 20
46.20000000000012
 30
0.0
 10
9.926940379820348
 20
46.2000000000001
 30
0.0
 10
9.73838359079769
 20
46.20000000000012
 30
0.0
 10
9.401688300942395
 20
46.20000000000013
 30
0.0
 10
8.974911737744192
 20
46.20000000000013
 30
0.0
 10
8.290792643902273
 20
46.20000000000017
 30
0.0
 10
7.230359803967027
 20
46.20000000000013
 30
0.0
 10
5.681289791695202
 20
46.20000000000016
 30
0.0
 10
4.476085976117059
 20
46.20000000000013
 30
0.0
 10
3.834516622932872
 20
46.20000000000014
 30
0.0
 10
3.807720319917698
 20
46.20000000000014
 30
0.0
  0
SPLINE
  5
233
330
1B
100
AcDbEntity
 67
     1
  8
0
  6
Continuous
 62
     7
370
    25
100
AcDbSpline
210
0.0
220
0.0
230
1.0
 70
    24
 71
     3
 72
     9
 73
     5
 74
     0
 42
0.000000001
 43
0.00000001
 40
0.7486470008224362
 40
0.7486470008224362
 40
0.7486470008224362
 40
0.7486470008224362
 40
0.7500000000008694
 40
0.7513529991784332
 40
0.7513529991784332
 40
0.7513529991784332
 40
0.7513529991784332
 10
-0.0595010788922535
 20
66.70000000000165
 30
0.0
 10
-0.0396678576999346
 20
66.70000000000165
 30
0.0
 10
-0.0000000000131188
 20
66.70000000000165
 30
0.0
 10
0.0396678576736971
 20
66.70000000000165
 30
0.0
 10
0.0595010788532724
 20
66.70000000000165
 30
0.0
  0
SPLINE
  5
235
330
1B
100
AcDbEntity
 67
     1
  8
0
  6
Continuous
 62
     7
370
    25
100
AcDbSpline
210
0.0
220
0.0
230
1.0
 70
     8
 71
     3
 72
    23
 73
    19
 74
     0
 42
0.000000001
 43
0.00000001
 40
0.0
 40
0.0
 40
0.0
 40
0.0
 40
0.0626015144696989
 40
0.1264306702472167
 40
0.1902598260247345
 40
0.2528613404944334
 40
0.3154628549641322
 40
0.37929201074165
 40
0.4431211665191678
 40
0.5057226809888667
 40
0.5683241954585656
 40
0.6321533512360835
 40
0.6959825070136012
 40
0.7585840214833002
 40
0.821185535952999
 40
0.8850146917305168
 40
0.9488438475080347
 40
1.0
 40
1.0
 40
1.0
 40
1.0
 10
-9.460000000143825
 20
46.20001417124575
 30
0.0
 10
-9.42543171626118
 20
46.21302728333198
 30
0.0
 10
-9.355617250307734
 20
46.23930869995585
 30
0.0
 10
-8.79292433556251
 20
46.2812641712442
 30
0.0
 10
-7.914127970919612
 20
46.32321964254204
 30
0.0
 10
-6.73120084899013
 20
46.36251417122413
 30
0.0
 10
-5.294804630287069
 20
46.40180870003741
 30
0.0
 10
-3.64395925298949
 20
46.44376417093371
 30
0.0
 10
-1.851386055947933
 20
46.48571964369086
 30
0.0
 10
-0.0000010900195323
 20
46.52501416702901
 30
0.0
 10
1.851388731234171
 20
46.56430871583396
 30
0.0
 10
3.643947142208686
 20
46.60626411068915
 30
0.0
 10
5.294846781243111
 20
46.64821986655557
 30
0.0
 10
6.731044808805672
 20
46.68751335311222
 30
0.0
 10
7.914713657608723
 20
46.7268117805589
 30
0.0
 10
8.790689207292269
 20
46.76875242244743
 30
0.0
 10
9.329403363465186
 20
46.80823589027222
 30
0.0
 10
9.397232098878511
 20
46.83216091986739
 30
0.0
 10
9.427408624770056
 20
46.84280499675653
 30
0.0
  0
SPLINE
  5
236
330
1B
100
AcDbEntity
 67
     1
  8
0
  6
Continuous
 62
     7
370
    25
100
AcDbSpline
210
0.0
220
0.0
230
1.0
 70
     8
 71
     3
 72
    22
 73
    18
 74
     0
 42
0.000000001
 43
0.00000001
 40
0.0
 40
0.0
 40
0.0
 40
0.0
 40
0.0634735189047949
 40
0.1319027695843183
 40
0.1990159042385868
 40
0.2661290388928553
 40
0.3345582895723787
 40
0.402987540251902
 40
0.4701006749061706
 40
0.5372138095604391
 40
0.6056430602399625
 40
0.6740723109194858
 40
0.7411854455737545
 40
0.808298580228023
 40
0.8767278309075464
 40
0.9451570815870698
 40
0.9999999999999999
 40
0.9999999999999999
 40
0.9999999999999999
 40
0.9999999999999999
 10
-9.242497850062266
 20
47.54247401259096
 30
0.0
 10
-9.096988235368794
 20
47.55537146651982
 30
0.0
 10
-8.794608258484192
 20
47.5821733505678
 30
0.0
 10
-7.907896889290198
 20
47.62324944593274
 30
0.0
 10
-6.732855673499035
 20
47.6625062561647
 30
0.0
 10
-5.294351510309763
 20
47.70181086731949
 30
0.0
 10
-3.644081740104107
 20
47.74376358507534
 30
0.0
 10
-1.851353939114339
 20
47.78571979730631
 30
0.0
 10
-0.0000096194734284
 20
47.82501412623244
 30
0.0
 10
1.851391066748257
 20
47.86430872700478
 30
0.0
 10
3.643946510873906
 20
47.90626410766946
 30
0.0
 10
5.294846946782871
 20
47.94821986734736
 30
0.0
 10
6.731044764841868
 20
47.98751335290194
 30
0.0
 10
7.91471366964842
 20
48.02681178061649
 30
0.0
 10
8.79068920403139
 20
48.06875242243186
 30
0.0
 10
9.32940336409453
 20
48.10823589027524
 30
0.0
 10
9.397232099072285
 20
48.13216091986828
 30
0.0
 10
9.427408624770045
 20
48.14280499675651
 30
0.0
  0
SPLINE
  5
237
330
1B
100
AcDbEntity
 67
     1
  8
0
  6
Continuous
 62
     7
370
    25
100
AcDbSpline
210
0.0
220
0.0
230
1.0
 70
     8
 71
     3
 72
    22
 73
    18
 74
     0
 42
0.000000001
 43
0.00000001
 40
0.0
 40
0.0
 40
0.0
 40
0.0
 40
0.0634735189047954
 40
0.1319027695843188
 40
0.1990159042385873
 40
0.2661290388928558
 40
0.3345582895723791
 40
0.4029875402519025
 40
0.4701006749061712
 40
0.5372138095604397
 40
0.6056430602399631
 40
0.6740723109194864
 40
0.741185445573755
 40
0.8082985802280235
 40
0.8767278309075469
 40
0.9451570815870703
 40
1.0
 40
1.0
 40
1.0
 40
1.0
 10
-9.242497850062279
 20
48.84247401259096
 30
0.0
 10
-9.096988235368805
 20
48.85537146651982
 30
0.0
 10
-8.794608258484208
 20
48.88217335056783
 30
0.0
 10
-7.907896889290203
 20
48.92324944593271
 30
0.0
 10
-6.732855673499046
 20
48.96250625616469
 30
0.0
 10
-5.294351510309773
 20
49.00181086731947
 30
0.0
 10
-3.644081740104116
 20
49.04376358507537
 30
0.0
 10
-1.851353939114348
 20
49.0857197973063
 30
0.0
 10
-0.000009619473436
 20
49.12501412623246
 30
0.0
 10
1.851391066748244
 20
49.16430872700477
 30
0.0
 10
3.643946510873901
 20
49.20626410766947
 30
0.0
 10
5.294846946782859
 20
49.24821986734734
 30
0.0
 10
6.731044764841857
 20
49.28751335290193
 30
0.0
 10
7.914713669648413
 20
49.32681178061649
 30
0.0
 10
8.790689204031379
 20
49.36875242243185
 30
0.0
 10
9.329403364094523
 20
49.40823589027524
 30
0.0
 10
9.397232099072275
 20
49.43216091986829
 30
0.0
 10
9.427408624770035
 20
49.44280499675651
 30
0.0
  0
SPLINE
  5
238
330
1B
100
AcDbEntity
 67
     1
  8
0
  6
Continuous
 62
     7
370
    25
100
AcDbSpline
210
0.0
220
0.0
230
1.0
 70
     8
 71
     3
 72
    22
 73
    18
 74
     0
 42
0.000000001
 43
0.00000001
 40
0.0
 40
0.0
 40
0.0
 40
0.0
 40
0.0634735189047954
 40
0.1319027695843188
 40
0.1990159042385874
 40
0.2661290388928558
 40
0.3345582895723792
 40
0.4029875402519025
 40
0.4701006749061712
 40
0.5372138095604397
 40
0.6056430602399631
 40
0.6740723109194864
 40
0.741185445573755
 40
0.8082985802280235
 40
0.8767278309075469
 40
0.9451570815870703
 40
1.0
 40
1.0
 40
1.0
 40
1.0
 10
-9.24249785006229
 20
50.14247401259095
 30
0.0
 10
-9.096988235368817
 20
50.15537146651982
 30
0.0
 10
-8.794608258484214
 20
50.18217335056779
 30
0.0
 10
-7.907896889290216
 20
50.22324944593271
 30
0.0
 10
-6.732855673499055
 20
50.2625062561647
 30
0.0
 10
-5.294351510309783
 20
50.3018108673195
 30
0.0
 10
-3.644081740104127
 20
50.34376358507537
 30
0.0
 10
-1.851353939114356
 20
50.3857197973063
 30
0.0
 10
-0.000009619473445
 20
50.42501412623246
 30
0.0
 10
1.851391066748235
 20
50.46430872700478
 30
0.0
 10
3.643946510873892
 20
50.50626410766945
 30
0.0
 10
5.29484694678285
 20
50.54821986734733
 30
0.0
 10
6.731044764841849
 20
50.58751335290194
 30
0.0
 10
7.914713669648403
 20
50.62681178061649
 30
0.0
 10
8.79068920403137
 20
50.66875242243185
 30
0.0
 10
9.329403364094512
 20
50.70823589027523
 30
0.0
 10
9.397232099072264
 20
50.73216091986829
 30
0.0
 10
9.427408624770024
 20
50.74280499675651
 30
0.0
  0
SPLINE
  5
239
330
1B
100
AcDbEntity
 67
     1
  8
0
  6
Continuous
 62
     7
370
    25
100
AcDbSpline
210
0.0
220
0.0
230
1.0
 70
     8
 71
     3
 72
    22
 73
    18
 74
     0
 42
0.000000001
 43
0.00000001
 40
0.0
 40
0.0
 40
0.0
 40
0.0
 40
0.0634735189047953
 40
0.1319027695843186
 40
0.1990159042385871
 40
0.2661290388928555
 40
0.3345582895723788
 40
0.4029875402519021
 40
0.4701006749061706
 40
0.5372138095604391
 40
0.6056430602399625
 40
0.6740723109194857
 40
0.7411854455737543
 40
0.8082985802280227
 40
0.8767278309075461
 40
0.9451570815870695
 40
1.0
 40
1.0
 40
1.0
 40
1.0
 10
-9.242497850062296
 20
51.44247401259094
 30
0.0
 10
-9.096988235368825
 20
51.45537146651982
 30
0.0
 10
-8.794608258484226
 20
51.48217335056781
 30
0.0
 10
-7.907896889290224
 20
51.52324944593273
 30
0.0
 10
-6.732855673499063
 20
51.56250625616468
 30
0.0
 10
-5.294351510309792
 20
51.60181086731949
 30
0.0
 10
-3.644081740104133
 20
51.64376358507535
 30
0.0
 10
-1.851353939114368
 20
51.68571979730631
 30
0.0
 10
-0.0000096194734534
 20
51.72501412623245
 30
0.0
 10
1.85139106674823
 20
51.76430872700477
 30
0.0
 10
3.643946510873878
 20
51.80626410766948
 30
0.0
 10
5.294846946782844
 20
51.84821986734736
 30
0.0
 10
6.731044764841838
 20
51.88751335290193
 30
0.0
 10
7.914713669648396
 20
51.92681178061648
 30
0.0
 10
8.790689204031361
 20
51.96875242243185
 30
0.0
 10
9.329403364094503
 20
52.00823589027523
 30
0.0
 10
9.397232099072257
 20
52.03216091986829
 30
0.0
 10
9.427408624770019
 20
52.04280499675651
 30
0.0
  0
SPLINE
  5
23A
330
1B
100
AcDbEntity
 67
     1
  8
0
  6
Continuous
 62
     7
370
    25
100
AcDbSpline
210
0.0
220
0.0
230
1.0
 70
     8
 71
     3
 72
    22
 73
    18
 74
     0
 42
0.000000001
 43
0.00000001
 40
0.0
 40
0.0
 40
0.0
 40
0.0
 40
0.0634735189047953
 40
0.1319027695843186
 40
0.1990159042385871
 40
0.2661290388928556
 40
0.3345582895723789
 40
0.4029875402519021
 40
0.4701006749061707
 40
0.5372138095604392
 40
0.6056430602399625
 40
0.6740723109194857
 40
0.7411854455737543
 40
0.8082985802280227
 40
0.8767278309075461
 40
0.9451570815870695
 40
1.0
 40
1.0
 40
1.0
 40
1.0
 10
-9.242497850062305
 20
52.74247401259095
 30
0.0
 10
-9.096988235368832
 20
52.75537146651982
 30
0.0
 10
-8.794608258484237
 20
52.78217335056781
 30
0.0
 10
-7.907896889290231
 20
52.82324944593272
 30
0.0
 10
-6.732855673499072
 20
52.86250625616471
 30
0.0
 10
-5.294351510309801
 20
52.90181086731949
 30
0.0
 10
-3.644081740104145
 20
52.94376358507535
 30
0.0
 10
-1.851353939114375
 20
52.9857197973063
 30
0.0
 10
-0.0000096194734635
 20
53.02501412623245
 30
0.0
 10
1.851391066748219
 20
53.06430872700478
 30
0.0
 10
3.64394651087387
 20
53.10626410766945
 30
0.0
 10
5.294846946782833
 20
53.14821986734736
 30
0.0
 10
6.731044764841831
 20
53.18751335290195
 30
0.0
 10
7.914713669648386
 20
53.22681178061647
 30
0.0
 10
8.79068920403135
 20
53.26875242243186
 30
0.0
 10
9.329403364094496
 20
53.30823589027523
 30
0.0
 10
9.397232099072248
 20
53.33216091986828
 30
0.0
 10
9.42740862477001
 20
53.34280499675651
 30
0.0
  0
SPLINE
  5
23B
330
1B
100
AcDbEntity
 67
     1
  8
0
  6
Continuous
 62
     7
370
    25
100
AcDbSpline
210
0.0
220
0.0
230
1.0
 70
     8
 71
     3
 72
    22
 73
    18
 74
     0
 42
0.000000001
 43
0.00000001
 40
0.0
 40
0.0
 40
0.0
 40
0.0
 40
0.0634735189047953
 40
0.1319027695843186
 40
0.1990159042385871
 40
0.2661290388928555
 40
0.3345582895723788
 40
0.4029875402519021
 40
0.4701006749061707
 40
0.5372138095604392
 40
0.6056430602399625
 40
0.6740723109194857
 40
0.7411854455737543
 40
0.8082985802280227
 40
0.8767278309075461
 40
0.9451570815870695
 40
1.0
 40
1.0
 40
1.0
 40
1.0
 10
-9.242497850062312
 20
54.04247401259097
 30
0.0
 10
-9.09698823536884
 20
54.05537146651983
 30
0.0
 10
-8.794608258484242
 20
54.08217335056779
 30
0.0
 10
-7.90789688929024
 20
54.12324944593272
 30
0.0
 10
-6.732855673499084
 20
54.1625062561647
 30
0.0
 10
-5.294351510309809
 20
54.20181086731948
 30
0.0
 10
-3.644081740104152
 20
54.24376358507535
 30
0.0
 10
-1.851353939114385
 20
54.28571979730631
 30
0.0
 10
-0.0000096194734735
 20
54.32501412623245
 30
0.0
 10
1.851391066748211
 20
54.3643087270048
 30
0.0
 10
3.643946510873861
 20
54.40626410766944
 30
0.0
 10
5.294846946782825
 20
54.44821986734735
 30
0.0
 10
6.731044764841821
 20
54.48751335290194
 30
0.0
 10
7.914713669648378
 20
54.52681178061648
 30
0.0
 10
8.790689204031342
 20
54.56875242243186
 30
0.0
 10
9.329403364094487
 20
54.60823589027523
 30
0.0
 10
9.39723209907224
 20
54.63216091986828
 30
0.0
 10
9.42740862477
 20
54.64280499675652
 30
0.0
  0
SPLINE
  5
23D
330
1B
100
AcDbEntity
 67
     1
  8
0
  6
Continuous
 62
     7
370
    25
100
AcDbSpline
210
0.0
220
0.0
230
1.0
 70
    24
 71
     3
 72
    34
 73
    30
 74
     0
 42
0.000000001
 43
0.00000001
 40
0.0
 40
0.0
 40
0.0
 40
0.0
 40
0.1249999999999998
 40
0.1249999999999998
 40
0.1874999999999998
 40
0.1874999999999998
 40
0.2499999999999997
 40
0.2499999999999997
 40
0.3124999999999996
 40
0.3124999999999996
 40
0.3749999999999996
 40
0.3749999999999996
 40
0.4374999999999995
 40
0.4374999999999995
 40
0.4999999999999996
 40
0.4999999999999996
 40
0.6249999999999997
 40
0.6249999999999997
 40
0.6874999999999998
 40
0.6874999999999998
 40
0.7499999999999998
 40
0.7499999999999998
 40
0.8124999999999998
 40
0.8124999999999998
 40
0.8749999999999998
 40
0.8749999999999998
 40
0.9374999999999999
 40
0.9374999999999999
 40
1.0
 40
1.0
 40
1.0
 40
1.0
 10
-9.460024549313585
 20
46.19999999999996
 30
0.0
 10
-9.488965171392357
 20
46.19999999999996
 30
0.0
 10
-9.41737913890988
 20
46.19999999999996
 30
0.0
 10
-9.160382721106235
 20
46.19999999999999
 30
0.0
 10
-9.049901561608934
 20
46.19999999999999
 30
0.0
 10
-8.784202229696048
 20
46.19999999999999
 30
0.0
 10
-8.628582028883965
 20
46.19999999999999
 30
0.0
 10
-8.27184462177019
 20
46.2
 30
0.0
 10
-8.0697166150683
 20
46.19999999999999
 30
0.0
 10
-7.622390131687517
 20
46.20000000000002
 30
0.0
 10
-7.379925876142307
 20
46.20000000000005
 30
0.0
 10
-6.858635734548463
 20
46.20000000000006
 30
0.0
 10
-6.579848418184738
 20
46.20000000000005
 30
0.0
 10
-5.986818187612473
 20
46.20000000000007
 30
0.0
 10
-5.670228217052466
 20
46.20000000000007
 30
0.0
 10
-4.687939742175492
 20
46.20000000000007
 30
0.0
 10
-3.986922664869073
 20
46.20000000000007
 30
0.0
 10
-2.865779342648313
 20
46.20000000000009
 30
0.0
 10
-2.480608705999639
 20
46.2000000000001
 30
0.0
 10
-1.707469910906358
 20
46.2000000000001
 30
0.0
 10
-1.316952044447919
 20
46.20000000000013
 30
0.0
 10
-0.5280883420229272
 20
46.20000000000013
 30
0.0
 10
-0.1297100797944325
 20
46.20000000000014
 30
0.0
 10
0.67498928990676
 20
46.20000000000016
 30
0.0
 10
1.075915836232135
 20
46.20000000000013
 30
0.0
 10
1.867504764718775
 20
46.20000000000014
 30
0.0
 10
2.259394715786235
 20
46.20000000000016
 30
0.0
 10
3.035359044255326
 20
46.20000000000017
 30
0.0
 10
3.420973288410287
 20
46.20000000000016
 30
0.0
 10
3.799075032517073
 20
46.20000000000014
 30
0.0
  0
LINE
  5
252
330
1B
100
AcDbEntity
 67
     1
  8
0
  6
Continuous
 62
     7
370
    25
100
AcDbLine
 10
-10.16
 20
47.0957931227
 30
0.0
 11
-10.16
 21
46.604220067
 31
0.0
  0
LINE
  5
253
330
1B
100
AcDbEntity
 67
     1
  8
0
  6
Continuous
 62
     7
370
    25
100
AcDbLine
 10
-10.16
 20
48.3957632314
 30
0.0
 11
-10.16
 21
47.9042702483
 31
0.0
  0
LINE
  5
254
330
1B
100
AcDbEntity
 67
     1
  8
0
  6
Continuous
 62
     7
370
    25
100
AcDbLine
 10
-10.16
 20
49.6953524081
 30
0.0
 11
-10.16
 21
49.204693878
 31
0.0
  0
LINE
  5
255
330
1B
100
AcDbEntity
 67
     1
  8
0
  6
Continuous
 62
     7
370
    25
100
AcDbLine
 10
-10.16
 20
50.9950261782
 30
0.0
 11
-10.16
 21
50.5049797483
 31
0.0
  0
LINE
  5
256
330
1B
100
AcDbEntity
 67
     1
  8
0
  6
Continuous
 62
     7
370
    25
100
AcDbLine
 10
-10.16
 20
52.2951150843
 30
0.0
 11
-10.16
 21
51.8047859154
 31
0.0
  0
LINE
  5
257
330
1B
100
AcDbEntity
 67
     1
  8
0
  6
Continuous
 62
     7
370
    25
100
AcDbLine
 10
-10.16
 20
53.5957040696
 30
0.0
 11
-10.16
 21
53.1043178415
 31
0.0
  0
LINE
  5
258
330
1B
100
AcDbEntity
 67
     1
  8
0
  6
Continuous
 62
     7
370
    25
100
AcDbLine
 10
-10.16
 20
54.8957698889
 30
0.0
 11
-10.16
 21
54.4043366048
 31
0.0
  0
LINE
  5
259
330
1B
100
AcDbEntity
 67
     1
  8
0
  6
Continuous
 62
     7
370
    25
100
AcDbLine
 10
10.16
 20
55.0542184483
 30
0.0
 11
10.16
 21
55.2
 31
0.0
  0
LINE
  5
25A
330
1B
100
AcDbEntity
 67
     1
  8
0
  6
Continuous
 62
     7
370
    25
100
AcDbLine
 10
10.16
 20
53.7545983049
 30
0.0
 11
10.16
 21
54.2454559893
 31
0.0
  0
LINE
  5
25B
330
1B
100
AcDbEntity
 67
     1
  8
0
  6
Continuous
 62
     7
370
    25
100
AcDbLine
 10
10.16
 20
52.4549161604
 30
0.0
 11
10.16
 21
52.945259372
 31
0.0
  0
LINE
  5
25C
330
1B
100
AcDbEntity
 67
     1
  8
0
  6
Continuous
 62
     7
370
    25
100
AcDbLine
 10
10.16
 20
51.1544526684
 30
0.0
 11
10.16
 21
51.6454790193
 31
0.0
  0
LINE
  5
25D
330
1B
100
AcDbEntity
 67
     1
  8
0
  6
Continuous
 62
     7
370
    25
100
AcDbLine
 10
10.16
 20
49.8544986995
 30
0.0
 11
10.16
 21
50.3453904744
 31
0.0
  0
LINE
  5
25E
330
1B
100
AcDbEntity
 67
     1
  8
0
  6
Continuous
 62
     7
370
    25
100
AcDbLine
 10
10.16
 20
48.5545871949
 30
0.0
 11
10.16
 21
49.0452388212
 31
0.0
  0
LINE
  5
25F
330
1B
100
AcDbEntity
 67
     1
  8
0
  6
Continuous
 62
     7
370
    25
100
AcDbLine
 10
10.16
 20
47.254373201
 30
0.0
 11
10.16
 21
47.745594214
 31
0.0
  0
LINE
  5
260
330
1B
100
AcDbEntity
 67
     1
  8
0
  6
Continuous
 62
     7
370
    25
100
AcDbLine
 10
10.16
 20
46.2
 30
0.0
 11
10.16
 21
46.4458354234
 31
0.0
  0
LINE
  5
261
330
1B
100
AcDbEntity
 67
     1
  8
0
  6
Continuous
 62
     7
370
    25
100
AcDbLine
 10
-7.0
 20
66.7
 30
0.0
 11
-10.1321134287
 21
55.3014859399
 31
0.0
  0
LINE
  5
262
330
1B
100
AcDbEntity
 67
     1
  8
0
  6
Continuous
 62
     7
370
    25
100
AcDbLine
 10
10.16
 20
55.2
 30
0.0
 11
7.0
 21
66.7
 31
0.0
  0
LINE
  5
263
330
1B
100
AcDbEntity
 67
     1
  8
0
  6
Continuous
 62
     7
370
    25
100
AcDbLine
 10
-17.5
 20
67.2
 30
0.0
 11
-17.5
 21
265.7
 31
0.0
  0
LINE
  5
264
330
1B
100
AcDbEntity
 67
     1
  8
0
  6
Continuous
 62
     7
370
    25
100
AcDbLine
 10
-17.5
 20
265.7
 30
0.0
 11
17.5
 21
265.7
 31
0.0
  0
LINE
  5
265
330
1B
100
AcDbEntity
 67
     1
  8
0
  6
Continuous
 62
     7
370
    25
100
AcDbLine
 10
17.5
 20
265.7
 30
0.0
 11
17.5
 21
67.2
 31
0.0
  0
LINE
  5
266
330
1B
100
AcDbEntity
 67
     1
  8
0
  6
Continuous
 62
     7
370
    25
100
AcDbLine
 10
-17.5
 20
264.7
 30
0.0
 11
17.5
 21
264.7
 31
0.0
  0
LINE
  5
267
330
1B
100
AcDbEntity
 67
     1
  8
0
  6
Continuous
 62
     7
370
    25
100
AcDbLine
 10
-10.1599997971
 20
55.2000000002
 30
0.0
 11
-10.1599967116
 21
54.8959342962
 31
0.0
  0
LINE
  5
268
330
1B
100
AcDbEntity
 67
     1
  8
0
  6
Continuous
 62
     7
370
    25
100
AcDbLine
 10
-10.16
 20
46.2
 30
0.0
 11
-10.1599967046
 21
46.6040562525
 31
0.0
  0
LINE
  5
269
330
1B
100
AcDbEntity
 67
     1
  8
0
  6
Continuous
 62
     7
370
    25
100
AcDbLine
 10
-10.1321129459
 20
55.3014852019
 30
0.0
 11
-10.1599997971
 21
55.2000000002
 31
0.0
  0
LINE
  5
26A
330
1B
100
AcDbEntity
 67
     1
  8
0
  6
Continuous
 62
     7
370
    25
100
AcDbLine
 10
-9.4600245493
 20
46.2
 30
0.0
 11
-9.4600000001
 21
46.2000141712
 31
0.0
  0
LINE
  5
26B
330
1B
100
AcDbEntity
 67
     1
  8
0
  6
Continuous
 62
     7
370
    25
100
AcDbLine
 10
3.8077203199
 20
46.2
 30
0.0
 11
3.7990749965
 21
46.2
 31
0.0
  0
LINE
  5
26C
330
1B
100
AcDbEntity
 67
     1
  8
0
  6
Continuous
 62
     7
370
    25
100
AcDbLine
 10
-9.4600000001
 20
46.2000141712
 30
0.0
 11
-10.1599967046
 21
46.6040562525
 31
0.0
  0
LINE
  5
26D
330
1B
100
AcDbEntity
 67
     1
  8
0
  6
Continuous
 62
     7
370
    25
100
AcDbLine
 10
-17.5
 20
67.2
 30
0.0
 11
17.5
 21
67.2
 31
0.0
  0
LINE
  5
26E
330
1B
100
AcDbEntity
 67
     1
  8
0
  6
Continuous
 62
     7
370
    25
100
AcDbLine
 10
0.0595010789
 20
67.2
 30
0.0
 11
0.0595010789
 21
66.7
 31
0.0
  0
LINE
  5
26F
330
1B
100
AcDbEntity
 67
     1
  8
0
  6
Continuous
 62
     7
370
    25
100
AcDbLine
 10
-0.0595010789
 20
67.2
 30
0.0
 11
-0.0595010789
 21
66.7
 31
0.0
  0
LINE
  5
270
330
1B
100
AcDbEntity
 67
     1
  8
0
  6
Continuous
 62
     7
370
    25
100
AcDbLine
 10
17.0
 20
66.7
 30
0.0
 11
17.0
 21
264.7
 31
0.0
  0
LINE
  5
271
330
1B
100
AcDbEntity
 67
     1
  8
0
  6
Continuous
 62
     7
370
    25
100
AcDbLine
 10
-17.0
 20
264.7
 30
0.0
 11
-17.0
 21
66.7
 31
0.0
  0
LINE
  5
272
330
1B
100
AcDbEntity
 67
     1
  8
0
  6
Continuous
 62
     7
370
    25
100
AcDbLine
 10
-0.0595010789
 20
66.7
 30
0.0
 11
-17.0
 21
66.7
 31
0.0
  0
LINE
  5
273
330
1B
100
AcDbEntity
 67
     1
  8
0
  6
Continuous
 62
     7
370
    25
100
AcDbLine
 10
17.0
 20
66.7
 30
0.0
 11
0.0595010789
 21
66.7
 31
0.0
  0
LINE
  5
274
330
1B
100
AcDbEntity
 67
     1
  8
0
  6
Continuous
 62
     7
370
    25
100
AcDbLine
 10
-9.4600245493
 20
46.2
 30
0.0
 11
-10.16
 21
46.2
 31
0.0
  0
ARC
  5
275
330
1B
100
AcDbEntity
 67
     1
  8
0
  6
Continuous
 62
     7
370
    25
100
AcDbCircle
 10
-17.0
 20
67.2
 30
0.0
 40
0.5
100
AcDbArc
 50
180.0
 51
270.0
  0
ARC
  5
276
330
1B
100
AcDbEntity
 67
     1
  8
0
  6
Continuous
 62
     7
370
    25
100
AcDbCircle
 10
17.0
 20
67.2
 30
0.0
 40
0.5000000000000036
100
AcDbArc
 50
270.0
 51
0.0
  0
VIEWPORT
  5
345
330
1B
100
AcDbEntity
 67
     1
  8
0
100
AcDbViewport
 10
0.0
 20
0.0
 30
0.0
 40
205.6
 41
156.0
 68
     1
 69
     1
 12
0.0
 22
155.95
 13
0.0
 23
0.0
 14
10.0
 24
10.0
 15
10.0
 25
10.0
 16
0.0
 26
0.0
 36
1.0
 17
0.0
 27
0.0
 37
0.0
 42
50.0
 43
0.0
 44
0.0
 45
223.89
 50
0.0
 51
0.0
 72
   100
 90
   557152
  1

281
     0
 71
     1
 74
     0
110
0.0
120
0.0
130
0.0
111
1.0
121
0.0
131
0.0
112
0.0
122
1.0
132
0.0
 79
     0
146
0.0
  0
ENDSEC
  0
SECTION
  2
OBJECTS
  0
DICTIONARY
  5
C
330
0
100
AcDbDictionary
281
     1
  3
ACAD_GROUP
350
D
  3
ACAD_LAYOUT
350
1A
  3
ACAD_MLINESTYLE
350
17
  3
ACAD_PLOTSETTINGS
350
19
  3
ACAD_PLOTSTYLENAME
350
E
  3
ACAD_SCALELIST
350
47
  0
DICTIONARY
  5
D
102
{ACAD_REACTORS
330
C
102
}
330
C
100
AcDbDictionary
281
     1
  0
DICTIONARY
  5
1A
102
{ACAD_REACTORS
330
C
102
}
330
C
100
AcDbDictionary
281
     1
  3
_Back
350
1E
  3
_Left
350
26
  3
_Top
350
31B
  3
Model
350
22
  0
DICTIONARY
  5
17
102
{ACAD_REACTORS
330
C
102
}
330
C
100
AcDbDictionary
281
     1
  3
Standard
350
18
  0
DICTIONARY
  5
19
102
{ACAD_REACTORS
330
C
102
}
330
C
100
AcDbDictionary
281
     1
  0
ACDBDICTIONARYWDFLT
  5
E
102
{ACAD_REACTORS
330
C
102
}
330
C
100
AcDbDictionary
281
     1
  3
Normal
350
F
100
AcDbDictionaryWithDefault
340
F
  0
DICTIONARY
  5
47
102
{ACAD_REACTORS
330
C
102
}
330
C
100
AcDbDictionary
281
     1
  3
A0
350
48
  3
A1
350
49
  3
A2
350
4A
  3
A3
350
4B
  3
A4
350
4C
  3
A5
350
4D
  3
A6
350
4E
  3
A7
350
4F
  3
A8
350
50
  3
A9
350
51
  3
B0
350
52
  3
B1
350
53
  3
B2
350
54
  3
B3
350
55
  3
B4
350
56
  3
B5
350
57
  3
B6
350
58
  3
B7
350
59
  3
B8
350
5A
  3
B9
350
5B
  3
C0
350
5C
  3
C1
350
5D
  3
C2
350
5E
  3
C3
350
5F
  3
C4
350
60
  3
C5
350
61
  3
C6
350
62
  3
C7
350
63
  3
C8
350
64
  3
C9
350
65
  3
D0
350
66
  3
D1
350
67
  3
D2
350
68
  0
LAYOUT
  5
1E
102
{ACAD_REACTORS
330
1A
102
}
330
1A
100
AcDbPlotSettings
  1

  2
none_device
  4
ISO_A4_(210.00_x_297.00_MM)
  6

 40
7.5
 41
20.0
 42
7.5
 43
20.0
 44
210.0
 45
297.0
 46
0.0
 47
0.0
 48
0.0
 49
0.0
140
0.0
141
0.0
142
1.0
143
1.1256410256
 70
   688
 72
     1
 73
     1
 74
     1
  7

 75
     0
147
0.8883826879
148
17.5
149
-46.2
100
AcDbLayout
  1
_Back
 70
     1
 71
     1
 10
-40.0128205128
 20
37.7576923077
 11
294.3025641026
 21
274.1423076923
 12
0.0
 22
0.0
 32
0.0
 14
-17.5
 24
46.2
 34
0.0
 15
17.5
 25
265.7
 35
0.0
146
0.0
 13
0.0
 23
0.0
 33
0.0
 16
1.0
 26
0.0
 36
0.0
 17
0.0
 27
1.0
 37
0.0
 76
     0
330
1B
331
345
  0
LAYOUT
  5
26
102
{ACAD_REACTORS
330
1A
102
}
330
1A
100
AcDbPlotSettings
  1

  2
none_device
  4
ISO_A4_(210.00_x_297.00_MM)
  6

 40
7.5
 41
20.0
 42
7.5
 43
20.0
 44
210.0
 45
297.0
 46
0.0
 47
0.0
 48
0.0
 49
0.0
140
0.0
141
0.0
142
1.0
143
1.1256410256
 70
   688
 72
     1
 73
     1
 74
     1
  7

 75
     0
147
0.8883826879
148
17.5
149
-46.2
100
AcDbLayout
  1
_Left
 70
     1
 71
     2
 10
0.0
 20
0.0
 11
0.0
 21
0.0
 12
0.0
 22
0.0
 32
0.0
 14
0.0
 24
0.0
 34
0.0
 15
0.0
 25
0.0
 35
0.0
146
0.0
 13
0.0
 23
0.0
 33
0.0
 16
1.0
 26
0.0
 36
0.0
 17
0.0
 27
1.0
 37
0.0
 76
     0
330
23
331
347
  0
LAYOUT
  5
31B
102
{ACAD_REACTORS
330
1A
102
}
330
1A
100
AcDbPlotSettings
  1

  2
none_device
  4
ISO_A4_(210.00_x_297.00_MM)
  6

 40
7.5
 41
20.0
 42
7.5
 43
20.0
 44
210.0
 45
297.0
 46
0.0
 47
0.0
 48
0.0
 49
0.0
140
0.0
141
0.0
142
1.0
143
1.1256410256
 70
   688
 72
     1
 73
     1
 74
     1
  7

 75
     0
147
0.8883826879
148
17.5
149
-46.2
100
AcDbLayout
  1
_Top
 70
     1
 71
     3
 10
0.0
 20
0.0
 11
0.0
 21
0.0
 12
0.0
 22
0.0
 32
0.0
 14
0.0
 24
0.0
 34
0.0
 15
0.0
 25
0.0
 35
0.0
146
0.0
 13
0.0
 23
0.0
 33
0.0
 16
1.0
 26
0.0
 36
0.0
 17
0.0
 27
1.0
 37
0.0
 76
     0
330
31A
331
349
  0
LAYOUT
  5
22
102
{ACAD_REACTORS
330
1A
102
}
330
1A
100
AcDbPlotSettings
  1

  2
none_device
  4
ANSI_A_(11.00_x_8.50_Inches)
  6

 40
6.35
 41
19.05
 42
6.35000508
 43
19.05000254
 44
279.4
 45
215.9
 46
133.34999746
 47
-62.9583563953
 48
0.0
 49
0.0
140
0.0
141
0.0
142
0.0383371298
143
1.0
 70
  1696
 72
     0
 73
     0
 74
     0
  7

 75
     0
147
0.0179189148
148
-1300.4909072572
149
0.0
100
AcDbLayout
  1
Model
 70
     1
 71
     0
 10
0.0
 20
0.0
 11
420.0
 21
297.0
 12
0.0
 22
0.0
 32
0.0
 14
-17.5
 24
46.2
 34
0.0
 15
17.5
 25
265.7
 35
0.0
146
0.0
 13
0.0
 23
0.0
 33
0.0
 16
1.0
 26
0.0
 36
0.0
 17
0.0
 27
1.0
 37
0.0
 76
     0
330
1F
331
29
  0
MLINESTYLE
  5
18
102
{ACAD_REACTORS
330
17
102
}
330
17
100
AcDbMlineStyle
  2
Standard
 70
     0
  3

 62
   256
 51
90.0
 52
90.0
 71
     2
 49
0.5
 62
   256
  6
BYLAYER
 49
-0.5
 62
   256
  6
BYLAYER
  0
ACDBPLACEHOLDER
  5
F
102
{ACAD_REACTORS
330
E
102
}
330
E
  0
SCALE
  5
48
102
{ACAD_REACTORS
330
47
102
}
330
47
100
AcDbScale
 70
     0
300
1:1
140
1.0
141
1.0
290
     1
  0
SCALE
  5
49
102
{ACAD_REACTORS
330
47
102
}
330
47
100
AcDbScale
 70
     0
300
1:2
140
1.0
141
2.0
290
     0
  0
SCALE
  5
4A
102
{ACAD_REACTORS
330
47
102
}
330
47
100
AcDbScale
 70
     0
300
1:4
140
1.0
141
4.0
290
     0
  0
SCALE
  5
4B
102
{ACAD_REACTORS
330
47
102
}
330
47
100
AcDbScale
 70
     0
300
1:5
140
1.0
141
5.0
290
     0
  0
SCALE
  5
4C
102
{ACAD_REACTORS
330
47
102
}
330
47
100
AcDbScale
 70
     0
300
1:8
140
1.0
141
8.0
290
     0
  0
SCALE
  5
4D
102
{ACAD_REACTORS
330
47
102
}
330
47
100
AcDbScale
 70
     0
300
1:10
140
1.0
141
10.0
290
     0
  0
SCALE
  5
4E
102
{ACAD_REACTORS
330
47
102
}
330
47
100
AcDbScale
 70
     0
300
1:16
140
1.0
141
16.0
290
     0
  0
SCALE
  5
4F
102
{ACAD_REACTORS
330
47
102
}
330
47
100
AcDbScale
 70
     0
300
1:20
140
1.0
141
20.0
290
     0
  0
SCALE
  5
50
102
{ACAD_REACTORS
330
47
102
}
330
47
100
AcDbScale
 70
     0
300
1:30
140
1.0
141
30.0
290
     0
  0
SCALE
  5
51
102
{ACAD_REACTORS
330
47
102
}
330
47
100
AcDbScale
 70
     0
300
1:40
140
1.0
141
40.0
290
     0
  0
SCALE
  5
52
102
{ACAD_REACTORS
330
47
102
}
330
47
100
AcDbScale
 70
     0
300
1:50
140
1.0
141
50.0
290
     0
  0
SCALE
  5
53
102
{ACAD_REACTORS
330
47
102
}
330
47
100
AcDbScale
 70
     0
300
1:100
140
1.0
141
100.0
290
     0
  0
SCALE
  5
54
102
{ACAD_REACTORS
330
47
102
}
330
47
100
AcDbScale
 70
     0
300
2:1
140
2.0
141
1.0
290
     0
  0
SCALE
  5
55
102
{ACAD_REACTORS
330
47
102
}
330
47
100
AcDbScale
 70
     0
300
4:1
140
4.0
141
1.0
290
     0
  0
SCALE
  5
56
102
{ACAD_REACTORS
330
47
102
}
330
47
100
AcDbScale
 70
     0
300
8:1
140
8.0
141
1.0
290
     0
  0
SCALE
  5
57
102
{ACAD_REACTORS
330
47
102
}
330
47
100
AcDbScale
 70
     0
300
10:1
140
10.0
141
1.0
290
     0
  0
SCALE
  5
58
102
{ACAD_REACTORS
330
47
102
}
330
47
100
AcDbScale
 70
     0
300
100:1
140
100.0
141
1.0
290
     0
  0
SCALE
  5
59
102
{ACAD_REACTORS
330
47
102
}
330
47
100
AcDbScale
 70
     0
300
1/128" = 1'-0"
140
0.0078125
141
12.0
290
     0
  0
SCALE
  5
5A
102
{ACAD_REACTORS
330
47
102
}
330
47
100
AcDbScale
 70
     0
300
1/64" = 1'-0"
140
0.015625
141
12.0
290
     0
  0
SCALE
  5
5B
102
{ACAD_REACTORS
330
47
102
}
330
47
100
AcDbScale
 70
     0
300
1/32" = 1'-0"
140
0.03125
141
12.0
290
     0
  0
SCALE
  5
5C
102
{ACAD_REACTORS
330
47
102
}
330
47
100
AcDbScale
 70
     0
300
1/16" = 1'-0"
140
0.0625
141
12.0
290
     0
  0
SCALE
  5
5D
102
{ACAD_REACTORS
330
47
102
}
330
47
100
AcDbScale
 70
     0
300
3/32" = 1'-0"
140
0.09375
141
12.0
290
     0
  0
SCALE
  5
5E
102
{ACAD_REACTORS
330
47
102
}
330
47
100
AcDbScale
 70
     0
300
1/8" = 1'-0"
140
0.125
141
12.0
290
     0
  0
SCALE
  5
5F
102
{ACAD_REACTORS
330
47
102
}
330
47
100
AcDbScale
 70
     0
300
3/16" = 1'-0"
140
0.1875
141
12.0
290
     0
  0
SCALE
  5
60
102
{ACAD_REACTORS
330
47
102
}
330
47
100
AcDbScale
 70
     0
300
1/4" = 1'-0"
140
0.25
141
12.0
290
     0
  0
SCALE
  5
61
102
{ACAD_REACTORS
330
47
102
}
330
47
100
AcDbScale
 70
     0
300
3/8" = 1'-0"
140
0.375
141
12.0
290
     0
  0
SCALE
  5
62
102
{ACAD_REACTORS
330
47
102
}
330
47
100
AcDbScale
 70
     0
300
1/2" = 1'-0"
140
0.5
141
12.0
290
     0
  0
SCALE
  5
63
102
{ACAD_REACTORS
330
47
102
}
330
47
100
AcDbScale
 70
     0
300
3/4" = 1'-0"
140
0.75
141
12.0
290
     0
  0
SCALE
  5
64
102
{ACAD_REACTORS
330
47
102
}
330
47
100
AcDbScale
 70
     0
300
1" = 1'-0"
140
1.0
141
12.0
290
     0
  0
SCALE
  5
65
102
{ACAD_REACTORS
330
47
102
}
330
47
100
AcDbScale
 70
     0
300
1-1/2" = 1'-0"
140
1.5
141
12.0
290
     0
  0
SCALE
  5
66
102
{ACAD_REACTORS
330
47
102
}
330
47
100
AcDbScale
 70
     0
300
3" = 1'-0"
140
3.0
141
12.0
290
     0
  0
SCALE
  5
67
102
{ACAD_REACTORS
330
47
102
}
330
47
100
AcDbScale
 70
     0
300
6" = 1'-0"
140
6.0
141
12.0
290
     0
  0
SCALE
  5
68
102
{ACAD_REACTORS
330
47
102
}
330
47
100
AcDbScale
 70
     0
300
1'-0" = 1'-0"
140
12.0
141
12.0
290
     0
  0
ENDSEC
  0
EOF
