  0
SECTION
  2
HEADER
  9
$ACADVER
  1
AC1015
  9
$ACADMAINTVER
 70
     6
  9
$DWGCODEPAGE
  3
ANSI_1252
  9
$INSBASE
 10
0.0
 20
0.0
 30
0.0
  9
$EXTMIN
 10
-303.0
 20
-16.0
 30
0.0
  9
$EXTMAX
 10
303.0
 20
73.0
 30
0.0
  9
$LIMMIN
 10
0.0
 20
0.0
  9
$LIMMAX
 10
420.0
 20
297.0
  9
$ORTHOMODE
 70
     0
  9
$REGENMODE
 70
     1
  9
$FILLMODE
 70
     1
  9
$QTEXTMODE
 70
     0
  9
$MIRRTEXT
 70
     1
  9
$LTSCALE
 40
1.0
  9
$ATTMODE
 70
     1
  9
$TEXTSIZE
 40
3.5
  9
$TRACEWID
 40
1.0
  9
$TEXTSTYLE
  7
Standard
  9
$CLAYER
  8
0
  9
$CELTYPE
  6
ByLayer
  9
$CECOLOR
 62
   256
  9
$CELTSCALE
 40
1.0
  9
$DISPSILH
 70
     0
  9
$DIMSCALE
 40
1.0
  9
$DIMASZ
 40
3.302
  9
$DIMEXO
 40
1.0
  9
$DIMDLI
 40
3.75
  9
$DIMRND
 40
0.0
  9
$DIMDLE
 40
0.0
  9
$DIMEXE
 40
1.0
  9
$DIMTP
 40
0.0
  9
$DIMTM
 40
0.0
  9
$DIMTXT
 40
3.5
  9
$DIMCEN
 40
2.5
  9
$DIMTSZ
 40
0.0
  9
$DIMTOL
 70
     0
  9
$DIMLIM
 70
     0
  9
$DIMTIH
 70
     1
  9
$DIMTOH
 70
     1
  9
$DIMSE1
 70
     0
  9
$DIMSE2
 70
     0
  9
$DIMTAD
 70
     1
  9
$DIMZIN
 70
     1
  9
$DIMBLK
  1

  9
$DIMASO
 70
     1
  9
$DIMSHO
 70
     1
  9
$DIMPOST
  1

  9
$DIMAPOST
  1

  9
$DIMALT
 70
     0
  9
$DIMALTD
 70
     3
  9
$DIMALTF
 40
0.0393700787
  9
$DIMLFAC
 40
1.0
  9
$DIMTOFL
 70
     1
  9
$DIMTVP
 40
0.0
  9
$DIMTIX
 70
     0
  9
$DIMSOXD
 70
     0
  9
$DIMSAH
 70
     0
  9
$DIMBLK1
  1

  9
$DIMBLK2
  1

  9
$DIMSTYLE
  2
ISO-25
  9
$DIMCLRD
 70
     0
  9
$DIMCLRE
 70
     0
  9
$DIMCLRT
 70
     0
  9
$DIMTFAC
 40
1.0
  9
$DIMGAP
 40
1.524
  9
$DIMJUST
 70
     0
  9
$DIMSD1
 70
     0
  9
$DIMSD2
 70
     0
  9
$DIMTOLJ
 70
     0
  9
$DIMTZIN
 70
     1
  9
$DIMALTZ
 70
     0
  9
$DIMALTTZ
 70
     0
  9
$DIMUPT
 70
     0
  9
$DIMDEC
 70
     2
  9
$DIMTDEC
 70
     2
  9
$DIMALTU
 70
     2
  9
$DIMALTTD
 70
     3
  9
$DIMTXSTY
  7
Standard
  9
$DIMAUNIT
 70
     0
  9
$DIMADEC
 70
     2
  9
$DIMALTRND
 40
0.0
  9
$DIMAZIN
 70
     0
  9
$DIMDSEP
 70
    44
  9
$DIMATFIT
 70
     3
  9
$DIMFRAC
 70
     0
  9
$DIMLDRBLK
  1

  9
$DIMLUNIT
 70
     2
  9
$DIMLWD
 70
    -2
  9
$DIMLWE
 70
    -2
  9
$DIMTMOVE
 70
     0
  9
$LUNITS
 70
     2
  9
$LUPREC
 70
     2
  9
$SKETCHINC
 40
1.0
  9
$FILLETRAD
 40
10.0
  9
$AUNITS
 70
     0
  9
$AUPREC
 70
     2
  9
$MENU
  1
.
  9
$ELEVATION
 40
0.0
  9
$PELEVATION
 40
0.0
  9
$THICKNESS
 40
0.0
  9
$LIMCHECK
 70
     0
  9
$CHAMFERA
 40
0.0
  9
$CHAMFERB
 40
0.0
  9
$CHAMFERC
 40
0.0
  9
$CHAMFERD
 40
0.0
  9
$SKPOLY
 70
     0
  9
$TDCREATE
 40
2458654.393466389
  9
$TDUCREATE
 40
2458654.351799722
  9
$TDUPDATE
 40
2458654.393544711
  9
$TDUUPDATE
 40
2458654.351878044
  9
$TDINDWG
 40
0.0000000116
  9
$TDUSRTIMER
 40
0.0000000116
  9
$USRTIMER
 70
     1
  9
$ANGBASE
 50
0.0
  9
$ANGDIR
 70
     0
  9
$PDMODE
 70
     0
  9
$PDSIZE
 40
-1.0
  9
$PLINEWID
 40
0.0
  9
$SPLFRAME
 70
     0
  9
$SPLINETYPE
 70
     6
  9
$SPLINESEGS
 70
     8
  9
$HANDSEED
  5
354
  9
$SURFTAB1
 70
     6
  9
$SURFTAB2
 70
     6
  9
$SURFTYPE
 70
     6
  9
$SURFU
 70
     6
  9
$SURFV
 70
     6
  9
$UCSBASE
  2

  9
$UCSNAME
  2

  9
$UCSORG
 10
0.0
 20
0.0
 30
0.0
  9
$UCSXDIR
 10
1.0
 20
0.0
 30
0.0
  9
$UCSYDIR
 10
0.0
 20
1.0
 30
0.0
  9
$UCSORTHOREF
  2

  9
$UCSORTHOVIEW
 70
     0
  9
$UCSORGTOP
 10
0.0
 20
0.0
 30
0.0
  9
$UCSORGBOTTOM
 10
0.0
 20
0.0
 30
0.0
  9
$UCSORGLEFT
 10
0.0
 20
0.0
 30
0.0
  9
$UCSORGRIGHT
 10
0.0
 20
0.0
 30
0.0
  9
$UCSORGFRONT
 10
0.0
 20
0.0
 30
0.0
  9
$UCSORGBACK
 10
0.0
 20
0.0
 30
0.0
  9
$PUCSBASE
  2

  9
$PUCSNAME
  2

  9
$PUCSORG
 10
0.0
 20
0.0
 30
0.0
  9
$PUCSXDIR
 10
1.0
 20
0.0
 30
0.0
  9
$PUCSYDIR
 10
0.0
 20
1.0
 30
0.0
  9
$PUCSORTHOREF
  2

  9
$PUCSORTHOVIEW
 70
     0
  9
$PUCSORGTOP
 10
0.0
 20
0.0
 30
0.0
  9
$PUCSORGBOTTOM
 10
0.0
 20
0.0
 30
0.0
  9
$PUCSORGLEFT
 10
0.0
 20
0.0
 30
0.0
  9
$PUCSORGRIGHT
 10
0.0
 20
0.0
 30
0.0
  9
$PUCSORGFRONT
 10
0.0
 20
0.0
 30
0.0
  9
$PUCSORGBACK
 10
0.0
 20
0.0
 30
0.0
  9
$USERI1
 70
     0
  9
$USERI2
 70
     0
  9
$USERI3
 70
     0
  9
$USERI4
 70
     0
  9
$USERI5
 70
     0
  9
$USERR1
 40
0.0
  9
$USERR2
 40
0.0
  9
$USERR3
 40
0.0
  9
$USERR4
 40
0.0
  9
$USERR5
 40
0.0
  9
$WORLDVIEW
 70
     1
  9
$SHADEDGE
 70
     3
  9
$SHADEDIF
 70
    70
  9
$TILEMODE
 70
     1
  9
$MAXACTVP
 70
    64
  9
$PINSBASE
 10
0.0
 20
0.0
 30
0.0
  9
$PLIMCHECK
 70
     0
  9
$PEXTMIN
 10
-303.0
 20
0.0
 30
0.0
  9
$PEXTMAX
 10
303.0
 20
792.0
 30
0.0
  9
$PLIMMIN
 10
-384.2307692308
 20
-30.4615384615
  9
$PLIMMAX
 10
822.0461538462
 20
822.4615384615
  9
$UNITMODE
 70
     0
  9
$VISRETAIN
 70
     1
  9
$PLINEGEN
 70
     0
  9
$PSLTSCALE
 70
     1
  9
$TREEDEPTH
 70
  3020
  9
$CMLSTYLE
  2
Standard
  9
$CMLJUST
 70
     0
  9
$CMLSCALE
 40
20.0
  9
$PROXYGRAPHICS
 70
     1
  9
$MEASUREMENT
 70
     1
  9
$CELWEIGHT
370
    -1
  9
$ENDCAPS
280
     0
  9
$JOINSTYLE
280
     0
  9
$LWDISPLAY
290
     1
  9
$INSUNITS
 70
     4
  9
$HYPERLINKBASE
  1

  9
$STYLESHEET
  1

  9
$XEDIT
290
     1
  9
$CEPSNTYPE
380
     0
  9
$PSTYLEMODE
290
     1
  9
$FINGERPRINTGUID
  2
{02e27823-020f-4962-a9b2-98cb644511e9}
  9
$VERSIONGUID
  2
{FAEB1C32-E019-11D5-929B-00C0DF256EC4}
  9
$EXTNAMES
290
     1
  9
$PSVPSCALE
 40
0.0
  9
$OLESTARTUP
290
     0
  0
ENDSEC
  0
SECTION
  2
CLASSES
  0
CLASS
  1
ACDBDICTIONARYWDFLT
  2
AcDbDictionaryWithDefault
  3
ObjectDBX Classes
 90
        0
280
     0
281
     0
  0
CLASS
  1
VISUALSTYLE
  2
AcDbVisualStyle
  3
ObjectDBX Classes
 90
     4095
280
     0
281
     0
  0
CLASS
  1
MATERIAL
  2
AcDbMaterial
  3
ObjectDBX Classes
 90
     1153
280
     0
281
     0
  0
CLASS
  1
SCALE
  2
AcDbScale
  3
ObjectDBX Classes
 90
     1153
280
     0
281
     0
  0
CLASS
  1
TABLESTYLE
  2
AcDbTableStyle
  3
ObjectDBX Classes
 90
     4095
280
     0
281
     0
  0
CLASS
  1
MLEADERSTYLE
  2
AcDbMLeaderStyle
  3
ACDB_MLEADERSTYLE_CLASS
 90
     4095
280
     0
281
     0
  0
CLASS
  1
SUN
  2
AcDbSun
  3
SCENEOE
 90
     1153
280
     0
281
     0
  0
CLASS
  1
ACDBPLACEHOLDER
  2
AcDbPlaceHolder
  3
ObjectDBX Classes
 90
        0
280
     0
281
     0
  0
CLASS
  1
LAYOUT
  2
AcDbLayout
  3
ObjectDBX Classes
 90
        0
280
     0
281
     0
  0
ENDSEC
  0
SECTION
  2
TABLES
  0
TABLE
  2
VPORT
  5
8
330
0
100
AcDbSymbolTable
 70
     1
  0
VPORT
  5
29
330
8
100
AcDbSymbolTableRecord
100
AcDbViewportTableRecord
  2
*Active
 70
     0
 10
0.0
 20
0.0
 11
1.0
 21
1.0
 12
0.0
 22
28.5
 13
0.0
 23
0.0
 14
10.0
 24
10.0
 15
10.0
 25
10.0
 16
0.0
 26
0.0
 36
1.0
 17
0.0
 27
0.0
 37
0.0
 40
90.78
 41
6.808988764
 42
50.0
 43
0.0
 44
0.0
 50
0.0
 51
0.0
 71
     0
 72
   100
 73
     1
 74
     3
 75
     0
 76
     0
 77
     0
 78
     0
281
     0
 65
     1
110
0.0
120
0.0
130
0.0
111
1.0
121
0.0
131
0.0
112
0.0
122
1.0
132
0.0
 79
     0
146
0.0
  0
ENDTAB
  0
TABLE
  2
LTYPE
  5
5
330
0
100
AcDbSymbolTable
 70
     6
  0
LTYPE
  5
14
330
5
100
AcDbSymbolTableRecord
100
AcDbLinetypeTableRecord
  2
ByBlock
 70
     0
  3

 72
    65
 73
     0
 40
0.0
  0
LTYPE
  5
15
330
5
100
AcDbSymbolTableRecord
100
AcDbLinetypeTableRecord
  2
ByLayer
 70
     0
  3

 72
    65
 73
     0
 40
0.0
  0
LTYPE
  5
16
330
5
100
AcDbSymbolTableRecord
100
AcDbLinetypeTableRecord
  2
Continuous
 70
     0
  3
Solid line
 72
    65
 73
     0
 40
0.0
  0
LTYPE
  5
6E
330
5
100
AcDbSymbolTableRecord
100
AcDbLinetypeTableRecord
  2
HIDDEN
 70
     0
  3
Hidden __ __ __ __ __ __ __ __ __ __ __ __ __ __
 72
    65
 73
     2
 40
1.905
 49
1.27
 74
     0
 49
-0.635
 74
     0
  0
LTYPE
  5
6F
330
5
100
AcDbSymbolTableRecord
100
AcDbLinetypeTableRecord
  2
PHANTOM
 70
     0
  3
Phantom ______  __  __  ______  __  __  ______
 72
    65
 73
     6
 40
12.7
 49
6.35
 74
     0
 49
-1.27
 74
     0
 49
1.27
 74
     0
 49
-1.27
 74
     0
 49
1.27
 74
     0
 49
-1.27
 74
     0
  0
LTYPE
  5
70
330
5
100
AcDbSymbolTableRecord
100
AcDbLinetypeTableRecord
  2
CENTER
 70
     0
  3
Center ____ _ ____ _ ____ _ ____ _ ____ _ ____
 72
    65
 73
     4
 40
10.16
 49
6.35
 74
     0
 49
-1.27
 74
     0
 49
1.27
 74
     0
 49
-1.27
 74
     0
  0
LTYPE
  5
71
330
5
100
AcDbSymbolTableRecord
100
AcDbLinetypeTableRecord
  2
CENTERX2
 70
     0
  3
Center (2x) ________  __  ________  __  _____
 72
    65
 73
     4
 40
20.32
 49
12.7
 74
     0
 49
-2.54
 74
     0
 49
2.54
 74
     0
 49
-2.54
 74
     0
  0
LTYPE
  5
72
330
5
100
AcDbSymbolTableRecord
100
AcDbLinetypeTableRecord
  2
DOT2
 70
     0
  3
Dot (.5x) ........................................
 72
    65
 73
     2
 40
0.635
 49
0.0
 74
     0
 49
-0.635
 74
     0
  0
ENDTAB
  0
TABLE
  2
LAYER
  5
2
330
0
100
AcDbSymbolTable
 70
     1
  0
LAYER
  5
10
330
2
100
AcDbSymbolTableRecord
100
AcDbLayerTableRecord
  2
0
 70
     0
 62
     7
  6
Continuous
370
    -3
390
F
  0
ENDTAB
  0
TABLE
  2
STYLE
  5
3
330
0
100
AcDbSymbolTable
 70
     1
  0
STYLE
  5
11
330
3
100
AcDbSymbolTableRecord
100
AcDbTextStyleTableRecord
  2
Standard
 70
     0
 40
0.0
 41
1.0
 50
0.0
 71
     0
 42
3.5
  3
txt
  4

  0
ENDTAB
  0
TABLE
  2
VIEW
  5
6
330
0
100
AcDbSymbolTable
 70
     0
  0
ENDTAB
  0
TABLE
  2
UCS
  5
7
330
0
100
AcDbSymbolTable
 70
     0
  0
ENDTAB
  0
TABLE
  2
APPID
  5
9
330
0
100
AcDbSymbolTable
 70
     1
  0
APPID
  5
12
330
9
100
AcDbSymbolTableRecord
100
AcDbRegAppTableRecord
  2
ACAD
 70
     0
  0
ENDTAB
  0
TABLE
  2
DIMSTYLE
  5
A
330
0
100
AcDbSymbolTable
 70
     1
100
AcDbDimStyleTable
  0
DIMSTYLE
105
27
330
A
100
AcDbSymbolTableRecord
100
AcDbDimStyleTableRecord
  2
ISO-25
 70
     0
 41
2.5
 42
0.625
 43
3.75
 44
1.25
 73
     0
 74
     0
 77
     1
 78
     8
140
2.5
141
2.5
143
0.0393700787
147
0.625
171
     3
172
     1
178
     0
271
     2
272
     2
274
     3
278
    44
283
     0
284
     8
340
11
  0
ENDTAB
  0
TABLE
  2
BLOCK_RECORD
  5
1
330
0
100
AcDbSymbolTable
 70
     3
  0
BLOCK_RECORD
  5
1F
330
1
100
AcDbSymbolTableRecord
100
AcDbBlockTableRecord
  2
*Model_Space
340
22
  0
BLOCK_RECORD
  5
1B
330
1
100
AcDbSymbolTableRecord
100
AcDbBlockTableRecord
  2
*Paper_Space
340
1E
  0
BLOCK_RECORD
  5
23
330
1
100
AcDbSymbolTableRecord
100
AcDbBlockTableRecord
  2
*Paper_Space0
340
26
  0
BLOCK_RECORD
  5
1A3
330
1
100
AcDbSymbolTableRecord
100
AcDbBlockTableRecord
  2
*Paper_Space1
340
1A4
  0
BLOCK_RECORD
  5
287
330
1
100
AcDbSymbolTableRecord
100
AcDbBlockTableRecord
  2
*Paper_Space2
340
288
  0
ENDTAB
  0
ENDSEC
  0
SECTION
  2
BLOCKS
  0
BLOCK
  5
20
330
1F
100
AcDbEntity
  8
0
100
AcDbBlockBegin
  2
*Model_Space
 70
     0
 10
0.0
 20
0.0
 30
0.0
  3
*Model_Space
  1

  0
ENDBLK
  5
21
330
1F
100
AcDbEntity
  8
0
100
AcDbBlockEnd
  0
BLOCK
  5
1C
330
1B
100
AcDbEntity
 67
     1
  8
0
100
AcDbBlockBegin
  2
*Paper_Space
 70
     0
 10
0.0
 20
0.0
 30
0.0
  3
*Paper_Space
  1

  0
ENDBLK
  5
1D
330
1B
100
AcDbEntity
 67
     1
  8
0
100
AcDbBlockEnd
  0
BLOCK
  5
24
330
23
100
AcDbEntity
  8
0
100
AcDbBlockBegin
  2
*Paper_Space0
 70
     0
 10
0.0
 20
0.0
 30
0.0
  3
*Paper_Space0
  1

  0
SPLINE
  5
176
330
23
100
AcDbEntity
  8
0
  6
Continuous
 62
     7
370
    25
100
AcDbSpline
210
0.0
220
0.0
230
1.0
 70
     8
 71
     3
 72
    21
 73
    17
 74
     0
 42
0.000000001
 43
0.00000001
 40
0.0
 40
0.0
 40
0.0
 40
0.0
 40
0.0902872786097472
 40
0.1802404140168472
 40
0.2784164986077911
 40
0.3359427951271705
 40
0.3951761382154366
 40
0.4736981480714053
 40
0.552620017194584
 40
0.6415285750466398
 40
0.6996241956586507
 40
0.7593841761228913
 40
0.8179108510556629
 40
0.8784229614562553
 40
0.966547331359539
 40
1.0
 40
1.0
 40
1.0
 40
1.0
 10
15.99999999999997
 20
174.9999999999998
 30
0.0
 10
15.92758544162594
 20
174.9003154933639
 30
0.0
 10
15.78302432312555
 20
174.7013154013934
 30
0.0
 10
14.73011750583178
 20
173.1875782373751
 30
0.0
 10
13.53763738371692
 20
171.2816428510243
 30
0.0
 10
12.48359113541882
 20
169.2361907072442
 30
0.0
 10
11.63592540191297
 20
167.1421501684233
 30
0.0
 10
11.03349459208907
 20
164.5063144091937
 30
0.0
 10
11.18731802100116
 20
161.3532525428691
 30
0.0
 10
12.04011367178839
 20
158.738103857237
 30
0.0
 10
13.02408051169733
 20
156.6787192506368
 30
0.0
 10
13.89702075710006
 20
155.1450620055016
 30
0.0
 10
14.72981269190379
 20
153.8323846715842
 30
0.0
 10
15.50448807456152
 20
152.6903843451916
 30
0.0
 10
16.01666393074955
 20
151.9766501713878
 30
0.0
 10
15.93997363921159
 20
152.0837453764157
 30
0.0
 10
15.91887183461519
 20
152.1132132796456
 30
0.0
  0
SPLINE
  5
179
330
23
100
AcDbEntity
  8
0
  6
Continuous
 62
     7
370
    25
100
AcDbSpline
210
0.0
220
0.0
230
1.0
 70
     8
 71
     3
 72
    18
 73
    14
 74
     0
 42
0.000000001
 43
0.00000001
 40
0.0
 40
0.0
 40
0.0
 40
0.0
 40
0.0363878257718529
 40
0.1326637063708318
 40
0.2319445645209507
 40
0.3400216990548466
 40
0.4515536612041205
 40
0.5529280836757059
 40
0.6468824580981822
 40
0.7471321363465526
 40
0.857543181934101
 40
0.9672209451698941
 40
1.0
 40
1.0
 40
1.0
 40
1.0
 10
15.95706537274916
 20
762.0922070338545
 30
0.0
 10
15.96873897059671
 20
762.0670966337406
 30
0.0
 10
16.01129888519144
 20
761.9755484668225
 30
0.0
 10
15.72425677726446
 20
762.5898004509534
 30
0.0
 10
15.19739483226716
 20
763.8514254821978
 30
0.0
 10
14.55140536534429
 20
765.810484342453
 30
0.0
 10
14.11228532124113
 20
768.2364215352218
 30
0.0
 10
14.12267022296595
 20
770.7299871175751
 30
0.0
 10
14.5060655602295
 20
772.964064089484
 30
0.0
 10
15.10066595551452
 20
774.9013821961289
 30
0.0
 10
15.70481549877632
 20
776.3715035064145
 30
0.0
 10
15.97914147372877
 20
776.9552508648655
 30
0.0
 10
15.99609827163226
 20
776.9916293717151
 30
0.0
 10
15.99999999999997
 20
777.0000000000001
 30
0.0
  0
LWPOLYLINE
  5
17A
330
23
100
AcDbEntity
  8
0
  6
Continuous
 62
     7
370
    25
100
AcDbPolyline
 90
       16
 70
   128
 43
0.0
 10
15.9188718346
 20
617.1132132796
 10
15.8670037675
 20
617.1857696435
 10
15.2013713778
 20
618.1398990465
 10
14.0366911768
 20
619.9397021551
 10
12.4699460013
 20
622.8653258057
 10
11.4119608855
 20
625.9538556105
 10
11.1263282098
 20
628.7125545413
 10
11.5087809958
 20
631.4499220343
 10
12.0411607366
 20
633.1086388322
 10
12.7180401383
 20
634.6642959824
 10
14.1936680631
 20
637.3153396466
 10
14.9633630551
 20
638.5076088012
 10
15.5833539876
 20
639.4128786992
 10
15.8888794731
 20
639.8448883163
 10
16.0
 20
640.0
 10
16.0
 20
640.0
  0
LINE
  5
181
330
23
100
AcDbEntity
  8
0
  6
Continuous
 62
     7
370
    25
100
AcDbLine
 10
68.0
 20
609.5
 30
0.0
 11
73.0
 21
609.5
 31
0.0
  0
LINE
  5
182
330
23
100
AcDbEntity
  8
0
  6
Continuous
 62
     7
370
    25
100
AcDbLine
 10
73.0
 20
647.5
 30
0.0
 11
68.0
 21
647.5
 31
0.0
  0
LINE
  5
183
330
23
100
AcDbEntity
  8
0
  6
Continuous
 62
     7
370
    25
100
AcDbLine
 10
68.0
 20
144.5
 30
0.0
 11
73.0
 21
144.5
 31
0.0
  0
LINE
  5
184
330
23
100
AcDbEntity
  8
0
  6
Continuous
 62
     7
370
    25
100
AcDbLine
 10
73.0
 20
182.5
 30
0.0
 11
68.0
 21
182.5
 31
0.0
  0
LINE
  5
185
330
23
100
AcDbEntity
  8
0
  6
Continuous
 62
     7
370
    25
100
AcDbLine
 10
16.0
 20
777.0
 30
0.0
 11
16.0
 21
792.0
 31
0.0
  0
LINE
  5
186
330
23
100
AcDbEntity
  8
0
  6
Continuous
 62
     7
370
    25
100
AcDbLine
 10
16.0
 20
640.0
 30
0.0
 11
16.0
 21
762.0922070339
 31
0.0
  0
LINE
  5
187
330
23
100
AcDbEntity
  8
0
  6
Continuous
 62
     7
370
    25
100
AcDbLine
 10
16.0
 20
175.0
 30
0.0
 11
16.0
 21
617.1132132796
 31
0.0
  0
LINE
  5
188
330
23
100
AcDbEntity
  8
0
  6
Continuous
 62
     7
370
    25
100
AcDbLine
 10
16.0
 20
0.0
 30
0.0
 11
16.0
 21
152.1132132796
 31
0.0
  0
LINE
  5
189
330
23
100
AcDbEntity
  8
0
  6
Continuous
 62
     7
370
    25
100
AcDbLine
 10
-16.0
 20
792.0
 30
0.0
 11
-16.0
 21
0.0
 31
0.0
  0
LINE
  5
18A
330
23
100
AcDbEntity
  8
0
  6
Continuous
 62
     7
370
    25
100
AcDbLine
 10
55.0
 20
613.5
 30
0.0
 11
68.0
 21
613.5
 31
0.0
  0
LINE
  5
18B
330
23
100
AcDbEntity
  8
0
  6
Continuous
 62
     7
370
    25
100
AcDbLine
 10
68.0
 20
643.5
 30
0.0
 11
55.0
 21
643.5
 31
0.0
  0
LINE
  5
18C
330
23
100
AcDbEntity
  8
0
  6
Continuous
 62
     7
370
    25
100
AcDbLine
 10
55.0
 20
148.5
 30
0.0
 11
68.0
 21
148.5
 31
0.0
  0
LINE
  5
18D
330
23
100
AcDbEntity
  8
0
  6
Continuous
 62
     7
370
    25
100
AcDbLine
 10
68.0
 20
178.5
 30
0.0
 11
55.0
 21
178.5
 31
0.0
  0
LINE
  5
18E
330
23
100
AcDbEntity
  8
0
  6
Continuous
 62
     7
370
    25
100
AcDbLine
 10
15.918920708
 20
617.0
 30
0.0
 11
55.0
 21
617.0
 31
0.0
  0
LINE
  5
18F
330
23
100
AcDbEntity
  8
0
  6
Continuous
 62
     7
370
    25
100
AcDbLine
 10
55.0
 20
640.0
 30
0.0
 11
16.0
 21
640.0
 31
0.0
  0
LINE
  5
190
330
23
100
AcDbEntity
  8
0
  6
Continuous
 62
     7
370
    25
100
AcDbLine
 10
15.918920708
 20
152.0
 30
0.0
 11
55.0
 21
152.0
 31
0.0
  0
LINE
  5
191
330
23
100
AcDbEntity
  8
0
  6
Continuous
 62
     7
370
    25
100
AcDbLine
 10
55.0
 20
175.0
 30
0.0
 11
16.0
 21
175.0
 31
0.0
  0
LINE
  5
192
330
23
100
AcDbEntity
  8
0
  6
Continuous
 62
     7
370
    25
100
AcDbLine
 10
27.0
 20
762.0
 30
0.0
 11
31.0
 21
762.0
 31
0.0
  0
LINE
  5
193
330
23
100
AcDbEntity
  8
0
  6
Continuous
 62
     7
370
    25
100
AcDbLine
 10
31.0
 20
777.0
 30
0.0
 11
27.0
 21
777.0
 31
0.0
  0
LINE
  5
194
330
23
100
AcDbEntity
  8
0
  6
Continuous
 62
     7
370
    25
100
AcDbLine
 10
15.9571441764
 20
762.0
 30
0.0
 11
25.0
 21
762.0
 31
0.0
  0
LINE
  5
195
330
23
100
AcDbEntity
  8
0
  6
Continuous
 62
     7
370
    25
100
AcDbLine
 10
25.0
 20
777.0
 30
0.0
 11
16.0
 21
777.0
 31
0.0
  0
LINE
  5
196
330
23
100
AcDbEntity
  8
0
  6
Continuous
 62
     7
370
    25
100
AcDbLine
 10
25.0
 20
763.5
 30
0.0
 11
27.0
 21
763.5
 31
0.0
  0
LINE
  5
197
330
23
100
AcDbEntity
  8
0
  6
Continuous
 62
     7
370
    25
100
AcDbLine
 10
27.0
 20
775.5
 30
0.0
 11
25.0
 21
775.5
 31
0.0
  0
LINE
  5
198
330
23
100
AcDbEntity
  8
0
  6
Continuous
 62
     7
370
    25
100
AcDbLine
 10
68.0
 20
647.5
 30
0.0
 11
68.0
 21
609.5
 31
0.0
  0
LINE
  5
199
330
23
100
AcDbEntity
  8
0
  6
Continuous
 62
     7
370
    25
100
AcDbLine
 10
73.0
 20
647.5
 30
0.0
 11
73.0
 21
609.5
 31
0.0
  0
LINE
  5
19A
330
23
100
AcDbEntity
  8
0
  6
Continuous
 62
     7
370
    25
100
AcDbLine
 10
68.0
 20
144.5
 30
0.0
 11
68.0
 21
182.5
 31
0.0
  0
LINE
  5
19B
330
23
100
AcDbEntity
  8
0
  6
Continuous
 62
     7
370
    25
100
AcDbLine
 10
73.0
 20
144.5
 30
0.0
 11
73.0
 21
182.5
 31
0.0
  0
LINE
  5
19C
330
23
100
AcDbEntity
  8
0
  6
Continuous
 62
     7
370
    25
100
AcDbLine
 10
-16.0
 20
0.0
 30
0.0
 11
16.0
 21
0.0
 31
0.0
  0
LINE
  5
19D
330
23
100
AcDbEntity
  8
0
  6
Continuous
 62
     7
370
    25
100
AcDbLine
 10
-16.0
 20
792.0
 30
0.0
 11
16.0
 21
792.0
 31
0.0
  0
LINE
  5
19E
330
23
100
AcDbEntity
  8
0
  6
Continuous
 62
     7
370
    25
100
AcDbLine
 10
55.0
 20
643.5
 30
0.0
 11
55.0
 21
613.5
 31
0.0
  0
LINE
  5
19F
330
23
100
AcDbEntity
  8
0
  6
Continuous
 62
     7
370
    25
100
AcDbLine
 10
55.0
 20
148.5
 30
0.0
 11
55.0
 21
178.5
 31
0.0
  0
LINE
  5
1A0
330
23
100
AcDbEntity
  8
0
  6
Continuous
 62
     7
370
    25
100
AcDbLine
 10
31.0
 20
777.0
 30
0.0
 11
31.0
 21
762.0
 31
0.0
  0
LINE
  5
1A1
330
23
100
AcDbEntity
  8
0
  6
Continuous
 62
     7
370
    25
100
AcDbLine
 10
27.0
 20
777.0
 30
0.0
 11
27.0
 21
762.0
 31
0.0
  0
LINE
  5
1A2
330
23
100
AcDbEntity
  8
0
  6
Continuous
 62
     7
370
    25
100
AcDbLine
 10
25.0
 20
762.0
 30
0.0
 11
25.0
 21
777.0
 31
0.0
  0
VIEWPORT
  5
34E
330
23
100
AcDbEntity
  8
0
100
AcDbViewport
 10
0.0
 20
0.0
 30
0.0
 40
205.6
 41
156.0
 68
     1
 69
     1
 12
0.0
 22
28.5
 13
0.0
 23
0.0
 14
10.0
 24
10.0
 15
10.0
 25
10.0
 16
0.0
 26
0.0
 36
1.0
 17
0.0
 27
0.0
 37
0.0
 42
50.0
 43
0.0
 44
0.0
 45
469.0015564202
 50
0.0
 51
0.0
 72
   100
 90
   557152
  1

281
     0
 71
     1
 74
     0
110
0.0
120
0.0
130
0.0
111
1.0
121
0.0
131
0.0
112
0.0
122
1.0
132
0.0
 79
     0
146
0.0
  0
ENDBLK
  5
25
330
23
100
AcDbEntity
  8
0
100
AcDbBlockEnd
  0
BLOCK
  5
1A5
330
1A3
100
AcDbEntity
  8
0
100
AcDbBlockBegin
  2
*Paper_Space1
 70
     0
 10
0.0
 20
0.0
 30
0.0
  3
*Paper_Space1
  1

  0
CIRCLE
  5
1E3
330
1A3
100
AcDbEntity
  8
0
  6
Continuous
 62
     7
370
    25
100
AcDbCircle
 10
284.0
 20
163.5
 30
0.0
 40
19.00000000000006
  0
CIRCLE
  5
1E4
330
1A3
100
AcDbEntity
  8
0
  6
Continuous
 62
     7
370
    25
100
AcDbCircle
 10
284.0
 20
163.5
 30
0.0
 40
15.00000000000006
  0
CIRCLE
  5
1E5
330
1A3
100
AcDbEntity
  8
0
  6
Continuous
 62
     7
370
    25
100
AcDbCircle
 10
-284.0
 20
628.5
 30
0.0
 40
15.00000000000028
  0
CIRCLE
  5
1E6
330
1A3
100
AcDbEntity
  8
0
  6
Continuous
 62
     7
370
    25
100
AcDbCircle
 10
-284.0
 20
628.5
 30
0.0
 40
19.00000000000006
  0
CIRCLE
  5
1E7
330
1A3
100
AcDbEntity
  8
0
  6
Continuous
 62
     7
370
    25
100
AcDbCircle
 10
284.0
 20
628.5
 30
0.0
 40
19.00000000000006
  0
CIRCLE
  5
1E8
330
1A3
100
AcDbEntity
  8
0
  6
Continuous
 62
     7
370
    25
100
AcDbCircle
 10
284.0
 20
628.5
 30
0.0
 40
15.00000000000028
  0
CIRCLE
  5
1E9
330
1A3
100
AcDbEntity
  8
0
  6
Continuous
 62
     7
370
    25
100
AcDbCircle
 10
-284.0
 20
163.5
 30
0.0
 40
19.00000000000006
  0
CIRCLE
  5
1EA
330
1A3
100
AcDbEntity
  8
0
  6
Continuous
 62
     7
370
    25
100
AcDbCircle
 10
-284.0
 20
163.5
 30
0.0
 40
15.00000000000006
  0
CIRCLE
  5
203
330
1A3
100
AcDbEntity
  8
0
  6
Continuous
 62
     7
370
    25
100
AcDbCircle
 10
-284.0
 20
769.5
 30
0.0
 40
7.500000000000057
  0
CIRCLE
  5
204
330
1A3
100
AcDbEntity
  8
0
  6
Continuous
 62
     7
370
    25
100
AcDbCircle
 10
-284.0
 20
769.5
 30
0.0
 40
1.999999999999886
  0
SPLINE
  5
206
330
1A3
100
AcDbEntity
  8
0
  6
Continuous
 62
     7
370
    25
100
AcDbSpline
210
0.0
220
0.0
230
1.0
 70
     8
 71
     3
 72
    12
 73
     8
 74
     0
 42
0.000000001
 43
0.00000001
 40
0.0
 40
0.0
 40
0.0
 40
0.0
 40
0.193386597059175
 40
0.3860325423042945
 40
0.5968023489277743
 40
0.8238393923514862
 40
1.0
 40
1.0
 40
1.0
 40
1.0
 10
270.4445582882742
 20
132.4999999999999
 30
0.0
 10
270.3927790385061
 20
133.3771776215343
 30
0.0
 10
270.2894188484487
 20
135.1281733598261
 30
0.0
 10
269.5890911685532
 20
137.5092235997634
 30
0.0
 10
268.782433205427
 20
139.4783588734805
 30
0.0
 10
268.1077873297124
 20
140.799362518793
 30
0.0
 10
268.0556035690287
 20
140.8954908664034
 30
0.0
 10
268.0328040240238
 20
140.9374901887761
 30
0.0
  0
SPLINE
  5
207
330
1A3
100
AcDbEntity
  8
0
  6
Continuous
 62
     7
370
    25
100
AcDbSpline
210
0.0
220
0.0
230
1.0
 70
     8
 71
     3
 72
    13
 73
     9
 74
     0
 42
0.000000001
 43
0.00000001
 40
0.0
 40
0.0
 40
0.0
 40
0.0
 40
0.0747802672746078
 40
0.261738406422473
 40
0.4559566350065397
 40
0.6715693445628386
 40
0.8979252940874815
 40
0.9999999999999999
 40
0.9999999999999999
 40
0.9999999999999999
 40
0.9999999999999999
 10
268.0551709298086
 20
124.1044533208827
 30
0.0
 10
268.0404792090133
 20
124.0765832877795
 30
0.0
 10
267.9890567184459
 20
123.9790353875481
 30
0.0
 10
268.3497596364543
 20
124.6609437371573
 30
0.0
 10
269.0151468627245
 20
126.0493107779148
 30
0.0
 10
269.8523666769276
 20
128.2258038889129
 30
0.0
 10
270.3835086290961
 20
130.5509038364738
 30
0.0
 10
270.4300831468099
 20
132.0378607665571
 30
0.0
 10
270.4445582882742
 20
132.4999999999999
 30
0.0
  0
SPLINE
  5
208
330
1A3
100
AcDbEntity
  8
0
  6
Continuous
 62
     7
370
    25
100
AcDbSpline
210
0.0
220
0.0
230
1.0
 70
     8
 71
     3
 72
    12
 73
     8
 74
     0
 42
0.000000001
 43
0.00000001
 40
0.0
 40
0.0
 40
0.0
 40
0.0
 40
0.193386597059174
 40
0.386032542304294
 40
0.5968023489277716
 40
0.8238393923514865
 40
1.0
 40
1.0
 40
1.0
 40
1.0
 10
270.4445582882743
 20
22.49999999999996
 30
0.0
 10
270.3927790385061
 20
23.37717762153435
 30
0.0
 10
270.2894188484487
 20
25.12817335982615
 30
0.0
 10
269.5890911685532
 20
27.50922359976338
 30
0.0
 10
268.782433205427
 20
29.47835887348049
 30
0.0
 10
268.1077873297125
 20
30.799362518793
 30
0.0
 10
268.0556035690286
 20
30.89549086640336
 30
0.0
 10
268.0328040240238
 20
30.93749018877606
 30
0.0
  0
SPLINE
  5
209
330
1A3
100
AcDbEntity
  8
0
  6
Continuous
 62
     7
370
    25
100
AcDbSpline
210
0.0
220
0.0
230
1.0
 70
     8
 71
     3
 72
    13
 73
     9
 74
     0
 42
0.000000001
 43
0.00000001
 40
0.0
 40
0.0
 40
0.0
 40
0.0
 40
0.0747802672746108
 40
0.2617384064224749
 40
0.4559566350065406
 40
0.6715693445628387
 40
0.8979252940874836
 40
1.0
 40
1.0
 40
1.0
 40
1.0
 10
268.0551709298086
 20
14.10445332088273
 30
0.0
 10
268.0404792090134
 20
14.0765832877795
 30
0.0
 10
267.9890567184459
 20
13.97903538754813
 30
0.0
 10
268.3497596364542
 20
14.66094373715732
 30
0.0
 10
269.0151468627244
 20
16.04931077791483
 30
0.0
 10
269.8523666769277
 20
18.22580388891293
 30
0.0
 10
270.383508629096
 20
20.55090383647384
 30
0.0
 10
270.4300831468099
 20
22.03786076655717
 30
0.0
 10
270.4445582882743
 20
22.49999999999996
 30
0.0
  0
SPLINE
  5
20A
330
1A3
100
AcDbEntity
  8
0
  6
Continuous
 62
     7
370
    25
100
AcDbSpline
210
0.0
220
0.0
230
1.0
 70
     8
 71
     3
 72
    12
 73
     8
 74
     0
 42
0.000000001
 43
0.00000001
 40
0.0
 40
0.0
 40
0.0
 40
0.0
 40
0.1933865970591742
 40
0.386032542304294
 40
0.5968023489277725
 40
0.8238393923514865
 40
1.0
 40
1.0
 40
1.0
 40
1.0
 10
270.4445582882742
 20
77.49999999999996
 30
0.0
 10
270.3927790385061
 20
78.3771776215344
 30
0.0
 10
270.2894188484487
 20
80.12817335982614
 30
0.0
 10
269.5890911685532
 20
82.50922359976337
 30
0.0
 10
268.7824332054269
 20
84.47835887348054
 30
0.0
 10
268.1077873297125
 20
85.799362518793
 30
0.0
 10
268.0556035690286
 20
85.89549086640335
 30
0.0
 10
268.0328040240238
 20
85.93749018877605
 30
0.0
  0
SPLINE
  5
20B
330
1A3
100
AcDbEntity
  8
0
  6
Continuous
 62
     7
370
    25
100
AcDbSpline
210
0.0
220
0.0
230
1.0
 70
     8
 71
     3
 72
    13
 73
     9
 74
     0
 42
0.000000001
 43
0.00000001
 40
0.0
 40
0.0
 40
0.0
 40
0.0
 40
0.0747802672746098
 40
0.2617384064224738
 40
0.4559566350065406
 40
0.6715693445628381
 40
0.8979252940874841
 40
1.0
 40
1.0
 40
1.0
 40
1.0
 10
268.0551709298086
 20
69.10445332088273
 30
0.0
 10
268.0404792090134
 20
69.07658328777948
 30
0.0
 10
267.989056718446
 20
68.97903538754818
 30
0.0
 10
268.3497596364544
 20
69.66094373715731
 30
0.0
 10
269.0151468627244
 20
71.04931077791483
 30
0.0
 10
269.8523666769275
 20
73.22580388891292
 30
0.0
 10
270.383508629096
 20
75.55090383647378
 30
0.0
 10
270.4300831468099
 20
77.03786076655716
 30
0.0
 10
270.4445582882742
 20
77.49999999999996
 30
0.0
  0
SPLINE
  5
20C
330
1A3
100
AcDbEntity
  8
0
  6
Continuous
 62
     7
370
    25
100
AcDbSpline
210
0.0
220
0.0
230
1.0
 70
     8
 71
     3
 72
    12
 73
     8
 74
     0
 42
0.000000001
 43
0.00000001
 40
0.0
 40
0.0
 40
0.0
 40
0.0
 40
0.1933865970591758
 40
0.3860325423042936
 40
0.5968023489277737
 40
0.8238393923514884
 40
1.0
 40
1.0
 40
1.0
 40
1.0
 10
270.4445582882742
 20
232.4999999999999
 30
0.0
 10
270.3927790385061
 20
233.3771776215343
 30
0.0
 10
270.2894188484487
 20
235.1281733598261
 30
0.0
 10
269.5890911685532
 20
237.5092235997633
 30
0.0
 10
268.7824332054268
 20
239.4783588734804
 30
0.0
 10
268.1077873297126
 20
240.799362518793
 30
0.0
 10
268.0556035690287
 20
240.8954908664033
 30
0.0
 10
268.0328040240238
 20
240.937490188776
 30
0.0
  0
SPLINE
  5
20D
330
1A3
100
AcDbEntity
  8
0
  6
Continuous
 62
     7
370
    25
100
AcDbSpline
210
0.0
220
0.0
230
1.0
 70
     8
 71
     3
 72
    13
 73
     9
 74
     0
 42
0.000000001
 43
0.00000001
 40
0.0
 40
0.0
 40
0.0
 40
0.0
 40
0.0747802672746085
 40
0.2617384064224737
 40
0.4559566350065392
 40
0.6715693445628383
 40
0.8979252940874833
 40
0.9999999999999999
 40
0.9999999999999999
 40
0.9999999999999999
 40
0.9999999999999999
 10
268.0551709298086
 20
224.1044533208827
 30
0.0
 10
268.0404792090133
 20
224.0765832877794
 30
0.0
 10
267.9890567184459
 20
223.9790353875482
 30
0.0
 10
268.3497596364544
 20
224.6609437371573
 30
0.0
 10
269.0151468627244
 20
226.0493107779148
 30
0.0
 10
269.8523666769277
 20
228.2258038889129
 30
0.0
 10
270.383508629096
 20
230.5509038364738
 30
0.0
 10
270.4300831468098
 20
232.0378607665571
 30
0.0
 10
270.4445582882742
 20
232.4999999999999
 30
0.0
  0
SPLINE
  5
20E
330
1A3
100
AcDbEntity
  8
0
  6
Continuous
 62
     7
370
    25
100
AcDbSpline
210
0.0
220
0.0
230
1.0
 70
     8
 71
     3
 72
    12
 73
     8
 74
     0
 42
0.000000001
 43
0.00000001
 40
0.0
 40
0.0
 40
0.0
 40
0.0
 40
0.1933865970591711
 40
0.3860325423042926
 40
0.5968023489277746
 40
0.8238393923514892
 40
1.0
 40
1.0
 40
1.0
 40
1.0
 10
270.4445582882743
 20
287.5000000000001
 30
0.0
 10
270.3927790385061
 20
288.3771776215344
 30
0.0
 10
270.2894188484487
 20
290.1281733598262
 30
0.0
 10
269.5890911685532
 20
292.5092235997633
 30
0.0
 10
268.7824332054269
 20
294.4783588734805
 30
0.0
 10
268.1077873297126
 20
295.799362518793
 30
0.0
 10
268.0556035690286
 20
295.8954908664033
 30
0.0
 10
268.0328040240238
 20
295.937490188776
 30
0.0
  0
SPLINE
  5
20F
330
1A3
100
AcDbEntity
  8
0
  6
Continuous
 62
     7
370
    25
100
AcDbSpline
210
0.0
220
0.0
230
1.0
 70
     8
 71
     3
 72
    13
 73
     9
 74
     0
 42
0.000000001
 43
0.00000001
 40
0.0
 40
0.0
 40
0.0
 40
0.0
 40
0.0747802672746073
 40
0.2617384064224704
 40
0.4559566350065379
 40
0.671569344562836
 40
0.8979252940874779
 40
1.0
 40
1.0
 40
1.0
 40
1.0
 10
268.0551709298086
 20
279.1044533208827
 30
0.0
 10
268.0404792090133
 20
279.0765832877794
 30
0.0
 10
267.9890567184457
 20
278.979035387548
 30
0.0
 10
268.3497596364544
 20
279.6609437371572
 30
0.0
 10
269.0151468627244
 20
281.0493107779148
 30
0.0
 10
269.8523666769277
 20
283.2258038889128
 30
0.0
 10
270.383508629096
 20
285.550903836474
 30
0.0
 10
270.4300831468099
 20
287.0378607665572
 30
0.0
 10
270.4445582882742
 20
287.5
 30
0.0
  0
SPLINE
  5
210
330
1A3
100
AcDbEntity
  8
0
  6
Continuous
 62
     7
370
    25
100
AcDbSpline
210
0.0
220
0.0
230
1.0
 70
     8
 71
     3
 72
    12
 73
     8
 74
     0
 42
0.000000001
 43
0.00000001
 40
0.0
 40
0.0
 40
0.0
 40
0.0
 40
0.1933865970591717
 40
0.3860325423042923
 40
0.5968023489277747
 40
0.8238393923514895
 40
0.9999999999999999
 40
0.9999999999999999
 40
0.9999999999999999
 40
0.9999999999999999
 10
270.4445582882742
 20
342.4999999999999
 30
0.0
 10
270.3927790385061
 20
343.3771776215344
 30
0.0
 10
270.2894188484487
 20
345.1281733598262
 30
0.0
 10
269.5890911685531
 20
347.5092235997632
 30
0.0
 10
268.7824332054269
 20
349.4783588734805
 30
0.0
 10
268.1077873297124
 20
350.7993625187929
 30
0.0
 10
268.0556035690286
 20
350.8954908664032
 30
0.0
 10
268.0328040240238
 20
350.9374901887759
 30
0.0
  0
SPLINE
  5
211
330
1A3
100
AcDbEntity
  8
0
  6
Continuous
 62
     7
370
    25
100
AcDbSpline
210
0.0
220
0.0
230
1.0
 70
     8
 71
     3
 72
    13
 73
     9
 74
     0
 42
0.000000001
 43
0.00000001
 40
0.0
 40
0.0
 40
0.0
 40
0.0
 40
0.074780267274607
 40
0.2617384064224703
 40
0.4559566350065374
 40
0.6715693445628359
 40
0.8979252940874779
 40
1.0
 40
1.0
 40
1.0
 40
1.0
 10
268.0551709298086
 20
334.1044533208827
 30
0.0
 10
268.0404792090133
 20
334.0765832877794
 30
0.0
 10
267.9890567184459
 20
333.9790353875482
 30
0.0
 10
268.3497596364545
 20
334.6609437371572
 30
0.0
 10
269.0151468627243
 20
336.0493107779148
 30
0.0
 10
269.8523666769278
 20
338.225803888913
 30
0.0
 10
270.3835086290959
 20
340.5509038364737
 30
0.0
 10
270.4300831468099
 20
342.0378607665572
 30
0.0
 10
270.4445582882742
 20
342.4999999999999
 30
0.0
  0
SPLINE
  5
212
330
1A3
100
AcDbEntity
  8
0
  6
Continuous
 62
     7
370
    25
100
AcDbSpline
210
0.0
220
0.0
230
1.0
 70
     8
 71
     3
 72
    12
 73
     8
 74
     0
 42
0.000000001
 43
0.00000001
 40
0.0
 40
0.0
 40
0.0
 40
0.0
 40
0.1933865970591718
 40
0.3860325423042925
 40
0.596802348927775
 40
0.8238393923514912
 40
0.9999999999999999
 40
0.9999999999999999
 40
0.9999999999999999
 40
0.9999999999999999
 10
270.4445582882743
 20
442.5000000000001
 30
0.0
 10
270.3927790385061
 20
443.3771776215345
 30
0.0
 10
270.2894188484487
 20
445.1281733598263
 30
0.0
 10
269.5890911685531
 20
447.5092235997632
 30
0.0
 10
268.7824332054269
 20
449.4783588734804
 30
0.0
 10
268.1077873297126
 20
450.7993625187931
 30
0.0
 10
268.0556035690287
 20
450.8954908664034
 30
0.0
 10
268.0328040240238
 20
450.937490188776
 30
0.0
  0
SPLINE
  5
213
330
1A3
100
AcDbEntity
  8
0
  6
Continuous
 62
     7
370
    25
100
AcDbSpline
210
0.0
220
0.0
230
1.0
 70
     8
 71
     3
 72
    13
 73
     9
 74
     0
 42
0.000000001
 43
0.00000001
 40
0.0
 40
0.0
 40
0.0
 40
0.0
 40
0.0747802672746057
 40
0.2617384064224715
 40
0.4559566350065375
 40
0.6715693445628352
 40
0.8979252940874777
 40
1.0
 40
1.0
 40
1.0
 40
1.0
 10
268.0551709298086
 20
434.1044533208827
 30
0.0
 10
268.0404792090133
 20
434.0765832877796
 30
0.0
 10
267.9890567184459
 20
433.9790353875482
 30
0.0
 10
268.3497596364543
 20
434.6609437371572
 30
0.0
 10
269.0151468627245
 20
436.0493107779149
 30
0.0
 10
269.8523666769275
 20
438.2258038889128
 30
0.0
 10
270.383508629096
 20
440.5509038364739
 30
0.0
 10
270.4300831468099
 20
442.0378607665572
 30
0.0
 10
270.4445582882742
 20
442.5
 30
0.0
  0
SPLINE
  5
214
330
1A3
100
AcDbEntity
  8
0
  6
Continuous
 62
     7
370
    25
100
AcDbSpline
210
0.0
220
0.0
230
1.0
 70
     8
 71
     3
 72
    12
 73
     8
 74
     0
 42
0.000000001
 43
0.00000001
 40
0.0
 40
0.0
 40
0.0
 40
0.0
 40
0.1933865970591764
 40
0.3860325423042938
 40
0.5968023489277818
 40
0.8238393923514948
 40
1.0
 40
1.0
 40
1.0
 40
1.0
 10
270.4445582882742
 20
497.5
 30
0.0
 10
270.392779038506
 20
498.3771776215344
 30
0.0
 10
270.2894188484486
 20
500.1281733598261
 30
0.0
 10
269.5890911685532
 20
502.5092235997635
 30
0.0
 10
268.7824332054269
 20
504.4783588734805
 30
0.0
 10
268.1077873297125
 20
505.7993625187927
 30
0.0
 10
268.0556035690286
 20
505.8954908664033
 30
0.0
 10
268.0328040240238
 20
505.937490188776
 30
0.0
  0
SPLINE
  5
215
330
1A3
100
AcDbEntity
  8
0
  6
Continuous
 62
     7
370
    25
100
AcDbSpline
210
0.0
220
0.0
230
1.0
 70
     8
 71
     3
 72
    13
 73
     9
 74
     0
 42
0.000000001
 43
0.00000001
 40
0.0
 40
0.0
 40
0.0
 40
0.0
 40
0.0747802672746108
 40
0.2617384064224756
 40
0.4559566350065426
 40
0.6715693445628398
 40
0.8979252940874818
 40
1.0
 40
1.0
 40
1.0
 40
1.0
 10
268.0551709298086
 20
489.1044533208827
 30
0.0
 10
268.0404792090133
 20
489.0765832877795
 30
0.0
 10
267.9890567184459
 20
488.9790353875481
 30
0.0
 10
268.3497596364544
 20
489.6609437371574
 30
0.0
 10
269.0151468627244
 20
491.0493107779147
 30
0.0
 10
269.8523666769277
 20
493.2258038889131
 30
0.0
 10
270.3835086290961
 20
495.5509038364738
 30
0.0
 10
270.4300831468098
 20
497.0378607665573
 30
0.0
 10
270.4445582882742
 20
497.5
 30
0.0
  0
SPLINE
  5
216
330
1A3
100
AcDbEntity
  8
0
  6
Continuous
 62
     7
370
    25
100
AcDbSpline
210
0.0
220
0.0
230
1.0
 70
     8
 71
     3
 72
    12
 73
     8
 74
     0
 42
0.000000001
 43
0.00000001
 40
0.0
 40
0.0
 40
0.0
 40
0.0
 40
0.193386597059186
 40
0.386032542304301
 40
0.5968023489277864
 40
0.8238393923514965
 40
1.0
 40
1.0
 40
1.0
 40
1.0
 10
270.4445582882742
 20
552.4999999999999
 30
0.0
 10
270.3927790385061
 20
553.3771776215345
 30
0.0
 10
270.2894188484488
 20
555.1281733598263
 30
0.0
 10
269.5890911685531
 20
557.5092235997631
 30
0.0
 10
268.782433205427
 20
559.4783588734809
 30
0.0
 10
268.1077873297125
 20
560.7993625187928
 30
0.0
 10
268.0556035690286
 20
560.8954908664034
 30
0.0
 10
268.0328040240238
 20
560.937490188776
 30
0.0
  0
SPLINE
  5
217
330
1A3
100
AcDbEntity
  8
0
  6
Continuous
 62
     7
370
    25
100
AcDbSpline
210
0.0
220
0.0
230
1.0
 70
     8
 71
     3
 72
    13
 73
     9
 74
     0
 42
0.000000001
 43
0.00000001
 40
0.0
 40
0.0
 40
0.0
 40
0.0
 40
0.0747802672746106
 40
0.261738406422475
 40
0.4559566350065469
 40
0.6715693445628484
 40
0.8979252940874927
 40
1.0
 40
1.0
 40
1.0
 40
1.0
 10
268.0551709298086
 20
544.1044533208827
 30
0.0
 10
268.0404792090134
 20
544.0765832877796
 30
0.0
 10
267.9890567184459
 20
543.9790353875484
 30
0.0
 10
268.3497596364544
 20
544.6609437371574
 30
0.0
 10
269.0151468627243
 20
546.0493107779148
 30
0.0
 10
269.8523666769277
 20
548.2258038889132
 30
0.0
 10
270.383508629096
 20
550.5509038364738
 30
0.0
 10
270.4300831468099
 20
552.0378607665572
 30
0.0
 10
270.4445582882743
 20
552.5
 30
0.0
  0
SPLINE
  5
218
330
1A3
100
AcDbEntity
  8
0
  6
Continuous
 62
     7
370
    25
100
AcDbSpline
210
0.0
220
0.0
230
1.0
 70
     8
 71
     3
 72
    12
 73
     8
 74
     0
 42
0.000000001
 43
0.00000001
 40
0.0
 40
0.0
 40
0.0
 40
0.0
 40
0.1933865970591784
 40
0.3860325423042945
 40
0.5968023489277772
 40
0.823839392351485
 40
1.0
 40
1.0
 40
1.0
 40
1.0
 10
270.4445582882742
 20
652.4999999999999
 30
0.0
 10
270.3927790385061
 20
653.3771776215343
 30
0.0
 10
270.2894188484487
 20
655.128173359826
 30
0.0
 10
269.5890911685532
 20
657.5092235997637
 30
0.0
 10
268.7824332054269
 20
659.4783588734804
 30
0.0
 10
268.1077873297125
 20
660.7993625187929
 30
0.0
 10
268.0556035690286
 20
660.8954908664032
 30
0.0
 10
268.0328040240238
 20
660.9374901887761
 30
0.0
  0
SPLINE
  5
219
330
1A3
100
AcDbEntity
  8
0
  6
Continuous
 62
     7
370
    25
100
AcDbSpline
210
0.0
220
0.0
230
1.0
 70
     8
 71
     3
 72
    13
 73
     9
 74
     0
 42
0.000000001
 43
0.00000001
 40
0.0
 40
0.0
 40
0.0
 40
0.0
 40
0.0747802672746016
 40
0.2617384064224703
 40
0.4559566350065391
 40
0.6715693445628361
 40
0.8979252940874917
 40
1.0
 40
1.0
 40
1.0
 40
1.0
 10
268.0551709298086
 20
644.1044533208827
 30
0.0
 10
268.0404792090133
 20
644.0765832877795
 30
0.0
 10
267.9890567184458
 20
643.9790353875482
 30
0.0
 10
268.3497596364545
 20
644.6609437371576
 30
0.0
 10
269.0151468627244
 20
646.049310777915
 30
0.0
 10
269.8523666769277
 20
648.2258038889129
 30
0.0
 10
270.3835086290959
 20
650.5509038364738
 30
0.0
 10
270.4300831468098
 20
652.0378607665572
 30
0.0
 10
270.4445582882742
 20
652.5
 30
0.0
  0
SPLINE
  5
21A
330
1A3
100
AcDbEntity
  8
0
  6
Continuous
 62
     7
370
    25
100
AcDbSpline
210
0.0
220
0.0
230
1.0
 70
     8
 71
     3
 72
    12
 73
     8
 74
     0
 42
0.000000001
 43
0.00000001
 40
0.0
 40
0.0
 40
0.0
 40
0.0
 40
0.1933865970591787
 40
0.3860325423042951
 40
0.5968023489277782
 40
0.8238393923514862
 40
1.0
 40
1.0
 40
1.0
 40
1.0
 10
270.4445582882742
 20
707.4999999999999
 30
0.0
 10
270.392779038506
 20
708.3771776215342
 30
0.0
 10
270.2894188484487
 20
710.1281733598262
 30
0.0
 10
269.5890911685532
 20
712.5092235997637
 30
0.0
 10
268.7824332054269
 20
714.4783588734805
 30
0.0
 10
268.1077873297125
 20
715.7993625187929
 30
0.0
 10
268.0556035690286
 20
715.8954908664034
 30
0.0
 10
268.0328040240238
 20
715.9374901887761
 30
0.0
  0
SPLINE
  5
21B
330
1A3
100
AcDbEntity
  8
0
  6
Continuous
 62
     7
370
    25
100
AcDbSpline
210
0.0
220
0.0
230
1.0
 70
     8
 71
     3
 72
    13
 73
     9
 74
     0
 42
0.000000001
 43
0.00000001
 40
0.0
 40
0.0
 40
0.0
 40
0.0
 40
0.0747802672746023
 40
0.261738406422471
 40
0.4559566350065404
 40
0.6715693445628361
 40
0.8979252940874917
 40
1.0
 40
1.0
 40
1.0
 40
1.0
 10
268.0551709298086
 20
699.1044533208827
 30
0.0
 10
268.0404792090134
 20
699.0765832877796
 30
0.0
 10
267.9890567184459
 20
698.9790353875484
 30
0.0
 10
268.3497596364544
 20
699.6609437371574
 30
0.0
 10
269.0151468627243
 20
701.0493107779151
 30
0.0
 10
269.8523666769277
 20
703.2258038889131
 30
0.0
 10
270.3835086290958
 20
705.5509038364738
 30
0.0
 10
270.4300831468098
 20
707.0378607665572
 30
0.0
 10
270.4445582882742
 20
707.5
 30
0.0
  0
SPLINE
  5
21C
330
1A3
100
AcDbEntity
  8
0
  6
Continuous
 62
     7
370
    25
100
AcDbSpline
210
0.0
220
0.0
230
1.0
 70
     8
 71
     3
 72
    12
 73
     8
 74
     0
 42
0.000000001
 43
0.00000001
 40
0.0
 40
0.0
 40
0.0
 40
0.0
 40
0.1933865970591788
 40
0.3860325423042953
 40
0.5968023489277784
 40
0.8238393923514864
 40
1.0
 40
1.0
 40
1.0
 40
1.0
 10
270.4445582882742
 20
762.5000000000001
 30
0.0
 10
270.3927790385061
 20
763.3771776215345
 30
0.0
 10
270.2894188484487
 20
765.1281733598263
 30
0.0
 10
269.5890911685532
 20
767.5092235997636
 30
0.0
 10
268.7824332054269
 20
769.4783588734804
 30
0.0
 10
268.1077873297125
 20
770.7993625187931
 30
0.0
 10
268.0556035690287
 20
770.8954908664035
 30
0.0
 10
268.0328040240238
 20
770.9374901887761
 30
0.0
  0
SPLINE
  5
21D
330
1A3
100
AcDbEntity
  8
0
  6
Continuous
 62
     7
370
    25
100
AcDbSpline
210
0.0
220
0.0
230
1.0
 70
     8
 71
     3
 72
    13
 73
     9
 74
     0
 42
0.000000001
 43
0.00000001
 40
0.0
 40
0.0
 40
0.0
 40
0.0
 40
0.0747802672746018
 40
0.2617384064224704
 40
0.4559566350065403
 40
0.6715693445628361
 40
0.8979252940874917
 40
1.0
 40
1.0
 40
1.0
 40
1.0
 10
268.0551709298086
 20
754.104453320883
 30
0.0
 10
268.0404792090134
 20
754.0765832877798
 30
0.0
 10
267.9890567184459
 20
753.9790353875484
 30
0.0
 10
268.3497596364543
 20
754.6609437371573
 30
0.0
 10
269.0151468627242
 20
756.0493107779149
 30
0.0
 10
269.8523666769277
 20
758.2258038889129
 30
0.0
 10
270.3835086290958
 20
760.5509038364739
 30
0.0
 10
270.4300831468098
 20
762.0378607665571
 30
0.0
 10
270.4445582882742
 20
762.5000000000001
 30
0.0
  0
SPLINE
  5
221
330
1A3
100
AcDbEntity
  8
0
  6
Continuous
 62
     7
370
    25
100
AcDbSpline
210
0.0
220
0.0
230
1.0
 70
     8
 71
     3
 72
    18
 73
    14
 74
     0
 42
0.000000001
 43
0.00000001
 40
0.0
 40
0.0
 40
0.0
 40
0.0
 40
0.0164134797479777
 40
0.1107052115860673
 40
0.2062143681606256
 40
0.3116131692493385
 40
0.4251064960406583
 40
0.529234331381716
 40
0.619825595885866
 40
0.7145429291628718
 40
0.8230581273260178
 40
0.935811952494653
 40
1.0
 40
1.0
 40
1.0
 40
1.0
 10
-268.0328040240238
 20
124.0625098112239
 30
0.0
 10
-268.0222365520993
 20
124.0423588343326
 30
0.0
 10
-267.9509613421326
 20
123.9064450491597
 30
0.0
 10
-268.2454019393927
 20
124.4593260054124
 30
0.0
 10
-268.8417281141446
 20
125.670195014742
 30
0.0
 10
-269.6777620478306
 20
127.6976243939916
 30
0.0
 10
-270.3753789203412
 20
130.3400006308374
 30
0.0
 10
-270.5165568233014
 20
133.1917395393651
 30
0.0
 10
-270.1221196685459
 20
135.7464278414355
 30
0.0
 10
-269.4151413375898
 20
137.9955084467349
 30
0.0
 10
-268.6131796960988
 20
139.8248787788901
 30
0.0
 10
-268.0453452566347
 20
140.9154774342346
 30
0.0
 10
-268.0525553656514
 20
140.9008521851919
 30
0.0
 10
-268.0551709298086
 20
140.8955466791172
 30
0.0
  0
SPLINE
  5
222
330
1A3
100
AcDbEntity
  8
0
  6
Continuous
 62
     7
370
    25
100
AcDbSpline
210
0.0
220
0.0
230
1.0
 70
     8
 71
     3
 72
    18
 73
    14
 74
     0
 42
0.000000001
 43
0.00000001
 40
0.0
 40
0.0
 40
0.0
 40
0.0
 40
0.0164134797479776
 40
0.1107052115860672
 40
0.2062143681606247
 40
0.3116131692493377
 40
0.4251064960406591
 40
0.5292343313817165
 40
0.6198255958858656
 40
0.7145429291628707
 40
0.8230581273260162
 40
0.9358119524946522
 40
1.0
 40
1.0
 40
1.0
 40
1.0
 10
-268.0328040240238
 20
14.06250981122392
 30
0.0
 10
-268.0222365520994
 20
14.04235883433269
 30
0.0
 10
-267.9509613421325
 20
13.90644504915961
 30
0.0
 10
-268.2454019393928
 20
14.45932600541244
 30
0.0
 10
-268.8417281141446
 20
15.67019501474193
 30
0.0
 10
-269.6777620478305
 20
17.69762439399153
 30
0.0
 10
-270.3753789203413
 20
20.34000063083741
 30
0.0
 10
-270.5165568233014
 20
23.19173953936521
 30
0.0
 10
-270.1221196685459
 20
25.74642784143549
 30
0.0
 10
-269.4151413375898
 20
27.99550844673493
 30
0.0
 10
-268.6131796960988
 20
29.82487877889006
 30
0.0
 10
-268.0453452566347
 20
30.91547743423456
 30
0.0
 10
-268.0525553656514
 20
30.90085218519189
 30
0.0
 10
-268.0551709298086
 20
30.8955466791172
 30
0.0
  0
SPLINE
  5
223
330
1A3
100
AcDbEntity
  8
0
  6
Continuous
 62
     7
370
    25
100
AcDbSpline
210
0.0
220
0.0
230
1.0
 70
     8
 71
     3
 72
    18
 73
    14
 74
     0
 42
0.000000001
 43
0.00000001
 40
0.0
 40
0.0
 40
0.0
 40
0.0
 40
0.0164134797479777
 40
0.1107052115860674
 40
0.2062143681606251
 40
0.311613169249338
 40
0.4251064960406598
 40
0.5292343313817168
 40
0.6198255958858657
 40
0.714542929162871
 40
0.8230581273260178
 40
0.935811952494653
 40
1.0
 40
1.0
 40
1.0
 40
1.0
 10
-268.0328040240238
 20
69.06250981122392
 30
0.0
 10
-268.0222365520994
 20
69.04235883433269
 30
0.0
 10
-267.9509613421325
 20
68.9064450491596
 30
0.0
 10
-268.2454019393928
 20
69.45932600541244
 30
0.0
 10
-268.8417281141446
 20
70.67019501474198
 30
0.0
 10
-269.6777620478304
 20
72.69762439399152
 30
0.0
 10
-270.3753789203413
 20
75.34000063083745
 30
0.0
 10
-270.5165568233014
 20
78.1917395393652
 30
0.0
 10
-270.122119668546
 20
80.74642784143549
 30
0.0
 10
-269.4151413375898
 20
82.99550844673487
 30
0.0
 10
-268.6131796960988
 20
84.82487877889011
 30
0.0
 10
-268.0453452566347
 20
85.91547743423456
 30
0.0
 10
-268.0525553656514
 20
85.9008521851919
 30
0.0
 10
-268.0551709298086
 20
85.89554667911725
 30
0.0
  0
SPLINE
  5
224
330
1A3
100
AcDbEntity
  8
0
  6
Continuous
 62
     7
370
    25
100
AcDbSpline
210
0.0
220
0.0
230
1.0
 70
     8
 71
     3
 72
    18
 73
    14
 74
     0
 42
0.000000001
 43
0.00000001
 40
0.0
 40
0.0
 40
0.0
 40
0.0
 40
0.0164134797479776
 40
0.1107052115860672
 40
0.2062143681606254
 40
0.3116131692493384
 40
0.4251064960406594
 40
0.5292343313817163
 40
0.6198255958858655
 40
0.7145429291628712
 40
0.8230581273260186
 40
0.9358119524946539
 40
1.0
 40
1.0
 40
1.0
 40
1.0
 10
-268.0328040240238
 20
224.0625098112239
 30
0.0
 10
-268.0222365520994
 20
224.0423588343326
 30
0.0
 10
-267.9509613421327
 20
223.9064450491597
 30
0.0
 10
-268.2454019393927
 20
224.4593260054123
 30
0.0
 10
-268.8417281141446
 20
225.670195014742
 30
0.0
 10
-269.6777620478305
 20
227.6976243939915
 30
0.0
 10
-270.3753789203412
 20
230.3400006308374
 30
0.0
 10
-270.5165568233014
 20
233.1917395393651
 30
0.0
 10
-270.122119668546
 20
235.7464278414355
 30
0.0
 10
-269.4151413375898
 20
237.9955084467349
 30
0.0
 10
-268.6131796960988
 20
239.8248787788901
 30
0.0
 10
-268.0453452566347
 20
240.9154774342346
 30
0.0
 10
-268.0525553656514
 20
240.9008521851918
 30
0.0
 10
-268.0551709298086
 20
240.8955466791172
 30
0.0
  0
SPLINE
  5
225
330
1A3
100
AcDbEntity
  8
0
  6
Continuous
 62
     7
370
    25
100
AcDbSpline
210
0.0
220
0.0
230
1.0
 70
     8
 71
     3
 72
    18
 73
    14
 74
     0
 42
0.000000001
 43
0.00000001
 40
0.0
 40
0.0
 40
0.0
 40
0.0
 40
0.0164134797479764
 40
0.1107052115860662
 40
0.2062143681606236
 40
0.3116131692493378
 40
0.425106496040658
 40
0.5292343313817162
 40
0.6198255958858665
 40
0.7145429291628683
 40
0.8230581273260176
 40
0.9358119524946539
 40
1.0
 40
1.0
 40
1.0
 40
1.0
 10
-268.0328040240238
 20
279.0625098112239
 30
0.0
 10
-268.0222365520994
 20
279.0423588343327
 30
0.0
 10
-267.9509613421324
 20
278.9064450491596
 30
0.0
 10
-268.2454019393929
 20
279.4593260054124
 30
0.0
 10
-268.8417281141445
 20
280.6701950147419
 30
0.0
 10
-269.6777620478305
 20
282.6976243939915
 30
0.0
 10
-270.3753789203412
 20
285.3400006308374
 30
0.0
 10
-270.5165568233014
 20
288.1917395393651
 30
0.0
 10
-270.122119668546
 20
290.7464278414355
 30
0.0
 10
-269.4151413375898
 20
292.9955084467348
 30
0.0
 10
-268.6131796960988
 20
294.8248787788901
 30
0.0
 10
-268.0453452566347
 20
295.9154774342344
 30
0.0
 10
-268.0525553656514
 20
295.9008521851919
 30
0.0
 10
-268.0551709298086
 20
295.8955466791172
 30
0.0
  0
SPLINE
  5
226
330
1A3
100
AcDbEntity
  8
0
  6
Continuous
 62
     7
370
    25
100
AcDbSpline
210
0.0
220
0.0
230
1.0
 70
     8
 71
     3
 72
    18
 73
    14
 74
     0
 42
0.000000001
 43
0.00000001
 40
0.0
 40
0.0
 40
0.0
 40
0.0
 40
0.0164134797479785
 40
0.1107052115860681
 40
0.206214368160626
 40
0.3116131692493405
 40
0.4251064960406604
 40
0.5292343313817184
 40
0.6198255958858688
 40
0.7145429291628715
 40
0.8230581273260209
 40
0.9358119524946553
 40
1.0
 40
1.0
 40
1.0
 40
1.0
 10
-268.0328040240238
 20
334.0625098112239
 30
0.0
 10
-268.0222365520995
 20
334.0423588343326
 30
0.0
 10
-267.9509613421326
 20
333.9064450491598
 30
0.0
 10
-268.2454019393928
 20
334.4593260054124
 30
0.0
 10
-268.8417281141447
 20
335.6701950147421
 30
0.0
 10
-269.6777620478305
 20
337.6976243939915
 30
0.0
 10
-270.3753789203412
 20
340.3400006308376
 30
0.0
 10
-270.5165568233014
 20
343.1917395393651
 30
0.0
 10
-270.1221196685459
 20
345.7464278414355
 30
0.0
 10
-269.4151413375898
 20
347.9955084467348
 30
0.0
 10
-268.6131796960988
 20
349.8248787788901
 30
0.0
 10
-268.0453452566347
 20
350.9154774342344
 30
0.0
 10
-268.0525553656514
 20
350.9008521851918
 30
0.0
 10
-268.0551709298086
 20
350.8955466791172
 30
0.0
  0
SPLINE
  5
227
330
1A3
100
AcDbEntity
  8
0
  6
Continuous
 62
     7
370
    25
100
AcDbSpline
210
0.0
220
0.0
230
1.0
 70
     8
 71
     3
 72
    18
 73
    14
 74
     0
 42
0.000000001
 43
0.00000001
 40
0.0
 40
0.0
 40
0.0
 40
0.0
 40
0.0164134797479764
 40
0.1107052115860664
 40
0.2062143681606236
 40
0.311613169249338
 40
0.4251064960406583
 40
0.5292343313817165
 40
0.6198255958858669
 40
0.7145429291628688
 40
0.823058127326018
 40
0.9358119524946543
 40
1.0
 40
1.0
 40
1.0
 40
1.0
 10
-268.0328040240238
 20
434.0625098112239
 30
0.0
 10
-268.0222365520994
 20
434.0423588343328
 30
0.0
 10
-267.9509613421325
 20
433.9064450491596
 30
0.0
 10
-268.2454019393928
 20
434.4593260054123
 30
0.0
 10
-268.8417281141446
 20
435.6701950147422
 30
0.0
 10
-269.6777620478304
 20
437.6976243939915
 30
0.0
 10
-270.3753789203412
 20
440.3400006308373
 30
0.0
 10
-270.5165568233014
 20
443.1917395393651
 30
0.0
 10
-270.122119668546
 20
445.7464278414354
 30
0.0
 10
-269.4151413375898
 20
447.995508446735
 30
0.0
 10
-268.6131796960988
 20
449.82487877889
 30
0.0
 10
-268.0453452566348
 20
450.9154774342346
 30
0.0
 10
-268.0525553656514
 20
450.9008521851918
 30
0.0
 10
-268.0551709298086
 20
450.8955466791172
 30
0.0
  0
SPLINE
  5
228
330
1A3
100
AcDbEntity
  8
0
  6
Continuous
 62
     7
370
    25
100
AcDbSpline
210
0.0
220
0.0
230
1.0
 70
     8
 71
     3
 72
    18
 73
    14
 74
     0
 42
0.000000001
 43
0.00000001
 40
0.0
 40
0.0
 40
0.0
 40
0.0
 40
0.016413479747978
 40
0.1107052115860672
 40
0.2062143681606254
 40
0.31161316924934
 40
0.4251064960406601
 40
0.5292343313817183
 40
0.6198255958858673
 40
0.7145429291628789
 40
0.8230581273260201
 40
0.9358119524946579
 40
1.0
 40
1.0
 40
1.0
 40
1.0
 10
-268.0328040240238
 20
489.0625098112239
 30
0.0
 10
-268.0222365520994
 20
489.0423588343327
 30
0.0
 10
-267.9509613421325
 20
488.9064450491597
 30
0.0
 10
-268.2454019393926
 20
489.4593260054122
 30
0.0
 10
-268.8417281141449
 20
490.6701950147424
 30
0.0
 10
-269.6777620478304
 20
492.6976243939914
 30
0.0
 10
-270.3753789203413
 20
495.3400006308376
 30
0.0
 10
-270.5165568233013
 20
498.1917395393651
 30
0.0
 10
-270.1221196685459
 20
500.7464278414357
 30
0.0
 10
-269.4151413375897
 20
502.9955084467349
 30
0.0
 10
-268.6131796960988
 20
504.8248787788901
 30
0.0
 10
-268.0453452566347
 20
505.9154774342346
 30
0.0
 10
-268.0525553656514
 20
505.9008521851919
 30
0.0
 10
-268.0551709298086
 20
505.8955466791173
 30
0.0
  0
SPLINE
  5
229
330
1A3
100
AcDbEntity
  8
0
  6
Continuous
 62
     7
370
    25
100
AcDbSpline
210
0.0
220
0.0
230
1.0
 70
     8
 71
     3
 72
    18
 73
    14
 74
     0
 42
0.000000001
 43
0.00000001
 40
0.0
 40
0.0
 40
0.0
 40
0.0
 40
0.0164134797479769
 40
0.1107052115860672
 40
0.2062143681606238
 40
0.311613169249336
 40
0.4251064960406661
 40
0.5292343313817162
 40
0.6198255958858669
 40
0.7145429291628788
 40
0.8230581273260199
 40
0.9358119524946581
 40
1.0
 40
1.0
 40
1.0
 40
1.0
 10
-268.0328040240238
 20
544.062509811224
 30
0.0
 10
-268.0222365520995
 20
544.0423588343328
 30
0.0
 10
-267.9509613421325
 20
543.9064450491599
 30
0.0
 10
-268.2454019393928
 20
544.4593260054124
 30
0.0
 10
-268.8417281141445
 20
545.6701950147419
 30
0.0
 10
-269.6777620478306
 20
547.6976243939916
 30
0.0
 10
-270.3753789203411
 20
550.3400006308375
 30
0.0
 10
-270.5165568233014
 20
553.1917395393652
 30
0.0
 10
-270.1221196685459
 20
555.7464278414355
 30
0.0
 10
-269.4151413375897
 20
557.9955084467349
 30
0.0
 10
-268.6131796960989
 20
559.8248787788905
 30
0.0
 10
-268.0453452566347
 20
560.9154774342346
 30
0.0
 10
-268.0525553656513
 20
560.900852185192
 30
0.0
 10
-268.0551709298086
 20
560.8955466791174
 30
0.0
  0
SPLINE
  5
22A
330
1A3
100
AcDbEntity
  8
0
  6
Continuous
 62
     7
370
    25
100
AcDbSpline
210
0.0
220
0.0
230
1.0
 70
     8
 71
     3
 72
    18
 73
    14
 74
     0
 42
0.000000001
 43
0.00000001
 40
0.0
 40
0.0
 40
0.0
 40
0.0
 40
0.0164134797479726
 40
0.1107052115860632
 40
0.206214368160621
 40
0.3116131692493374
 40
0.425106496040657
 40
0.5292343313817163
 40
0.6198255958858634
 40
0.7145429291628754
 40
0.8230581273260158
 40
0.9358119524946527
 40
1.0
 40
1.0
 40
1.0
 40
1.0
 10
-268.0328040240238
 20
644.0625098112239
 30
0.0
 10
-268.0222365520994
 20
644.0423588343327
 30
0.0
 10
-267.9509613421325
 20
643.9064450491595
 30
0.0
 10
-268.2454019393929
 20
644.4593260054127
 30
0.0
 10
-268.8417281141445
 20
645.670195014742
 30
0.0
 10
-269.6777620478304
 20
647.6976243939915
 30
0.0
 10
-270.3753789203413
 20
650.3400006308376
 30
0.0
 10
-270.5165568233014
 20
653.1917395393651
 30
0.0
 10
-270.1221196685459
 20
655.7464278414355
 30
0.0
 10
-269.4151413375898
 20
657.9955084467348
 30
0.0
 10
-268.6131796960988
 20
659.8248787788901
 30
0.0
 10
-268.0453452566348
 20
660.9154774342347
 30
0.0
 10
-268.0525553656514
 20
660.9008521851918
 30
0.0
 10
-268.0551709298086
 20
660.895546679117
 30
0.0
  0
SPLINE
  5
22B
330
1A3
100
AcDbEntity
  8
0
  6
Continuous
 62
     7
370
    25
100
AcDbSpline
210
0.0
220
0.0
230
1.0
 70
     8
 71
     3
 72
    18
 73
    14
 74
     0
 42
0.000000001
 43
0.00000001
 40
0.0
 40
0.0
 40
0.0
 40
0.0
 40
0.0164134797479722
 40
0.1107052115860629
 40
0.2062143681606207
 40
0.3116131692493371
 40
0.4251064960406569
 40
0.5292343313817162
 40
0.6198255958858634
 40
0.7145429291628754
 40
0.8230581273260157
 40
0.9358119524946525
 40
1.0
 40
1.0
 40
1.0
 40
1.0
 10
-268.0328040240238
 20
699.062509811224
 30
0.0
 10
-268.0222365520994
 20
699.0423588343327
 30
0.0
 10
-267.9509613421325
 20
698.90644504916
 30
0.0
 10
-268.2454019393927
 20
699.4593260054122
 30
0.0
 10
-268.8417281141446
 20
700.6701950147424
 30
0.0
 10
-269.6777620478304
 20
702.6976243939918
 30
0.0
 10
-270.3753789203411
 20
705.3400006308373
 30
0.0
 10
-270.5165568233014
 20
708.1917395393655
 30
0.0
 10
-270.1221196685459
 20
710.7464278414354
 30
0.0
 10
-269.4151413375897
 20
712.9955084467349
 30
0.0
 10
-268.6131796960988
 20
714.8248787788901
 30
0.0
 10
-268.0453452566347
 20
715.9154774342345
 30
0.0
 10
-268.0525553656513
 20
715.9008521851918
 30
0.0
 10
-268.0551709298086
 20
715.8955466791173
 30
0.0
  0
SPLINE
  5
22C
330
1A3
100
AcDbEntity
  8
0
  6
Continuous
 62
     7
370
    25
100
AcDbSpline
210
0.0
220
0.0
230
1.0
 70
     8
 71
     3
 72
    18
 73
    14
 74
     0
 42
0.000000001
 43
0.00000001
 40
0.0
 40
0.0
 40
0.0
 40
0.0
 40
0.0164134797479714
 40
0.1107052115860628
 40
0.206214368160621
 40
0.3116131692493375
 40
0.4251064960406572
 40
0.5292343313817166
 40
0.6198255958858638
 40
0.714542929162876
 40
0.8230581273260165
 40
0.9358119524946533
 40
1.0
 40
1.0
 40
1.0
 40
1.0
 10
-268.0328040240238
 20
754.062509811224
 30
0.0
 10
-268.0222365520994
 20
754.0423588343328
 30
0.0
 10
-267.9509613421322
 20
753.9064450491593
 30
0.0
 10
-268.2454019393929
 20
754.4593260054127
 30
0.0
 10
-268.8417281141445
 20
755.6701950147419
 30
0.0
 10
-269.6777620478305
 20
757.6976243939918
 30
0.0
 10
-270.3753789203411
 20
760.3400006308373
 30
0.0
 10
-270.5165568233013
 20
763.1917395393654
 30
0.0
 10
-270.1221196685459
 20
765.7464278414355
 30
0.0
 10
-269.4151413375897
 20
767.9955084467349
 30
0.0
 10
-268.6131796960988
 20
769.82487877889
 30
0.0
 10
-268.0453452566347
 20
770.9154774342346
 30
0.0
 10
-268.0525553656514
 20
770.9008521851919
 30
0.0
 10
-268.0551709298086
 20
770.8955466791172
 30
0.0
  0
LINE
  5
22F
330
1A3
100
AcDbEntity
  8
0
  6
Continuous
 62
     7
370
    25
100
AcDbLine
 10
300.0
 20
0.0
 30
0.0
 11
300.0
 21
153.253049234
 31
0.0
  0
LINE
  5
230
330
1A3
100
AcDbEntity
  8
0
  6
Continuous
 62
     7
370
    25
100
AcDbLine
 10
300.0
 20
173.746950766
 30
0.0
 11
300.0
 21
618.253049234
 31
0.0
  0
LINE
  5
231
330
1A3
100
AcDbEntity
  8
0
  6
Continuous
 62
     7
370
    25
100
AcDbLine
 10
300.0
 20
638.746950766
 30
0.0
 11
300.0
 21
792.0
 31
0.0
  0
LINE
  5
232
330
1A3
100
AcDbEntity
  8
0
  6
Continuous
 62
     7
370
    25
100
AcDbLine
 10
268.0
 20
14.1044533209
 30
0.0
 11
268.0
 21
0.0
 31
0.0
  0
LINE
  5
233
330
1A3
100
AcDbEntity
  8
0
  6
Continuous
 62
     7
370
    25
100
AcDbLine
 10
268.0
 20
69.1044533209
 30
0.0
 11
268.0
 21
30.9374901888
 31
0.0
  0
LINE
  5
234
330
1A3
100
AcDbEntity
  8
0
  6
Continuous
 62
     7
370
    25
100
AcDbLine
 10
268.0
 20
124.1044533209
 30
0.0
 11
268.0
 21
85.9374901888
 31
0.0
  0
LINE
  5
235
330
1A3
100
AcDbEntity
  8
0
  6
Continuous
 62
     7
370
    25
100
AcDbLine
 10
268.0
 20
224.1044533209
 30
0.0
 11
268.0
 21
173.746950766
 31
0.0
  0
LINE
  5
236
330
1A3
100
AcDbEntity
  8
0
  6
Continuous
 62
     7
370
    25
100
AcDbLine
 10
268.0
 20
153.253049234
 30
0.0
 11
268.0
 21
140.9374901888
 31
0.0
  0
LINE
  5
237
330
1A3
100
AcDbEntity
  8
0
  6
Continuous
 62
     7
370
    25
100
AcDbLine
 10
268.0
 20
279.1044533209
 30
0.0
 11
268.0
 21
240.9374901888
 31
0.0
  0
LINE
  5
238
330
1A3
100
AcDbEntity
  8
0
  6
Continuous
 62
     7
370
    25
100
AcDbLine
 10
268.0
 20
334.1044533209
 30
0.0
 11
268.0
 21
295.9374901888
 31
0.0
  0
LINE
  5
239
330
1A3
100
AcDbEntity
  8
0
  6
Continuous
 62
     7
370
    25
100
AcDbLine
 10
268.0
 20
434.1044533209
 30
0.0
 11
268.0
 21
350.9374901888
 31
0.0
  0
LINE
  5
23A
330
1A3
100
AcDbEntity
  8
0
  6
Continuous
 62
     7
370
    25
100
AcDbLine
 10
268.0
 20
489.1044533209
 30
0.0
 11
268.0
 21
450.9374901888
 31
0.0
  0
LINE
  5
23B
330
1A3
100
AcDbEntity
  8
0
  6
Continuous
 62
     7
370
    25
100
AcDbLine
 10
268.0
 20
544.1044533209
 30
0.0
 11
268.0
 21
505.9374901888
 31
0.0
  0
LINE
  5
23C
330
1A3
100
AcDbEntity
  8
0
  6
Continuous
 62
     7
370
    25
100
AcDbLine
 10
268.0
 20
644.1044533209
 30
0.0
 11
268.0
 21
638.746950766
 31
0.0
  0
LINE
  5
23D
330
1A3
100
AcDbEntity
  8
0
  6
Continuous
 62
     7
370
    25
100
AcDbLine
 10
268.0
 20
618.253049234
 30
0.0
 11
268.0
 21
560.9374901888
 31
0.0
  0
LINE
  5
23E
330
1A3
100
AcDbEntity
  8
0
  6
Continuous
 62
     7
370
    25
100
AcDbLine
 10
268.0
 20
699.1044533209
 30
0.0
 11
268.0
 21
660.9374901888
 31
0.0
  0
LINE
  5
23F
330
1A3
100
AcDbEntity
  8
0
  6
Continuous
 62
     7
370
    25
100
AcDbLine
 10
268.0
 20
754.1044533209
 30
0.0
 11
268.0
 21
715.9374901888
 31
0.0
  0
LINE
  5
240
330
1A3
100
AcDbEntity
  8
0
  6
Continuous
 62
     7
370
    25
100
AcDbLine
 10
268.0
 20
792.0
 30
0.0
 11
268.0
 21
770.9374901888
 31
0.0
  0
LINE
  5
241
330
1A3
100
AcDbEntity
  8
0
  6
Continuous
 62
     7
370
    25
100
AcDbLine
 10
-268.0
 20
770.8955466791
 30
0.0
 11
-268.0
 21
792.0
 31
0.0
  0
LINE
  5
242
330
1A3
100
AcDbEntity
  8
0
  6
Continuous
 62
     7
370
    25
100
AcDbLine
 10
-268.0
 20
715.8955466791
 30
0.0
 11
-268.0
 21
754.0625098112
 31
0.0
  0
LINE
  5
243
330
1A3
100
AcDbEntity
  8
0
  6
Continuous
 62
     7
370
    25
100
AcDbLine
 10
-268.0
 20
660.8955466791
 30
0.0
 11
-268.0
 21
699.0625098112
 31
0.0
  0
LINE
  5
244
330
1A3
100
AcDbEntity
  8
0
  6
Continuous
 62
     7
370
    25
100
AcDbLine
 10
-268.0
 20
560.8955466791
 30
0.0
 11
-268.0
 21
618.253049234
 31
0.0
  0
LINE
  5
245
330
1A3
100
AcDbEntity
  8
0
  6
Continuous
 62
     7
370
    25
100
AcDbLine
 10
-268.0
 20
638.746950766
 30
0.0
 11
-268.0
 21
644.0625098112
 31
0.0
  0
LINE
  5
246
330
1A3
100
AcDbEntity
  8
0
  6
Continuous
 62
     7
370
    25
100
AcDbLine
 10
-268.0
 20
505.8955466791
 30
0.0
 11
-268.0
 21
544.0625098112
 31
0.0
  0
LINE
  5
247
330
1A3
100
AcDbEntity
  8
0
  6
Continuous
 62
     7
370
    25
100
AcDbLine
 10
-268.0
 20
450.8955466791
 30
0.0
 11
-268.0
 21
489.0625098112
 31
0.0
  0
LINE
  5
248
330
1A3
100
AcDbEntity
  8
0
  6
Continuous
 62
     7
370
    25
100
AcDbLine
 10
-268.0
 20
350.8955466791
 30
0.0
 11
-268.0
 21
434.0625098112
 31
0.0
  0
LINE
  5
249
330
1A3
100
AcDbEntity
  8
0
  6
Continuous
 62
     7
370
    25
100
AcDbLine
 10
-268.0
 20
295.8955466791
 30
0.0
 11
-268.0
 21
334.0625098112
 31
0.0
  0
LINE
  5
24A
330
1A3
100
AcDbEntity
  8
0
  6
Continuous
 62
     7
370
    25
100
AcDbLine
 10
-268.0
 20
240.8955466791
 30
0.0
 11
-268.0
 21
279.0625098112
 31
0.0
  0
LINE
  5
24B
330
1A3
100
AcDbEntity
  8
0
  6
Continuous
 62
     7
370
    25
100
AcDbLine
 10
-268.0
 20
140.8955466791
 30
0.0
 11
-268.0
 21
153.253049234
 31
0.0
  0
LINE
  5
24C
330
1A3
100
AcDbEntity
  8
0
  6
Continuous
 62
     7
370
    25
100
AcDbLine
 10
-268.0
 20
173.746950766
 30
0.0
 11
-268.0
 21
224.0625098112
 31
0.0
  0
LINE
  5
24D
330
1A3
100
AcDbEntity
  8
0
  6
Continuous
 62
     7
370
    25
100
AcDbLine
 10
-268.0
 20
85.8955466791
 30
0.0
 11
-268.0
 21
124.0625098112
 31
0.0
  0
LINE
  5
24E
330
1A3
100
AcDbEntity
  8
0
  6
Continuous
 62
     7
370
    25
100
AcDbLine
 10
-268.0
 20
30.8955466791
 30
0.0
 11
-268.0
 21
69.0625098112
 31
0.0
  0
LINE
  5
24F
330
1A3
100
AcDbEntity
  8
0
  6
Continuous
 62
     7
370
    25
100
AcDbLine
 10
-268.0
 20
0.0
 30
0.0
 11
-268.0
 21
14.0625098112
 31
0.0
  0
LINE
  5
250
330
1A3
100
AcDbEntity
  8
0
  6
Continuous
 62
     7
370
    25
100
AcDbLine
 10
-300.0
 20
792.0
 30
0.0
 11
-300.0
 21
638.746950766
 31
0.0
  0
LINE
  5
251
330
1A3
100
AcDbEntity
  8
0
  6
Continuous
 62
     7
370
    25
100
AcDbLine
 10
-300.0
 20
618.253049234
 30
0.0
 11
-300.0
 21
173.746950766
 31
0.0
  0
LINE
  5
252
330
1A3
100
AcDbEntity
  8
0
  6
Continuous
 62
     7
370
    25
100
AcDbLine
 10
-300.0
 20
153.253049234
 30
0.0
 11
-300.0
 21
0.0
 31
0.0
  0
LINE
  5
253
330
1A3
100
AcDbEntity
  8
0
  6
Continuous
 62
     7
370
    25
100
AcDbLine
 10
-268.0324920427
 20
14.0
 30
0.0
 11
268.0550972953
 21
14.0
 31
0.0
  0
LINE
  5
254
330
1A3
100
AcDbEntity
  8
0
  6
Continuous
 62
     7
370
    25
100
AcDbLine
 10
268.0324920427
 20
31.0
 30
0.0
 11
-268.0550972953
 21
31.0
 31
0.0
  0
LINE
  5
255
330
1A3
100
AcDbEntity
  8
0
  6
Continuous
 62
     7
370
    25
100
AcDbLine
 10
-268.0324920427
 20
69.0
 30
0.0
 11
268.0550972953
 21
69.0
 31
0.0
  0
LINE
  5
256
330
1A3
100
AcDbEntity
  8
0
  6
Continuous
 62
     7
370
    25
100
AcDbLine
 10
268.0324920427
 20
86.0
 30
0.0
 11
-268.0550972953
 21
86.0
 31
0.0
  0
LINE
  5
257
330
1A3
100
AcDbEntity
  8
0
  6
Continuous
 62
     7
370
    25
100
AcDbLine
 10
-268.0324920427
 20
124.0
 30
0.0
 11
268.0550972953
 21
124.0
 31
0.0
  0
LINE
  5
258
330
1A3
100
AcDbEntity
  8
0
  6
Continuous
 62
     7
370
    25
100
AcDbLine
 10
268.0324920427
 20
141.0
 30
0.0
 11
-268.0550972953
 21
141.0
 31
0.0
  0
LINE
  5
259
330
1A3
100
AcDbEntity
  8
0
  6
Continuous
 62
     7
370
    25
100
AcDbLine
 10
-268.0324920427
 20
224.0
 30
0.0
 11
268.0550972953
 21
224.0
 31
0.0
  0
LINE
  5
25A
330
1A3
100
AcDbEntity
  8
0
  6
Continuous
 62
     7
370
    25
100
AcDbLine
 10
268.0324920427
 20
241.0
 30
0.0
 11
-268.0550972953
 21
241.0
 31
0.0
  0
LINE
  5
25B
330
1A3
100
AcDbEntity
  8
0
  6
Continuous
 62
     7
370
    25
100
AcDbLine
 10
-268.0324920427
 20
279.0
 30
0.0
 11
268.0550972953
 21
279.0
 31
0.0
  0
LINE
  5
25C
330
1A3
100
AcDbEntity
  8
0
  6
Continuous
 62
     7
370
    25
100
AcDbLine
 10
268.0324920427
 20
296.0
 30
0.0
 11
-268.0550972953
 21
296.0
 31
0.0
  0
LINE
  5
25D
330
1A3
100
AcDbEntity
  8
0
  6
Continuous
 62
     7
370
    25
100
AcDbLine
 10
-268.0324920427
 20
334.0
 30
0.0
 11
268.0550972953
 21
334.0
 31
0.0
  0
LINE
  5
25E
330
1A3
100
AcDbEntity
  8
0
  6
Continuous
 62
     7
370
    25
100
AcDbLine
 10
268.0324920427
 20
351.0
 30
0.0
 11
-268.0550972953
 21
351.0
 31
0.0
  0
LINE
  5
25F
330
1A3
100
AcDbEntity
  8
0
  6
Continuous
 62
     7
370
    25
100
AcDbLine
 10
-268.0324920427
 20
434.0
 30
0.0
 11
268.0550972953
 21
434.0
 31
0.0
  0
LINE
  5
260
330
1A3
100
AcDbEntity
  8
0
  6
Continuous
 62
     7
370
    25
100
AcDbLine
 10
268.0324920427
 20
451.0
 30
0.0
 11
-268.0550972953
 21
451.0
 31
0.0
  0
LINE
  5
261
330
1A3
100
AcDbEntity
  8
0
  6
Continuous
 62
     7
370
    25
100
AcDbLine
 10
-268.0324920427
 20
489.0
 30
0.0
 11
268.0550972953
 21
489.0
 31
0.0
  0
LINE
  5
262
330
1A3
100
AcDbEntity
  8
0
  6
Continuous
 62
     7
370
    25
100
AcDbLine
 10
268.0324920427
 20
506.0
 30
0.0
 11
-268.0550972953
 21
506.0
 31
0.0
  0
LINE
  5
263
330
1A3
100
AcDbEntity
  8
0
  6
Continuous
 62
     7
370
    25
100
AcDbLine
 10
-268.0324920427
 20
544.0
 30
0.0
 11
268.0550972953
 21
544.0
 31
0.0
  0
LINE
  5
264
330
1A3
100
AcDbEntity
  8
0
  6
Continuous
 62
     7
370
    25
100
AcDbLine
 10
268.0324920427
 20
561.0
 30
0.0
 11
-268.0550972953
 21
561.0
 31
0.0
  0
LINE
  5
265
330
1A3
100
AcDbEntity
  8
0
  6
Continuous
 62
     7
370
    25
100
AcDbLine
 10
-268.0324920427
 20
644.0
 30
0.0
 11
268.0550972953
 21
644.0
 31
0.0
  0
LINE
  5
266
330
1A3
100
AcDbEntity
  8
0
  6
Continuous
 62
     7
370
    25
100
AcDbLine
 10
268.0324920427
 20
661.0
 30
0.0
 11
-268.0550972953
 21
661.0
 31
0.0
  0
LINE
  5
267
330
1A3
100
AcDbEntity
  8
0
  6
Continuous
 62
     7
370
    25
100
AcDbLine
 10
-268.0324920427
 20
699.0
 30
0.0
 11
268.0550972953
 21
699.0
 31
0.0
  0
LINE
  5
268
330
1A3
100
AcDbEntity
  8
0
  6
Continuous
 62
     7
370
    25
100
AcDbLine
 10
268.0324920427
 20
716.0
 30
0.0
 11
-268.0550972953
 21
716.0
 31
0.0
  0
LINE
  5
269
330
1A3
100
AcDbEntity
  8
0
  6
Continuous
 62
     7
370
    25
100
AcDbLine
 10
-268.0324920427
 20
754.0
 30
0.0
 11
268.0550972953
 21
754.0
 31
0.0
  0
LINE
  5
26A
330
1A3
100
AcDbEntity
  8
0
  6
Continuous
 62
     7
370
    25
100
AcDbLine
 10
268.0324920427
 20
771.0
 30
0.0
 11
-268.0550972953
 21
771.0
 31
0.0
  0
LINE
  5
26B
330
1A3
100
AcDbEntity
  8
0
  6
Continuous
 62
     7
370
    25
100
AcDbLine
 10
286.5
 20
156.25
 30
0.0
 11
286.5
 21
170.75
 31
0.0
  0
LINE
  5
26C
330
1A3
100
AcDbEntity
  8
0
  6
Continuous
 62
     7
370
    25
100
AcDbLine
 10
281.5
 20
170.75
 30
0.0
 11
281.5
 21
156.25
 31
0.0
  0
LINE
  5
26D
330
1A3
100
AcDbEntity
  8
0
  6
Continuous
 62
     7
370
    25
100
AcDbLine
 10
-286.5
 20
156.25
 30
0.0
 11
-286.5
 21
170.75
 31
0.0
  0
LINE
  5
26E
330
1A3
100
AcDbEntity
  8
0
  6
Continuous
 62
     7
370
    25
100
AcDbLine
 10
-281.5
 20
170.75
 30
0.0
 11
-281.5
 21
156.25
 31
0.0
  0
LINE
  5
26F
330
1A3
100
AcDbEntity
  8
0
  6
Continuous
 62
     7
370
    25
100
AcDbLine
 10
-281.5
 20
621.25
 30
0.0
 11
-281.5
 21
635.75
 31
0.0
  0
LINE
  5
270
330
1A3
100
AcDbEntity
  8
0
  6
Continuous
 62
     7
370
    25
100
AcDbLine
 10
-286.5
 20
635.75
 30
0.0
 11
-286.5
 21
621.25
 31
0.0
  0
LINE
  5
271
330
1A3
100
AcDbEntity
  8
0
  6
Continuous
 62
     7
370
    25
100
AcDbLine
 10
286.5
 20
635.75
 30
0.0
 11
286.5
 21
621.25
 31
0.0
  0
LINE
  5
272
330
1A3
100
AcDbEntity
  8
0
  6
Continuous
 62
     7
370
    25
100
AcDbLine
 10
281.5
 20
621.25
 30
0.0
 11
281.5
 21
635.75
 31
0.0
  0
LINE
  5
273
330
1A3
100
AcDbEntity
  8
0
  6
Continuous
 62
     7
370
    25
100
AcDbLine
 10
268.0
 20
0.0
 30
0.0
 11
300.0
 21
0.0
 31
0.0
  0
LINE
  5
274
330
1A3
100
AcDbEntity
  8
0
  6
Continuous
 62
     7
370
    25
100
AcDbLine
 10
268.0
 20
792.0
 30
0.0
 11
300.0
 21
792.0
 31
0.0
  0
LINE
  5
275
330
1A3
100
AcDbEntity
  8
0
  6
Continuous
 62
     7
370
    25
100
AcDbLine
 10
-300.0
 20
0.0
 30
0.0
 11
-268.0
 21
0.0
 31
0.0
  0
LINE
  5
276
330
1A3
100
AcDbEntity
  8
0
  6
Continuous
 62
     7
370
    25
100
AcDbLine
 10
-300.0
 20
792.0
 30
0.0
 11
-268.0
 21
792.0
 31
0.0
  0
ARC
  5
277
330
1A3
100
AcDbEntity
  8
0
  6
Continuous
 62
     7
370
    25
100
AcDbCircle
 10
284.0
 20
170.75
 30
0.0
 40
2.5
100
AcDbArc
 50
0.0
 51
180.0
  0
ARC
  5
278
330
1A3
100
AcDbEntity
  8
0
  6
Continuous
 62
     7
370
    25
100
AcDbCircle
 10
284.0
 20
156.25
 30
0.0
 40
2.500000000000057
100
AcDbArc
 50
180.0
 51
0.0
  0
ARC
  5
279
330
1A3
100
AcDbEntity
  8
0
  6
Continuous
 62
     7
370
    25
100
AcDbCircle
 10
-284.0
 20
170.75
 30
0.0
 40
2.5
100
AcDbArc
 50
0.0
 51
180.0
  0
ARC
  5
27A
330
1A3
100
AcDbEntity
  8
0
  6
Continuous
 62
     7
370
    25
100
AcDbCircle
 10
-284.0
 20
156.25
 30
0.0
 40
2.500000000000057
100
AcDbArc
 50
180.0
 51
0.0
  0
ARC
  5
27B
330
1A3
100
AcDbEntity
  8
0
  6
Continuous
 62
     7
370
    25
100
AcDbCircle
 10
-284.0
 20
621.25
 30
0.0
 40
2.5
100
AcDbArc
 50
180.0
 51
0.0
  0
ARC
  5
27C
330
1A3
100
AcDbEntity
  8
0
  6
Continuous
 62
     7
370
    25
100
AcDbCircle
 10
-284.0
 20
635.75
 30
0.0
 40
2.500000000000057
100
AcDbArc
 50
0.0
 51
180.0
  0
ARC
  5
27D
330
1A3
100
AcDbEntity
  8
0
  6
Continuous
 62
     7
370
    25
100
AcDbCircle
 10
284.0
 20
621.25
 30
0.0
 40
2.5
100
AcDbArc
 50
180.0
 51
0.0
  0
ARC
  5
27E
330
1A3
100
AcDbEntity
  8
0
  6
Continuous
 62
     7
370
    25
100
AcDbCircle
 10
284.0
 20
635.75
 30
0.0
 40
2.500000000000057
100
AcDbArc
 50
0.0
 51
180.0
  0
ARC
  5
27F
330
1A3
100
AcDbEntity
  8
0
  6
Continuous
 62
     7
370
    25
100
AcDbCircle
 10
-284.0
 20
628.5
 30
0.0
 40
7.499999999998376
100
AcDbArc
 50
250.5287793655
 51
289.4712206345
  0
ARC
  5
280
330
1A3
100
AcDbEntity
  8
0
  6
Continuous
 62
     7
370
    25
100
AcDbCircle
 10
-284.0
 20
628.5
 30
0.0
 40
7.499999999998125
100
AcDbArc
 50
70.5287793655
 51
109.4712206345
  0
ARC
  5
281
330
1A3
100
AcDbEntity
  8
0
  6
Continuous
 62
     7
370
    25
100
AcDbCircle
 10
-284.0
 20
163.5
 30
0.0
 40
7.499999999999304
100
AcDbArc
 50
70.5287793655
 51
109.4712206345
  0
ARC
  5
282
330
1A3
100
AcDbEntity
  8
0
  6
Continuous
 62
     7
370
    25
100
AcDbCircle
 10
-284.0
 20
163.5
 30
0.0
 40
7.500000000000172
100
AcDbArc
 50
250.5287793655
 51
289.4712206345
  0
ARC
  5
283
330
1A3
100
AcDbEntity
  8
0
  6
Continuous
 62
     7
370
    25
100
AcDbCircle
 10
284.0
 20
163.5
 30
0.0
 40
7.500000000000065
100
AcDbArc
 50
250.5287793655
 51
289.4712206345
  0
ARC
  5
284
330
1A3
100
AcDbEntity
  8
0
  6
Continuous
 62
     7
370
    25
100
AcDbCircle
 10
284.0
 20
163.5
 30
0.0
 40
7.499999999999733
100
AcDbArc
 50
70.5287793655
 51
109.4712206345
  0
ARC
  5
285
330
1A3
100
AcDbEntity
  8
0
  6
Continuous
 62
     7
370
    25
100
AcDbCircle
 10
284.0
 20
628.5
 30
0.0
 40
7.499999999998661
100
AcDbArc
 50
70.5287793655
 51
109.4712206345
  0
ARC
  5
286
330
1A3
100
AcDbEntity
  8
0
  6
Continuous
 62
     7
370
    25
100
AcDbCircle
 10
284.0
 20
628.5
 30
0.0
 40
7.499999999998162
100
AcDbArc
 50
250.5287793655
 51
289.4712206345
  0
VIEWPORT
  5
350
330
1A3
100
AcDbEntity
  8
0
100
AcDbViewport
 10
0.0
 20
0.0
 30
0.0
 40
205.6
 41
156.0
 68
     1
 69
     1
 12
0.0
 22
28.5
 13
0.0
 23
0.0
 14
10.0
 24
10.0
 15
10.0
 25
10.0
 16
0.0
 26
0.0
 36
1.0
 17
0.0
 27
0.0
 37
0.0
 42
50.0
 43
0.0
 44
0.0
 45
469.0015564202
 50
0.0
 51
0.0
 72
   100
 90
   557152
  1

281
     0
 71
     1
 74
     0
110
0.0
120
0.0
130
0.0
111
1.0
121
0.0
131
0.0
112
0.0
122
1.0
132
0.0
 79
     0
146
0.0
  0
ENDBLK
  5
1A6
330
1A3
100
AcDbEntity
  8
0
100
AcDbBlockEnd
  0
BLOCK
  5
289
330
287
100
AcDbEntity
  8
0
100
AcDbBlockBegin
  2
*Paper_Space2
 70
     0
 10
0.0
 20
0.0
 30
0.0
  3
*Paper_Space2
  1

  0
LWPOLYLINE
  5
2CF
330
287
100
AcDbEntity
  8
0
  6
Continuous
 62
     7
370
    25
100
AcDbPolyline
 90
       43
 70
   128
 43
0.0
 10
212.132034356
 20
537.3016360293
 10
210.3194488262
 20
538.2021217176
 10
208.2946239093
 20
538.9365943785
 10
206.1027908483
 20
539.4886471064
 10
203.7929115716
 20
539.8459479556
 10
201.4165849654
 20
540.0005154155
 10
199.0268942393
 20
539.9488967046
 10
196.6772211353
 20
539.6922448995
 10
194.4200534679
 20
539.2362931775
 10
192.3058126327
 20
538.5912267465
 10
190.3817272765
 20
537.7714553248
 10
188.6907782867
 20
536.7952912512
 10
187.2707386693
 20
535.684540418
 10
186.1533297631
 20
534.4640151635
 10
185.3635126364
 20
533.160980005
 10
184.9189304987
 20
531.8045425946
 10
184.8295145804
 20
530.4250035028
 10
185.0972622852
 20
529.0531793531
 10
185.716192572
 20
527.7197144303
 10
186.6724795609
 20
526.4543961372
 10
187.9447613807
 20
525.2854895936
 10
189.504617358
 20
524.2391062401
 10
191.3172028878
 20
523.3386205518
 10
193.3420278046
 20
522.6041478909
 10
195.5338608657
 20
522.052095163
 10
197.8437401424
 20
521.6947943138
 10
200.2200667486
 20
521.5402268538
 10
202.6097574746
 20
521.5918455648
 10
204.9594305786
 20
521.8484973698
 10
207.2165982461
 20
522.3044490919
 10
209.3308390812
 20
522.9495155228
 10
211.2549244374
 20
523.7692869446
 10
212.9458734273
 20
524.7454510182
 10
214.3659130446
 20
525.8562018514
 10
215.4833219509
 20
527.0767271059
 10
216.2731390776
 20
528.3797622644
 10
216.7177212153
 20
529.7361996748
 10
216.8071371336
 20
531.1157387666
 10
216.5393894287
 20
532.4875629163
 10
215.9204591419
 20
533.8210278391
 10
214.9641721531
 20
535.0863461322
 10
213.6918903332
 20
536.2552526758
 10
212.132034356
 20
537.3016360293
  0
LWPOLYLINE
  5
2D0
330
287
100
AcDbEntity
  8
0
  6
Continuous
 62
     7
370
    25
100
AcDbPolyline
 90
       23
 70
   128
 43
0.0
 10
184.818325857
 20
-115.9299518788
 10
184.8295145804
 20
-116.2753195108
 10
185.0972622852
 20
-117.6471436604
 10
185.716192572
 20
-118.9806085832
 10
186.6724795609
 20
-120.2459268763
 10
187.9447613807
 20
-121.4148334199
 10
189.504617358
 20
-122.4612167734
 10
191.3172028878
 20
-123.3617024617
 10
193.3420278046
 20
-124.0961751226
 10
195.5338608657
 20
-124.6482278505
 10
197.8437401424
 20
-125.0055286997
 10
200.2200667486
 20
-125.1600961597
 10
202.6097574746
 20
-125.1084774488
 10
204.9594305786
 20
-124.8518256437
 10
207.2165982461
 20
-124.3958739216
 10
209.3308390812
 20
-123.7508074907
 10
211.2549244374
 20
-122.9310360689
 10
212.9458734273
 20
-121.9548719953
 10
214.3659130446
 20
-120.8441211621
 10
215.4833219509
 20
-119.6235959076
 10
216.2731390776
 20
-118.3205607491
 10
216.7177212153
 20
-116.9641233387
 10
216.818325857
 20
-115.9299518788
  0
LWPOLYLINE
  5
2D1
330
287
100
AcDbEntity
  8
0
  6
Continuous
 62
     7
370
    25
100
AcDbPolyline
 90
       10
 70
   128
 43
0.0
 10
223.7992962455
 20
519.5417738457
 10
223.6753080186
 20
520.9298417589
 10
223.3091408893
 20
522.3961589191
 10
222.7179164258
 20
523.8721619653
 10
221.9292796268
 20
525.2888346357
 10
220.9801062725
 20
526.5799348908
 10
219.9147786541
 20
527.6850923175
 10
218.783110307
 20
528.5526309828
 10
217.6380167854
 20
529.1419857431
 10
216.818325857
 20
529.3813538572
  0
SPLINE
  5
2D3
330
287
100
AcDbEntity
  8
0
  6
Continuous
 62
     7
370
    25
100
AcDbSpline
210
0.0
220
0.0
230
1.0
 70
     8
 71
     3
 72
    18
 73
    14
 74
     0
 42
0.000000001
 43
0.00000001
 40
0.0
 40
0.0
 40
0.0
 40
0.0
 40
0.0478399713223217
 40
0.1613334379452527
 40
0.2658112660559177
 40
0.3601230188052644
 40
0.4556524547861986
 40
0.5610736351440367
 40
0.6745910599106488
 40
0.7787410046573784
 40
0.8693515043545988
 40
0.9640889489105843
 40
1.0
 40
1.0
 40
1.0
 40
1.0
 10
-186.1422679521679
 20
739.7567087395528
 30
0.0
 10
-186.2534295662309
 20
739.8489786267439
 30
0.0
 10
-186.6283061572618
 20
740.1601455799816
 30
0.0
 10
-187.8271040970936
 20
739.8298933004501
 30
0.0
 10
-189.7035851542896
 20
738.8930376983006
 30
0.0
 10
-191.7817618744287
 20
737.4805436495985
 30
0.0
 10
-193.8563731847933
 20
735.7575019898744
 30
0.0
 10
-195.7850162112338
 20
733.6777116748957
 30
0.0
 10
-197.1227037190466
 20
731.317686000436
 30
0.0
 10
-197.378930371761
 20
728.9491286969801
 30
0.0
 10
-196.635977361808
 20
726.9953816111781
 30
0.0
 10
-195.6189803804794
 20
725.6891309063489
 30
0.0
 10
-194.7725853462875
 20
725.3248992446476
 30
0.0
 10
-194.5399386926499
 20
725.2247837266913
 30
0.0
  0
LWPOLYLINE
  5
2D4
330
287
100
AcDbEntity
  8
0
  6
Continuous
 62
     7
370
    25
100
AcDbPolyline
 90
       17
 70
   128
 43
0.0
 10
216.818325857
 20
530.180194898
 10
217.4260980631
 20
530.2644363824
 10
218.4914256815
 20
530.1395927222
 10
219.6230940286
 20
529.7005349257
 10
220.7681875503
 20
528.9677928474
 10
221.8731629461
 20
527.9756286926
 10
222.8863527948
 20
526.7704349544
 10
223.7603814649
 20
525.4085651525
 10
224.4543803473
 20
523.9536988053
 10
224.9358988257
 20
522.4738638462
 10
225.1824216311
 20
521.0382557132
 10
225.1824216311
 20
519.7140018469
 10
224.9358988257
 20
518.5630228864
 10
224.4543803473
 20
517.6391373287
 10
223.7603814649
 20
516.9855450356
 10
222.8863527948
 20
516.6328072562
 10
222.8855438782
 20
516.6326410192
  0
LWPOLYLINE
  5
2D5
330
287
100
AcDbEntity
  8
0
  6
Continuous
 62
     7
370
    25
100
AcDbPolyline
 90
       17
 70
   128
 43
0.0
 10
218.9889408264
 20
531.5478950684
 10
219.3053518336
 20
531.702044579
 10
220.2545251879
 20
531.897252606
 10
221.3198528063
 20
531.7724089458
 10
222.4515211534
 20
531.3333511493
 10
223.596614675
 20
530.6006090711
 10
224.7015900709
 20
529.6084449162
 10
225.7147799195
 20
528.403251178
 10
226.5888085896
 20
527.0413813762
 10
227.2828074721
 20
525.586515029
 10
227.7643259504
 20
524.1066800699
 10
228.0108487558
 20
522.6710719368
 10
228.0108487558
 20
521.3468180705
 10
227.7643259504
 20
520.1958391101
 10
227.2828074721
 20
519.2719535523
 10
226.5888085896
 20
518.6183612592
 10
226.4883313211
 20
518.5571621327
  0
LWPOLYLINE
  5
2D6
330
287
100
AcDbEntity
  8
0
  6
Continuous
 62
     7
370
    25
100
AcDbPolyline
 90
       12
 70
   128
 43
0.0
 10
218.195771687
 20
528.8908548603
 10
218.5991608757
 20
528.8360230794
 10
219.6438113361
 20
528.463077776
 10
220.7052005383
 20
527.7732392765
 10
221.7166374951
 20
526.8098526706
 10
222.6145699029
 20
525.6334510821
 10
223.3425773659
 20
524.3179521492
 10
223.854916498
 20
522.9460135078
 10
224.1193951471
 20
521.6038391086
 10
224.1193951471
 20
520.3757627051
 10
223.854916498
 20
519.3389488543
 10
223.790742651
 20
519.1990307496
  0
SPLINE
  5
2D7
330
287
100
AcDbEntity
  8
0
  6
Continuous
 62
     7
370
    25
100
AcDbSpline
210
0.0
220
0.0
230
1.0
 70
     8
 71
     3
 72
    18
 73
    14
 74
     0
 42
0.000000001
 43
0.00000001
 40
0.0
 40
0.0
 40
0.0
 40
0.0
 40
0.0478399713223182
 40
0.1613334379452499
 40
0.2658112660559157
 40
0.3601230188052629
 40
0.4556524547861978
 40
0.5610736351440365
 40
0.6745910599106493
 40
0.7787410046573795
 40
0.8693515043546005
 40
0.9640889489105866
 40
0.9999999999999999
 40
0.9999999999999999
 40
0.9999999999999999
 40
0.9999999999999999
 10
-186.1422679521679
 20
694.8469640858366
 30
0.0
 10
-186.2534295662308
 20
694.9392339730276
 30
0.0
 10
-186.6283061572619
 20
695.2504009262657
 30
0.0
 10
-187.8271040970936
 20
694.9201486467338
 30
0.0
 10
-189.7035851542896
 20
693.9832930445842
 30
0.0
 10
-191.7817618744287
 20
692.5707989958823
 30
0.0
 10
-193.8563731847933
 20
690.8477573361583
 30
0.0
 10
-195.7850162112337
 20
688.7679670211793
 30
0.0
 10
-197.1227037190465
 20
686.4079413467196
 30
0.0
 10
-197.378930371761
 20
684.0393840432638
 30
0.0
 10
-196.635977361808
 20
682.085636957462
 30
0.0
 10
-195.6189803804794
 20
680.7793862526323
 30
0.0
 10
-194.7725853462875
 20
680.4151545909311
 30
0.0
 10
-194.5399386926499
 20
680.3150390729751
 30
0.0
  0
SPLINE
  5
2D8
330
287
100
AcDbEntity
  8
0
  6
Continuous
 62
     7
370
    25
100
AcDbSpline
210
0.0
220
0.0
230
1.0
 70
     8
 71
     3
 72
    18
 73
    14
 74
     0
 42
0.000000001
 43
0.00000001
 40
0.0
 40
0.0
 40
0.0
 40
0.0
 40
0.0478399713223181
 40
0.1613334379452497
 40
0.2658112660559153
 40
0.3601230188052624
 40
0.4556524547861971
 40
0.5610736351440386
 40
0.674591059910647
 40
0.7787410046573732
 40
0.8693515043545981
 40
0.9640889489105839
 40
0.9999999999999999
 40
0.9999999999999999
 40
0.9999999999999999
 40
0.9999999999999999
 10
-186.1422679521679
 20
649.9372194321204
 30
0.0
 10
-186.2534295662308
 20
650.0294893193113
 30
0.0
 10
-186.6283061572618
 20
650.340656272549
 30
0.0
 10
-187.8271040970936
 20
650.0104039930173
 30
0.0
 10
-189.7035851542896
 20
649.0735483908682
 30
0.0
 10
-191.7817618744287
 20
647.661054342166
 30
0.0
 10
-193.8563731847933
 20
645.938012682442
 30
0.0
 10
-195.7850162112336
 20
643.8582223674626
 30
0.0
 10
-197.1227037190466
 20
641.4981966930038
 30
0.0
 10
-197.378930371761
 20
639.1296393895473
 30
0.0
 10
-196.6359773618081
 20
637.1758923037461
 30
0.0
 10
-195.6189803804793
 20
635.869641598916
 30
0.0
 10
-194.7725853462875
 20
635.505409937215
 30
0.0
 10
-194.5399386926499
 20
635.4052944192588
 30
0.0
  0
LWPOLYLINE
  5
2D9
330
287
100
AcDbEntity
  8
0
  6
Continuous
 62
     7
370
    25
100
AcDbPolyline
 90
       15
 70
   128
 43
0.0
 10
247.8409268059
 20
415.0228248235
 10
247.7102465918
 20
416.7749533116
 10
247.3224061191
 20
418.621647112
 10
246.6898708997
 20
420.5035519665
 10
245.832971136
 20
422.3601819048
 10
244.7792482915
 20
424.1318633129
 10
243.5625698854
 20
425.7616528926
 10
242.2220409628
 20
427.1971678659
 10
240.8007472262
 20
428.3922696004
 10
239.3443702258
 20
429.3085465429
 10
237.8997191166
 20
429.9165487986
 10
236.5132261741
 20
430.1967346749
 10
235.2294544221
 20
430.140098767
 10
234.089665341
 20
429.7484613996
 10
233.9596661096
 20
429.6767333839
  0
LWPOLYLINE
  5
2DB
330
287
100
AcDbEntity
  8
0
  6
Continuous
 62
     7
370
    25
100
AcDbPolyline
 90
       32
 70
   128
 43
0.0
 10
229.1439347403
 20
426.8966708397
 10
229.2269019817
 20
427.638138184
 10
229.5969030125
 20
429.2503833165
 10
230.2039276863
 20
430.6391780432
 10
231.0337478593
 20
431.7719701928
 10
232.0669132498
 20
432.6222080775
 10
233.2792073369
 20
433.1699628417
 10
234.6422149746
 20
433.4023955782
 10
236.1239884191
 20
433.3140582606
 10
237.6897961567
 20
432.9070214407
 10
239.3029369813
 20
432.1908257166
 10
240.9256002391
 20
431.1822581091
 10
242.5197520786
 20
429.904958588
 10
244.048026932
 20
428.3888659716
 10
245.4746033318
 20
426.6695161857
 10
246.7660435365
 20
424.7872093322
 10
247.8920772822
 20
422.7860650883
 10
248.8263112923
 20
420.7129885789
 10
249.5468479134
 20
418.6165709604
 10
250.0367983778
 20
416.545950485
 10
250.2846786618
 20
414.5496607416
 10
250.2846786618
 20
412.6744930698
 10
250.0367983778
 20
410.9643998105
 10
249.5468479134
 20
409.4594641003
 10
248.8263112923
 20
408.1949603568
 10
247.8920772822
 20
407.2005274759
 10
246.7660435365
 20
406.4994741215
 10
245.4746033318
 20
406.1082323901
 10
244.048026932
 20
406.0359726562
 10
242.5197520786
 20
406.2843886268
 10
240.9256002391
 20
406.8476576421
 10
240.6430001656
 20
406.9775470049
  0
LWPOLYLINE
  5
2DC
330
287
100
AcDbEntity
  8
0
  6
Continuous
 62
     7
370
    25
100
AcDbPolyline
 90
       22
 70
   128
 43
0.0
 10
241.4021964829
 20
438.0145571291
 10
242.4715954923
 20
438.4766155686
 10
243.83460313
 20
438.7090483051
 10
245.3163765745
 20
438.6207109875
 10
246.8821843121
 20
438.2136741676
 10
248.4953251367
 20
437.4974784435
 10
250.1179883945
 20
436.488910836
 10
251.712140234
 20
435.2116113149
 10
253.2404150874
 20
433.6955186984
 10
254.6669914872
 20
431.9761689126
 10
255.9584316919
 20
430.0938620591
 10
257.0844654376
 20
428.0927178151
 10
258.0186994477
 20
426.0196413058
 10
258.7392360688
 20
423.9232236873
 10
259.2291865332
 20
421.8526032119
 10
259.4770668173
 20
419.8563134684
 10
259.4770668173
 20
417.9811457966
 10
259.2291865332
 20
416.2710525373
 10
258.7392360688
 20
414.7661168272
 10
258.0186994477
 20
413.5016130836
 10
257.0844654376
 20
412.5071802027
 10
256.4009774724
 20
412.0330912576
  0
LWPOLYLINE
  5
2DD
330
287
100
AcDbEntity
  8
0
  6
Continuous
 62
     7
370
    25
100
AcDbPolyline
 90
       35
 70
   128
 43
0.0
 10
235.5707707605
 20
434.6481467156
 10
235.5916927188
 20
434.8199894961
 10
235.9647654492
 20
436.6777937119
 10
236.5788266872
 20
438.3185065258
 10
237.422437634
 20
439.7115645624
 10
238.4798834136
 20
440.8310177861
 10
239.731465812
 20
441.6560129016
 10
241.1538702171
 20
442.1711818107
 10
242.7205999263
 20
442.3669278915
 10
244.4024697294
 20
442.2396047648
 10
246.1681495741
 20
441.7915842195
 10
247.9847481858
 20
441.0312120308
 10
249.8184257695
 20
439.9726524938
 10
251.6350243812
 20
438.6356245699
 10
253.400704226
 20
437.0450345594
 10
255.082574029
 20
435.2305121448
 10
256.6493037382
 20
433.2258584455
 10
258.0717081434
 20
431.068416367
 10
259.3232905418
 20
428.798374973
 10
260.3807363214
 20
426.4580208397
 10
261.2243472681
 20
424.0909503365
 10
261.8384085062
 20
421.7412575082
 10
262.2114812366
 20
419.4527126864
 10
262.3366158202
 20
417.267947131
 10
262.2114812366
 20
415.2276588906
 10
261.8384085062
 20
413.3698546748
 10
261.2243472681
 20
411.7291418609
 10
260.3807363214
 20
410.3360838243
 10
259.3232905418
 20
409.2166306006
 10
258.0717081434
 20
408.3916354851
 10
256.6493037382
 20
407.876466576
 10
255.082574029
 20
407.6807204952
 10
253.400704226
 20
407.8080436219
 10
251.6350243812
 20
408.2560641672
 10
250.56955175
 20
408.6666808441
  0
LWPOLYLINE
  5
2DE
330
287
100
AcDbEntity
  8
0
  6
Continuous
 62
     7
370
    25
100
AcDbPolyline
 90
       25
 70
   128
 43
0.0
 10
242.9378929236
 20
443.5197728581
 10
243.2669997179
 20
443.6970331811
 10
244.6894041231
 20
444.2122020903
 10
246.2561338322
 20
444.407948171
 10
247.9380036353
 20
444.2806250443
 10
249.70368348
 20
443.8326044991
 10
251.5202820918
 20
443.0722323104
 10
253.3539596754
 20
442.0136727734
 10
255.1705582871
 20
440.6766448494
 10
256.9362381319
 20
439.086054839
 10
258.618107935
 20
437.2715324244
 10
260.1848376441
 20
435.2668787251
 10
261.6072420493
 20
433.1094366465
 10
262.8588244477
 20
430.8393952525
 10
263.9162702273
 20
428.4990411193
 10
264.759881174
 20
426.1319706161
 10
265.3739424121
 20
423.7822777878
 10
265.7470151425
 20
421.493732966
 10
265.8721497261
 20
419.3089674106
 10
265.7470151425
 20
417.2686791702
 10
265.3739424121
 20
415.4108749543
 10
264.759881174
 20
413.7701621404
 10
263.9162702273
 20
412.3771041039
 10
262.8588244477
 20
411.2576508801
 10
261.9363488436
 20
410.6099160877
  0
SPLINE
  5
2DF
330
287
100
AcDbEntity
  8
0
  6
Continuous
 62
     7
370
    25
100
AcDbSpline
210
0.0
220
0.0
230
1.0
 70
     8
 71
     3
 72
    18
 73
    14
 74
     0
 42
0.000000001
 43
0.00000001
 40
0.0
 40
0.0
 40
0.0
 40
0.0
 40
0.0478399713223222
 40
0.161333437945255
 40
0.26581126605592
 40
0.3601230188052663
 40
0.4556524547861995
 40
0.5610736351440393
 40
0.6745910599106515
 40
0.7787410046573768
 40
0.8693515043546017
 40
0.9640889489105826
 40
1.0
 40
1.0
 40
1.0
 40
1.0
 10
-186.1422679521679
 20
568.2831382435453
 30
0.0
 10
-186.2534295662309
 20
568.3754081307364
 30
0.0
 10
-186.6283061572618
 20
568.6865750839743
 30
0.0
 10
-187.8271040970937
 20
568.3563228044426
 30
0.0
 10
-189.7035851542895
 20
567.4194672022929
 30
0.0
 10
-191.7817618744288
 20
566.006973153591
 30
0.0
 10
-193.8563731847933
 20
564.2839314938668
 30
0.0
 10
-195.7850162112337
 20
562.204141178888
 30
0.0
 10
-197.1227037190466
 20
559.8441155044284
 30
0.0
 10
-197.3789303717611
 20
557.4755582009727
 30
0.0
 10
-196.635977361808
 20
555.5218111151705
 30
0.0
 10
-195.6189803804793
 20
554.2155604103413
 30
0.0
 10
-194.7725853462875
 20
553.85132874864
 30
0.0
 10
-194.5399386926499
 20
553.7512132306838
 30
0.0
  0
SPLINE
  5
2E0
330
287
100
AcDbEntity
  8
0
  6
Continuous
 62
     7
370
    25
100
AcDbSpline
210
0.0
220
0.0
230
1.0
 70
     8
 71
     3
 72
    18
 73
    14
 74
     0
 42
0.000000001
 43
0.00000001
 40
0.0
 40
0.0
 40
0.0
 40
0.0
 40
0.0478399713223199
 40
0.1613334379452529
 40
0.265811266055918
 40
0.3601230188052644
 40
0.4556524547861973
 40
0.5610736351440376
 40
0.674591059910648
 40
0.7787410046573776
 40
0.8693515043546026
 40
0.9640889489105818
 40
1.0
 40
1.0
 40
1.0
 40
1.0
 10
-186.1422679521679
 20
523.3733935898291
 30
0.0
 10
-186.2534295662309
 20
523.4656634770201
 30
0.0
 10
-186.6283061572618
 20
523.7768304302577
 30
0.0
 10
-187.8271040970938
 20
523.4465781507267
 30
0.0
 10
-189.7035851542895
 20
522.5097225485765
 30
0.0
 10
-191.7817618744288
 20
521.0972284998749
 30
0.0
 10
-193.8563731847933
 20
519.3741868401506
 30
0.0
 10
-195.7850162112337
 20
517.2943965251714
 30
0.0
 10
-197.1227037190467
 20
514.9343708507123
 30
0.0
 10
-197.378930371761
 20
512.5658135472559
 30
0.0
 10
-196.635977361808
 20
510.6120664614544
 30
0.0
 10
-195.6189803804794
 20
509.305815756625
 30
0.0
 10
-194.7725853462875
 20
508.9415840949237
 30
0.0
 10
-194.5399386926498
 20
508.8414685769675
 30
0.0
  0
SPLINE
  5
2E1
330
287
100
AcDbEntity
  8
0
  6
Continuous
 62
     7
370
    25
100
AcDbSpline
210
0.0
220
0.0
230
1.0
 70
     8
 71
     3
 72
    18
 73
    14
 74
     0
 42
0.000000001
 43
0.00000001
 40
0.0
 40
0.0
 40
0.0
 40
0.0
 40
0.047839971322319
 40
0.1613334379452536
 40
0.2658112660559182
 40
0.3601230188052638
 40
0.4556524547861979
 40
0.561073635144037
 40
0.6745910599106469
 40
0.7787410046573765
 40
0.8693515043546013
 40
0.96408894891058
 40
1.0
 40
1.0
 40
1.0
 40
1.0
 10
-186.1422679521679
 20
478.4636489361129
 30
0.0
 10
-186.2534295662309
 20
478.555918823304
 30
0.0
 10
-186.6283061572617
 20
478.8670857765416
 30
0.0
 10
-187.8271040970936
 20
478.53683349701
 30
0.0
 10
-189.7035851542896
 20
477.5999778948606
 30
0.0
 10
-191.7817618744288
 20
476.1874838461584
 30
0.0
 10
-193.8563731847933
 20
474.4644421864345
 30
0.0
 10
-195.7850162112337
 20
472.3846518714553
 30
0.0
 10
-197.1227037190465
 20
470.0246261969959
 30
0.0
 10
-197.3789303717611
 20
467.65606889354
 30
0.0
 10
-196.635977361808
 20
465.7023218077382
 30
0.0
 10
-195.6189803804794
 20
464.3960711029087
 30
0.0
 10
-194.7725853462875
 20
464.0318394412074
 30
0.0
 10
-194.5399386926499
 20
463.9317239232513
 30
0.0
  0
SPLINE
  5
2E2
330
287
100
AcDbEntity
  8
0
  6
Continuous
 62
     7
370
    25
100
AcDbSpline
210
0.0
220
0.0
230
1.0
 70
     8
 71
     3
 72
    18
 73
    14
 74
     0
 42
0.000000001
 43
0.00000001
 40
0.0
 40
0.0
 40
0.0
 40
0.0
 40
0.0478399713223198
 40
0.1613334379452534
 40
0.2658112660559183
 40
0.3601230188052638
 40
0.4556524547861976
 40
0.5610736351440364
 40
0.674591059910646
 40
0.7787410046573732
 40
0.8693515043545997
 40
0.9640889489105781
 40
1.0
 40
1.0
 40
1.0
 40
1.0
 10
-186.1422679521679
 20
396.8095677475378
 30
0.0
 10
-186.2534295662308
 20
396.9018376347288
 30
0.0
 10
-186.6283061572617
 20
397.2130045879667
 30
0.0
 10
-187.8271040970937
 20
396.8827523084351
 30
0.0
 10
-189.7035851542895
 20
395.9458967062856
 30
0.0
 10
-191.7817618744287
 20
394.5334026575834
 30
0.0
 10
-193.8563731847933
 20
392.8103609978595
 30
0.0
 10
-195.7850162112337
 20
390.7305706828802
 30
0.0
 10
-197.1227037190465
 20
388.3705450084208
 30
0.0
 10
-197.3789303717612
 20
386.0019877049651
 30
0.0
 10
-196.635977361808
 20
384.0482406191632
 30
0.0
 10
-195.6189803804793
 20
382.7419899143335
 30
0.0
 10
-194.7725853462875
 20
382.3777582526325
 30
0.0
 10
-194.5399386926498
 20
382.2776427346762
 30
0.0
  0
SPLINE
  5
2E3
330
287
100
AcDbEntity
  8
0
  6
Continuous
 62
     7
370
    25
100
AcDbSpline
210
0.0
220
0.0
230
1.0
 70
     8
 71
     3
 72
    18
 73
    14
 74
     0
 42
0.000000001
 43
0.00000001
 40
0.0
 40
0.0
 40
0.0
 40
0.0
 40
0.0478399713223189
 40
0.1613334379452527
 40
0.2658112660559174
 40
0.3601230188052631
 40
0.4556524547861972
 40
0.5610736351440363
 40
0.674591059910646
 40
0.7787410046573733
 40
0.8693515043545996
 40
0.9640889489105782
 40
1.0
 40
1.0
 40
1.0
 40
1.0
 10
-186.1422679521679
 20
351.8998230938217
 30
0.0
 10
-186.2534295662309
 20
351.9920929810127
 30
0.0
 10
-186.6283061572618
 20
352.3032599342505
 30
0.0
 10
-187.8271040970935
 20
351.9730076547187
 30
0.0
 10
-189.7035851542896
 20
351.0361520525694
 30
0.0
 10
-191.7817618744287
 20
349.6236580038672
 30
0.0
 10
-193.8563731847933
 20
347.9006163441433
 30
0.0
 10
-195.7850162112336
 20
345.820826029164
 30
0.0
 10
-197.1227037190466
 20
343.4608003547047
 30
0.0
 10
-197.378930371761
 20
341.0922430512488
 30
0.0
 10
-196.6359773618081
 20
339.138495965447
 30
0.0
 10
-195.6189803804794
 20
337.8322452606176
 30
0.0
 10
-194.7725853462875
 20
337.4680135989161
 30
0.0
 10
-194.5399386926498
 20
337.3678980809599
 30
0.0
  0
LWPOLYLINE
  5
2E4
330
287
100
AcDbEntity
  8
0
  6
Continuous
 62
     7
370
    25
100
AcDbPolyline
 90
       43
 70
   128
 43
0.0
 10
-212.132034356
 20
756.0990099978
 10
-210.3194488262
 20
755.1985243094
 10
-208.2946239093
 20
754.4640516486
 10
-206.1027908483
 20
753.9119989207
 10
-203.7929115716
 20
753.5546980715
 10
-201.4165849654
 20
753.4001306115
 10
-199.0268942393
 20
753.4517493224
 10
-196.6772211353
 20
753.7084011275
 10
-194.4200534679
 20
754.1643528495
 10
-192.3058126327
 20
754.8094192805
 10
-190.3817272765
 20
755.6291907023
 10
-188.6907782867
 20
756.6053547759
 10
-187.2707386693
 20
757.716105609
 10
-186.1533297631
 20
758.9366308635
 10
-185.3635126364
 20
760.2396660221
 10
-184.9189304987
 20
761.5961034324
 10
-184.8295145804
 20
762.9756425243
 10
-185.0972622852
 20
764.3474666739
 10
-185.716192572
 20
765.6809315968
 10
-186.6724795609
 20
766.9462498899
 10
-187.9447613807
 20
768.1151564335
 10
-189.504617358
 20
769.1615397869
 10
-191.3172028878
 20
770.0620254752
 10
-193.3420278046
 20
770.7964981361
 10
-195.5338608657
 20
771.348550864
 10
-197.8437401424
 20
771.7058517132
 10
-200.2200667486
 20
771.8604191732
 10
-202.6097574746
 20
771.8088004623
 10
-204.9594305786
 20
771.5521486572
 10
-207.2165982461
 20
771.0961969351
 10
-209.3308390812
 20
770.4511305042
 10
-211.2549244374
 20
769.6313590824
 10
-212.9458734273
 20
768.6551950088
 10
-214.3659130446
 20
767.5444441757
 10
-215.4833219509
 20
766.3239189212
 10
-216.2731390776
 20
765.0208837626
 10
-216.7177212153
 20
763.6644463523
 10
-216.8071371336
 20
762.2849072604
 10
-216.5393894287
 20
760.9130831108
 10
-215.9204591419
 20
759.5796181879
 10
-214.9641721531
 20
758.3142998948
 10
-213.6918903332
 20
757.1453933512
 10
-212.132034356
 20
756.0990099978
  0
LWPOLYLINE
  5
2E5
330
287
100
AcDbEntity
  8
0
  6
Continuous
 62
     7
370
    25
100
AcDbPolyline
 90
       17
 70
   128
 43
0.0
 10
-212.132034356
 20
109.3986869842
 10
-210.3194488262
 20
108.4982012959
 10
-208.2946239093
 20
107.7637286351
 10
-206.1027908483
 20
107.2116759072
 10
-203.7929115716
 20
106.8543750579
 10
-201.4165849654
 20
106.699807598
 10
-199.0268942393
 20
106.7514263089
 10
-196.6772211353
 20
107.008078114
 10
-194.4200534679
 20
107.464029836
 10
-192.3058126327
 20
108.109096267
 10
-190.3817272765
 20
108.9288676887
 10
-188.6907782867
 20
109.9050317624
 10
-187.2707386693
 20
111.0157825955
 10
-186.1533297631
 20
112.23630785
 10
-185.3635126364
 20
113.5393430086
 10
-184.9189304987
 20
114.8957804189
 10
-184.8587065046
 20
115.2741392852
  0
LWPOLYLINE
  5
2E6
330
287
100
AcDbEntity
  8
0
  6
Continuous
 62
     7
370
    25
100
AcDbPolyline
 90
        7
 70
   128
 43
0.0
 10
-216.818325857
 20
115.9299518788
 10
-216.8071371336
 20
115.5845842469
 10
-216.5393894287
 20
114.2127600972
 10
-215.9204591419
 20
112.8792951744
 10
-214.9641721531
 20
111.6139768813
 10
-213.6918903332
 20
110.4450703377
 10
-212.132034356
 20
109.3986869842
  0
SPLINE
  5
2E7
330
287
100
AcDbEntity
  8
0
  6
Continuous
 62
     7
370
    25
100
AcDbSpline
210
0.0
220
0.0
230
1.0
 70
     8
 71
     3
 72
    18
 73
    14
 74
     0
 42
0.000000001
 43
0.00000001
 40
0.0
 40
0.0
 40
0.0
 40
0.0
 40
0.047839971322321
 40
0.1613334379452545
 40
0.2658112660559192
 40
0.360123018805265
 40
0.4556524547861991
 40
0.5610736351440381
 40
0.6745910599106463
 40
0.7787410046573754
 40
0.8693515043546008
 40
0.9640889489105813
 40
1.0
 40
1.0
 40
1.0
 40
1.0
 10
-186.1422679521678
 20
225.3359972515304
 30
0.0
 10
-186.2534295662308
 20
225.4282671387214
 30
0.0
 10
-186.6283061572618
 20
225.7394340919593
 30
0.0
 10
-187.8271040970936
 20
225.4091818124276
 30
0.0
 10
-189.7035851542895
 20
224.4723262102782
 30
0.0
 10
-191.7817618744287
 20
223.0598321615761
 30
0.0
 10
-193.8563731847933
 20
221.3367905018521
 30
0.0
 10
-195.7850162112337
 20
219.2570001868729
 30
0.0
 10
-197.1227037190465
 20
216.8969745124134
 30
0.0
 10
-197.378930371761
 20
214.5284172089575
 30
0.0
 10
-196.635977361808
 20
212.5746701231558
 30
0.0
 10
-195.6189803804794
 20
211.2684194183262
 30
0.0
 10
-194.7725853462875
 20
210.9041877566249
 30
0.0
 10
-194.5399386926498
 20
210.8040722386688
 30
0.0
  0
SPLINE
  5
2E8
330
287
100
AcDbEntity
  8
0
  6
Continuous
 62
     7
370
    25
100
AcDbSpline
210
0.0
220
0.0
230
1.0
 70
     8
 71
     3
 72
    18
 73
    14
 74
     0
 42
0.000000001
 43
0.00000001
 40
0.0
 40
0.0
 40
0.0
 40
0.0
 40
0.047839971322319
 40
0.1613334379452536
 40
0.2658112660559186
 40
0.3601230188052646
 40
0.4556524547861987
 40
0.5610736351440371
 40
0.6745910599106468
 40
0.7787410046573761
 40
0.869351504354601
 40
0.9640889489105812
 40
1.0
 40
1.0
 40
1.0
 40
1.0
 10
-186.1422679521679
 20
135.516507944098
 30
0.0
 10
-186.2534295662309
 20
135.608777831289
 30
0.0
 10
-186.6283061572617
 20
135.9199447845268
 30
0.0
 10
-187.8271040970935
 20
135.5896925049952
 30
0.0
 10
-189.7035851542896
 20
134.6528369028457
 30
0.0
 10
-191.7817618744286
 20
133.2403428541435
 30
0.0
 10
-193.8563731847933
 20
131.5173011944196
 30
0.0
 10
-195.7850162112336
 20
129.4375108794403
 30
0.0
 10
-197.1227037190465
 20
127.077485204981
 30
0.0
 10
-197.378930371761
 20
124.708927901525
 30
0.0
 10
-196.635977361808
 20
122.7551808157233
 30
0.0
 10
-195.6189803804793
 20
121.4489301108937
 30
0.0
 10
-194.7725853462875
 20
121.0846984491924
 30
0.0
 10
-194.5399386926498
 20
120.9845829312363
 30
0.0
  0
SPLINE
  5
2E9
330
287
100
AcDbEntity
  8
0
  6
Continuous
 62
     7
370
    25
100
AcDbSpline
210
0.0
220
0.0
230
1.0
 70
     8
 71
     3
 72
    18
 73
    14
 74
     0
 42
0.000000001
 43
0.00000001
 40
0.0
 40
0.0
 40
0.0
 40
0.0
 40
0.0478399713223193
 40
0.1613334379452538
 40
0.2658112660559183
 40
0.3601230188052642
 40
0.4556524547861983
 40
0.5610736351440364
 40
0.6745910599106468
 40
0.7787410046573755
 40
0.8693515043546005
 40
0.9640889489105806
 40
1.0
 40
1.0
 40
1.0
 40
1.0
 10
-186.1422679521679
 20
180.4262525978142
 30
0.0
 10
-186.2534295662309
 20
180.5185224850052
 30
0.0
 10
-186.6283061572618
 20
180.8296894382431
 30
0.0
 10
-187.8271040970936
 20
180.4994371587114
 30
0.0
 10
-189.7035851542895
 20
179.5625815565619
 30
0.0
 10
-191.7817618744286
 20
178.1500875078598
 30
0.0
 10
-193.8563731847933
 20
176.4270458481359
 30
0.0
 10
-195.7850162112337
 20
174.3472555331566
 30
0.0
 10
-197.1227037190465
 20
171.9872298586972
 30
0.0
 10
-197.378930371761
 20
169.6186725552413
 30
0.0
 10
-196.635977361808
 20
167.6649254694396
 30
0.0
 10
-195.6189803804793
 20
166.3586747646099
 30
0.0
 10
-194.7725853462875
 20
165.9944431029087
 30
0.0
 10
-194.5399386926498
 20
165.8943275849525
 30
0.0
  0
SPLINE
  5
2EA
330
287
100
AcDbEntity
  8
0
  6
Continuous
 62
     7
370
    25
100
AcDbSpline
210
0.0
220
0.0
230
1.0
 70
     8
 71
     3
 72
    18
 73
    14
 74
     0
 42
0.000000001
 43
0.00000001
 40
0.0
 40
0.0
 40
0.0
 40
0.0
 40
0.0478399713223197
 40
0.1613334379452543
 40
0.2658112660559188
 40
0.3601230188052647
 40
0.4556524547861986
 40
0.5610736351440375
 40
0.6745910599106459
 40
0.7787410046573752
 40
0.8693515043546007
 40
0.9640889489105819
 40
1.0
 40
1.0
 40
1.0
 40
1.0
 10
-186.1422679521678
 20
306.9900784401053
 30
0.0
 10
-186.2534295662308
 20
307.0823483272964
 30
0.0
 10
-186.6283061572617
 20
307.3935152805342
 30
0.0
 10
-187.8271040970936
 20
307.0632630010026
 30
0.0
 10
-189.7035851542895
 20
306.1264073988531
 30
0.0
 10
-191.7817618744287
 20
304.713913350151
 30
0.0
 10
-193.8563731847933
 20
302.9908716904271
 30
0.0
 10
-195.7850162112336
 20
300.9110813754477
 30
0.0
 10
-197.1227037190465
 20
298.5510557009885
 30
0.0
 10
-197.3789303717611
 20
296.1824983975325
 30
0.0
 10
-196.635977361808
 20
294.2287513117307
 30
0.0
 10
-195.6189803804793
 20
292.9225006069012
 30
0.0
 10
-194.7725853462875
 20
292.5582689451999
 30
0.0
 10
-194.5399386926498
 20
292.4581534272438
 30
0.0
  0
LWPOLYLINE
  5
2EC
330
287
100
AcDbEntity
  8
0
  6
Continuous
 62
     7
370
    25
100
AcDbPolyline
 90
       15
 70
   128
 43
0.0
 10
233.9596661096
 20
49.985255857
 10
234.089665341
 20
50.0569838727
 10
235.2294544221
 20
50.4486212401
 10
236.5132261741
 20
50.505257148
 10
237.8997191166
 20
50.2250712718
 10
239.3443702258
 20
49.617069016
 10
240.8007472262
 20
48.7007920735
 10
242.2220409628
 20
47.505690339
 10
243.5625698854
 20
46.0701753658
 10
244.7792482915
 20
44.440385786
 10
245.832971136
 20
42.6687043779
 10
246.6898708997
 20
40.8120744397
 10
247.3224061191
 20
38.9301695851
 10
247.7102465918
 20
37.0834757847
 10
247.8409268059
 20
35.3313472966
  0
LWPOLYLINE
  5
2ED
330
287
100
AcDbEntity
  8
0
  6
Continuous
 62
     7
370
    25
100
AcDbPolyline
 90
       32
 70
   128
 43
0.0
 10
240.6430001656
 20
27.2860694781
 10
240.9256002391
 20
27.1561801152
 10
242.5197520786
 20
26.5929110999
 10
244.048026932
 20
26.3444951293
 10
245.4746033318
 20
26.4167548632
 10
246.7660435365
 20
26.8079965946
 10
247.8920772822
 20
27.509049949
 10
248.8263112923
 20
28.5034828299
 10
249.5468479134
 20
29.7679865734
 10
250.0367983778
 20
31.2729222836
 10
250.2846786618
 20
32.9830155429
 10
250.2846786618
 20
34.8581832147
 10
250.0367983778
 20
36.8544729581
 10
249.5468479134
 20
38.9250934336
 10
248.8263112923
 20
41.021511052
 10
247.8920772822
 20
43.0945875614
 10
246.7660435365
 20
45.0957318053
 10
245.4746033318
 20
46.9780386589
 10
244.048026932
 20
48.6973884447
 10
242.5197520786
 20
50.2134810612
 10
240.9256002391
 20
51.4907805822
 10
239.3029369813
 20
52.4993481898
 10
237.6897961567
 20
53.2155439139
 10
236.1239884191
 20
53.6225807337
 10
234.6422149746
 20
53.7109180514
 10
233.2792073369
 20
53.4784853149
 10
232.0669132498
 20
52.9307305506
 10
231.0337478593
 20
52.0804926659
 10
230.2039276863
 20
50.9477005163
 10
229.5969030125
 20
49.5589057896
 10
229.2269019817
 20
47.9466606571
 10
229.1439347403
 20
47.2051933128
  0
LWPOLYLINE
  5
2EE
330
287
100
AcDbEntity
  8
0
  6
Continuous
 62
     7
370
    25
100
AcDbPolyline
 90
       22
 70
   128
 43
0.0
 10
256.4009774724
 20
32.3416137308
 10
257.0844654376
 20
32.8157026758
 10
258.0186994477
 20
33.8101355567
 10
258.7392360688
 20
35.0746393003
 10
259.2291865332
 20
36.5795750105
 10
259.4770668173
 20
38.2896682698
 10
259.4770668173
 20
40.1648359416
 10
259.2291865332
 20
42.161125685
 10
258.7392360688
 20
44.2317461604
 10
258.0186994477
 20
46.3281637789
 10
257.0844654376
 20
48.4012402882
 10
255.9584316919
 20
50.4023845322
 10
254.6669914872
 20
52.2846913857
 10
253.2404150874
 20
54.0040411716
 10
251.712140234
 20
55.520133788
 10
250.1179883945
 20
56.7974333091
 10
248.4953251367
 20
57.8060009166
 10
246.8821843121
 20
58.5221966407
 10
245.3163765745
 20
58.9292334606
 10
243.83460313
 20
59.0175707782
 10
242.4715954923
 20
58.7851380417
 10
241.4021964829
 20
58.3230796022
  0
LWPOLYLINE
  5
2EF
330
287
100
AcDbEntity
  8
0
  6
Continuous
 62
     7
370
    25
100
AcDbPolyline
 90
       35
 70
   128
 43
0.0
 10
250.56955175
 20
28.9752033173
 10
251.6350243812
 20
28.5645866403
 10
253.400704226
 20
28.116566095
 10
255.082574029
 20
27.9892429683
 10
256.6493037382
 20
28.1849890491
 10
258.0717081434
 20
28.7001579583
 10
259.3232905418
 20
29.5251530737
 10
260.3807363214
 20
30.6446062975
 10
261.2243472681
 20
32.037664334
 10
261.8384085062
 20
33.6783771479
 10
262.2114812366
 20
35.5361813638
 10
262.3366158202
 20
37.5764696042
 10
262.2114812366
 20
39.7612351595
 10
261.8384085062
 20
42.0497799813
 10
261.2243472681
 20
44.3994728096
 10
260.3807363214
 20
46.7665433128
 10
259.3232905418
 20
49.1068974461
 10
258.0717081434
 20
51.3769388401
 10
256.6493037382
 20
53.5343809187
 10
255.082574029
 20
55.539034618
 10
253.400704226
 20
57.3535570325
 10
251.6350243812
 20
58.944147043
 10
249.8184257695
 20
60.2811749669
 10
247.9847481858
 20
61.3397345039
 10
246.1681495741
 20
62.1001066926
 10
244.4024697294
 20
62.5481272379
 10
242.7205999263
 20
62.6754503646
 10
241.1538702171
 20
62.4797042838
 10
239.731465812
 20
61.9645353747
 10
238.4798834136
 20
61.1395402592
 10
237.422437634
 20
60.0200870355
 10
236.5788266872
 20
58.6270289989
 10
235.9647654492
 20
56.986316185
 10
235.5916927188
 20
55.1285119692
 10
235.5707707605
 20
54.9566691887
  0
LWPOLYLINE
  5
2F0
330
287
100
AcDbEntity
  8
0
  6
Continuous
 62
     7
370
    25
100
AcDbPolyline
 90
       25
 70
   128
 43
0.0
 10
261.9363488436
 20
30.9184385608
 10
262.8588244477
 20
31.5661733533
 10
263.9162702273
 20
32.685626577
 10
264.759881174
 20
34.0786846136
 10
265.3739424121
 20
35.7193974274
 10
265.7470151425
 20
37.5772016433
 10
265.8721497261
 20
39.6174898837
 10
265.7470151425
 20
41.8022554391
 10
265.3739424121
 20
44.0908002609
 10
264.759881174
 20
46.4404930892
 10
263.9162702273
 20
48.8075635924
 10
262.8588244477
 20
51.1479177257
 10
261.6072420493
 20
53.4179591196
 10
260.1848376441
 20
55.5754011982
 10
258.618107935
 20
57.5800548975
 10
256.9362381319
 20
59.3945773121
 10
255.1705582871
 20
60.9851673225
 10
253.3539596754
 20
62.3221952465
 10
251.5202820918
 20
63.3807547835
 10
249.70368348
 20
64.1411269722
 10
247.9380036353
 20
64.5891475174
 10
246.2561338322
 20
64.7164706442
 10
244.6894041231
 20
64.5207245634
 10
243.2669997179
 20
64.0055556542
 10
242.9378929236
 20
63.8282953313
  0
LWPOLYLINE
  5
2F1
330
287
100
AcDbEntity
  8
0
  6
Continuous
 62
     7
370
    25
100
AcDbPolyline
 90
       19
 70
   128
 43
0.0
 10
-167.6769856044
 20
661.5366371415
 10
-166.997502361
 20
661.8455215871
 10
-165.7808239549
 20
662.0705641801
 10
-164.4402950323
 20
661.9583374039
 10
-163.0190012957
 20
661.5124483195
 10
-161.5626242953
 20
660.7472281691
 10
-160.1179731861
 20
659.6872717577
 10
-158.7314802435
 20
658.3666469566
 10
-157.4477084915
 20
656.8277997336
 10
-156.3079194105
 20
655.1201899046
 10
-155.3487467593
 20
653.2987014544
 10
-154.6010191362
 20
651.4218785206
 10
-154.0887691222
 20
649.5500437366
 10
-153.8284608542
 20
647.7433594124
 10
-153.8284608542
 20
646.0598938688
 10
-154.0887691222
 20
644.5537550736
 10
-154.6010191362
 20
643.2733515667
 10
-155.3487467593
 20
642.2598365706
 10
-156.1779201791
 20
641.6175133068
  0
LWPOLYLINE
  5
2F4
330
287
100
AcDbEntity
  8
0
  6
Continuous
 62
     7
370
    25
100
AcDbPolyline
 90
       11
 70
   128
 43
0.0
 10
-160.9936515483
 20
638.8374507626
 10
-159.9080502262
 20
638.3872252499
 10
-158.3422424885
 20
637.98018843
 10
-156.8604690441
 20
637.8918511124
 10
-155.4974614064
 20
638.1242838489
 10
-154.2851673193
 20
638.6720386132
 10
-153.2520019288
 20
639.5222764978
 10
-152.4221817558
 20
640.6550686474
 10
-151.815157082
 20
642.0438633741
 10
-151.4451560512
 20
643.6561085066
 10
-151.3208511739
 20
645.4540143855
  0
LWPOLYLINE
  5
2F6
330
287
100
AcDbEntity
  8
0
  6
Continuous
 62
     7
370
    25
100
AcDbPolyline
 90
       12
 70
   128
 43
0.0
 10
-151.067099964
 20
640.5265846018
 10
-150.0016273327
 20
640.1159679248
 10
-148.235947488
 20
639.6679473796
 10
-146.5540776849
 20
639.5406242529
 10
-144.9873479758
 20
639.7363703336
 10
-143.5649435706
 20
640.2515392428
 10
-142.3133611722
 20
641.0765343582
 10
-141.2559153926
 20
642.195987582
 10
-140.4123044459
 20
643.5890456185
 10
-139.7982432078
 20
645.2297584324
 10
-139.4251704774
 20
647.0875626483
 10
-139.318985806
 20
648.3150742558
  0
LWPOLYLINE
  5
2F9
330
287
100
AcDbEntity
  8
0
  6
Continuous
 62
     7
370
    25
100
AcDbPolyline
 90
        7
 70
   128
 43
0.0
 10
-156.1779201791
 20
261.9260357799
 10
-155.3487467593
 20
262.5683590437
 10
-154.6010191362
 20
263.5818740399
 10
-154.0887691222
 20
264.8622775467
 10
-153.8284608542
 20
266.368416342
 10
-153.8284608542
 20
268.0518818856
 10
-153.9182868284
 20
268.8861856954
  0
LWPOLYLINE
  5
2FA
330
287
100
AcDbEntity
  8
0
  6
Continuous
 62
     7
370
    25
100
AcDbPolyline
 90
       11
 70
   128
 43
0.0
 10
-151.3208511739
 20
265.7625368586
 10
-151.4451560512
 20
263.9646309797
 10
-151.815157082
 20
262.3523858473
 10
-152.4221817558
 20
260.9635911206
 10
-153.2520019288
 20
259.8307989709
 10
-154.2851673193
 20
258.9805610863
 10
-155.4974614064
 20
258.432806322
 10
-156.8604690441
 20
258.2003735855
 10
-158.3422424885
 20
258.2887109031
 10
-159.9080502262
 20
258.695747723
 10
-160.9936515483
 20
259.1459732357
  0
LWPOLYLINE
  5
2FD
330
287
100
AcDbEntity
  8
0
  6
Continuous
 62
     7
370
    25
100
AcDbPolyline
 90
        9
 70
   128
 43
0.0
 10
-157.9884406722
 20
290.8652129344
 10
-157.073892846
 20
290.8734492344
 10
-155.5456179927
 20
290.6250332638
 10
-153.9514661531
 20
290.0617642485
 10
-152.3288028953
 20
289.1968447369
 10
-150.7156620708
 20
288.0505477092
 10
-149.1498543331
 20
286.6497413963
 10
-147.6680808886
 20
285.0272595107
 10
-147.4816888004
 20
284.7997941849
  0
LWPOLYLINE
  5
2FE
330
287
100
AcDbEntity
  8
0
  6
Continuous
 62
     7
370
    25
100
AcDbPolyline
 90
        8
 70
   128
 43
0.0
 10
-141.7850282697
 20
261.8818046219
 10
-142.3133611722
 20
261.3850568314
 10
-143.5649435706
 20
260.5600617159
 10
-144.9873479758
 20
260.0448928068
 10
-146.5540776849
 20
259.849146726
 10
-148.235947488
 20
259.9764698527
 10
-150.0016273327
 20
260.4244903979
 10
-151.067099964
 20
260.8351070749
  0
LWPOLYLINE
  5
2FF
330
287
100
AcDbEntity
  8
0
  6
Continuous
 62
     7
370
    25
100
AcDbPolyline
 90
       14
 70
   128
 43
0.0
 10
-162.5124855989
 20
293.4768884795
 10
-161.905185902
 20
293.8244391323
 10
-160.4827814968
 20
294.3396080415
 10
-158.9160517877
 20
294.5353541222
 10
-157.2341819846
 20
294.4080309955
 10
-155.4685021398
 20
293.9600104503
 10
-153.6519035281
 20
293.1996382616
 10
-151.8182259445
 20
292.1410787246
 10
-150.0016273327
 20
290.8040508006
 10
-148.235947488
 20
289.2134607902
 10
-146.5540776849
 20
287.3989383756
 10
-144.9873479758
 20
285.3942846763
 10
-143.5649435706
 20
283.2368425977
 10
-142.9576438737
 20
282.1881186398
  0
LWPOLYLINE
  5
300
330
287
100
AcDbEntity
  8
0
  6
Continuous
 62
     7
370
    25
100
AcDbPolyline
 90
       16
 70
   128
 43
0.0
 10
-158.6987587904
 20
295.6881990889
 10
-158.3696519961
 20
295.8654594119
 10
-156.9472475909
 20
296.380628321
 10
-155.3805178817
 20
296.5763744018
 10
-153.6986480787
 20
296.4490512751
 10
-151.9329682339
 20
296.0010307298
 10
-150.1163696222
 20
295.2406585411
 10
-148.2826920385
 20
294.1820990042
 10
-146.4660934268
 20
292.8450710802
 10
-144.7004135821
 20
291.2544810697
 10
-143.018543779
 20
289.4399586552
 10
-141.4518140698
 20
287.4353049559
 10
-140.0294096646
 20
285.2778628773
 10
-138.7778272663
 20
283.0078214833
 10
-137.7203814866
 20
280.66746735
 10
-137.0239043387
 20
278.7626437195
  0
LINE
  5
301
330
287
100
AcDbEntity
  8
0
  6
Continuous
 62
     7
370
    25
100
AcDbLine
 10
216.818325857
 20
-115.9299518788
 30
0.0
 11
216.818325857
 21
530.7703711347
 31
0.0
  0
LINE
  5
302
330
287
100
AcDbEntity
  8
0
  6
Continuous
 62
     7
370
    25
100
AcDbLine
 10
184.818325857
 20
530.7703711347
 30
0.0
 11
184.818325857
 21
-115.9299518788
 31
0.0
  0
LINE
  5
303
330
287
100
AcDbEntity
  8
0
  6
Continuous
 62
     7
370
    25
100
AcDbLine
 10
216.818325857
 20
512.9747868024
 30
0.0
 11
222.245690634
 21
516.1079377972
 31
0.0
  0
LINE
  5
304
330
287
100
AcDbEntity
  8
0
  6
Continuous
 62
     7
370
    25
100
AcDbLine
 10
184.818325857
 20
525.7337092968
 30
0.0
 11
-186.0860248889
 21
739.8522333414
 31
0.0
  0
LINE
  5
305
330
287
100
AcDbEntity
  8
0
  6
Continuous
 62
     7
370
    25
100
AcDbLine
 10
-194.5896098668
 20
725.1318710192
 30
0.0
 11
184.818325857
 21
506.1043318581
 31
0.0
  0
LINE
  5
306
330
287
100
AcDbEntity
  8
0
  6
Continuous
 62
     7
370
    25
100
AcDbLine
 10
223.6599041964
 20
516.924345909
 30
0.0
 11
226.4883313211
 21
518.5571621327
 31
0.0
  0
LINE
  5
307
330
287
100
AcDbEntity
  8
0
  6
Continuous
 62
     7
370
    25
100
AcDbLine
 10
218.9889408264
 20
531.5478950684
 30
0.0
 11
216.818325857
 21
530.2948257189
 31
0.0
  0
LINE
  5
308
330
287
100
AcDbEntity
  8
0
  6
Continuous
 62
     7
370
    25
100
AcDbLine
 10
184.818325857
 20
480.823964643
 30
0.0
 11
-186.0860248889
 21
694.9424886877
 31
0.0
  0
LINE
  5
309
330
287
100
AcDbEntity
  8
0
  6
Continuous
 62
     7
370
    25
100
AcDbLine
 10
-194.5896098668
 20
680.2221263654
 30
0.0
 11
184.818325857
 21
461.1945872044
 31
0.0
  0
LINE
  5
30A
330
287
100
AcDbEntity
  8
0
  6
Continuous
 62
     7
370
    25
100
AcDbLine
 10
184.818325857
 20
435.9142199893
 30
0.0
 11
-186.0860248889
 21
650.032744034
 31
0.0
  0
LINE
  5
30B
330
287
100
AcDbEntity
  8
0
  6
Continuous
 62
     7
370
    25
100
AcDbLine
 10
-194.5896098668
 20
635.3123817117
 30
0.0
 11
184.818325857
 21
416.2848425507
 31
0.0
  0
LINE
  5
30C
330
287
100
AcDbEntity
  8
0
  6
Continuous
 62
     7
370
    25
100
AcDbLine
 10
216.818325857
 20
393.2238552821
 30
0.0
 11
245.4587315349
 21
409.7576095491
 31
0.0
  0
LINE
  5
30D
330
287
100
AcDbEntity
  8
0
  6
Continuous
 62
     7
370
    25
100
AcDbLine
 10
233.9596661096
 20
429.6767333839
 30
0.0
 11
216.818325857
 21
419.7812482874
 31
0.0
  0
LINE
  5
30E
330
287
100
AcDbEntity
  8
0
  6
Continuous
 62
     7
370
    25
100
AcDbLine
 10
247.208589317
 20
406.7264385308
 30
0.0
 11
256.4009774724
 21
412.0330912576
 31
0.0
  0
LINE
  5
30F
330
287
100
AcDbEntity
  8
0
  6
Continuous
 62
     7
370
    25
100
AcDbLine
 10
241.4021964829
 20
438.0145571291
 30
0.0
 11
232.2098083275
 21
432.7079044022
 31
0.0
  0
LINE
  5
310
330
287
100
AcDbEntity
  8
0
  6
Continuous
 62
     7
370
    25
100
AcDbLine
 10
258.4008149377
 20
408.5688958081
 30
0.0
 11
261.9363488436
 21
410.6099160877
 31
0.0
  0
LINE
  5
311
330
287
100
AcDbEntity
  8
0
  6
Continuous
 62
     7
370
    25
100
AcDbLine
 10
242.9378929236
 20
443.5197728581
 30
0.0
 11
239.4023590176
 21
441.4787525786
 31
0.0
  0
LINE
  5
312
330
287
100
AcDbEntity
  8
0
  6
Continuous
 62
     7
370
    25
100
AcDbLine
 10
184.818325857
 20
354.2601388008
 30
0.0
 11
-186.0860248889
 21
568.3786628454
 31
0.0
  0
LINE
  5
313
330
287
100
AcDbEntity
  8
0
  6
Continuous
 62
     7
370
    25
100
AcDbLine
 10
-194.5896098668
 20
553.6583005232
 30
0.0
 11
184.818325857
 21
334.6307613621
 31
0.0
  0
LINE
  5
314
330
287
100
AcDbEntity
  8
0
  6
Continuous
 62
     7
370
    25
100
AcDbLine
 10
184.818325857
 20
309.350394147
 30
0.0
 11
-186.0860248889
 21
523.4689181917
 31
0.0
  0
LINE
  5
315
330
287
100
AcDbEntity
  8
0
  6
Continuous
 62
     7
370
    25
100
AcDbLine
 10
-194.5896098668
 20
508.7485558694
 30
0.0
 11
184.818325857
 21
289.7210167084
 31
0.0
  0
LINE
  5
316
330
287
100
AcDbEntity
  8
0
  6
Continuous
 62
     7
370
    25
100
AcDbLine
 10
184.818325857
 20
264.4406494933
 30
0.0
 11
-186.0860248889
 21
478.559173538
 31
0.0
  0
LINE
  5
317
330
287
100
AcDbEntity
  8
0
  6
Continuous
 62
     7
370
    25
100
AcDbLine
 10
-194.5896098668
 20
463.8388112157
 30
0.0
 11
184.818325857
 21
244.8112720547
 31
0.0
  0
LINE
  5
318
330
287
100
AcDbEntity
  8
0
  6
Continuous
 62
     7
370
    25
100
AcDbLine
 10
184.818325857
 20
182.7865683047
 30
0.0
 11
-186.0860248889
 21
396.9050923494
 31
0.0
  0
LINE
  5
319
330
287
100
AcDbEntity
  8
0
  6
Continuous
 62
     7
370
    25
100
AcDbLine
 10
-194.5896098668
 20
382.1847300271
 30
0.0
 11
184.818325857
 21
163.1571908661
 31
0.0
  0
LINE
  5
31A
330
287
100
AcDbEntity
  8
0
  6
Continuous
 62
     7
370
    25
100
AcDbLine
 10
184.818325857
 20
137.876823651
 30
0.0
 11
-186.0860248889
 21
351.9953476957
 31
0.0
  0
LINE
  5
31B
330
287
100
AcDbEntity
  8
0
  6
Continuous
 62
     7
370
    25
100
AcDbLine
 10
-194.5896098668
 20
337.2749853734
 30
0.0
 11
184.818325857
 21
118.2474462124
 31
0.0
  0
LINE
  5
31C
330
287
100
AcDbEntity
  8
0
  6
Continuous
 62
     7
370
    25
100
AcDbLine
 10
-184.818325857
 20
649.3009169602
 30
0.0
 11
-184.818325857
 21
674.5812841753
 31
0.0
  0
LINE
  5
31D
330
287
100
AcDbEntity
  8
0
  6
Continuous
 62
     7
370
    25
100
AcDbLine
 10
-184.818325857
 20
694.210661614
 30
0.0
 11
-184.818325857
 21
719.491028829
 31
0.0
  0
LINE
  5
31E
330
287
100
AcDbEntity
  8
0
  6
Continuous
 62
     7
370
    25
100
AcDbLine
 10
-184.818325857
 20
739.1204062677
 30
0.0
 11
-184.818325857
 21
762.6302748923
 31
0.0
  0
LINE
  5
31F
330
287
100
AcDbEntity
  8
0
  6
Continuous
 62
     7
370
    25
100
AcDbLine
 10
-184.818325857
 20
224.6996947797
 30
0.0
 11
-184.818325857
 21
286.7243985296
 31
0.0
  0
LINE
  5
320
330
287
100
AcDbEntity
  8
0
  6
Continuous
 62
     7
370
    25
100
AcDbLine
 10
-184.818325857
 20
306.3537759682
 30
0.0
 11
-184.818325857
 21
331.6341431833
 31
0.0
  0
LINE
  5
321
330
287
100
AcDbEntity
  8
0
  6
Continuous
 62
     7
370
    25
100
AcDbLine
 10
-184.818325857
 20
351.2635206219
 30
0.0
 11
-184.818325857
 21
376.543887837
 31
0.0
  0
LINE
  5
322
330
287
100
AcDbEntity
  8
0
  6
Continuous
 62
     7
370
    25
100
AcDbLine
 10
-184.818325857
 20
396.1732652757
 30
0.0
 11
-184.818325857
 21
458.1979690256
 31
0.0
  0
LINE
  5
323
330
287
100
AcDbEntity
  8
0
  6
Continuous
 62
     7
370
    25
100
AcDbLine
 10
-184.818325857
 20
477.8273464642
 30
0.0
 11
-184.818325857
 21
503.1077136793
 31
0.0
  0
LINE
  5
324
330
287
100
AcDbEntity
  8
0
  6
Continuous
 62
     7
370
    25
100
AcDbLine
 10
-184.818325857
 20
522.737091118
 30
0.0
 11
-184.818325857
 21
548.017458333
 31
0.0
  0
LINE
  5
325
330
287
100
AcDbEntity
  8
0
  6
Continuous
 62
     7
370
    25
100
AcDbLine
 10
-184.818325857
 20
567.6468357717
 30
0.0
 11
-184.818325857
 21
629.6715395216
 31
0.0
  0
LINE
  5
326
330
287
100
AcDbEntity
  8
0
  6
Continuous
 62
     7
370
    25
100
AcDbLine
 10
-184.818325857
 20
134.8802054722
 30
0.0
 11
-184.818325857
 21
160.1605726873
 31
0.0
  0
LINE
  5
327
330
287
100
AcDbEntity
  8
0
  6
Continuous
 62
     7
370
    25
100
AcDbLine
 10
-184.818325857
 20
179.7899501259
 30
0.0
 11
-184.818325857
 21
205.070317341
 31
0.0
  0
LINE
  5
328
330
287
100
AcDbEntity
  8
0
  6
Continuous
 62
     7
370
    25
100
AcDbLine
 10
-216.818325857
 20
762.6302748923
 30
0.0
 11
-216.818325857
 21
115.9299518788
 31
0.0
  0
LINE
  5
329
330
287
100
AcDbEntity
  8
0
  6
Continuous
 62
     7
370
    25
100
AcDbLine
 10
184.818325857
 20
92.9670789973
 30
0.0
 11
-186.0860248889
 21
307.085603042
 31
0.0
  0
LINE
  5
32A
330
287
100
AcDbEntity
  8
0
  6
Continuous
 62
     7
370
    25
100
AcDbLine
 10
-194.5896098668
 20
292.3652407197
 30
0.0
 11
184.818325857
 21
73.3377015586
 31
0.0
  0
LINE
  5
32B
330
287
100
AcDbEntity
  8
0
  6
Continuous
 62
     7
370
    25
100
AcDbLine
 10
216.818325857
 20
13.5323777552
 30
0.0
 11
245.4587315349
 21
30.0661320222
 31
0.0
  0
LINE
  5
32C
330
287
100
AcDbEntity
  8
0
  6
Continuous
 62
     7
370
    25
100
AcDbLine
 10
233.9596661096
 20
49.985255857
 30
0.0
 11
216.818325857
 21
40.0897707605
 31
0.0
  0
LINE
  5
32D
330
287
100
AcDbEntity
  8
0
  6
Continuous
 62
     7
370
    25
100
AcDbLine
 10
247.208589317
 20
27.0349610039
 30
0.0
 11
256.4009774724
 21
32.3416137308
 31
0.0
  0
LINE
  5
32E
330
287
100
AcDbEntity
  8
0
  6
Continuous
 62
     7
370
    25
100
AcDbLine
 10
241.4021964829
 20
58.3230796022
 30
0.0
 11
232.2098083275
 21
53.0164268753
 31
0.0
  0
LINE
  5
32F
330
287
100
AcDbEntity
  8
0
  6
Continuous
 62
     7
370
    25
100
AcDbLine
 10
184.818325857
 20
11.3129978087
 30
0.0
 11
-186.0860248889
 21
225.4315218534
 31
0.0
  0
LINE
  5
330
330
287
100
AcDbEntity
  8
0
  6
Continuous
 62
     7
370
    25
100
AcDbLine
 10
-194.5896098668
 20
210.7111595311
 30
0.0
 11
184.818325857
 21
-8.3163796299
 31
0.0
  0
LINE
  5
331
330
287
100
AcDbEntity
  8
0
  6
Continuous
 62
     7
370
    25
100
AcDbLine
 10
258.4008149377
 20
28.8774182812
 30
0.0
 11
261.9363488436
 21
30.9184385608
 31
0.0
  0
LINE
  5
332
330
287
100
AcDbEntity
  8
0
  6
Continuous
 62
     7
370
    25
100
AcDbLine
 10
242.9378929236
 20
63.8282953313
 30
0.0
 11
239.4023590176
 21
61.7872750517
 31
0.0
  0
LINE
  5
333
330
287
100
AcDbEntity
  8
0
  6
Continuous
 62
     7
370
    25
100
AcDbLine
 10
184.818325857
 20
-33.596746845
 30
0.0
 11
-186.0860248889
 21
180.5217771997
 31
0.0
  0
LINE
  5
334
330
287
100
AcDbEntity
  8
0
  6
Continuous
 62
     7
370
    25
100
AcDbLine
 10
-194.5896098668
 20
165.8014148774
 30
0.0
 11
184.818325857
 21
-53.2261242836
 31
0.0
  0
LINE
  5
335
330
287
100
AcDbEntity
  8
0
  6
Continuous
 62
     7
370
    25
100
AcDbLine
 10
-184.818325857
 20
625.0837590398
 30
0.0
 11
-180.8447608687
 21
627.3776492807
 31
0.0
  0
LINE
  5
336
330
287
100
AcDbEntity
  8
0
  6
Continuous
 62
     7
370
    25
100
AcDbLine
 10
-163.8433792112
 20
637.192338
 30
0.0
 11
-156.1779201791
 21
641.6175133068
 31
0.0
  0
LINE
  5
337
330
287
100
AcDbEntity
  8
0
  6
Continuous
 62
     7
370
    25
100
AcDbLine
 10
-167.6769856044
 20
661.5366371415
 30
0.0
 11
-184.818325857
 21
651.641152045
 31
0.0
  0
LINE
  5
338
330
287
100
AcDbEntity
  8
0
  6
Continuous
 62
     7
370
    25
100
AcDbLine
 10
-154.4280623969
 20
638.5863422884
 30
0.0
 11
-145.2356742415
 21
643.8929950153
 31
0.0
  0
LINE
  5
339
330
287
100
AcDbEntity
  8
0
  6
Continuous
 62
     7
370
    25
100
AcDbLine
 10
-168.4497202893
 20
665.1318893171
 30
0.0
 11
-169.4268433865
 21
664.5678081599
 31
0.0
  0
LINE
  5
33A
330
287
100
AcDbEntity
  8
0
  6
Continuous
 62
     7
370
    25
100
AcDbLine
 10
-143.2358367763
 20
640.4287995658
 30
0.0
 11
-139.7003028703
 21
642.4698198453
 31
0.0
  0
LINE
  5
33B
330
287
100
AcDbEntity
  8
0
  6
Continuous
 62
     7
370
    25
100
AcDbLine
 10
184.818325857
 20
-78.5064914987
 30
0.0
 11
-186.0860248889
 21
135.6120325459
 31
0.0
  0
LINE
  5
33C
330
287
100
AcDbEntity
  8
0
  6
Continuous
 62
     7
370
    25
100
AcDbLine
 10
-194.5896098668
 20
120.8916702237
 30
0.0
 11
184.818325857
 21
-98.1358689374
 31
0.0
  0
LINE
  5
33D
330
287
100
AcDbEntity
  8
0
  6
Continuous
 62
     7
370
    25
100
AcDbLine
 10
-184.818325857
 20
245.3922815129
 30
0.0
 11
-156.1779201791
 21
261.9260357799
 31
0.0
  0
LINE
  5
33E
330
287
100
AcDbEntity
  8
0
  6
Continuous
 62
     7
370
    25
100
AcDbLine
 10
-172.021652983
 20
279.3370365239
 30
0.0
 11
-184.818325857
 21
271.9496745181
 31
0.0
  0
LINE
  5
33F
330
287
100
AcDbEntity
  8
0
  6
Continuous
 62
     7
370
    25
100
AcDbLine
 10
-154.4280623969
 20
258.8948647616
 30
0.0
 11
-145.5194992229
 21
264.0376688143
 31
0.0
  0
LINE
  5
340
330
287
100
AcDbEntity
  8
0
  6
Continuous
 62
     7
370
    25
100
AcDbLine
 10
-143.2358367763
 20
260.7373220389
 30
0.0
 11
-141.519174127
 21
261.7283302921
 31
0.0
  0
LINE
  5
341
330
287
100
AcDbEntity
  8
0
  6
Continuous
 62
     7
370
    25
100
AcDbLine
 10
-158.6987587904
 20
295.6881990889
 30
0.0
 11
-162.2342926963
 21
293.6471788094
 31
0.0
  0
LINE
  5
342
330
287
100
AcDbEntity
  8
0
  6
Continuous
 62
     7
370
    25
100
AcDbLine
 10
-172.4927169736
 20
279.0650970705
 30
0.0
 11
-172.440384977
 21
279.5787653586
 31
0.0
  0
LINE
  5
343
330
287
100
AcDbEntity
  8
0
  6
Continuous
 62
     7
370
    25
100
AcDbLine
 10
-151.4145208064
 20
267.440792337
 30
0.0
 11
-151.3208511739
 21
265.7625368586
 31
0.0
  0
ARC
  5
344
330
287
100
AcDbEntity
  8
0
  6
Continuous
 62
     7
370
    25
100
AcDbCircle
 10
220.1111412414
 20
519.1420687136
 30
0.0
 40
3.709750871357837
100
AcDbArc
 50
305.1268701304
 51
6.185310263
  0
ARC
  5
345
330
287
100
AcDbEntity
  8
0
  6
Continuous
 62
     7
370
    25
100
AcDbCircle
 10
242.1183905204
 20
414.4404223841
 30
0.0
 40
5.752096499582816
100
AcDbArc
 50
305.5009980996
 51
5.8111822938
  0
ARC
  5
346
330
287
100
AcDbEntity
  8
0
  6
Continuous
 62
     7
370
    25
100
AcDbCircle
 10
242.2765382056
 20
34.6773924803
 30
0.0
 40
5.602684838302356
100
AcDbArc
 50
304.6092411968
 51
6.7029391965
  0
ARC
  5
347
330
287
100
AcDbEntity
  8
0
  6
Continuous
 62
     7
370
    25
100
AcDbCircle
 10
-174.3248742321
 20
644.3436136946
 30
0.0
 40
23.0308069019518
100
AcDbArc
 50
2.7635135774
 51
35.4060318212
  0
ARC
  5
348
330
287
100
AcDbEntity
  8
0
  6
Continuous
 62
     7
370
    25
100
AcDbCircle
 10
-165.9784302797
 20
658.9571978688
 30
0.0
 40
6.517375302016608
100
AcDbArc
 50
110.8835524376
 51
181.7640050415
  0
ARC
  5
349
330
287
100
AcDbEntity
  8
0
  6
Continuous
 62
     7
370
    25
100
AcDbCircle
 10
-149.2773715275
 20
649.7635883052
 30
0.0
 40
7.12735452518651
100
AcDbArc
 50
304.5460459797
 51
1.5052505137
  0
ARC
  5
34A
330
287
100
AcDbEntity
  8
0
  6
Continuous
 62
     7
370
    25
100
AcDbCircle
 10
-157.5960396332
 20
659.1036131184
 30
0.0
 40
17.49157317496813
100
AcDbArc
 50
43.771429948
 51
76.2339465847
  0
ARC
  5
34B
330
287
100
AcDbEntity
  8
0
  6
Continuous
 62
     7
370
    25
100
AcDbCircle
 10
-143.6629006716
 20
648.892086144
 30
0.0
 40
7.546369043899082
100
AcDbArc
 50
301.674970241
 51
342.8040407735
  0
VIEWPORT
  5
352
330
287
100
AcDbEntity
  8
0
100
AcDbViewport
 10
0.0
 20
0.0
 30
0.0
 40
205.6
 41
156.0
 68
     1
 69
     1
 12
0.0
 22
28.5
 13
0.0
 23
0.0
 14
10.0
 24
10.0
 15
10.0
 25
10.0
 16
0.0
 26
0.0
 36
1.0
 17
0.0
 27
0.0
 37
0.0
 42
50.0
 43
0.0
 44
0.0
 45
469.0015564202
 50
0.0
 51
0.0
 72
   100
 90
   557152
  1

281
     0
 71
     1
 74
     0
110
0.0
120
0.0
130
0.0
111
1.0
121
0.0
131
0.0
112
0.0
122
1.0
132
0.0
 79
     0
146
0.0
  0
ENDBLK
  5
28A
330
287
100
AcDbEntity
  8
0
100
AcDbBlockEnd
  0
ENDSEC
  0
SECTION
  2
ENTITIES
  0
CIRCLE
  5
89
330
1F
100
AcDbEntity
  8
0
  6
Continuous
 62
     7
370
    25
100
AcDbCircle
 10
-284.0
 20
0.0
 30
0.0
 40
15.99999999999982
  0
CIRCLE
  5
8A
330
1F
100
AcDbEntity
  8
0
  6
Continuous
 62
     7
370
    25
100
AcDbCircle
 10
284.0
 20
0.0
 30
0.0
 40
15.99999999999982
  0
LINE
  5
94
330
1F
100
AcDbEntity
  8
0
  6
Continuous
 62
     7
370
    25
100
AcDbLine
 10
291.5
 20
27.0
 30
0.0
 11
291.5
 21
31.0
 31
0.0
  0
LINE
  5
95
330
1F
100
AcDbEntity
  8
0
  6
Continuous
 62
     7
370
    25
100
AcDbLine
 10
276.5
 20
31.0
 30
0.0
 11
276.5
 21
27.0
 31
0.0
  0
LINE
  5
96
330
1F
100
AcDbEntity
  8
0
  6
Continuous
 62
     7
370
    25
100
AcDbLine
 10
291.5
 20
14.1846370979
 30
0.0
 11
291.5
 21
25.0
 31
0.0
  0
LINE
  5
97
330
1F
100
AcDbEntity
  8
0
  6
Continuous
 62
     7
370
    25
100
AcDbLine
 10
276.5
 20
25.0
 30
0.0
 11
276.5
 21
14.1694446153
 31
0.0
  0
LINE
  5
98
330
1F
100
AcDbEntity
  8
0
  6
Continuous
 62
     7
370
    25
100
AcDbLine
 10
290.0
 20
25.0
 30
0.0
 11
290.0
 21
27.0
 31
0.0
  0
LINE
  5
99
330
1F
100
AcDbEntity
  8
0
  6
Continuous
 62
     7
370
    25
100
AcDbLine
 10
278.0
 20
27.0
 30
0.0
 11
278.0
 21
25.0
 31
0.0
  0
LINE
  5
9A
330
1F
100
AcDbEntity
  8
0
  6
Continuous
 62
     7
370
    25
100
AcDbLine
 10
270.3860155858
 20
8.5
 30
0.0
 11
-270.4445582883
 21
8.5
 31
0.0
  0
LINE
  5
9B
330
1F
100
AcDbEntity
  8
0
  6
Continuous
 62
     7
370
    25
100
AcDbLine
 10
-270.3860155858
 20
-8.5
 30
0.0
 11
270.4445582883
 21
-8.5
 31
0.0
  0
LINE
  5
9C
330
1F
100
AcDbEntity
  8
0
  6
Continuous
 62
     7
370
    25
100
AcDbLine
 10
303.0
 20
68.0
 30
0.0
 11
303.0
 21
73.0
 31
0.0
  0
LINE
  5
9D
330
1F
100
AcDbEntity
  8
0
  6
Continuous
 62
     7
370
    25
100
AcDbLine
 10
265.0
 20
73.0
 30
0.0
 11
265.0
 21
68.0
 31
0.0
  0
LINE
  5
9E
330
1F
100
AcDbEntity
  8
0
  6
Continuous
 62
     7
370
    25
100
AcDbLine
 10
-265.0
 20
68.0
 30
0.0
 11
-265.0
 21
73.0
 31
0.0
  0
LINE
  5
9F
330
1F
100
AcDbEntity
  8
0
  6
Continuous
 62
     7
370
    25
100
AcDbLine
 10
-303.0
 20
73.0
 30
0.0
 11
-303.0
 21
68.0
 31
0.0
  0
LINE
  5
A0
330
1F
100
AcDbEntity
  8
0
  6
Continuous
 62
     7
370
    25
100
AcDbLine
 10
-269.0
 20
55.0
 30
0.0
 11
-269.0
 21
68.0
 31
0.0
  0
LINE
  5
A1
330
1F
100
AcDbEntity
  8
0
  6
Continuous
 62
     7
370
    25
100
AcDbLine
 10
-299.0
 20
68.0
 30
0.0
 11
-299.0
 21
55.0
 31
0.0
  0
LINE
  5
A2
330
1F
100
AcDbEntity
  8
0
  6
Continuous
 62
     7
370
    25
100
AcDbLine
 10
299.0
 20
55.0
 30
0.0
 11
299.0
 21
68.0
 31
0.0
  0
LINE
  5
A3
330
1F
100
AcDbEntity
  8
0
  6
Continuous
 62
     7
370
    25
100
AcDbLine
 10
269.0
 20
68.0
 30
0.0
 11
269.0
 21
55.0
 31
0.0
  0
LINE
  5
A4
330
1F
100
AcDbEntity
  8
0
  6
Continuous
 62
     7
370
    25
100
AcDbLine
 10
295.5
 20
11.148085301
 30
0.0
 11
295.5
 21
55.0
 31
0.0
  0
LINE
  5
A5
330
1F
100
AcDbEntity
  8
0
  6
Continuous
 62
     7
370
    25
100
AcDbLine
 10
272.5
 20
55.0
 30
0.0
 11
272.5
 21
11.148085301
 31
0.0
  0
LINE
  5
A6
330
1F
100
AcDbEntity
  8
0
  6
Continuous
 62
     7
370
    25
100
AcDbLine
 10
-272.5
 20
11.148085301
 30
0.0
 11
-272.5
 21
55.0
 31
0.0
  0
LINE
  5
A7
330
1F
100
AcDbEntity
  8
0
  6
Continuous
 62
     7
370
    25
100
AcDbLine
 10
-295.5
 20
55.0
 30
0.0
 11
-295.5
 21
11.148085301
 31
0.0
  0
LINE
  5
A8
330
1F
100
AcDbEntity
  8
0
  6
Continuous
 62
     7
370
    25
100
AcDbLine
 10
276.5
 20
31.0
 30
0.0
 11
291.5
 21
31.0
 31
0.0
  0
LINE
  5
A9
330
1F
100
AcDbEntity
  8
0
  6
Continuous
 62
     7
370
    25
100
AcDbLine
 10
276.5
 20
27.0
 30
0.0
 11
291.5
 21
27.0
 31
0.0
  0
LINE
  5
AA
330
1F
100
AcDbEntity
  8
0
  6
Continuous
 62
     7
370
    25
100
AcDbLine
 10
291.5
 20
25.0
 30
0.0
 11
276.5
 21
25.0
 31
0.0
  0
LINE
  5
AB
330
1F
100
AcDbEntity
  8
0
  6
Continuous
 62
     7
370
    25
100
AcDbLine
 10
265.0
 20
73.0
 30
0.0
 11
303.0
 21
73.0
 31
0.0
  0
LINE
  5
AC
330
1F
100
AcDbEntity
  8
0
  6
Continuous
 62
     7
370
    25
100
AcDbLine
 10
265.0
 20
68.0
 30
0.0
 11
303.0
 21
68.0
 31
0.0
  0
LINE
  5
AD
330
1F
100
AcDbEntity
  8
0
  6
Continuous
 62
     7
370
    25
100
AcDbLine
 10
-265.0
 20
68.0
 30
0.0
 11
-303.0
 21
68.0
 31
0.0
  0
LINE
  5
AE
330
1F
100
AcDbEntity
  8
0
  6
Continuous
 62
     7
370
    25
100
AcDbLine
 10
-265.0
 20
73.0
 30
0.0
 11
-303.0
 21
73.0
 31
0.0
  0
LINE
  5
AF
330
1F
100
AcDbEntity
  8
0
  6
Continuous
 62
     7
370
    25
100
AcDbLine
 10
-269.0
 20
55.0
 30
0.0
 11
-299.0
 21
55.0
 31
0.0
  0
LINE
  5
B0
330
1F
100
AcDbEntity
  8
0
  6
Continuous
 62
     7
370
    25
100
AcDbLine
 10
269.0
 20
55.0
 30
0.0
 11
299.0
 21
55.0
 31
0.0
  0
SPLINE
  5
E7
330
1B
100
AcDbEntity
 67
     1
  8
0
  6
Continuous
 62
     7
370
    25
100
AcDbSpline
210
0.0
220
0.0
230
1.0
 70
     8
 71
     3
 72
    12
 73
     8
 74
     0
 42
0.000000001
 43
0.00000001
 40
0.0
 40
0.0
 40
0.0
 40
0.0
 40
0.1933865970591817
 40
0.3860325423043049
 40
0.5968023489277898
 40
0.8238393923515073
 40
1.0
 40
1.0
 40
1.0
 40
1.0
 10
270.4445582882741
 20
132.5
 30
0.0
 10
270.392779038506
 20
131.6228223784656
 30
0.0
 10
270.2894188484486
 20
129.8718266401738
 30
0.0
 10
269.5890911685532
 20
127.4907764002365
 30
0.0
 10
268.7824332054268
 20
125.5216411265193
 30
0.0
 10
268.1077873297125
 20
124.2006374812069
 30
0.0
 10
268.0556035690287
 20
124.1045091335966
 30
0.0
 10
268.0328040240238
 20
124.0625098112239
 30
0.0
  0
SPLINE
  5
E8
330
1B
100
AcDbEntity
 67
     1
  8
0
  6
Continuous
 62
     7
370
    25
100
AcDbSpline
210
0.0
220
0.0
230
1.0
 70
     8
 71
     3
 72
    13
 73
     9
 74
     0
 42
0.000000001
 43
0.00000001
 40
0.0
 40
0.0
 40
0.0
 40
0.0
 40
0.0747802672745915
 40
0.2617384064224615
 40
0.455956635006531
 40
0.6715693445628323
 40
0.8979252940874818
 40
1.0
 40
1.0
 40
1.0
 40
1.0
 10
268.0551709298086
 20
140.8955466791172
 30
0.0
 10
268.0404792090134
 20
140.9234167122204
 30
0.0
 10
267.9890567184458
 20
141.0209646124517
 30
0.0
 10
268.3497596364544
 20
140.3390562628427
 30
0.0
 10
269.0151468627242
 20
138.9506892220851
 30
0.0
 10
269.8523666769277
 20
136.774196111087
 30
0.0
 10
270.3835086290959
 20
134.4490961635261
 30
0.0
 10
270.4300831468096
 20
132.9621392334427
 30
0.0
 10
270.444558288274
 20
132.4999999999999
 30
0.0
  0
SPLINE
  5
E9
330
1B
100
AcDbEntity
 67
     1
  8
0
  6
Continuous
 62
     7
370
    25
100
AcDbSpline
210
0.0
220
0.0
230
1.0
 70
     8
 71
     3
 72
    12
 73
     8
 74
     0
 42
0.000000001
 43
0.00000001
 40
0.0
 40
0.0
 40
0.0
 40
0.0
 40
0.1933865970591799
 40
0.3860325423043049
 40
0.5968023489277893
 40
0.8238393923515064
 40
0.9999999999999999
 40
0.9999999999999999
 40
0.9999999999999999
 40
0.9999999999999999
 10
270.444558288274
 20
22.49999999999996
 30
0.0
 10
270.3927790385059
 20
21.62282237846558
 30
0.0
 10
270.2894188484486
 20
19.87182664017378
 30
0.0
 10
269.589091168553
 20
17.49077640023655
 30
0.0
 10
268.7824332054269
 20
15.52164112651938
 30
0.0
 10
268.1077873297125
 20
14.20063748120692
 30
0.0
 10
268.0556035690287
 20
14.10450913359657
 30
0.0
 10
268.0328040240238
 20
14.06250981122392
 30
0.0
  0
SPLINE
  5
EA
330
1B
100
AcDbEntity
 67
     1
  8
0
  6
Continuous
 62
     7
370
    25
100
AcDbSpline
210
0.0
220
0.0
230
1.0
 70
     8
 71
     3
 72
    13
 73
     9
 74
     0
 42
0.000000001
 43
0.00000001
 40
0.0
 40
0.0
 40
0.0
 40
0.0
 40
0.0747802672745905
 40
0.2617384064224602
 40
0.4559566350065291
 40
0.6715693445628322
 40
0.8979252940874791
 40
1.0
 40
1.0
 40
1.0
 40
1.0
 10
268.0551709298086
 20
30.8955466791172
 30
0.0
 10
268.0404792090134
 20
30.92341671222043
 30
0.0
 10
267.9890567184459
 20
31.02096461245174
 30
0.0
 10
268.3497596364544
 20
30.33905626284261
 30
0.0
 10
269.0151468627242
 20
28.9506892220851
 30
0.0
 10
269.8523666769277
 20
26.774196111087
 30
0.0
 10
270.3835086290958
 20
24.44909616352609
 30
0.0
 10
270.4300831468097
 20
22.96213923344276
 30
0.0
 10
270.444558288274
 20
22.49999999999996
 30
0.0
  0
SPLINE
  5
EB
330
1B
100
AcDbEntity
 67
     1
  8
0
  6
Continuous
 62
     7
370
    25
100
AcDbSpline
210
0.0
220
0.0
230
1.0
 70
     8
 71
     3
 72
    12
 73
     8
 74
     0
 42
0.000000001
 43
0.00000001
 40
0.0
 40
0.0
 40
0.0
 40
0.0
 40
0.1933865970591798
 40
0.3860325423043043
 40
0.596802348927789
 40
0.8238393923515058
 40
1.0
 40
1.0
 40
1.0
 40
1.0
 10
270.444558288274
 20
77.49999999999996
 30
0.0
 10
270.3927790385059
 20
76.62282237846551
 30
0.0
 10
270.2894188484486
 20
74.87182664017378
 30
0.0
 10
269.589091168553
 20
72.49077640023648
 30
0.0
 10
268.7824332054268
 20
70.52164112651937
 30
0.0
 10
268.1077873297125
 20
69.20063748120691
 30
0.0
 10
268.0556035690286
 20
69.10450913359657
 30
0.0
 10
268.0328040240238
 20
69.06250981122386
 30
0.0
  0
SPLINE
  5
EC
330
1B
100
AcDbEntity
 67
     1
  8
0
  6
Continuous
 62
     7
370
    25
100
AcDbSpline
210
0.0
220
0.0
230
1.0
 70
     8
 71
     3
 72
    13
 73
     9
 74
     0
 42
0.000000001
 43
0.00000001
 40
0.0
 40
0.0
 40
0.0
 40
0.0
 40
0.0747802672745919
 40
0.2617384064224608
 40
0.4559566350065293
 40
0.6715693445628323
 40
0.8979252940874786
 40
1.0
 40
1.0
 40
1.0
 40
1.0
 10
268.0551709298086
 20
85.89554667911725
 30
0.0
 10
268.0404792090133
 20
85.92341671222043
 30
0.0
 10
267.9890567184457
 20
86.02096461245173
 30
0.0
 10
268.3497596364544
 20
85.33905626284266
 30
0.0
 10
269.0151468627243
 20
83.95068922208509
 30
0.0
 10
269.8523666769275
 20
81.774196111087
 30
0.0
 10
270.383508629096
 20
79.44909616352608
 30
0.0
 10
270.4300831468097
 20
77.96213923344276
 30
0.0
 10
270.444558288274
 20
77.49999999999996
 30
0.0
  0
SPLINE
  5
ED
330
1B
100
AcDbEntity
 67
     1
  8
0
  6
Continuous
 62
     7
370
    25
100
AcDbSpline
210
0.0
220
0.0
230
1.0
 70
     8
 71
     3
 72
    12
 73
     8
 74
     0
 42
0.000000001
 43
0.00000001
 40
0.0
 40
0.0
 40
0.0
 40
0.0
 40
0.1933865970591817
 40
0.3860325423043051
 40
0.5968023489277897
 40
0.8238393923515058
 40
1.0
 40
1.0
 40
1.0
 40
1.0
 10
270.444558288274
 20
232.4999999999999
 30
0.0
 10
270.3927790385059
 20
231.6228223784656
 30
0.0
 10
270.2894188484485
 20
229.8718266401737
 30
0.0
 10
269.5890911685532
 20
227.4907764002365
 30
0.0
 10
268.7824332054269
 20
225.5216411265193
 30
0.0
 10
268.1077873297125
 20
224.2006374812069
 30
0.0
 10
268.0556035690286
 20
224.1045091335965
 30
0.0
 10
268.0328040240238
 20
224.0625098112239
 30
0.0
  0
SPLINE
  5
EE
330
1B
100
AcDbEntity
 67
     1
  8
0
  6
Continuous
 62
     7
370
    25
100
AcDbSpline
210
0.0
220
0.0
230
1.0
 70
     8
 71
     3
 72
    13
 73
     9
 74
     0
 42
0.000000001
 43
0.00000001
 40
0.0
 40
0.0
 40
0.0
 40
0.0
 40
0.0747802672745931
 40
0.2617384064224629
 40
0.4559566350065308
 40
0.6715693445628342
 40
0.8979252940874836
 40
1.0
 40
1.0
 40
1.0
 40
1.0
 10
268.0551709298087
 20
240.8955466791172
 30
0.0
 10
268.0404792090134
 20
240.9234167122205
 30
0.0
 10
267.9890567184459
 20
241.0209646124517
 30
0.0
 10
268.3497596364543
 20
240.3390562628425
 30
0.0
 10
269.0151468627242
 20
238.950689222085
 30
0.0
 10
269.8523666769275
 20
236.774196111087
 30
0.0
 10
270.3835086290959
 20
234.449096163526
 30
0.0
 10
270.4300831468097
 20
232.9621392334427
 30
0.0
 10
270.444558288274
 20
232.4999999999999
 30
0.0
  0
SPLINE
  5
EF
330
1B
100
AcDbEntity
 67
     1
  8
0
  6
Continuous
 62
     7
370
    25
100
AcDbSpline
210
0.0
220
0.0
230
1.0
 70
     8
 71
     3
 72
    12
 73
     8
 74
     0
 42
0.000000001
 43
0.00000001
 40
0.0
 40
0.0
 40
0.0
 40
0.0
 40
0.1933865970591751
 40
0.3860325423042993
 40
0.5968023489277852
 40
0.8238393923515036
 40
1.0
 40
1.0
 40
1.0
 40
1.0
 10
270.4445582882741
 20
287.4999999999999
 30
0.0
 10
270.3927790385059
 20
286.6228223784655
 30
0.0
 10
270.2894188484485
 20
284.8718266401738
 30
0.0
 10
269.5890911685531
 20
282.4907764002364
 30
0.0
 10
268.7824332054269
 20
280.5216411265194
 30
0.0
 10
268.1077873297125
 20
279.2006374812069
 30
0.0
 10
268.0556035690286
 20
279.1045091335965
 30
0.0
 10
268.0328040240238
 20
279.0625098112239
 30
0.0
  0
SPLINE
  5
F0
330
1B
100
AcDbEntity
 67
     1
  8
0
  6
Continuous
 62
     7
370
    25
100
AcDbSpline
210
0.0
220
0.0
230
1.0
 70
     8
 71
     3
 72
    13
 73
     9
 74
     0
 42
0.000000001
 43
0.00000001
 40
0.0
 40
0.0
 40
0.0
 40
0.0
 40
0.0747802672745928
 40
0.261738406422461
 40
0.4559566350065286
 40
0.6715693445628299
 40
0.8979252940874801
 40
1.0
 40
1.0
 40
1.0
 40
1.0
 10
268.0551709298087
 20
295.8955466791172
 30
0.0
 10
268.0404792090134
 20
295.9234167122204
 30
0.0
 10
267.989056718446
 20
296.0209646124518
 30
0.0
 10
268.3497596364543
 20
295.3390562628425
 30
0.0
 10
269.0151468627242
 20
293.950689222085
 30
0.0
 10
269.8523666769277
 20
291.774196111087
 30
0.0
 10
270.3835086290958
 20
289.449096163526
 30
0.0
 10
270.4300831468097
 20
287.9621392334427
 30
0.0
 10
270.4445582882741
 20
287.4999999999999
 30
0.0
  0
SPLINE
  5
F1
330
1B
100
AcDbEntity
 67
     1
  8
0
  6
Continuous
 62
     7
370
    25
100
AcDbSpline
210
0.0
220
0.0
230
1.0
 70
     8
 71
     3
 72
    12
 73
     8
 74
     0
 42
0.000000001
 43
0.00000001
 40
0.0
 40
0.0
 40
0.0
 40
0.0
 40
0.193386597059179
 40
0.3860325423043037
 40
0.5968023489277913
 40
0.8238393923515058
 40
0.9999999999999999
 40
0.9999999999999999
 40
0.9999999999999999
 40
0.9999999999999999
 10
270.4445582882741
 20
342.4999999999999
 30
0.0
 10
270.3927790385059
 20
341.6228223784654
 30
0.0
 10
270.2894188484486
 20
339.8718266401737
 30
0.0
 10
269.5890911685531
 20
337.4907764002364
 30
0.0
 10
268.7824332054267
 20
335.5216411265193
 30
0.0
 10
268.1077873297126
 20
334.2006374812069
 30
0.0
 10
268.0556035690286
 20
334.1045091335965
 30
0.0
 10
268.0328040240238
 20
334.0625098112239
 30
0.0
  0
SPLINE
  5
F2
330
1B
100
AcDbEntity
 67
     1
  8
0
  6
Continuous
 62
     7
370
    25
100
AcDbSpline
210
0.0
220
0.0
230
1.0
 70
     8
 71
     3
 72
    13
 73
     9
 74
     0
 42
0.000000001
 43
0.00000001
 40
0.0
 40
0.0
 40
0.0
 40
0.0
 40
0.0747802672745963
 40
0.261738406422466
 40
0.4559566350065344
 40
0.6715693445628342
 40
0.89792529408748
 40
0.9999999999999999
 40
0.9999999999999999
 40
0.9999999999999999
 40
0.9999999999999999
 10
268.0551709298086
 20
350.8955466791172
 30
0.0
 10
268.0404792090134
 20
350.9234167122204
 30
0.0
 10
267.9890567184458
 20
351.0209646124516
 30
0.0
 10
268.3497596364545
 20
350.3390562628425
 30
0.0
 10
269.0151468627244
 20
348.9506892220851
 30
0.0
 10
269.8523666769275
 20
346.7741961110868
 30
0.0
 10
270.3835086290959
 20
344.4490961635261
 30
0.0
 10
270.4300831468097
 20
342.9621392334426
 30
0.0
 10
270.4445582882741
 20
342.4999999999999
 30
0.0
  0
SPLINE
  5
F3
330
1B
100
AcDbEntity
 67
     1
  8
0
  6
Continuous
 62
     7
370
    25
100
AcDbSpline
210
0.0
220
0.0
230
1.0
 70
     8
 71
     3
 72
    12
 73
     8
 74
     0
 42
0.000000001
 43
0.00000001
 40
0.0
 40
0.0
 40
0.0
 40
0.0
 40
0.1933865970591748
 40
0.3860325423042988
 40
0.5968023489277844
 40
0.8238393923515005
 40
1.0
 40
1.0
 40
1.0
 40
1.0
 10
270.4445582882742
 20
442.4999999999999
 30
0.0
 10
270.392779038506
 20
441.6228223784656
 30
0.0
 10
270.2894188484486
 20
439.8718266401738
 30
0.0
 10
269.5890911685531
 20
437.4907764002365
 30
0.0
 10
268.7824332054269
 20
435.5216411265194
 30
0.0
 10
268.1077873297125
 20
434.2006374812069
 30
0.0
 10
268.0556035690286
 20
434.1045091335966
 30
0.0
 10
268.0328040240238
 20
434.0625098112239
 30
0.0
  0
SPLINE
  5
F4
330
1B
100
AcDbEntity
 67
     1
  8
0
  6
Continuous
 62
     7
370
    25
100
AcDbSpline
210
0.0
220
0.0
230
1.0
 70
     8
 71
     3
 72
    13
 73
     9
 74
     0
 42
0.000000001
 43
0.00000001
 40
0.0
 40
0.0
 40
0.0
 40
0.0
 40
0.0747802672745941
 40
0.2617384064224618
 40
0.4559566350065301
 40
0.67156934456283
 40
0.897925294087476
 40
0.9999999999999999
 40
0.9999999999999999
 40
0.9999999999999999
 40
0.9999999999999999
 10
268.0551709298086
 20
450.8955466791172
 30
0.0
 10
268.0404792090133
 20
450.9234167122204
 30
0.0
 10
267.9890567184459
 20
451.0209646124517
 30
0.0
 10
268.3497596364543
 20
450.3390562628425
 30
0.0
 10
269.0151468627244
 20
448.9506892220851
 30
0.0
 10
269.8523666769275
 20
446.774196111087
 30
0.0
 10
270.3835086290958
 20
444.449096163526
 30
0.0
 10
270.4300831468097
 20
442.9621392334426
 30
0.0
 10
270.4445582882741
 20
442.4999999999999
 30
0.0
  0
SPLINE
  5
F5
330
1B
100
AcDbEntity
 67
     1
  8
0
  6
Continuous
 62
     7
370
    25
100
AcDbSpline
210
0.0
220
0.0
230
1.0
 70
     8
 71
     3
 72
    12
 73
     8
 74
     0
 42
0.000000001
 43
0.00000001
 40
0.0
 40
0.0
 40
0.0
 40
0.0
 40
0.1933865970591787
 40
0.386032542304303
 40
0.5968023489277906
 40
0.8238393923515066
 40
0.9999999999999999
 40
0.9999999999999999
 40
0.9999999999999999
 40
0.9999999999999999
 10
270.4445582882741
 20
497.4999999999999
 30
0.0
 10
270.392779038506
 20
496.6228223784655
 30
0.0
 10
270.2894188484486
 20
494.8718266401737
 30
0.0
 10
269.5890911685531
 20
492.4907764002365
 30
0.0
 10
268.7824332054268
 20
490.5216411265193
 30
0.0
 10
268.1077873297125
 20
489.2006374812068
 30
0.0
 10
268.0556035690286
 20
489.1045091335964
 30
0.0
 10
268.0328040240238
 20
489.0625098112239
 30
0.0
  0
SPLINE
  5
F6
330
1B
100
AcDbEntity
 67
     1
  8
0
  6
Continuous
 62
     7
370
    25
100
AcDbSpline
210
0.0
220
0.0
230
1.0
 70
     8
 71
     3
 72
    13
 73
     9
 74
     0
 42
0.000000001
 43
0.00000001
 40
0.0
 40
0.0
 40
0.0
 40
0.0
 40
0.0747802672745951
 40
0.2617384064224644
 40
0.4559566350065353
 40
0.6715693445628368
 40
0.8979252940874763
 40
1.0
 40
1.0
 40
1.0
 40
1.0
 10
268.0551709298086
 20
505.8955466791173
 30
0.0
 10
268.0404792090133
 20
505.9234167122204
 30
0.0
 10
267.989056718446
 20
506.0209646124521
 30
0.0
 10
268.3497596364543
 20
505.3390562628425
 30
0.0
 10
269.0151468627243
 20
503.950689222085
 30
0.0
 10
269.8523666769276
 20
501.7741961110869
 30
0.0
 10
270.3835086290958
 20
499.4490961635259
 30
0.0
 10
270.4300831468097
 20
497.9621392334426
 30
0.0
 10
270.4445582882741
 20
497.4999999999999
 30
0.0
  0
SPLINE
  5
F7
330
1B
100
AcDbEntity
 67
     1
  8
0
  6
Continuous
 62
     7
370
    25
100
AcDbSpline
210
0.0
220
0.0
230
1.0
 70
     8
 71
     3
 72
    12
 73
     8
 74
     0
 42
0.000000001
 43
0.00000001
 40
0.0
 40
0.0
 40
0.0
 40
0.0
 40
0.1933865970591885
 40
0.3860325423043151
 40
0.5968023489277937
 40
0.8238393923515062
 40
1.0
 40
1.0
 40
1.0
 40
1.0
 10
270.4445582882741
 20
552.5000000000001
 30
0.0
 10
270.392779038506
 20
551.6228223784656
 30
0.0
 10
270.2894188484486
 20
549.8718266401738
 30
0.0
 10
269.589091168553
 20
547.4907764002363
 30
0.0
 10
268.782433205427
 20
545.5216411265195
 30
0.0
 10
268.1077873297125
 20
544.2006374812069
 30
0.0
 10
268.0556035690287
 20
544.1045091335966
 30
0.0
 10
268.0328040240238
 20
544.062509811224
 30
0.0
  0
SPLINE
  5
F8
330
1B
100
AcDbEntity
 67
     1
  8
0
  6
Continuous
 62
     7
370
    25
100
AcDbSpline
210
0.0
220
0.0
230
1.0
 70
     8
 71
     3
 72
    13
 73
     9
 74
     0
 42
0.000000001
 43
0.00000001
 40
0.0
 40
0.0
 40
0.0
 40
0.0
 40
0.0747802672745964
 40
0.2617384064224678
 40
0.4559566350065414
 40
0.6715693445628457
 40
0.8979252940874998
 40
1.0
 40
1.0
 40
1.0
 40
1.0
 10
268.0551709298086
 20
560.8955466791174
 30
0.0
 10
268.0404792090133
 20
560.9234167122205
 30
0.0
 10
267.9890567184459
 20
561.020964612452
 30
0.0
 10
268.3497596364545
 20
560.3390562628427
 30
0.0
 10
269.0151468627242
 20
558.950689222085
 30
0.0
 10
269.8523666769278
 20
556.7741961110871
 30
0.0
 10
270.3835086290958
 20
554.4490961635257
 30
0.0
 10
270.4300831468098
 20
552.9621392334429
 30
0.0
 10
270.4445582882742
 20
552.5000000000002
 30
0.0
  0
SPLINE
  5
F9
330
1B
100
AcDbEntity
 67
     1
  8
0
  6
Continuous
 62
     7
370
    25
100
AcDbSpline
210
0.0
220
0.0
230
1.0
 70
     8
 71
     3
 72
    12
 73
     8
 74
     0
 42
0.000000001
 43
0.00000001
 40
0.0
 40
0.0
 40
0.0
 40
0.0
 40
0.1933865970591744
 40
0.3860325423042936
 40
0.596802348927781
 40
0.823839392351492
 40
1.0
 40
1.0
 40
1.0
 40
1.0
 10
270.444558288274
 20
652.5
 30
0.0
 10
270.3927790385059
 20
651.6228223784655
 30
0.0
 10
270.2894188484485
 20
649.8718266401737
 30
0.0
 10
269.5890911685531
 20
647.4907764002369
 30
0.0
 10
268.7824332054268
 20
645.5216411265194
 30
0.0
 10
268.1077873297125
 20
644.2006374812071
 30
0.0
 10
268.0556035690287
 20
644.1045091335967
 30
0.0
 10
268.0328040240238
 20
644.0625098112239
 30
0.0
  0
SPLINE
  5
FA
330
1B
100
AcDbEntity
 67
     1
  8
0
  6
Continuous
 62
     7
370
    25
100
AcDbSpline
210
0.0
220
0.0
230
1.0
 70
     8
 71
     3
 72
    13
 73
     9
 74
     0
 42
0.000000001
 43
0.00000001
 40
0.0
 40
0.0
 40
0.0
 40
0.0
 40
0.0747802672745938
 40
0.261738406422462
 40
0.4559566350065314
 40
0.6715693445628277
 40
0.8979252940874834
 40
1.0
 40
1.0
 40
1.0
 40
1.0
 10
268.0551709298087
 20
660.8955466791172
 30
0.0
 10
268.0404792090134
 20
660.9234167122205
 30
0.0
 10
267.9890567184459
 20
661.0209646124517
 30
0.0
 10
268.3497596364543
 20
660.3390562628427
 30
0.0
 10
269.0151468627242
 20
658.9506892220851
 30
0.0
 10
269.8523666769275
 20
656.774196111087
 30
0.0
 10
270.3835086290959
 20
654.4490961635262
 30
0.0
 10
270.4300831468097
 20
652.9621392334427
 30
0.0
 10
270.444558288274
 20
652.5
 30
0.0
  0
SPLINE
  5
FB
330
1B
100
AcDbEntity
 67
     1
  8
0
  6
Continuous
 62
     7
370
    25
100
AcDbSpline
210
0.0
220
0.0
230
1.0
 70
     8
 71
     3
 72
    12
 73
     8
 74
     0
 42
0.000000001
 43
0.00000001
 40
0.0
 40
0.0
 40
0.0
 40
0.0
 40
0.1933865970591743
 40
0.3860325423042932
 40
0.5968023489277805
 40
0.8238393923514913
 40
1.0
 40
1.0
 40
1.0
 40
1.0
 10
270.444558288274
 20
707.5
 30
0.0
 10
270.3927790385059
 20
706.6228223784657
 30
0.0
 10
270.2894188484486
 20
704.871826640174
 30
0.0
 10
269.5890911685531
 20
702.4907764002369
 30
0.0
 10
268.7824332054269
 20
700.5216411265195
 30
0.0
 10
268.1077873297125
 20
699.2006374812072
 30
0.0
 10
268.0556035690286
 20
699.1045091335966
 30
0.0
 10
268.0328040240238
 20
699.062509811224
 30
0.0
  0
SPLINE
  5
FC
330
1B
100
AcDbEntity
 67
     1
  8
0
  6
Continuous
 62
     7
370
    25
100
AcDbSpline
210
0.0
220
0.0
230
1.0
 70
     8
 71
     3
 72
    13
 73
     9
 74
     0
 42
0.000000001
 43
0.00000001
 40
0.0
 40
0.0
 40
0.0
 40
0.0
 40
0.0747802672745934
 40
0.2617384064224618
 40
0.4559566350065313
 40
0.6715693445628277
 40
0.8979252940874836
 40
1.0
 40
1.0
 40
1.0
 40
1.0
 10
268.0551709298086
 20
715.8955466791173
 30
0.0
 10
268.0404792090134
 20
715.9234167122205
 30
0.0
 10
267.9890567184457
 20
716.0209646124515
 30
0.0
 10
268.3497596364543
 20
715.3390562628425
 30
0.0
 10
269.0151468627244
 20
713.9506892220853
 30
0.0
 10
269.8523666769275
 20
711.7741961110871
 30
0.0
 10
270.383508629096
 20
709.4490961635262
 30
0.0
 10
270.4300831468097
 20
707.9621392334427
 30
0.0
 10
270.444558288274
 20
707.5
 30
0.0
  0
SPLINE
  5
FD
330
1B
100
AcDbEntity
 67
     1
  8
0
  6
Continuous
 62
     7
370
    25
100
AcDbSpline
210
0.0
220
0.0
230
1.0
 70
     8
 71
     3
 72
    12
 73
     8
 74
     0
 42
0.000000001
 43
0.00000001
 40
0.0
 40
0.0
 40
0.0
 40
0.0
 40
0.193386597059181
 40
0.3860325423042982
 40
0.5968023489277838
 40
0.8238393923514925
 40
1.0
 40
1.0
 40
1.0
 40
1.0
 10
270.4445582882741
 20
762.5000000000002
 30
0.0
 10
270.392779038506
 20
761.6228223784658
 30
0.0
 10
270.2894188484485
 20
759.8718266401737
 30
0.0
 10
269.5890911685531
 20
757.4907764002368
 30
0.0
 10
268.7824332054269
 20
755.5216411265196
 30
0.0
 10
268.1077873297125
 20
754.2006374812072
 30
0.0
 10
268.0556035690287
 20
754.1045091335967
 30
0.0
 10
268.0328040240238
 20
754.062509811224
 30
0.0
  0
SPLINE
  5
FE
330
1B
100
AcDbEntity
 67
     1
  8
0
  6
Continuous
 62
     7
370
    25
100
AcDbSpline
210
0.0
220
0.0
230
1.0
 70
     8
 71
     3
 72
    13
 73
     9
 74
     0
 42
0.000000001
 43
0.00000001
 40
0.0
 40
0.0
 40
0.0
 40
0.0
 40
0.0747802672745942
 40
0.2617384064224641
 40
0.4559566350065338
 40
0.671569344562833
 40
0.8979252940874907
 40
1.0
 40
1.0
 40
1.0
 40
1.0
 10
268.0551709298086
 20
770.8955466791172
 30
0.0
 10
268.0404792090134
 20
770.9234167122205
 30
0.0
 10
267.9890567184459
 20
771.0209646124521
 30
0.0
 10
268.3497596364542
 20
770.3390562628424
 30
0.0
 10
269.0151468627242
 20
768.9506892220852
 30
0.0
 10
269.8523666769275
 20
766.7741961110869
 30
0.0
 10
270.3835086290957
 20
764.449096163526
 30
0.0
 10
270.4300831468097
 20
762.9621392334429
 30
0.0
 10
270.4445582882742
 20
762.5000000000003
 30
0.0
  0
SPLINE
  5
FF
330
1B
100
AcDbEntity
 67
     1
  8
0
  6
Continuous
 62
     7
370
    25
100
AcDbSpline
210
0.0
220
0.0
230
1.0
 70
     8
 71
     3
 72
    18
 73
    14
 74
     0
 42
0.000000001
 43
0.00000001
 40
0.0
 40
0.0
 40
0.0
 40
0.0
 40
0.0164134797479671
 40
0.1107052115860588
 40
0.206214368160618
 40
0.3116131692493337
 40
0.4251064960406546
 40
0.5292343313817146
 40
0.6198255958858677
 40
0.7145429291628759
 40
0.8230581273260237
 40
0.9358119524946612
 40
1.0
 40
1.0
 40
1.0
 40
1.0
 10
-268.0328040240238
 20
140.9374901887761
 30
0.0
 10
-268.0222365520994
 20
140.9576411656672
 30
0.0
 10
-267.9509613421325
 20
141.0935549508404
 30
0.0
 10
-268.2454019393927
 20
140.5406739945875
 30
0.0
 10
-268.8417281141444
 20
139.3298049852579
 30
0.0
 10
-269.6777620478304
 20
137.3023756060084
 30
0.0
 10
-270.3753789203411
 20
134.6599993691625
 30
0.0
 10
-270.5165568233011
 20
131.8082604606348
 30
0.0
 10
-270.1221196685459
 20
129.2535721585645
 30
0.0
 10
-269.4151413375898
 20
127.004491553265
 30
0.0
 10
-268.6131796960987
 20
125.1751212211098
 30
0.0
 10
-268.0453452566347
 20
124.0845225657654
 30
0.0
 10
-268.0525553656514
 20
124.0991478148081
 30
0.0
 10
-268.0551709298086
 20
124.1044533208827
 30
0.0
  0
SPLINE
  5
100
330
1B
100
AcDbEntity
 67
     1
  8
0
  6
Continuous
 62
     7
370
    25
100
AcDbSpline
210
0.0
220
0.0
230
1.0
 70
     8
 71
     3
 72
    18
 73
    14
 74
     0
 42
0.000000001
 43
0.00000001
 40
0.0
 40
0.0
 40
0.0
 40
0.0
 40
0.0164134797479667
 40
0.1107052115860586
 40
0.2062143681606179
 40
0.3116131692493332
 40
0.4251064960406559
 40
0.529234331381716
 40
0.6198255958858687
 40
0.7145429291628766
 40
0.8230581273260256
 40
0.9358119524946625
 40
1.0
 40
1.0
 40
1.0
 40
1.0
 10
-268.0328040240238
 20
30.93749018877606
 30
0.0
 10
-268.0222365520994
 20
30.95764116566729
 30
0.0
 10
-267.9509613421323
 20
31.09355495084032
 30
0.0
 10
-268.2454019393927
 20
30.54067399458749
 30
0.0
 10
-268.8417281141446
 20
29.329804985258
 30
0.0
 10
-269.6777620478304
 20
27.30237560600845
 30
0.0
 10
-270.3753789203411
 20
24.65999936916252
 30
0.0
 10
-270.5165568233011
 20
21.80826046063478
 30
0.0
 10
-270.1221196685458
 20
19.25357215856443
 30
0.0
 10
-269.4151413375897
 20
17.004491553265
 30
0.0
 10
-268.6131796960989
 20
15.17512122110981
 30
0.0
 10
-268.0453452566347
 20
14.08452256576537
 30
0.0
 10
-268.0525553656514
 20
14.09914781480809
 30
0.0
 10
-268.0551709298086
 20
14.10445332088273
 30
0.0
  0
SPLINE
  5
101
330
1B
100
AcDbEntity
 67
     1
  8
0
  6
Continuous
 62
     7
370
    25
100
AcDbSpline
210
0.0
220
0.0
230
1.0
 70
     8
 71
     3
 72
    18
 73
    14
 74
     0
 42
0.000000001
 43
0.00000001
 40
0.0
 40
0.0
 40
0.0
 40
0.0
 40
0.0164134797479665
 40
0.1107052115860583
 40
0.2062143681606175
 40
0.3116131692493325
 40
0.4251064960406557
 40
0.5292343313817153
 40
0.6198255958858677
 40
0.7145429291628759
 40
0.823058127326025
 40
0.9358119524946622
 40
1.0
 40
1.0
 40
1.0
 40
1.0
 10
-268.0328040240238
 20
85.93749018877605
 30
0.0
 10
-268.0222365520994
 20
85.95764116566728
 30
0.0
 10
-267.9509613421324
 20
86.09355495084031
 30
0.0
 10
-268.2454019393928
 20
85.54067399458748
 30
0.0
 10
-268.8417281141445
 20
84.329804985258
 30
0.0
 10
-269.6777620478304
 20
82.30237560600845
 30
0.0
 10
-270.3753789203411
 20
79.65999936916252
 30
0.0
 10
-270.5165568233012
 20
76.80826046063483
 30
0.0
 10
-270.1221196685458
 20
74.25357215856442
 30
0.0
 10
-269.4151413375897
 20
72.00449155326505
 30
0.0
 10
-268.6131796960988
 20
70.1751212211098
 30
0.0
 10
-268.0453452566347
 20
69.08452256576535
 30
0.0
 10
-268.0525553656514
 20
69.09914781480808
 30
0.0
 10
-268.0551709298086
 20
69.10445332088273
 30
0.0
  0
SPLINE
  5
102
330
1B
100
AcDbEntity
 67
     1
  8
0
  6
Continuous
 62
     7
370
    25
100
AcDbSpline
210
0.0
220
0.0
230
1.0
 70
     8
 71
     3
 72
    18
 73
    14
 74
     0
 42
0.000000001
 43
0.00000001
 40
0.0
 40
0.0
 40
0.0
 40
0.0
 40
0.0164134797479673
 40
0.110705211586059
 40
0.2062143681606179
 40
0.3116131692493336
 40
0.4251064960406545
 40
0.5292343313817146
 40
0.6198255958858676
 40
0.7145429291628765
 40
0.8230581273260239
 40
0.9358119524946612
 40
1.0
 40
1.0
 40
1.0
 40
1.0
 10
-268.0328040240238
 20
240.937490188776
 30
0.0
 10
-268.0222365520994
 20
240.9576411656672
 30
0.0
 10
-267.9509613421323
 20
241.0935549508401
 30
0.0
 10
-268.2454019393928
 20
240.5406739945875
 30
0.0
 10
-268.8417281141444
 20
239.3298049852579
 30
0.0
 10
-269.6777620478304
 20
237.3023756060084
 30
0.0
 10
-270.375378920341
 20
234.6599993691625
 30
0.0
 10
-270.5165568233011
 20
231.8082604606347
 30
0.0
 10
-270.1221196685459
 20
229.2535721585645
 30
0.0
 10
-269.4151413375895
 20
227.004491553265
 30
0.0
 10
-268.6131796960989
 20
225.1751212211099
 30
0.0
 10
-268.0453452566347
 20
224.0845225657653
 30
0.0
 10
-268.0525553656514
 20
224.0991478148081
 30
0.0
 10
-268.0551709298086
 20
224.1044533208827
 30
0.0
  0
SPLINE
  5
103
330
1B
100
AcDbEntity
 67
     1
  8
0
  6
Continuous
 62
     7
370
    25
100
AcDbSpline
210
0.0
220
0.0
230
1.0
 70
     8
 71
     3
 72
    18
 73
    14
 74
     0
 42
0.000000001
 43
0.00000001
 40
0.0
 40
0.0
 40
0.0
 40
0.0
 40
0.016413479747968
 40
0.1107052115860594
 40
0.2062143681606185
 40
0.3116131692493342
 40
0.4251064960406566
 40
0.5292343313817146
 40
0.6198255958858684
 40
0.7145429291628745
 40
0.8230581273260261
 40
0.9358119524946614
 40
1.0
 40
1.0
 40
1.0
 40
1.0
 10
-268.0328040240238
 20
295.9374901887759
 30
0.0
 10
-268.0222365520993
 20
295.9576411656672
 30
0.0
 10
-267.9509613421325
 20
296.0935549508403
 30
0.0
 10
-268.2454019393928
 20
295.5406739945875
 30
0.0
 10
-268.8417281141446
 20
294.329804985258
 30
0.0
 10
-269.6777620478304
 20
292.3023756060083
 30
0.0
 10
-270.3753789203411
 20
289.6599993691625
 30
0.0
 10
-270.5165568233012
 20
286.8082604606348
 30
0.0
 10
-270.1221196685458
 20
284.2535721585643
 30
0.0
 10
-269.4151413375897
 20
282.004491553265
 30
0.0
 10
-268.6131796960988
 20
280.1751212211097
 30
0.0
 10
-268.0453452566347
 20
279.0845225657654
 30
0.0
 10
-268.0525553656513
 20
279.099147814808
 30
0.0
 10
-268.0551709298086
 20
279.1044533208827
 30
0.0
  0
SPLINE
  5
104
330
1B
100
AcDbEntity
 67
     1
  8
0
  6
Continuous
 62
     7
370
    25
100
AcDbSpline
210
0.0
220
0.0
230
1.0
 70
     8
 71
     3
 72
    18
 73
    14
 74
     0
 42
0.000000001
 43
0.00000001
 40
0.0
 40
0.0
 40
0.0
 40
0.0
 40
0.0164134797479687
 40
0.1107052115860599
 40
0.2062143681606187
 40
0.3116131692493342
 40
0.4251064960406564
 40
0.5292343313817144
 40
0.6198255958858683
 40
0.7145429291628743
 40
0.8230581273260259
 40
0.935811952494661
 40
1.0
 40
1.0
 40
1.0
 40
1.0
 10
-268.0328040240238
 20
350.9374901887759
 30
0.0
 10
-268.0222365520994
 20
350.9576411656672
 30
0.0
 10
-267.9509613421324
 20
351.0935549508401
 30
0.0
 10
-268.2454019393928
 20
350.5406739945876
 30
0.0
 10
-268.8417281141444
 20
349.3298049852579
 30
0.0
 10
-269.6777620478305
 20
347.3023756060085
 30
0.0
 10
-270.3753789203411
 20
344.6599993691624
 30
0.0
 10
-270.5165568233012
 20
341.8082604606348
 30
0.0
 10
-270.1221196685458
 20
339.2535721585642
 30
0.0
 10
-269.4151413375897
 20
337.0044915532649
 30
0.0
 10
-268.6131796960988
 20
335.1751212211099
 30
0.0
 10
-268.0453452566347
 20
334.0845225657654
 30
0.0
 10
-268.0525553656514
 20
334.099147814808
 30
0.0
 10
-268.0551709298086
 20
334.1044533208827
 30
0.0
  0
SPLINE
  5
105
330
1B
100
AcDbEntity
 67
     1
  8
0
  6
Continuous
 62
     7
370
    25
100
AcDbSpline
210
0.0
220
0.0
230
1.0
 70
     8
 71
     3
 72
    18
 73
    14
 74
     0
 42
0.000000001
 43
0.00000001
 40
0.0
 40
0.0
 40
0.0
 40
0.0
 40
0.0164134797479694
 40
0.1107052115860603
 40
0.206214368160619
 40
0.3116131692493344
 40
0.4251064960406565
 40
0.5292343313817164
 40
0.6198255958858682
 40
0.714542929162874
 40
0.823058127326025
 40
0.9358119524946605
 40
1.0
 40
1.0
 40
1.0
 40
1.0
 10
-268.0328040240238
 20
450.937490188776
 30
0.0
 10
-268.0222365520995
 20
450.9576411656673
 30
0.0
 10
-267.9509613421326
 20
451.0935549508406
 30
0.0
 10
-268.2454019393927
 20
450.5406739945875
 30
0.0
 10
-268.8417281141445
 20
449.329804985258
 30
0.0
 10
-269.6777620478304
 20
447.3023756060085
 30
0.0
 10
-270.3753789203411
 20
444.6599993691624
 30
0.0
 10
-270.5165568233013
 20
441.8082604606349
 30
0.0
 10
-270.1221196685459
 20
439.2535721585644
 30
0.0
 10
-269.4151413375897
 20
437.004491553265
 30
0.0
 10
-268.6131796960987
 20
435.1751212211098
 30
0.0
 10
-268.0453452566347
 20
434.0845225657653
 30
0.0
 10
-268.0525553656514
 20
434.0991478148081
 30
0.0
 10
-268.0551709298086
 20
434.1044533208827
 30
0.0
  0
SPLINE
  5
106
330
1B
100
AcDbEntity
 67
     1
  8
0
  6
Continuous
 62
     7
370
    25
100
AcDbSpline
210
0.0
220
0.0
230
1.0
 70
     8
 71
     3
 72
    18
 73
    14
 74
     0
 42
0.000000001
 43
0.00000001
 40
0.0
 40
0.0
 40
0.0
 40
0.0
 40
0.0164134797479713
 40
0.1107052115860628
 40
0.2062143681606202
 40
0.3116131692493366
 40
0.4251064960406588
 40
0.5292343313817186
 40
0.6198255958858707
 40
0.7145429291628769
 40
0.8230581273260263
 40
0.9358119524946623
 40
1.0
 40
1.0
 40
1.0
 40
1.0
 10
-268.0328040240238
 20
505.937490188776
 30
0.0
 10
-268.0222365520994
 20
505.9576411656672
 30
0.0
 10
-267.9509613421324
 20
506.0935549508403
 30
0.0
 10
-268.2454019393928
 20
505.5406739945873
 30
0.0
 10
-268.8417281141446
 20
504.3298049852581
 30
0.0
 10
-269.6777620478302
 20
502.3023756060081
 30
0.0
 10
-270.3753789203411
 20
499.6599993691625
 30
0.0
 10
-270.5165568233012
 20
496.8082604606346
 30
0.0
 10
-270.1221196685459
 20
494.2535721585643
 30
0.0
 10
-269.4151413375898
 20
492.0044915532651
 30
0.0
 10
-268.6131796960988
 20
490.1751212211097
 30
0.0
 10
-268.0453452566346
 20
489.0845225657654
 30
0.0
 10
-268.0525553656514
 20
489.0991478148081
 30
0.0
 10
-268.0551709298086
 20
489.1044533208827
 30
0.0
  0
SPLINE
  5
107
330
1B
100
AcDbEntity
 67
     1
  8
0
  6
Continuous
 62
     7
370
    25
100
AcDbSpline
210
0.0
220
0.0
230
1.0
 70
     8
 71
     3
 72
    18
 73
    14
 74
     0
 42
0.000000001
 43
0.00000001
 40
0.0
 40
0.0
 40
0.0
 40
0.0
 40
0.0164134797479711
 40
0.1107052115860626
 40
0.2062143681606202
 40
0.3116131692493363
 40
0.4251064960406605
 40
0.5292343313817162
 40
0.6198255958858682
 40
0.7145429291628762
 40
0.8230581273260263
 40
0.9358119524946623
 40
1.0
 40
1.0
 40
1.0
 40
1.0
 10
-268.0328040240238
 20
560.937490188776
 30
0.0
 10
-268.0222365520994
 20
560.9576411656673
 30
0.0
 10
-267.9509613421324
 20
561.0935549508403
 30
0.0
 10
-268.2454019393928
 20
560.5406739945876
 30
0.0
 10
-268.8417281141443
 20
559.3298049852577
 30
0.0
 10
-269.6777620478304
 20
557.3023756060084
 30
0.0
 10
-270.3753789203411
 20
554.6599993691624
 30
0.0
 10
-270.5165568233012
 20
551.8082604606345
 30
0.0
 10
-270.1221196685459
 20
549.2535721585647
 30
0.0
 10
-269.4151413375896
 20
547.0044915532648
 30
0.0
 10
-268.6131796960988
 20
545.17512122111
 30
0.0
 10
-268.0453452566346
 20
544.0845225657652
 30
0.0
 10
-268.0525553656514
 20
544.0991478148081
 30
0.0
 10
-268.0551709298086
 20
544.1044533208827
 30
0.0
  0
SPLINE
  5
108
330
1B
100
AcDbEntity
 67
     1
  8
0
  6
Continuous
 62
     7
370
    25
100
AcDbSpline
210
0.0
220
0.0
230
1.0
 70
     8
 71
     3
 72
    18
 73
    14
 74
     0
 42
0.000000001
 43
0.00000001
 40
0.0
 40
0.0
 40
0.0
 40
0.0
 40
0.0164134797479679
 40
0.1107052115860601
 40
0.2062143681606191
 40
0.3116131692493366
 40
0.4251064960406568
 40
0.529234331381713
 40
0.6198255958858647
 40
0.7145429291628776
 40
0.8230581273260187
 40
0.9358119524946565
 40
1.0
 40
1.0
 40
1.0
 40
1.0
 10
-268.0328040240238
 20
660.937490188776
 30
0.0
 10
-268.0222365520994
 20
660.9576411656673
 30
0.0
 10
-267.9509613421324
 20
661.0935549508406
 30
0.0
 10
-268.2454019393927
 20
660.5406739945871
 30
0.0
 10
-268.8417281141444
 20
659.3298049852577
 30
0.0
 10
-269.6777620478304
 20
657.3023756060082
 30
0.0
 10
-270.375378920341
 20
654.6599993691625
 30
0.0
 10
-270.5165568233012
 20
651.8082604606349
 30
0.0
 10
-270.1221196685459
 20
649.2535721585645
 30
0.0
 10
-269.4151413375896
 20
647.004491553265
 30
0.0
 10
-268.6131796960988
 20
645.1751212211099
 30
0.0
 10
-268.0453452566347
 20
644.0845225657654
 30
0.0
 10
-268.0525553656512
 20
644.099147814808
 30
0.0
 10
-268.0551709298086
 20
644.1044533208827
 30
0.0
  0
SPLINE
  5
109
330
1B
100
AcDbEntity
 67
     1
  8
0
  6
Continuous
 62
     7
370
    25
100
AcDbSpline
210
0.0
220
0.0
230
1.0
 70
     8
 71
     3
 72
    18
 73
    14
 74
     0
 42
0.000000001
 43
0.00000001
 40
0.0
 40
0.0
 40
0.0
 40
0.0
 40
0.0164134797479684
 40
0.1107052115860605
 40
0.2062143681606193
 40
0.3116131692493337
 40
0.4251064960406579
 40
0.5292343313817178
 40
0.6198255958858655
 40
0.7145429291628782
 40
0.823058127326019
 40
0.9358119524946565
 40
1.0
 40
1.0
 40
1.0
 40
1.0
 10
-268.0328040240238
 20
715.9374901887761
 30
0.0
 10
-268.0222365520994
 20
715.9576411656673
 30
0.0
 10
-267.9509613421325
 20
716.0935549508404
 30
0.0
 10
-268.2454019393928
 20
715.5406739945876
 30
0.0
 10
-268.8417281141445
 20
714.3298049852581
 30
0.0
 10
-269.6777620478304
 20
712.3023756060085
 30
0.0
 10
-270.3753789203412
 20
709.6599993691628
 30
0.0
 10
-270.5165568233011
 20
706.8082604606348
 30
0.0
 10
-270.1221196685459
 20
704.2535721585646
 30
0.0
 10
-269.4151413375896
 20
702.0044915532651
 30
0.0
 10
-268.6131796960988
 20
700.1751212211096
 30
0.0
 10
-268.0453452566347
 20
699.0845225657658
 30
0.0
 10
-268.0525553656514
 20
699.0991478148082
 30
0.0
 10
-268.0551709298086
 20
699.1044533208827
 30
0.0
  0
SPLINE
  5
10A
330
1B
100
AcDbEntity
 67
     1
  8
0
  6
Continuous
 62
     7
370
    25
100
AcDbSpline
210
0.0
220
0.0
230
1.0
 70
     8
 71
     3
 72
    18
 73
    14
 74
     0
 42
0.000000001
 43
0.00000001
 40
0.0
 40
0.0
 40
0.0
 40
0.0
 40
0.0164134797479672
 40
0.1107052115860594
 40
0.2062143681606183
 40
0.3116131692493329
 40
0.4251064960406571
 40
0.5292343313817173
 40
0.6198255958858649
 40
0.7145429291628778
 40
0.8230581273260187
 40
0.9358119524946565
 40
1.0
 40
1.0
 40
1.0
 40
1.0
 10
-268.0328040240238
 20
770.9374901887761
 30
0.0
 10
-268.0222365520994
 20
770.9576411656674
 30
0.0
 10
-267.9509613421325
 20
771.0935549508404
 30
0.0
 10
-268.2454019393928
 20
770.5406739945877
 30
0.0
 10
-268.8417281141445
 20
769.3298049852582
 30
0.0
 10
-269.6777620478304
 20
767.3023756060085
 30
0.0
 10
-270.3753789203413
 20
764.6599993691628
 30
0.0
 10
-270.5165568233011
 20
761.8082604606346
 30
0.0
 10
-270.1221196685459
 20
759.2535721585646
 30
0.0
 10
-269.4151413375895
 20
757.0044915532652
 30
0.0
 10
-268.6131796960989
 20
755.17512122111
 30
0.0
 10
-268.0453452566347
 20
754.0845225657655
 30
0.0
 10
-268.0525553656514
 20
754.0991478148082
 30
0.0
 10
-268.0551709298086
 20
754.104453320883
 30
0.0
  0
LINE
  5
11B
330
1B
100
AcDbEntity
 67
     1
  8
0
  6
Continuous
 62
     7
370
    25
100
AcDbLine
 10
300.0
 20
0.0
 30
0.0
 11
300.0
 21
792.0
 31
0.0
  0
LINE
  5
11C
330
1B
100
AcDbEntity
 67
     1
  8
0
  6
Continuous
 62
     7
370
    25
100
AcDbLine
 10
268.0
 20
14.0625098112
 30
0.0
 11
268.0
 21
0.0
 31
0.0
  0
LINE
  5
11D
330
1B
100
AcDbEntity
 67
     1
  8
0
  6
Continuous
 62
     7
370
    25
100
AcDbLine
 10
268.0
 20
69.0625098112
 30
0.0
 11
268.0
 21
30.8955466791
 31
0.0
  0
LINE
  5
11E
330
1B
100
AcDbEntity
 67
     1
  8
0
  6
Continuous
 62
     7
370
    25
100
AcDbLine
 10
268.0
 20
124.0625098112
 30
0.0
 11
268.0
 21
85.8955466791
 31
0.0
  0
LINE
  5
11F
330
1B
100
AcDbEntity
 67
     1
  8
0
  6
Continuous
 62
     7
370
    25
100
AcDbLine
 10
268.0
 20
224.0625098112
 30
0.0
 11
268.0
 21
140.8955466791
 31
0.0
  0
LINE
  5
120
330
1B
100
AcDbEntity
 67
     1
  8
0
  6
Continuous
 62
     7
370
    25
100
AcDbLine
 10
268.0
 20
279.0625098112
 30
0.0
 11
268.0
 21
240.8955466791
 31
0.0
  0
LINE
  5
121
330
1B
100
AcDbEntity
 67
     1
  8
0
  6
Continuous
 62
     7
370
    25
100
AcDbLine
 10
268.0
 20
334.0625098112
 30
0.0
 11
268.0
 21
295.8955466791
 31
0.0
  0
LINE
  5
122
330
1B
100
AcDbEntity
 67
     1
  8
0
  6
Continuous
 62
     7
370
    25
100
AcDbLine
 10
268.0
 20
434.0625098112
 30
0.0
 11
268.0
 21
350.8955466791
 31
0.0
  0
LINE
  5
123
330
1B
100
AcDbEntity
 67
     1
  8
0
  6
Continuous
 62
     7
370
    25
100
AcDbLine
 10
268.0
 20
489.0625098112
 30
0.0
 11
268.0
 21
450.8955466791
 31
0.0
  0
LINE
  5
124
330
1B
100
AcDbEntity
 67
     1
  8
0
  6
Continuous
 62
     7
370
    25
100
AcDbLine
 10
268.0
 20
544.0625098112
 30
0.0
 11
268.0
 21
505.8955466791
 31
0.0
  0
LINE
  5
125
330
1B
100
AcDbEntity
 67
     1
  8
0
  6
Continuous
 62
     7
370
    25
100
AcDbLine
 10
268.0
 20
644.0625098112
 30
0.0
 11
268.0
 21
560.8955466791
 31
0.0
  0
LINE
  5
126
330
1B
100
AcDbEntity
 67
     1
  8
0
  6
Continuous
 62
     7
370
    25
100
AcDbLine
 10
268.0
 20
699.0625098112
 30
0.0
 11
268.0
 21
660.8955466791
 31
0.0
  0
LINE
  5
127
330
1B
100
AcDbEntity
 67
     1
  8
0
  6
Continuous
 62
     7
370
    25
100
AcDbLine
 10
268.0
 20
754.0625098112
 30
0.0
 11
268.0
 21
715.8955466791
 31
0.0
  0
LINE
  5
128
330
1B
100
AcDbEntity
 67
     1
  8
0
  6
Continuous
 62
     7
370
    25
100
AcDbLine
 10
268.0
 20
792.0
 30
0.0
 11
268.0
 21
770.8955466791
 31
0.0
  0
LINE
  5
129
330
1B
100
AcDbEntity
 67
     1
  8
0
  6
Continuous
 62
     7
370
    25
100
AcDbLine
 10
-268.0
 20
770.9374901888
 30
0.0
 11
-268.0
 21
792.0
 31
0.0
  0
LINE
  5
12A
330
1B
100
AcDbEntity
 67
     1
  8
0
  6
Continuous
 62
     7
370
    25
100
AcDbLine
 10
-268.0
 20
715.9374901888
 30
0.0
 11
-268.0
 21
754.1044533209
 31
0.0
  0
LINE
  5
12B
330
1B
100
AcDbEntity
 67
     1
  8
0
  6
Continuous
 62
     7
370
    25
100
AcDbLine
 10
-268.0
 20
660.9374901888
 30
0.0
 11
-268.0
 21
699.1044533209
 31
0.0
  0
LINE
  5
12C
330
1B
100
AcDbEntity
 67
     1
  8
0
  6
Continuous
 62
     7
370
    25
100
AcDbLine
 10
-268.0
 20
560.9374901888
 30
0.0
 11
-268.0
 21
644.1044533209
 31
0.0
  0
LINE
  5
12D
330
1B
100
AcDbEntity
 67
     1
  8
0
  6
Continuous
 62
     7
370
    25
100
AcDbLine
 10
-268.0
 20
505.9374901888
 30
0.0
 11
-268.0
 21
544.1044533209
 31
0.0
  0
LINE
  5
12E
330
1B
100
AcDbEntity
 67
     1
  8
0
  6
Continuous
 62
     7
370
    25
100
AcDbLine
 10
-268.0
 20
450.9374901888
 30
0.0
 11
-268.0
 21
489.1044533209
 31
0.0
  0
LINE
  5
12F
330
1B
100
AcDbEntity
 67
     1
  8
0
  6
Continuous
 62
     7
370
    25
100
AcDbLine
 10
-268.0
 20
350.9374901888
 30
0.0
 11
-268.0
 21
434.1044533209
 31
0.0
  0
LINE
  5
130
330
1B
100
AcDbEntity
 67
     1
  8
0
  6
Continuous
 62
     7
370
    25
100
AcDbLine
 10
-268.0
 20
295.9374901888
 30
0.0
 11
-268.0
 21
334.1044533209
 31
0.0
  0
LINE
  5
131
330
1B
100
AcDbEntity
 67
     1
  8
0
  6
Continuous
 62
     7
370
    25
100
AcDbLine
 10
-268.0
 20
240.9374901888
 30
0.0
 11
-268.0
 21
279.1044533209
 31
0.0
  0
LINE
  5
132
330
1B
100
AcDbEntity
 67
     1
  8
0
  6
Continuous
 62
     7
370
    25
100
AcDbLine
 10
-268.0
 20
140.9374901888
 30
0.0
 11
-268.0
 21
224.1044533209
 31
0.0
  0
LINE
  5
133
330
1B
100
AcDbEntity
 67
     1
  8
0
  6
Continuous
 62
     7
370
    25
100
AcDbLine
 10
-268.0
 20
85.9374901888
 30
0.0
 11
-268.0
 21
124.1044533209
 31
0.0
  0
LINE
  5
134
330
1B
100
AcDbEntity
 67
     1
  8
0
  6
Continuous
 62
     7
370
    25
100
AcDbLine
 10
-268.0
 20
30.9374901888
 30
0.0
 11
-268.0
 21
69.1044533209
 31
0.0
  0
LINE
  5
135
330
1B
100
AcDbEntity
 67
     1
  8
0
  6
Continuous
 62
     7
370
    25
100
AcDbLine
 10
-268.0
 20
0.0
 30
0.0
 11
-268.0
 21
14.1044533209
 31
0.0
  0
LINE
  5
136
330
1B
100
AcDbEntity
 67
     1
  8
0
  6
Continuous
 62
     7
370
    25
100
AcDbLine
 10
-300.0
 20
792.0
 30
0.0
 11
-300.0
 21
0.0
 31
0.0
  0
LINE
  5
137
330
1B
100
AcDbEntity
 67
     1
  8
0
  6
Continuous
 62
     7
370
    25
100
AcDbLine
 10
268.0550972953
 20
561.0
 30
0.0
 11
-268.0324920427
 21
561.0
 31
0.0
  0
LINE
  5
138
330
1B
100
AcDbEntity
 67
     1
  8
0
  6
Continuous
 62
     7
370
    25
100
AcDbLine
 10
-268.0550972953
 20
544.0
 30
0.0
 11
268.0324920427
 21
544.0
 31
0.0
  0
LINE
  5
139
330
1B
100
AcDbEntity
 67
     1
  8
0
  6
Continuous
 62
     7
370
    25
100
AcDbLine
 10
268.0550972953
 20
506.0
 30
0.0
 11
-268.0324920427
 21
506.0
 31
0.0
  0
LINE
  5
13A
330
1B
100
AcDbEntity
 67
     1
  8
0
  6
Continuous
 62
     7
370
    25
100
AcDbLine
 10
-268.0550972953
 20
489.0
 30
0.0
 11
268.0324920427
 21
489.0
 31
0.0
  0
LINE
  5
13B
330
1B
100
AcDbEntity
 67
     1
  8
0
  6
Continuous
 62
     7
370
    25
100
AcDbLine
 10
268.0550972953
 20
451.0
 30
0.0
 11
-268.0324920427
 21
451.0
 31
0.0
  0
LINE
  5
13C
330
1B
100
AcDbEntity
 67
     1
  8
0
  6
Continuous
 62
     7
370
    25
100
AcDbLine
 10
-268.0550972953
 20
434.0
 30
0.0
 11
268.0324920427
 21
434.0
 31
0.0
  0
LINE
  5
13D
330
1B
100
AcDbEntity
 67
     1
  8
0
  6
Continuous
 62
     7
370
    25
100
AcDbLine
 10
268.0550972953
 20
351.0
 30
0.0
 11
-268.0324920427
 21
351.0
 31
0.0
  0
LINE
  5
13E
330
1B
100
AcDbEntity
 67
     1
  8
0
  6
Continuous
 62
     7
370
    25
100
AcDbLine
 10
-268.0550972953
 20
334.0
 30
0.0
 11
268.0324920427
 21
334.0
 31
0.0
  0
LINE
  5
13F
330
1B
100
AcDbEntity
 67
     1
  8
0
  6
Continuous
 62
     7
370
    25
100
AcDbLine
 10
268.0550972953
 20
771.0
 30
0.0
 11
-268.0324920427
 21
771.0
 31
0.0
  0
LINE
  5
140
330
1B
100
AcDbEntity
 67
     1
  8
0
  6
Continuous
 62
     7
370
    25
100
AcDbLine
 10
-268.0550972953
 20
754.0
 30
0.0
 11
268.0324920427
 21
754.0
 31
0.0
  0
LINE
  5
141
330
1B
100
AcDbEntity
 67
     1
  8
0
  6
Continuous
 62
     7
370
    25
100
AcDbLine
 10
268.0550972953
 20
296.0
 30
0.0
 11
-268.0324920427
 21
296.0
 31
0.0
  0
LINE
  5
142
330
1B
100
AcDbEntity
 67
     1
  8
0
  6
Continuous
 62
     7
370
    25
100
AcDbLine
 10
-268.0550972953
 20
279.0
 30
0.0
 11
268.0324920427
 21
279.0
 31
0.0
  0
LINE
  5
143
330
1B
100
AcDbEntity
 67
     1
  8
0
  6
Continuous
 62
     7
370
    25
100
AcDbLine
 10
268.0550972953
 20
716.0
 30
0.0
 11
-268.0324920427
 21
716.0
 31
0.0
  0
LINE
  5
144
330
1B
100
AcDbEntity
 67
     1
  8
0
  6
Continuous
 62
     7
370
    25
100
AcDbLine
 10
-268.0550972953
 20
699.0
 30
0.0
 11
268.0324920427
 21
699.0
 31
0.0
  0
LINE
  5
145
330
1B
100
AcDbEntity
 67
     1
  8
0
  6
Continuous
 62
     7
370
    25
100
AcDbLine
 10
268.0550972953
 20
141.0
 30
0.0
 11
-268.0324920427
 21
141.0
 31
0.0
  0
LINE
  5
146
330
1B
100
AcDbEntity
 67
     1
  8
0
  6
Continuous
 62
     7
370
    25
100
AcDbLine
 10
-268.0550972953
 20
124.0
 30
0.0
 11
268.0324920427
 21
124.0
 31
0.0
  0
LINE
  5
147
330
1B
100
AcDbEntity
 67
     1
  8
0
  6
Continuous
 62
     7
370
    25
100
AcDbLine
 10
268.0550972953
 20
241.0
 30
0.0
 11
-268.0324920427
 21
241.0
 31
0.0
  0
LINE
  5
148
330
1B
100
AcDbEntity
 67
     1
  8
0
  6
Continuous
 62
     7
370
    25
100
AcDbLine
 10
-268.0550972953
 20
224.0
 30
0.0
 11
268.0324920427
 21
224.0
 31
0.0
  0
LINE
  5
149
330
1B
100
AcDbEntity
 67
     1
  8
0
  6
Continuous
 62
     7
370
    25
100
AcDbLine
 10
268.0550972953
 20
661.0
 30
0.0
 11
-268.0324920427
 21
661.0
 31
0.0
  0
LINE
  5
14A
330
1B
100
AcDbEntity
 67
     1
  8
0
  6
Continuous
 62
     7
370
    25
100
AcDbLine
 10
-268.0550972953
 20
644.0
 30
0.0
 11
268.0324920427
 21
644.0
 31
0.0
  0
LINE
  5
14B
330
1B
100
AcDbEntity
 67
     1
  8
0
  6
Continuous
 62
     7
370
    25
100
AcDbLine
 10
268.0550972953
 20
86.0
 30
0.0
 11
-268.0324920427
 21
86.0
 31
0.0
  0
LINE
  5
14C
330
1B
100
AcDbEntity
 67
     1
  8
0
  6
Continuous
 62
     7
370
    25
100
AcDbLine
 10
-268.0550972953
 20
69.0
 30
0.0
 11
268.0324920427
 21
69.0
 31
0.0
  0
LINE
  5
14D
330
1B
100
AcDbEntity
 67
     1
  8
0
  6
Continuous
 62
     7
370
    25
100
AcDbLine
 10
268.0550972953
 20
31.0
 30
0.0
 11
-268.0324920427
 21
31.0
 31
0.0
  0
LINE
  5
14E
330
1B
100
AcDbEntity
 67
     1
  8
0
  6
Continuous
 62
     7
370
    25
100
AcDbLine
 10
-268.0550972953
 20
14.0
 30
0.0
 11
268.0324920427
 21
14.0
 31
0.0
  0
LINE
  5
14F
330
1B
100
AcDbEntity
 67
     1
  8
0
  6
Continuous
 62
     7
370
    25
100
AcDbLine
 10
268.0
 20
0.0
 30
0.0
 11
300.0
 21
0.0
 31
0.0
  0
LINE
  5
150
330
1B
100
AcDbEntity
 67
     1
  8
0
  6
Continuous
 62
     7
370
    25
100
AcDbLine
 10
268.0
 20
792.0
 30
0.0
 11
300.0
 21
792.0
 31
0.0
  0
LINE
  5
151
330
1B
100
AcDbEntity
 67
     1
  8
0
  6
Continuous
 62
     7
370
    25
100
AcDbLine
 10
-300.0
 20
0.0
 30
0.0
 11
-268.0
 21
0.0
 31
0.0
  0
LINE
  5
152
330
1B
100
AcDbEntity
 67
     1
  8
0
  6
Continuous
 62
     7
370
    25
100
AcDbLine
 10
-300.0
 20
792.0
 30
0.0
 11
-268.0
 21
792.0
 31
0.0
  0
ARC
  5
153
330
1B
100
AcDbEntity
 67
     1
  8
0
  6
Continuous
 62
     7
370
    25
100
AcDbCircle
 10
-284.0
 20
628.5
 30
0.0
 40
19.00000000000315
100
AcDbArc
 50
327.3631024964
 51
32.6368975036
  0
ARC
  5
154
330
1B
100
AcDbEntity
 67
     1
  8
0
  6
Continuous
 62
     7
370
    25
100
AcDbCircle
 10
-284.0
 20
628.5
 30
0.0
 40
18.99999999999992
100
AcDbArc
 50
147.3631024964
 51
212.6368975036
  0
ARC
  5
155
330
1B
100
AcDbEntity
 67
     1
  8
0
  6
Continuous
 62
     7
370
    25
100
AcDbCircle
 10
284.0
 20
163.5
 30
0.0
 40
19.00000000000108
100
AcDbArc
 50
147.3631024964
 51
212.6368975036
  0
ARC
  5
156
330
1B
100
AcDbEntity
 67
     1
  8
0
  6
Continuous
 62
     7
370
    25
100
AcDbCircle
 10
284.0
 20
163.5
 30
0.0
 40
18.99999999999985
100
AcDbArc
 50
327.3631024964
 51
32.6368975036
  0
ARC
  5
157
330
1B
100
AcDbEntity
 67
     1
  8
0
  6
Continuous
 62
     7
370
    25
100
AcDbCircle
 10
284.0
 20
628.5
 30
0.0
 40
19.00000000000315
100
AcDbArc
 50
147.3631024964
 51
212.6368975036
  0
ARC
  5
158
330
1B
100
AcDbEntity
 67
     1
  8
0
  6
Continuous
 62
     7
370
    25
100
AcDbCircle
 10
284.0
 20
628.5
 30
0.0
 40
18.99999999999991
100
AcDbArc
 50
327.3631024964
 51
32.6368975036
  0
ARC
  5
159
330
1B
100
AcDbEntity
 67
     1
  8
0
  6
Continuous
 62
     7
370
    25
100
AcDbCircle
 10
-284.0
 20
163.5
 30
0.0
 40
19.00000000000108
100
AcDbArc
 50
327.3631024964
 51
32.6368975036
  0
ARC
  5
15A
330
1B
100
AcDbEntity
 67
     1
  8
0
  6
Continuous
 62
     7
370
    25
100
AcDbCircle
 10
-284.0
 20
163.5
 30
0.0
 40
18.99999999999982
100
AcDbArc
 50
147.3631024964
 51
212.6368975036
  0
VIEWPORT
  5
34C
330
1B
100
AcDbEntity
 67
     1
  8
0
100
AcDbViewport
 10
0.0
 20
0.0
 30
0.0
 40
205.6
 41
156.0
 68
     1
 69
     1
 12
0.0
 22
28.5
 13
0.0
 23
0.0
 14
10.0
 24
10.0
 15
10.0
 25
10.0
 16
0.0
 26
0.0
 36
1.0
 17
0.0
 27
0.0
 37
0.0
 42
50.0
 43
0.0
 44
0.0
 45
469.0015564202
 50
0.0
 51
0.0
 72
   100
 90
   557152
  1

281
     0
 71
     1
 74
     0
110
0.0
120
0.0
130
0.0
111
1.0
121
0.0
131
0.0
112
0.0
122
1.0
132
0.0
 79
     0
146
0.0
  0
ENDSEC
  0
SECTION
  2
OBJECTS
  0
DICTIONARY
  5
C
330
0
100
AcDbDictionary
281
     1
  3
ACAD_GROUP
350
D
  3
ACAD_LAYOUT
350
1A
  3
ACAD_MLINESTYLE
350
17
  3
ACAD_PLOTSETTINGS
350
19
  3
ACAD_PLOTSTYLENAME
350
E
  3
ACAD_SCALELIST
350
47
  0
DICTIONARY
  5
D
102
{ACAD_REACTORS
330
C
102
}
330
C
100
AcDbDictionary
281
     1
  0
DICTIONARY
  5
1A
102
{ACAD_REACTORS
330
C
102
}
330
C
100
AcDbDictionary
281
     1
  3
_Back
350
1A4
  3
_Front
350
1E
  3
_Isometric
350
288
  3
_Right
350
26
  3
Model
350
22
  0
DICTIONARY
  5
17
102
{ACAD_REACTORS
330
C
102
}
330
C
100
AcDbDictionary
281
     1
  3
Standard
350
18
  0
DICTIONARY
  5
19
102
{ACAD_REACTORS
330
C
102
}
330
C
100
AcDbDictionary
281
     1
  0
ACDBDICTIONARYWDFLT
  5
E
102
{ACAD_REACTORS
330
C
102
}
330
C
100
AcDbDictionary
281
     1
  3
Normal
350
F
100
AcDbDictionaryWithDefault
340
F
  0
DICTIONARY
  5
47
102
{ACAD_REACTORS
330
C
102
}
330
C
100
AcDbDictionary
281
     1
  3
A0
350
48
  3
A1
350
49
  3
A2
350
4A
  3
A3
350
4B
  3
A4
350
4C
  3
A5
350
4D
  3
A6
350
4E
  3
A7
350
4F
  3
A8
350
50
  3
A9
350
51
  3
B0
350
52
  3
B1
350
53
  3
B2
350
54
  3
B3
350
55
  3
B4
350
56
  3
B5
350
57
  3
B6
350
58
  3
B7
350
59
  3
B8
350
5A
  3
B9
350
5B
  3
C0
350
5C
  3
C1
350
5D
  3
C2
350
5E
  3
C3
350
5F
  3
C4
350
60
  3
C5
350
61
  3
C6
350
62
  3
C7
350
63
  3
C8
350
64
  3
C9
350
65
  3
D0
350
66
  3
D1
350
67
  3
D2
350
68
  0
LAYOUT
  5
1A4
102
{ACAD_REACTORS
330
1A
102
}
330
1A
100
AcDbPlotSettings
  1

  2
none_device
  4
ISO_A4_(210.00_x_297.00_MM)
  6

 40
7.5
 41
20.0
 42
7.5
 43
20.0
 44
210.0
 45
297.0
 46
0.0
 47
0.0
 48
0.0
 49
0.0
140
0.0
141
0.0
142
1.0
143
4.0615384615
 70
   688
 72
     1
 73
     1
 74
     1
  7

 75
     0
147
0.2462121212
148
303.0
149
0.0
100
AcDbLayout
  1
_Back
 70
     1
 71
     3
 10
0.0
 20
0.0
 11
0.0
 21
0.0
 12
0.0
 22
0.0
 32
0.0
 14
0.0
 24
0.0
 34
0.0
 15
0.0
 25
0.0
 35
0.0
146
0.0
 13
0.0
 23
0.0
 33
0.0
 16
1.0
 26
0.0
 36
0.0
 17
0.0
 27
1.0
 37
0.0
 76
     0
330
1A3
331
350
  0
LAYOUT
  5
1E
102
{ACAD_REACTORS
330
1A
102
}
330
1A
100
AcDbPlotSettings
  1

  2
none_device
  4
ISO_A4_(210.00_x_297.00_MM)
  6

 40
7.5
 41
20.0
 42
7.5
 43
20.0
 44
210.0
 45
297.0
 46
0.0
 47
0.0
 48
0.0
 49
0.0
140
0.0
141
0.0
142
1.0
143
4.0615384615
 70
   688
 72
     1
 73
     1
 74
     1
  7

 75
     0
147
0.2462121212
148
303.0
149
0.0
100
AcDbLayout
  1
_Front
 70
     1
 71
     1
 10
-384.2307692308
 20
-30.4615384615
 11
822.0461538462
 21
822.4615384615
 12
0.0
 22
0.0
 32
0.0
 14
-303.0
 24
0.0
 34
0.0
 15
303.0
 25
792.0
 35
0.0
146
0.0
 13
0.0
 23
0.0
 33
0.0
 16
1.0
 26
0.0
 36
0.0
 17
0.0
 27
1.0
 37
0.0
 76
     0
330
1B
331
34C
  0
LAYOUT
  5
288
102
{ACAD_REACTORS
330
1A
102
}
330
1A
100
AcDbPlotSettings
  1

  2
none_device
  4
ISO_A4_(210.00_x_297.00_MM)
  6

 40
7.5
 41
20.0
 42
7.5
 43
20.0
 44
210.0
 45
297.0
 46
0.0
 47
0.0
 48
0.0
 49
0.0
140
0.0
141
0.0
142
1.0
143
4.0615384615
 70
   688
 72
     1
 73
     1
 74
     1
  7

 75
     0
147
0.2462121212
148
303.0
149
0.0
100
AcDbLayout
  1
_Isometric
 70
     1
 71
     4
 10
0.0
 20
0.0
 11
0.0
 21
0.0
 12
0.0
 22
0.0
 32
0.0
 14
0.0
 24
0.0
 34
0.0
 15
0.0
 25
0.0
 35
0.0
146
0.0
 13
0.0
 23
0.0
 33
0.0
 16
1.0
 26
0.0
 36
0.0
 17
0.0
 27
1.0
 37
0.0
 76
     0
330
287
331
352
  0
LAYOUT
  5
26
102
{ACAD_REACTORS
330
1A
102
}
330
1A
100
AcDbPlotSettings
  1

  2
none_device
  4
ISO_A4_(210.00_x_297.00_MM)
  6

 40
7.5
 41
20.0
 42
7.5
 43
20.0
 44
210.0
 45
297.0
 46
0.0
 47
0.0
 48
0.0
 49
0.0
140
0.0
141
0.0
142
1.0
143
4.0615384615
 70
   688
 72
     1
 73
     1
 74
     1
  7

 75
     0
147
0.2462121212
148
303.0
149
0.0
100
AcDbLayout
  1
_Right
 70
     1
 71
     2
 10
0.0
 20
0.0
 11
0.0
 21
0.0
 12
0.0
 22
0.0
 32
0.0
 14
0.0
 24
0.0
 34
0.0
 15
0.0
 25
0.0
 35
0.0
146
0.0
 13
0.0
 23
0.0
 33
0.0
 16
1.0
 26
0.0
 36
0.0
 17
0.0
 27
1.0
 37
0.0
 76
     0
330
23
331
34E
  0
LAYOUT
  5
22
102
{ACAD_REACTORS
330
1A
102
}
330
1A
100
AcDbPlotSettings
  1

  2
none_device
  4
ANSI_A_(11.00_x_8.50_Inches)
  6

 40
6.35
 41
19.05
 42
6.35000508
 43
19.05000254
 44
279.4
 45
215.9
 46
133.34999746
 47
75.8913007102
 48
0.0
 49
0.0
140
0.0
141
0.0
142
0.017970297
143
1.0
 70
  1696
 72
     0
 73
     0
 74
     0
  7

 75
     0
147
0.0179189148
148
-1300.4909072572
149
0.0
100
AcDbLayout
  1
Model
 70
     1
 71
     0
 10
0.0
 20
0.0
 11
420.0
 21
297.0
 12
0.0
 22
0.0
 32
0.0
 14
-303.0
 24
-16.0
 34
0.0
 15
303.0
 25
73.0
 35
0.0
146
0.0
 13
0.0
 23
0.0
 33
0.0
 16
1.0
 26
0.0
 36
0.0
 17
0.0
 27
1.0
 37
0.0
 76
     0
330
1F
331
29
  0
MLINESTYLE
  5
18
102
{ACAD_REACTORS
330
17
102
}
330
17
100
AcDbMlineStyle
  2
Standard
 70
     0
  3

 62
   256
 51
90.0
 52
90.0
 71
     2
 49
0.5
 62
   256
  6
BYLAYER
 49
-0.5
 62
   256
  6
BYLAYER
  0
ACDBPLACEHOLDER
  5
F
102
{ACAD_REACTORS
330
E
102
}
330
E
  0
SCALE
  5
48
102
{ACAD_REACTORS
330
47
102
}
330
47
100
AcDbScale
 70
     0
300
1:1
140
1.0
141
1.0
290
     1
  0
SCALE
  5
49
102
{ACAD_REACTORS
330
47
102
}
330
47
100
AcDbScale
 70
     0
300
1:2
140
1.0
141
2.0
290
     0
  0
SCALE
  5
4A
102
{ACAD_REACTORS
330
47
102
}
330
47
100
AcDbScale
 70
     0
300
1:4
140
1.0
141
4.0
290
     0
  0
SCALE
  5
4B
102
{ACAD_REACTORS
330
47
102
}
330
47
100
AcDbScale
 70
     0
300
1:5
140
1.0
141
5.0
290
     0
  0
SCALE
  5
4C
102
{ACAD_REACTORS
330
47
102
}
330
47
100
AcDbScale
 70
     0
300
1:8
140
1.0
141
8.0
290
     0
  0
SCALE
  5
4D
102
{ACAD_REACTORS
330
47
102
}
330
47
100
AcDbScale
 70
     0
300
1:10
140
1.0
141
10.0
290
     0
  0
SCALE
  5
4E
102
{ACAD_REACTORS
330
47
102
}
330
47
100
AcDbScale
 70
     0
300
1:16
140
1.0
141
16.0
290
     0
  0
SCALE
  5
4F
102
{ACAD_REACTORS
330
47
102
}
330
47
100
AcDbScale
 70
     0
300
1:20
140
1.0
141
20.0
290
     0
  0
SCALE
  5
50
102
{ACAD_REACTORS
330
47
102
}
330
47
100
AcDbScale
 70
     0
300
1:30
140
1.0
141
30.0
290
     0
  0
SCALE
  5
51
102
{ACAD_REACTORS
330
47
102
}
330
47
100
AcDbScale
 70
     0
300
1:40
140
1.0
141
40.0
290
     0
  0
SCALE
  5
52
102
{ACAD_REACTORS
330
47
102
}
330
47
100
AcDbScale
 70
     0
300
1:50
140
1.0
141
50.0
290
     0
  0
SCALE
  5
53
102
{ACAD_REACTORS
330
47
102
}
330
47
100
AcDbScale
 70
     0
300
1:100
140
1.0
141
100.0
290
     0
  0
SCALE
  5
54
102
{ACAD_REACTORS
330
47
102
}
330
47
100
AcDbScale
 70
     0
300
2:1
140
2.0
141
1.0
290
     0
  0
SCALE
  5
55
102
{ACAD_REACTORS
330
47
102
}
330
47
100
AcDbScale
 70
     0
300
4:1
140
4.0
141
1.0
290
     0
  0
SCALE
  5
56
102
{ACAD_REACTORS
330
47
102
}
330
47
100
AcDbScale
 70
     0
300
8:1
140
8.0
141
1.0
290
     0
  0
SCALE
  5
57
102
{ACAD_REACTORS
330
47
102
}
330
47
100
AcDbScale
 70
     0
300
10:1
140
10.0
141
1.0
290
     0
  0
SCALE
  5
58
102
{ACAD_REACTORS
330
47
102
}
330
47
100
AcDbScale
 70
     0
300
100:1
140
100.0
141
1.0
290
     0
  0
SCALE
  5
59
102
{ACAD_REACTORS
330
47
102
}
330
47
100
AcDbScale
 70
     0
300
1/128" = 1'-0"
140
0.0078125
141
12.0
290
     0
  0
SCALE
  5
5A
102
{ACAD_REACTORS
330
47
102
}
330
47
100
AcDbScale
 70
     0
300
1/64" = 1'-0"
140
0.015625
141
12.0
290
     0
  0
SCALE
  5
5B
102
{ACAD_REACTORS
330
47
102
}
330
47
100
AcDbScale
 70
     0
300
1/32" = 1'-0"
140
0.03125
141
12.0
290
     0
  0
SCALE
  5
5C
102
{ACAD_REACTORS
330
47
102
}
330
47
100
AcDbScale
 70
     0
300
1/16" = 1'-0"
140
0.0625
141
12.0
290
     0
  0
SCALE
  5
5D
102
{ACAD_REACTORS
330
47
102
}
330
47
100
AcDbScale
 70
     0
300
3/32" = 1'-0"
140
0.09375
141
12.0
290
     0
  0
SCALE
  5
5E
102
{ACAD_REACTORS
330
47
102
}
330
47
100
AcDbScale
 70
     0
300
1/8" = 1'-0"
140
0.125
141
12.0
290
     0
  0
SCALE
  5
5F
102
{ACAD_REACTORS
330
47
102
}
330
47
100
AcDbScale
 70
     0
300
3/16" = 1'-0"
140
0.1875
141
12.0
290
     0
  0
SCALE
  5
60
102
{ACAD_REACTORS
330
47
102
}
330
47
100
AcDbScale
 70
     0
300
1/4" = 1'-0"
140
0.25
141
12.0
290
     0
  0
SCALE
  5
61
102
{ACAD_REACTORS
330
47
102
}
330
47
100
AcDbScale
 70
     0
300
3/8" = 1'-0"
140
0.375
141
12.0
290
     0
  0
SCALE
  5
62
102
{ACAD_REACTORS
330
47
102
}
330
47
100
AcDbScale
 70
     0
300
1/2" = 1'-0"
140
0.5
141
12.0
290
     0
  0
SCALE
  5
63
102
{ACAD_REACTORS
330
47
102
}
330
47
100
AcDbScale
 70
     0
300
3/4" = 1'-0"
140
0.75
141
12.0
290
     0
  0
SCALE
  5
64
102
{ACAD_REACTORS
330
47
102
}
330
47
100
AcDbScale
 70
     0
300
1" = 1'-0"
140
1.0
141
12.0
290
     0
  0
SCALE
  5
65
102
{ACAD_REACTORS
330
47
102
}
330
47
100
AcDbScale
 70
     0
300
1-1/2" = 1'-0"
140
1.5
141
12.0
290
     0
  0
SCALE
  5
66
102
{ACAD_REACTORS
330
47
102
}
330
47
100
AcDbScale
 70
     0
300
3" = 1'-0"
140
3.0
141
12.0
290
     0
  0
SCALE
  5
67
102
{ACAD_REACTORS
330
47
102
}
330
47
100
AcDbScale
 70
     0
300
6" = 1'-0"
140
6.0
141
12.0
290
     0
  0
SCALE
  5
68
102
{ACAD_REACTORS
330
47
102
}
330
47
100
AcDbScale
 70
     0
300
1'-0" = 1'-0"
140
12.0
141
12.0
290
     0
  0
ENDSEC
  0
EOF
