  0
SECTION
  2
HEADER
  9
$ACADVER
  1
AC1015
  9
$ACADMAINTVER
 70
     6
  9
$DWGCODEPAGE
  3
ANSI_1252
  9
$INSBASE
 10
0.0
 20
0.0
 30
0.0
  9
$EXTMIN
 10
-800.0
 20
-350.0
 30
0.0
  9
$EXTMAX
 10
800.0
 20
350.0
 30
0.0
  9
$LIMMIN
 10
0.0
 20
0.0
  9
$LIMMAX
 10
420.0
 20
297.0
  9
$ORTHOMODE
 70
     0
  9
$REGENMODE
 70
     1
  9
$FILLMODE
 70
     1
  9
$QTEXTMODE
 70
     0
  9
$MIRRTEXT
 70
     1
  9
$LTSCALE
 40
1.0
  9
$ATTMODE
 70
     1
  9
$TEXTSIZE
 40
3.5
  9
$TRACEWID
 40
1.0
  9
$TEXTSTYLE
  7
Standard
  9
$CLAYER
  8
0
  9
$CELTYPE
  6
ByLayer
  9
$CECOLOR
 62
   256
  9
$CELTSCALE
 40
1.0
  9
$DISPSILH
 70
     0
  9
$DIMSCALE
 40
1.0
  9
$DIMASZ
 40
3.302
  9
$DIMEXO
 40
1.0
  9
$DIMDLI
 40
3.75
  9
$DIMRND
 40
0.0
  9
$DIMDLE
 40
0.0
  9
$DIMEXE
 40
1.0
  9
$DIMTP
 40
0.0
  9
$DIMTM
 40
0.0
  9
$DIMTXT
 40
3.5
  9
$DIMCEN
 40
2.5
  9
$DIMTSZ
 40
0.0
  9
$DIMTOL
 70
     0
  9
$DIMLIM
 70
     0
  9
$DIMTIH
 70
     1
  9
$DIMTOH
 70
     1
  9
$DIMSE1
 70
     0
  9
$DIMSE2
 70
     0
  9
$DIMTAD
 70
     1
  9
$DIMZIN
 70
     1
  9
$DIMBLK
  1

  9
$DIMASO
 70
     1
  9
$DIMSHO
 70
     1
  9
$DIMPOST
  1

  9
$DIMAPOST
  1

  9
$DIMALT
 70
     0
  9
$DIMALTD
 70
     3
  9
$DIMALTF
 40
0.0393700787
  9
$DIMLFAC
 40
1.0
  9
$DIMTOFL
 70
     1
  9
$DIMTVP
 40
0.0
  9
$DIMTIX
 70
     0
  9
$DIMSOXD
 70
     0
  9
$DIMSAH
 70
     0
  9
$DIMBLK1
  1

  9
$DIMBLK2
  1

  9
$DIMSTYLE
  2
ISO-25
  9
$DIMCLRD
 70
     0
  9
$DIMCLRE
 70
     0
  9
$DIMCLRT
 70
     0
  9
$DIMTFAC
 40
1.0
  9
$DIMGAP
 40
1.524
  9
$DIMJUST
 70
     0
  9
$DIMSD1
 70
     0
  9
$DIMSD2
 70
     0
  9
$DIMTOLJ
 70
     0
  9
$DIMTZIN
 70
     1
  9
$DIMALTZ
 70
     0
  9
$DIMALTTZ
 70
     0
  9
$DIMUPT
 70
     0
  9
$DIMDEC
 70
     2
  9
$DIMTDEC
 70
     2
  9
$DIMALTU
 70
     2
  9
$DIMALTTD
 70
     3
  9
$DIMTXSTY
  7
Standard
  9
$DIMAUNIT
 70
     0
  9
$DIMADEC
 70
     2
  9
$DIMALTRND
 40
0.0
  9
$DIMAZIN
 70
     0
  9
$DIMDSEP
 70
    44
  9
$DIMATFIT
 70
     3
  9
$DIMFRAC
 70
     0
  9
$DIMLDRBLK
  1

  9
$DIMLUNIT
 70
     2
  9
$DIMLWD
 70
    -2
  9
$DIMLWE
 70
    -2
  9
$DIMTMOVE
 70
     0
  9
$LUNITS
 70
     2
  9
$LUPREC
 70
     2
  9
$SKETCHINC
 40
1.0
  9
$FILLETRAD
 40
10.0
  9
$AUNITS
 70
     0
  9
$AUPREC
 70
     2
  9
$MENU
  1
.
  9
$ELEVATION
 40
0.0
  9
$PELEVATION
 40
0.0
  9
$THICKNESS
 40
0.0
  9
$LIMCHECK
 70
     0
  9
$CHAMFERA
 40
0.0
  9
$CHAMFERB
 40
0.0
  9
$CHAMFERC
 40
0.0
  9
$CHAMFERD
 40
0.0
  9
$SKPOLY
 70
     0
  9
$TDCREATE
 40
2458719.524021921
  9
$TDUCREATE
 40
2458719.482355255
  9
$TDUPDATE
 40
2458719.524053414
  9
$TDUUPDATE
 40
2458719.482386748
  9
$TDINDWG
 40
0.0000000116
  9
$TDUSRTIMER
 40
0.0000000116
  9
$USRTIMER
 70
     1
  9
$ANGBASE
 50
0.0
  9
$ANGDIR
 70
     0
  9
$PDMODE
 70
     0
  9
$PDSIZE
 40
-1.0
  9
$PLINEWID
 40
0.0
  9
$SPLFRAME
 70
     0
  9
$SPLINETYPE
 70
     6
  9
$SPLINESEGS
 70
     8
  9
$HANDSEED
  5
16C
  9
$SURFTAB1
 70
     6
  9
$SURFTAB2
 70
     6
  9
$SURFTYPE
 70
     6
  9
$SURFU
 70
     6
  9
$SURFV
 70
     6
  9
$UCSBASE
  2

  9
$UCSNAME
  2

  9
$UCSORG
 10
0.0
 20
0.0
 30
0.0
  9
$UCSXDIR
 10
1.0
 20
0.0
 30
0.0
  9
$UCSYDIR
 10
0.0
 20
1.0
 30
0.0
  9
$UCSORTHOREF
  2

  9
$UCSORTHOVIEW
 70
     0
  9
$UCSORGTOP
 10
0.0
 20
0.0
 30
0.0
  9
$UCSORGBOTTOM
 10
0.0
 20
0.0
 30
0.0
  9
$UCSORGLEFT
 10
0.0
 20
0.0
 30
0.0
  9
$UCSORGRIGHT
 10
0.0
 20
0.0
 30
0.0
  9
$UCSORGFRONT
 10
0.0
 20
0.0
 30
0.0
  9
$UCSORGBACK
 10
0.0
 20
0.0
 30
0.0
  9
$PUCSBASE
  2

  9
$PUCSNAME
  2

  9
$PUCSORG
 10
0.0
 20
0.0
 30
0.0
  9
$PUCSXDIR
 10
1.0
 20
0.0
 30
0.0
  9
$PUCSYDIR
 10
0.0
 20
1.0
 30
0.0
  9
$PUCSORTHOREF
  2

  9
$PUCSORTHOVIEW
 70
     0
  9
$PUCSORGTOP
 10
0.0
 20
0.0
 30
0.0
  9
$PUCSORGBOTTOM
 10
0.0
 20
0.0
 30
0.0
  9
$PUCSORGLEFT
 10
0.0
 20
0.0
 30
0.0
  9
$PUCSORGRIGHT
 10
0.0
 20
0.0
 30
0.0
  9
$PUCSORGFRONT
 10
0.0
 20
0.0
 30
0.0
  9
$PUCSORGBACK
 10
0.0
 20
0.0
 30
0.0
  9
$USERI1
 70
     0
  9
$USERI2
 70
     0
  9
$USERI3
 70
     0
  9
$USERI4
 70
     0
  9
$USERI5
 70
     0
  9
$USERR1
 40
0.0
  9
$USERR2
 40
0.0
  9
$USERR3
 40
0.0
  9
$USERR4
 40
0.0
  9
$USERR5
 40
0.0
  9
$WORLDVIEW
 70
     1
  9
$SHADEDGE
 70
     3
  9
$SHADEDIF
 70
    70
  9
$TILEMODE
 70
     1
  9
$MAXACTVP
 70
    64
  9
$PINSBASE
 10
0.0
 20
0.0
 30
0.0
  9
$PLIMCHECK
 70
     0
  9
$PEXTMIN
 10
-800.0
 20
0.0
 30
0.0
  9
$PEXTMAX
 10
800.0
 20
390.0
 30
0.0
  9
$PLIMMIN
 10
-924.513618677
 20
-46.6926070039
  9
$PLIMMAX
 10
924.513618677
 20
1260.7003891051
  9
$UNITMODE
 70
     0
  9
$VISRETAIN
 70
     1
  9
$PLINEGEN
 70
     0
  9
$PSLTSCALE
 70
     1
  9
$TREEDEPTH
 70
  3020
  9
$CMLSTYLE
  2
Standard
  9
$CMLJUST
 70
     0
  9
$CMLSCALE
 40
20.0
  9
$PROXYGRAPHICS
 70
     1
  9
$MEASUREMENT
 70
     1
  9
$CELWEIGHT
370
    -1
  9
$ENDCAPS
280
     0
  9
$JOINSTYLE
280
     0
  9
$LWDISPLAY
290
     1
  9
$INSUNITS
 70
     4
  9
$HYPERLINKBASE
  1

  9
$STYLESHEET
  1

  9
$XEDIT
290
     1
  9
$CEPSNTYPE
380
     0
  9
$PSTYLEMODE
290
     1
  9
$FINGERPRINTGUID
  2
{fcad847a-0dbd-4a5b-bd21-4f5de5261af6}
  9
$VERSIONGUID
  2
{FAEB1C32-E019-11D5-929B-00C0DF256EC4}
  9
$EXTNAMES
290
     1
  9
$PSVPSCALE
 40
0.0
  9
$OLESTARTUP
290
     0
  0
ENDSEC
  0
SECTION
  2
CLASSES
  0
CLASS
  1
ACDBDICTIONARYWDFLT
  2
AcDbDictionaryWithDefault
  3
ObjectDBX Classes
 90
        0
280
     0
281
     0
  0
CLASS
  1
VISUALSTYLE
  2
AcDbVisualStyle
  3
ObjectDBX Classes
 90
     4095
280
     0
281
     0
  0
CLASS
  1
MATERIAL
  2
AcDbMaterial
  3
ObjectDBX Classes
 90
     1153
280
     0
281
     0
  0
CLASS
  1
SCALE
  2
AcDbScale
  3
ObjectDBX Classes
 90
     1153
280
     0
281
     0
  0
CLASS
  1
TABLESTYLE
  2
AcDbTableStyle
  3
ObjectDBX Classes
 90
     4095
280
     0
281
     0
  0
CLASS
  1
MLEADERSTYLE
  2
AcDbMLeaderStyle
  3
ACDB_MLEADERSTYLE_CLASS
 90
     4095
280
     0
281
     0
  0
CLASS
  1
SUN
  2
AcDbSun
  3
SCENEOE
 90
     1153
280
     0
281
     0
  0
CLASS
  1
ACDBPLACEHOLDER
  2
AcDbPlaceHolder
  3
ObjectDBX Classes
 90
        0
280
     0
281
     0
  0
CLASS
  1
LAYOUT
  2
AcDbLayout
  3
ObjectDBX Classes
 90
        0
280
     0
281
     0
  0
ENDSEC
  0
SECTION
  2
TABLES
  0
TABLE
  2
VPORT
  5
8
330
0
100
AcDbSymbolTable
 70
     1
  0
VPORT
  5
29
330
8
100
AcDbSymbolTableRecord
100
AcDbViewportTableRecord
  2
*Active
 70
     0
 10
0.0
 20
0.0
 11
1.0
 21
1.0
 12
0.0
 22
0.0
 13
0.0
 23
0.0
 14
10.0
 24
10.0
 15
10.0
 25
10.0
 16
0.0
 26
0.0
 36
1.0
 17
0.0
 27
0.0
 37
0.0
 40
714.0
 41
2.2857142857
 42
50.0
 43
0.0
 44
0.0
 50
0.0
 51
0.0
 71
     0
 72
   100
 73
     1
 74
     3
 75
     0
 76
     0
 77
     0
 78
     0
281
     0
 65
     1
110
0.0
120
0.0
130
0.0
111
1.0
121
0.0
131
0.0
112
0.0
122
1.0
132
0.0
 79
     0
146
0.0
  0
ENDTAB
  0
TABLE
  2
LTYPE
  5
5
330
0
100
AcDbSymbolTable
 70
     6
  0
LTYPE
  5
14
330
5
100
AcDbSymbolTableRecord
100
AcDbLinetypeTableRecord
  2
ByBlock
 70
     0
  3

 72
    65
 73
     0
 40
0.0
  0
LTYPE
  5
15
330
5
100
AcDbSymbolTableRecord
100
AcDbLinetypeTableRecord
  2
ByLayer
 70
     0
  3

 72
    65
 73
     0
 40
0.0
  0
LTYPE
  5
16
330
5
100
AcDbSymbolTableRecord
100
AcDbLinetypeTableRecord
  2
Continuous
 70
     0
  3
Solid line
 72
    65
 73
     0
 40
0.0
  0
LTYPE
  5
6E
330
5
100
AcDbSymbolTableRecord
100
AcDbLinetypeTableRecord
  2
HIDDEN
 70
     0
  3
Hidden __ __ __ __ __ __ __ __ __ __ __ __ __ __
 72
    65
 73
     2
 40
1.905
 49
1.27
 74
     0
 49
-0.635
 74
     0
  0
LTYPE
  5
6F
330
5
100
AcDbSymbolTableRecord
100
AcDbLinetypeTableRecord
  2
PHANTOM
 70
     0
  3
Phantom ______  __  __  ______  __  __  ______
 72
    65
 73
     6
 40
12.7
 49
6.35
 74
     0
 49
-1.27
 74
     0
 49
1.27
 74
     0
 49
-1.27
 74
     0
 49
1.27
 74
     0
 49
-1.27
 74
     0
  0
LTYPE
  5
70
330
5
100
AcDbSymbolTableRecord
100
AcDbLinetypeTableRecord
  2
CENTER
 70
     0
  3
Center ____ _ ____ _ ____ _ ____ _ ____ _ ____
 72
    65
 73
     4
 40
10.16
 49
6.35
 74
     0
 49
-1.27
 74
     0
 49
1.27
 74
     0
 49
-1.27
 74
     0
  0
LTYPE
  5
71
330
5
100
AcDbSymbolTableRecord
100
AcDbLinetypeTableRecord
  2
CENTERX2
 70
     0
  3
Center (2x) ________  __  ________  __  _____
 72
    65
 73
     4
 40
20.32
 49
12.7
 74
     0
 49
-2.54
 74
     0
 49
2.54
 74
     0
 49
-2.54
 74
     0
  0
LTYPE
  5
72
330
5
100
AcDbSymbolTableRecord
100
AcDbLinetypeTableRecord
  2
DOT2
 70
     0
  3
Dot (.5x) ........................................
 72
    65
 73
     2
 40
0.635
 49
0.0
 74
     0
 49
-0.635
 74
     0
  0
ENDTAB
  0
TABLE
  2
LAYER
  5
2
330
0
100
AcDbSymbolTable
 70
     1
  0
LAYER
  5
10
330
2
100
AcDbSymbolTableRecord
100
AcDbLayerTableRecord
  2
0
 70
     0
 62
     7
  6
Continuous
370
    -3
390
F
  0
ENDTAB
  0
TABLE
  2
STYLE
  5
3
330
0
100
AcDbSymbolTable
 70
     1
  0
STYLE
  5
11
330
3
100
AcDbSymbolTableRecord
100
AcDbTextStyleTableRecord
  2
Standard
 70
     0
 40
0.0
 41
1.0
 50
0.0
 71
     0
 42
3.5
  3
txt
  4

  0
ENDTAB
  0
TABLE
  2
VIEW
  5
6
330
0
100
AcDbSymbolTable
 70
     0
  0
ENDTAB
  0
TABLE
  2
UCS
  5
7
330
0
100
AcDbSymbolTable
 70
     0
  0
ENDTAB
  0
TABLE
  2
APPID
  5
9
330
0
100
AcDbSymbolTable
 70
     1
  0
APPID
  5
12
330
9
100
AcDbSymbolTableRecord
100
AcDbRegAppTableRecord
  2
ACAD
 70
     0
  0
ENDTAB
  0
TABLE
  2
DIMSTYLE
  5
A
330
0
100
AcDbSymbolTable
 70
     1
100
AcDbDimStyleTable
  0
DIMSTYLE
105
27
330
A
100
AcDbSymbolTableRecord
100
AcDbDimStyleTableRecord
  2
ISO-25
 70
     0
 41
2.5
 42
0.625
 43
3.75
 44
1.25
 73
     0
 74
     0
 77
     1
 78
     8
140
2.5
141
2.5
143
0.0393700787
147
0.625
171
     3
172
     1
178
     0
271
     2
272
     2
274
     3
278
    44
283
     0
284
     8
340
11
  0
ENDTAB
  0
TABLE
  2
BLOCK_RECORD
  5
1
330
0
100
AcDbSymbolTable
 70
     1
  0
BLOCK_RECORD
  5
1F
330
1
100
AcDbSymbolTableRecord
100
AcDbBlockTableRecord
  2
*Model_Space
340
22
  0
BLOCK_RECORD
  5
1B
330
1
100
AcDbSymbolTableRecord
100
AcDbBlockTableRecord
  2
*Paper_Space
340
1E
  0
BLOCK_RECORD
  5
23
330
1
100
AcDbSymbolTableRecord
100
AcDbBlockTableRecord
  2
*Paper_Space0
340
26
  0
ENDTAB
  0
ENDSEC
  0
SECTION
  2
BLOCKS
  0
BLOCK
  5
20
330
1F
100
AcDbEntity
  8
0
100
AcDbBlockBegin
  2
*Model_Space
 70
     0
 10
0.0
 20
0.0
 30
0.0
  3
*Model_Space
  1

  0
ENDBLK
  5
21
330
1F
100
AcDbEntity
  8
0
100
AcDbBlockEnd
  0
BLOCK
  5
1C
330
1B
100
AcDbEntity
 67
     1
  8
0
100
AcDbBlockBegin
  2
*Paper_Space
 70
     0
 10
0.0
 20
0.0
 30
0.0
  3
*Paper_Space
  1

  0
ENDBLK
  5
1D
330
1B
100
AcDbEntity
 67
     1
  8
0
100
AcDbBlockEnd
  0
BLOCK
  5
24
330
23
100
AcDbEntity
  8
0
100
AcDbBlockBegin
  2
*Paper_Space0
 70
     0
 10
0.0
 20
0.0
 30
0.0
  3
*Paper_Space0
  1

  0
SPLINE
  5
123
330
23
100
AcDbEntity
  8
0
  6
Continuous
 62
     7
370
    25
100
AcDbSpline
210
0.0
220
0.0
230
1.0
 70
     8
 71
     3
 72
     9
 73
     5
 74
     0
 42
0.000000001
 43
0.00000001
 40
0.0
 40
0.0
 40
0.0
 40
0.0
 40
0.5912426928419188
 40
1.0
 40
1.0
 40
1.0
 40
1.0
 10
-282.388837554983
 20
357.8
 30
0.0
 10
-273.3240092078733
 20
303.9743621018254
 30
0.0
 10
-257.9921861564325
 20
212.9362172759645
 30
0.0
 10
-242.659316961746
 20
121.8921398065478
 30
0.0
 10
-236.3918946387188
 20
84.67720786745726
 30
0.0
  0
SPLINE
  5
124
330
23
100
AcDbEntity
  8
0
  6
Continuous
 62
     7
370
    25
100
AcDbSpline
210
0.0
220
0.0
230
1.0
 70
     8
 71
     3
 72
     9
 73
     5
 74
     0
 42
0.000000001
 43
0.00000001
 40
0.0
 40
0.0
 40
0.0
 40
0.0
 40
0.4087999459589572
 40
1.0
 40
1.0
 40
1.0
 40
1.0
 10
236.3901817575965
 20
84.66709029587184
 30
0.0
 10
242.6580627684586
 20
121.8847317203281
 30
0.0
 10
257.9904547436066
 20
212.9259409777112
 30
0.0
 10
273.3237774419586
 20
303.9729835254813
 30
0.0
 10
282.3888386498531
 20
357.8
 30
0.0
  0
SPLINE
  5
13E
330
23
100
AcDbEntity
  8
0
  6
Continuous
 62
     7
370
    25
100
AcDbSpline
210
0.0
220
0.0
230
1.0
 70
     8
 71
     3
 72
    55
 73
    51
 74
     0
 42
0.000000001
 43
0.00000001
 40
0.0
 40
0.0
 40
0.0
 40
0.0
 40
0.0130104047260735
 40
0.0235673743647239
 40
0.0316708797993792
 40
0.0397363114416905
 40
0.0502560480116841
 40
0.0632306128522555
 40
0.0818427926946205
 40
0.0949273470853678
 40
0.107950952271002
 40
0.1264614887014291
 40
0.1450317254447425
 40
0.1581116304423363
 40
0.171153224937706
 40
0.1896870092308767
 40
0.2082452318071994
 40
0.2213241253979599
 40
0.2343840045571975
 40
0.2529113191941751
 40
0.2639312559117136
 40
0.2804911876249412
 40
0.3127305746323005
 40
0.3442386445636418
 40
0.3647917152719845
 40
0.3703155575377621
 40
0.3792768950596096
 40
0.3969619360623746
 40
0.4167621171757142
 40
0.4446431671982677
 40
0.4723802908474097
 40
0.4909476020331424
 40
0.4966338522931866
 40
0.5056325636372765
 40
0.5423494104340526
 40
0.5925265804204312
 40
0.6292404161177366
 40
0.6550872117236656
 40
0.6910174080266238
 40
0.7269706317014462
 40
0.7528455706017187
 40
0.7659753186149157
 40
0.7920024805479456
 40
0.8327438568498272
 40
0.8677504235558636
 40
0.9019152895426299
 40
0.9464041511660032
 40
0.9837029295497969
 40
0.9917320649739251
 40
1.0
 40
1.0
 40
1.0
 40
1.0
 10
187.0986976590583
 20
30.16362659950408
 30
0.0
 10
187.3357083396482
 20
30.35980102444011
 30
0.0
 10
187.7650354478747
 20
30.71515631204205
 30
0.0
 10
188.3352716697819
 20
31.19772101585944
 30
0.0
 10
188.8123762295686
 20
31.60628796061332
 30
0.0
 10
189.2837944097004
 20
32.01445846547391
 30
0.0
 10
189.8370793940415
 20
32.49981631072927
 30
0.0
 10
190.568655392773
 20
33.15240129658631
 30
0.0
 10
191.3359139348596
 20
33.85240381683693
 30
0.0
 10
192.0938560764844
 20
34.55944509062795
 30
0.0
 10
192.8377548727153
 20
35.26532007570082
 30
0.0
 10
193.6619962243823
 20
36.06462125664023
 30
0.0
 10
194.4752513598216
 20
36.87389663018678
 30
0.0
 10
195.1898162521078
 20
37.60059529826379
 30
0.0
 10
195.8919997501046
 20
38.32677656001615
 30
0.0
 10
196.6693643952217
 20
39.14813367723233
 30
0.0
 10
197.4353781417891
 20
39.97836859730467
 30
0.0
 10
198.1084663655115
 20
40.72387443422967
 30
0.0
 10
198.7694026975224
 20
41.46812662333235
 30
0.0
 10
199.3898474617456
 20
42.1815997444881
 30
0.0
 10
200.0525341905535
 20
42.95914340617429
 30
0.0
 10
200.8989161671346
 20
43.97030101165708
 30
0.0
 10
202.0105806712922
 20
45.34354451847128
 30
0.0
 10
203.1387734193249
 20
46.79809843156568
 30
0.0
 10
203.8899410305571
 20
47.80179170267937
 30
0.0
 10
204.3378599722982
 20
48.41001014744115
 30
0.0
 10
204.7466525176611
 20
48.97080365266296
 30
0.0
 10
205.3300779140386
 20
49.78649752102302
 30
0.0
 10
206.1312029690365
 20
50.93456758260231
 30
0.0
 10
207.0327018754803
 20
52.27020216163012
 30
0.0
 10
207.8916538131157
 20
53.59312042755701
 30
0.0
 10
208.478127663353
 20
54.52668174335301
 30
0.0
 10
208.846056867375
 20
55.1216825609411
 30
0.0
 10
209.4110394090172
 20
56.04552155528808
 30
0.0
 10
210.4329657958136
 20
57.7710076437197
 30
0.0
 10
211.6824761628467
 20
60.02026961273887
 30
0.0
 10
212.7602371072447
 20
62.09348472859383
 30
0.0
 10
213.6585285489202
 20
63.90504896853189
 30
0.0
 10
214.5128597267535
 20
65.7159892943622
 30
0.0
 10
215.3238211923357
 20
67.54145255461717
 30
0.0
 10
215.9150861961051
 20
68.94379402326665
 30
0.0
 10
216.4102884050392
 20
70.15704336830689
 30
0.0
 10
217.0023779935534
 20
71.66326317053756
 30
0.0
 10
217.7145092202171
 20
73.59357468795297
 30
0.0
 10
218.4303240778812
 20
75.68308103483014
 30
0.0
 10
219.1218404931029
 20
77.85386483876195
 30
0.0
 10
219.7699033606178
 20
80.07387482613194
 30
0.0
 10
220.225247627266
 20
81.79237750000236
 30
0.0
 10
220.4835350221843
 20
82.82877024483174
 30
0.0
 10
220.5599739090714
 20
83.14409486607065
 30
0.0
 10
220.5987533788037
 20
83.30406738926068
 30
0.0
  0
SPLINE
  5
13F
330
23
100
AcDbEntity
  8
0
  6
Continuous
 62
     7
370
    25
100
AcDbSpline
210
0.0
220
0.0
230
1.0
 70
     8
 71
     3
 72
    46
 73
    42
 74
     0
 42
0.000000001
 43
0.00000001
 40
0.0
 40
0.0
 40
0.0
 40
0.0
 40
0.006731403604192
 40
0.0302221811711189
 40
0.0953799203129935
 40
0.1516897583027576
 40
0.199980377718653
 40
0.2403870264613612
 40
0.2488894107649945
 40
0.2576585234698747
 40
0.3220951802623845
 40
0.3865212297652613
 40
0.413468952681149
 40
0.4509346716154916
 40
0.4884204154709199
 40
0.5153926627167862
 40
0.5513764949705801
 40
0.6004798812899649
 40
0.636499247649819
 40
0.6451370322965501
 40
0.6505988195372743
 40
0.6683712133332365
 40
0.6949064470501568
 40
0.7215729969239182
 40
0.7405863002504657
 40
0.7576188658453483
 40
0.7662809537945119
 40
0.7717617626541369
 40
0.7895334368415363
 40
0.8160537286467576
 40
0.842708512228569
 40
0.861740229502625
 40
0.8788046435813381
 40
0.8965360616690645
 40
0.9090222099640559
 40
0.9215690996685115
 40
0.9394026538675126
 40
0.9571645443483577
 40
0.9696468233931703
 40
0.9821844148767299
 40
1.0
 40
1.0
 40
1.0
 40
1.0
 10
135.0000009368791
 20
83.29682400222643
 30
0.0
 10
135.1259392324256
 20
83.16657257911444
 30
0.0
 10
135.6913681099952
 20
82.58177892558354
 30
0.0
 10
137.4879219858993
 20
80.75128224903766
 30
0.0
 10
140.2071596807929
 20
77.9742446810931
 30
0.0
 10
143.3737657866546
 20
74.73729999238626
 30
0.0
 10
146.0672614868535
 20
71.9885168568697
 30
0.0
 10
147.860086950794
 20
70.15169700739989
 30
0.0
 10
148.9322238808576
 20
69.07506474180045
 30
0.0
 10
150.4514472228003
 20
67.55324238253304
 30
0.0
 10
152.9702816285907
 20
64.9765649315994
 30
0.0
 10
155.8215381859406
 20
62.10949694324169
 30
0.0
 10
158.1487155043746
 20
59.74649952935179
 30
0.0
 10
159.9782999572779
 20
57.88799954261626
 30
0.0
 10
161.8037283776925
 20
56.04908676002168
 30
0.0
 10
163.5928449864104
 20
54.25042702900429
 30
0.0
 10
165.552487732105
 20
52.24074819925936
 30
0.0
 10
167.6591467623794
 20
50.09834772271326
 30
0.0
 10
169.2807145425067
 20
48.46388041243161
 30
0.0
 10
170.1377836523725
 20
47.59276363885387
 30
0.0
 10
170.6843185288137
 20
47.0416453156296
 30
0.0
 10
171.5257450167129
 20
46.17789765732586
 30
0.0
 10
172.7208392053652
 20
44.95654846108968
 30
0.0
 10
173.9268115127279
 20
43.7245476866776
 30
0.0
 10
174.9702057356492
 20
42.6653638954656
 30
0.0
 10
175.7028525701291
 20
41.91113537342386
 30
0.0
 10
176.2149400604818
 20
41.38979188999989
 30
0.0
 10
176.7401318780148
 20
40.85882109884875
 30
0.0
 10
177.5436952840976
 20
40.02741571545232
 30
0.0
 10
178.6828369257682
 20
38.85473610176701
 30
0.0
 10
179.8311440174292
 20
37.67516568827536
 30
0.0
 10
180.8243830669945
 20
36.66287375264862
 30
0.0
 10
181.6564020809543
 20
35.79502275071797
 30
0.0
 10
182.3897523557803
 20
35.04328162342094
 30
0.0
 10
183.0481019986963
 20
34.36829606815786
 30
0.0
 10
183.6963674267434
 20
33.69241025464282
 30
0.0
 10
184.4195800623449
 20
32.93984834381772
 30
0.0
 10
185.1392106119574
 20
32.19743881524079
 30
0.0
 10
185.777153412932
 20
31.54383247790885
 30
0.0
 10
186.4029339346365
 20
30.88991869067073
 30
0.0
 10
186.8413641214519
 20
30.43225128716026
 30
0.0
 10
187.0986976590581
 20
30.16362659950392
 30
0.0
  0
SPLINE
  5
141
330
23
100
AcDbEntity
  8
0
  6
Continuous
 62
     7
370
    25
100
AcDbSpline
210
0.0
220
0.0
230
1.0
 70
     8
 71
     3
 72
    55
 73
    51
 74
     0
 42
0.000000001
 43
0.00000001
 40
0.0
 40
0.0
 40
0.0
 40
0.0
 40
0.0130523733120064
 40
0.0236440483707621
 40
0.0317752622887189
 40
0.0398660639942896
 40
0.0504181335685934
 40
0.0634317339937654
 40
0.0821056842747073
 40
0.0952356543246431
 40
0.108300092805971
 40
0.1268638111798316
 40
0.145493046325861
 40
0.1586173946393227
 40
0.1717011328627148
 40
0.1902909065574973
 40
0.2089104407691209
 40
0.2220352422828387
 40
0.2351365658597468
 40
0.2537168028949425
 40
0.2647722112758639
 40
0.281387354099349
 40
0.3137344986081824
 40
0.3453479458762157
 40
0.3659672660908057
 40
0.3715047279635484
 40
0.3804893120107392
 40
0.3982313751088228
 40
0.4180975840774946
 40
0.4460717772564992
 40
0.4739009883082455
 40
0.4925281341189581
 40
0.4982291242914121
 40
0.5072520365660536
 40
0.5438492485920288
 40
0.5938683694358918
 40
0.6304557633743916
 40
0.6562166712274737
 40
0.6920312019516056
 40
0.7278683377659625
 40
0.7536568854732698
 40
0.7667425477732062
 40
0.792693224785538
 40
0.8333209148374885
 40
0.8682302766813755
 40
0.9023054703798197
 40
0.9466219888669231
 40
0.9837695148564658
 40
0.99176603661145
 40
1.0
 40
1.0
 40
1.0
 40
1.0
 10
-187.0986976590584
 20
30.16362659950417
 30
0.0
 10
-186.9101879154538
 20
30.36021975126135
 30
0.0
 10
-186.5687072215139
 20
30.71634333724793
 30
0.0
 10
-186.1068448179951
 20
31.2000053910334
 30
0.0
 10
-185.7135330814764
 20
31.60953828380505
 30
0.0
 10
-185.3149483326899
 20
32.01870345229182
 30
0.0
 10
-184.841652551955
 20
32.50519842262664
 30
0.0
 10
-184.2078374460628
 20
33.15939995785214
 30
0.0
 10
-183.5334319183438
 20
33.8612357687586
 30
0.0
 10
-182.8535689274135
 20
34.57017473010799
 30
0.0
 10
-182.1624350795375
 20
35.27796676990241
 30
0.0
 10
-181.3818006189561
 20
36.0794740069236
 30
0.0
 10
-180.5975977849113
 20
36.891063841434
 30
0.0
 10
-179.8946382878049
 20
37.61995171890184
 30
0.0
 10
-179.1807282516206
 20
38.34839712612636
 30
0.0
 10
-178.3752304796541
 20
39.17237223766904
 30
0.0
 10
-177.5666519197945
 20
40.00533465559452
 30
0.0
 10
-176.8437714376203
 20
40.7533079812239
 30
0.0
 10
-176.1103158941138
 20
41.50003831179475
 30
0.0
 10
-175.4058643793671
 20
42.21594477926771
 30
0.0
 10
-174.6418201622393
 20
42.99619977625141
 30
0.0
 10
-173.6415185876206
 20
44.01107976671673
 30
0.0
 10
-172.2949972405588
 20
45.38942046119232
 30
0.0
 10
-170.8649768875871
 20
46.84939451432699
 30
0.0
 10
-169.884285951991
 20
47.85673587596048
 30
0.0
 10
-169.2786482096841
 20
48.46711657361558
 30
0.0
 10
-168.7233060769443
 20
49.0298712308764
 30
0.0
 10
-167.9228330350956
 20
49.84856939327095
 30
0.0
 10
-166.7826218439476
 20
51.00118057622841
 30
0.0
 10
-165.4633596088649
 20
52.34209786844418
 30
0.0
 10
-164.1574506373436
 20
53.67017580075537
 30
0.0
 10
-163.239560779468
 20
54.60726989459982
 30
0.0
 10
-162.6462904186038
 20
55.20445079556566
 30
0.0
 10
-161.7353644282021
 20
56.12743930417894
 30
0.0
 10
-160.0215150522432
 20
57.84947531691256
 30
0.0
 10
-157.8030166764521
 20
60.09248469599446
 30
0.0
 10
-155.7713721316896
 20
62.15964113990788
 30
0.0
 10
-153.9770730985036
 20
63.9659327238791
 30
0.0
 10
-152.1938412058931
 20
65.77162490357017
 30
0.0
 10
-150.4062196591857
 20
67.59149233968905
 30
0.0
 10
-149.0260947588431
 20
68.9891170562573
 30
0.0
 10
-147.8182960916734
 20
70.1980343892812
 30
0.0
 10
-146.3448366047159
 20
71.69974858930094
 30
0.0
 10
-144.4652458442354
 20
73.6241959648167
 30
0.0
 10
-142.4229608556356
 20
75.7067175162422
 30
0.0
 10
-140.3085909288592
 20
77.86928711934729
 30
0.0
 10
-138.1437552863965
 20
80.0804777758925
 30
0.0
 10
-136.4563905165454
 20
81.79190936001086
 30
0.0
 10
-135.4579490963332
 20
82.82367337841231
 30
0.0
 10
-135.1541312353397
 20
83.1375763940637
 30
0.0
 10
-134.9999999741923
 20
83.29682400222647
 30
0.0
  0
SPLINE
  5
142
330
23
100
AcDbEntity
  8
0
  6
Continuous
 62
     7
370
    25
100
AcDbSpline
210
0.0
220
0.0
230
1.0
 70
     8
 71
     3
 72
    63
 73
    59
 74
     0
 42
0.000000001
 43
0.00000001
 40
0.0
 40
0.0
 40
0.0
 40
0.0
 40
0.0124343701593209
 40
0.022539892821329
 40
0.0303053365125807
 40
0.0380154078818007
 40
0.048069070525719
 40
0.0604787046020615
 40
0.0782918331036794
 40
0.0908322959217541
 40
0.1032733935993765
 40
0.1209584340840895
 40
0.1317436176311342
 40
0.1380022141582442
 40
0.1460169874408523
 40
0.156967987672241
 40
0.1835493294131978
 40
0.2100412451420584
 40
0.2278006595709595
 40
0.2332624935034509
 40
0.2419071594613375
 40
0.2526764974521939
 40
0.2589213839270202
 40
0.2669287772675874
 40
0.2778707189483062
 40
0.3044628433367673
 40
0.3309681611040966
 40
0.3487270249219912
 40
0.3541687685999078
 40
0.3627874021720605
 40
0.3986483421810301
 40
0.4476482296527787
 40
0.4836532578056577
 40
0.5106262164503237
 40
0.5481336110261419
 40
0.5857059141691275
 40
0.6127602365817442
 40
0.6396977999792484
 40
0.6771519486520955
 40
0.7147607584244123
 40
0.7418630241344726
 40
0.7506545997112615
 40
0.7556111587592081
 40
0.7592005182845972
 40
0.7692869454583368
 40
0.7887367996166098
 40
0.8099955416073497
 40
0.8297184215038216
 40
0.8478874629804419
 40
0.885477286583636
 40
0.9240301677762116
 40
0.9694822851619465
 40
0.9788783512377721
 40
0.9857490835538902
 40
0.9900797402958074
 40
0.9931445629535103
 40
0.996190801715381
 40
1.0
 40
1.0
 40
1.0
 40
1.0
 10
-187.0986976590583
 20
30.16362659950414
 30
0.0
 10
-187.3252613743605
 20
30.35065836454109
 30
0.0
 10
-187.7359554259835
 20
30.68969250009457
 30
0.0
 10
-188.2821541798273
 20
31.14713625982268
 30
0.0
 10
-188.7397859954647
 20
31.53560364830071
 30
0.0
 10
-189.1919124843478
 20
31.92894423171452
 30
0.0
 10
-189.7220678208636
 20
32.39642970688442
 30
0.0
 10
-190.4235376231276
 20
33.02221150281179
 30
0.0
 10
-191.1601039463585
 20
33.68725323564711
 30
0.0
 10
-191.887554180152
 20
34.35702914704117
 30
0.0
 10
-192.601698364767
 20
35.03723248597973
 30
0.0
 10
-193.278197504441
 20
35.69116227734925
 30
0.0
 10
-193.8462844090449
 20
36.24613481168367
 30
0.0
 10
-194.2538583151521
 20
36.64545369413563
 30
0.0
 10
-194.6587916015797
 20
37.05620931616663
 30
0.0
 10
-195.3833932340207
 20
37.80118956486414
 30
0.0
 10
-196.3856481748887
 20
38.85200301843481
 30
0.0
 10
-197.4691461793732
 20
40.01898543785224
 30
0.0
 10
-198.215029346677
 20
40.83928201487858
 30
0.0
 10
-198.6856852668147
 20
41.37352913099831
 30
0.0
 10
-199.0513341559754
 20
41.78910243844916
 30
0.0
 10
-199.4253645474627
 20
42.21749539833769
 30
0.0
 10
-199.7876761292252
 20
42.63415623714498
 30
0.0
 10
-200.1473329758539
 20
43.06295060382928
 30
0.0
 10
-200.7908374171388
 20
43.84169399232613
 30
0.0
 10
-201.679799136483
 20
44.93916943799844
 30
0.0
 10
-202.6392529472434
 20
46.15395390980279
 30
0.0
 10
-203.2978919747156
 20
47.00680776065894
 30
0.0
 10
-203.7122276855493
 20
47.56213497771139
 30
0.0
 10
-204.3590432584293
 20
48.42879481187767
 30
0.0
 10
-205.53694388329
 20
50.07697489846072
 30
0.0
 10
-206.9932457040661
 20
52.21587373142486
 30
0.0
 10
-208.2814077980582
 20
54.19612029889181
 30
0.0
 10
-209.3887118554571
 20
56.01299754598962
 30
0.0
 10
-210.4707905650215
 20
57.86479301177247
 30
0.0
 10
-211.5059038835408
 20
59.71543253301265
 30
0.0
 10
-212.3954908790911
 20
61.37785433304707
 30
0.0
 10
-213.2483779014153
 20
63.07056007775294
 30
0.0
 10
-214.1579514569454
 20
64.96700687421233
 30
0.0
 10
-215.0217637921934
 20
66.86079026764119
 30
0.0
 10
-215.6131234553846
 20
68.2231591291107
 30
0.0
 10
-215.9322934551061
 20
68.98318545641472
 30
0.0
 10
-216.0662582679176
 20
69.30533515781737
 30
0.0
 10
-216.2092655278747
 20
69.64999996396861
 30
0.0
 10
-216.4600295858343
 20
70.27854076251305
 30
0.0
 10
-216.8353439577963
 20
71.24271876594847
 30
0.0
 10
-217.2667765032029
 20
72.38929301587494
 30
0.0
 10
-217.6741713745417
 20
73.51144772586309
 30
0.0
 10
-218.1765824677811
 20
74.94493364093765
 30
0.0
 10
-218.7721535510421
 20
76.74165808788369
 30
0.0
 10
-219.48232324355
 20
79.0694415087907
 30
0.0
 10
-219.9782966048595
 20
80.85865557034687
 30
0.0
 10
-220.2839216978138
 20
82.0357347633446
 30
0.0
 10
-220.3838061140023
 20
82.42877850624853
 30
0.0
 10
-220.4518662575811
 20
82.70009194752417
 30
0.0
 10
-220.5016968939652
 20
82.90307885366074
 30
0.0
 10
-220.5487719383045
 20
83.09653886295209
 30
0.0
 10
-220.580900989903
 20
83.22994227556656
 30
0.0
 10
-220.5987533788033
 20
83.30406738926061
 30
0.0
  0
SPLINE
  5
145
330
23
100
AcDbEntity
  8
0
  6
Continuous
 62
     7
370
    25
100
AcDbSpline
210
0.0
220
0.0
230
1.0
 70
    11
 71
     3
 72
   114
 73
   110
 74
     0
 42
0.000000001
 43
0.00000001
 40
0.0
 40
0.0
 40
0.0
 40
0.0
 40
0.0312499999999977
 40
0.0312499999999977
 40
0.0468749999999962
 40
0.0468749999999962
 40
0.0624999999999947
 40
0.0624999999999947
 40
0.0937499999999914
 40
0.0937499999999914
 40
0.1093749999999898
 40
0.1093749999999898
 40
0.1249999999999881
 40
0.1249999999999881
 40
0.1562499999999859
 40
0.1562499999999859
 40
0.1718749999999848
 40
0.1718749999999848
 40
0.1874999999999838
 40
0.1874999999999838
 40
0.2031249999999828
 40
0.2031249999999828
 40
0.2187499999999817
 40
0.2187499999999817
 40
0.2499999999999794
 40
0.2499999999999794
 40
0.2656249999999782
 40
0.2656249999999782
 40
0.2734374999999776
 40
0.2734374999999776
 40
0.281249999999977
 40
0.281249999999977
 40
0.3124999999999746
 40
0.3124999999999746
 40
0.3203124999999744
 40
0.3203124999999744
 40
0.3281249999999742
 40
0.3281249999999742
 40
0.3437499999999738
 40
0.3437499999999738
 40
0.3749999999999737
 40
0.3749999999999737
 40
0.4062499999999737
 40
0.4062499999999737
 40
0.4218749999999744
 40
0.4218749999999744
 40
0.437499999999975
 40
0.437499999999975
 40
0.4687499999999758
 40
0.4687499999999758
 40
0.4843749999999767
 40
0.4843749999999767
 40
0.4999999999999777
 40
0.4999999999999777
 40
0.5312499999999791
 40
0.5312499999999791
 40
0.5468749999999796
 40
0.5468749999999796
 40
0.5624999999999801
 40
0.5781249999999806
 40
0.5781249999999806
 40
0.5937499999999811
 40
0.5937499999999811
 40
0.6249999999999822
 40
0.6249999999999822
 40
0.6406249999999829
 40
0.6406249999999829
 40
0.6562499999999837
 40
0.6562499999999837
 40
0.6874999999999848
 40
0.6874999999999848
 40
0.695312499999985
 40
0.695312499999985
 40
0.7031249999999853
 40
0.7031249999999853
 40
0.718749999999986
 40
0.718749999999986
 40
0.7499999999999873
 40
0.7499999999999873
 40
0.7578124999999877
 40
0.7578124999999877
 40
0.765624999999988
 40
0.765624999999988
 40
0.7812499999999886
 40
0.7968749999999892
 40
0.7968749999999892
 40
0.8046874999999896
 40
0.8046874999999896
 40
0.8124999999999898
 40
0.8124999999999898
 40
0.8437499999999915
 40
0.8437499999999915
 40
0.8593749999999923
 40
0.8593749999999923
 40
0.8749999999999931
 40
0.8749999999999931
 40
0.9062499999999946
 40
0.9062499999999946
 40
0.9218749999999954
 40
0.9218749999999954
 40
0.9374999999999962
 40
0.9374999999999962
 40
0.9531249999999971
 40
0.9531249999999971
 40
0.9609374999999974
 40
0.9609374999999974
 40
0.9687499999999979
 40
0.9687499999999979
 40
1.0
 40
1.0
 40
1.0
 40
1.0
 10
-26.00000000000009
 20
320.0
 30
0.0
 10
-26.00000000000007
 20
318.296942078421
 30
0.0
 10
-25.83428412089368
 20
316.6215499984993
 30
0.0
 10
-25.34687466716314
 20
314.1483348762895
 30
0.0
 10
-25.14430857677289
 20
313.3306238055662
 30
0.0
 10
-24.65713803824964
 20
311.7088977578636
 30
0.0
 10
-24.37082342524268
 20
310.9015659664774
 30
0.0
 10
-23.40424257000707
 20
308.5494290591631
 30
0.0
 10
-22.61479131658919
 20
307.0604516125724
 30
0.0
 10
-21.21454362967597
 20
304.9448243691599
 30
0.0
 10
-20.71153422998282
 20
304.2593905628742
 30
0.0
 10
-19.63004544558121
 20
302.9296821524525
 30
0.0
 10
-19.05988278841794
 20
302.295736814594
 30
0.0
 10
-17.26743162893659
 20
300.4880530872645
 30
0.0
 10
-15.96238762644488
 20
299.4056420469942
 30
0.0
 10
-13.83581068574281
 20
297.9704359501455
 30
0.0
 10
-13.09498932148939
 20
297.522120452341
 30
0.0
 10
-11.58702584591017
 20
296.7089148742443
 30
0.0
 10
-10.81706148777532
 20
296.3416735323712
 30
0.0
 10
-9.24572677141718
 20
295.6845364644737
 30
0.0
 10
-8.444355939905439
 20
295.3946419040476
 30
0.0
 10
-6.809845214767344
 20
294.8930925357029
 30
0.0
 10
-5.974971560667224
 20
294.6810843125758
 30
0.0
 10
-3.431691263526173
 20
294.1695024820938
 30
0.0
 10
-1.729397845507061
 20
294.0013601496242
 30
0.0
 10
0.8338424059618608
 20
293.999332131916
 30
0.0
 10
1.689901352861912
 20
294.040664536514
 30
0.0
 10
2.976523484967566
 20
294.1673457806696
 30
0.0
 10
3.407034303848704
 20
294.2205809297029
 30
0.0
 10
4.260916417199535
 20
294.3478866048965
 30
0.0
 10
4.684598411432586
 20
294.4219149171738
 30
0.0
 10
6.787031011733681
 20
294.8429216613506
 30
0.0
 10
8.418310794165958
 20
295.341027092931
 30
0.0
 10
10.39438344909112
 20
296.1643103927237
 30
0.0
 10
10.78641788589748
 20
296.3390911258519
 30
0.0
 10
11.56401626867016
 20
296.7092518948429
 30
0.0
 10
11.94951426240349
 20
296.9046892130694
 30
0.0
 10
13.08336661464408
 20
297.5152806591671
 30
0.0
 10
13.81358115384234
 20
297.9566841788845
 30
0.0
 10
15.92939378556208
 20
299.3809408469395
 30
0.0
 10
17.24088033872668
 20
300.4628782322514
 30
0.0
 10
19.65996992644174
 20
302.8993373136144
 30
0.0
 10
20.72988548534946
 20
304.2163147658947
 30
0.0
 10
22.13078557908797
 20
306.32734306714
 30
0.0
 10
22.56379066660821
 20
307.0540775606296
 30
0.0
 10
23.36068285845987
 20
308.5544745232395
 30
0.0
 10
23.72512280068599
 20
309.3305958258873
 30
0.0
 10
24.69143265465755
 20
311.6811237048904
 30
0.0
 10
25.17624862533934
 20
313.2918654288916
 30
0.0
 10
25.66787448844505
 20
315.7726059667119
 30
0.0
 10
25.79242454305751
 20
316.6126783308488
 30
0.0
 10
25.95863932784504
 20
318.3052563183553
 30
0.0
 10
25.99968033880098
 20
319.1489655285087
 30
0.0
 10
26.0006337559612
 20
321.6726009250224
 30
0.0
 10
25.8395089693344
 20
323.3451043249589
 30
0.0
 10
25.35009763307498
 20
325.8386673714005
 30
0.0
 10
25.14435918495363
 20
326.6690850213035
 30
0.0
 10
24.65771083444096
 20
328.2893160411774
 30
0.0
 10
24.09461852763932
 20
329.8777579202465
 30
0.0
 10
23.38101323341186
 20
331.4036091278936
 30
0.0
 10
22.59118764999099
 20
332.8977642064682
 30
0.0
 10
22.15723597604553
 20
333.630406547207
 30
0.0
 10
20.74212711717476
 20
335.7698610525333
 30
0.0
 10
19.67315883728629
 20
337.0831347407454
 30
0.0
 10
17.88690834353371
 20
338.8884932620871
 30
0.0
 10
17.26080509268245
 20
339.4626559935274
 30
0.0
 10
15.94545704821558
 20
340.554142412017
 30
0.0
 10
15.25379351281187
 20
341.0725455288605
 30
0.0
 10
13.12865941795835
 20
342.5068849083308
 30
0.0
 10
11.63241759013541
 20
343.3153659570501
 30
0.0
 10
9.66286712801165
 20
344.1414884205655
 30
0.0
 10
9.263949675618285
 20
344.2974054174522
 30
0.0
 10
8.455917606256357
 20
344.5902852982355
 30
0.0
 10
8.04569224425623
 20
344.7275786720094
 30
0.0
 10
6.807841498624679
 20
345.1077385841174
 30
0.0
 10
5.976258607792499
 20
345.3182675605896
 30
0.0
 10
3.463031288098289
 20
345.8249641077178
 30
0.0
 10
1.763087238038862
 20
345.9974512669991
 30
0.0
 10
-0.3932778435372824
 20
346.0006024805117
 30
0.0
 10
-0.8272181424681778
 20
345.9904202040344
 30
0.0
 10
-1.689299519557802
 20
345.9486512052307
 30
0.0
 10
-2.118204884227481
 20
345.917120533802
 30
0.0
 10
-3.3986334660429
 20
345.7911806114934
 30
0.0
 10
-5.089135214118143
 20
345.5398175519564
 30
0.0
 10
-6.746662060510565
 20
345.1240501695067
 30
0.0
 10
-7.977264242785846
 20
344.7496887186571
 30
0.0
 10
-8.385370714026527
 20
344.6144601492211
 30
0.0
 10
-9.197317874892324
 20
344.3227349275824
 30
0.0
 10
-9.600523864513898
 20
344.1663923968943
 30
0.0
 10
-11.58351992689458
 20
343.3404229902436
 30
0.0
 10
-13.08261546555664
 20
342.5332385888915
 30
0.0
 10
-15.20372465045672
 20
341.1085805760116
 30
0.0
 10
-15.88968474172597
 20
340.597513356025
 30
0.0
 10
-17.21610183040991
 20
339.5024479337342
 30
0.0
 10
-17.84619901441287
 20
338.9270626355904
 30
0.0
 10
-19.64098334231565
 20
337.1205680525282
 30
0.0
 10
-20.71104426884475
 20
335.8098611635039
 30
0.0
 10
-22.12476310159533
 20
333.6828222190131
 30
0.0
 10
-22.56396666664935
 20
332.9455006183842
 30
0.0
 10
-23.35928698996423
 20
331.4482439402179
 30
0.0
 10
-23.71811695718071
 20
330.6845587640892
 30
0.0
 10
-24.35968533741956
 20
329.1276830707298
 30
0.0
 10
-24.64242151282506
 20
328.3344916858381
 30
0.0
 10
-25.00899159402385
 20
327.122395093598
 30
0.0
 10
-25.12157583675101
 20
326.7146381471441
 30
0.0
 10
-25.32724648515448
 20
325.8915637524298
 30
0.0
 10
-25.42049870203455
 20
325.4753241011574
 30
0.0
 10
-25.83424754528298
 20
323.3891748456967
 30
0.0
 10
-26.00000000000009
 20
321.7030579215792
 30
0.0
 10
-26.00000000000009
 20
320.0
 30
0.0
  0
SPLINE
  5
146
330
23
100
AcDbEntity
  8
0
  6
Continuous
 62
     7
370
    25
100
AcDbSpline
210
0.0
220
0.0
230
1.0
 70
     8
 71
     3
 72
    28
 73
    24
 74
     0
 42
0.000000001
 43
0.00000001
 40
0.0
 40
0.0
 40
0.0
 40
0.0
 40
0.1249999999999984
 40
0.1249999999999984
 40
0.2499999999999968
 40
0.2499999999999968
 40
0.4999999999999937
 40
0.4999999999999937
 40
0.5624999999999934
 40
0.5624999999999934
 40
0.6249999999999932
 40
0.6249999999999932
 40
0.7499999999999947
 40
0.7499999999999947
 40
0.8749999999999962
 40
0.8749999999999962
 40
0.9374999999999988
 40
0.9374999999999988
 40
0.9687499999999998
 40
0.9843750000000012
 40
0.9921875000000006
 40
0.9921875000000006
 40
1.0
 40
1.0
 40
1.0
 40
1.0
 10
-187.0986976590583
 20
30.16362659950414
 30
0.0
 10
-184.9779776435661
 20
28.22487048805925
 30
0.0
 10
-182.8149751620631
 20
26.43611447389219
 30
0.0
 10
-178.4133354087713
 20
23.12691914031978
 30
0.0
 10
-176.1746579453753
 20
21.6066224132857
 30
0.0
 10
-169.3537175548532
 20
17.41789242736644
 30
0.0
 10
-164.6673571340535
 20
15.11874390172244
 30
0.0
 10
-158.6486963508719
 20
12.81491557953593
 30
0.0
 10
-157.4349802766209
 20
12.38230368614904
 30
0.0
 10
-155.002589020873
 20
11.57788274627117
 30
0.0
 10
-153.7839743372788
 20
11.2059641769808
 30
0.0
 10
-150.1210597607516
 20
10.17874606092511
 30
0.0
 10
-147.6697031204714
 20
9.611811520931102
 30
0.0
 10
-142.7487952531727
 20
8.705772327866152
 30
0.0
 10
-140.2792424449638
 20
8.366687482175895
 30
0.0
 10
-136.5614205951779
 20
8.02701126703012
 30
0.0
 10
-135.3199307162304
 20
7.941982672533848
 30
0.0
 10
-133.4541808761952
 20
7.856850543967287
 30
0.0
 10
-132.5204081207347
 20
7.824890978294502
 30
0.0
 10
-131.4294302452501
 20
7.806223642304016
 30
0.0
 10
-130.9615297645304
 20
7.8022217785991
 30
0.0
 10
-130.6495207919904
 20
7.800443442188082
 30
0.0
 10
-130.4921310697953
 20
7.800000000000002
 30
0.0
 10
-130.3378970216836
 20
7.800000000000002
 30
0.0
  0
SPLINE
  5
147
330
23
100
AcDbEntity
  8
0
  6
Continuous
 62
     7
370
    25
100
AcDbSpline
210
0.0
220
0.0
230
1.0
 70
     8
 71
     3
 72
    28
 73
    24
 74
     0
 42
0.000000001
 43
0.00000001
 40
0.0
 40
0.0
 40
0.0
 40
0.0
 40
0.1250000000000017
 40
0.1250000000000017
 40
0.2500000000000033
 40
0.2500000000000033
 40
0.5000000000000061
 40
0.5000000000000061
 40
0.5625000000000066
 40
0.5625000000000066
 40
0.6250000000000071
 40
0.6250000000000071
 40
0.7500000000000048
 40
0.7500000000000048
 40
0.8750000000000024
 40
0.8750000000000024
 40
0.9375000000000009
 40
0.9375000000000009
 40
0.9687500000000002
 40
0.9843749999999999
 40
0.9921875
 40
0.9921875
 40
1.0
 40
1.0
 40
1.0
 40
1.0
 10
187.0986976590581
 20
30.16362659950395
 30
0.0
 10
184.9779776435657
 20
28.22487048805888
 30
0.0
 10
182.8149751620625
 20
26.43611447389177
 30
0.0
 10
178.4133354087704
 20
23.12691914031914
 30
0.0
 10
176.1746579453741
 20
21.60662241328484
 30
0.0
 10
169.3537175548512
 20
17.41789242736544
 30
0.0
 10
164.6673571340514
 20
15.11874390172144
 30
0.0
 10
158.6486963508692
 20
12.81491557953493
 30
0.0
 10
157.4349802766181
 20
12.38230368614804
 30
0.0
 10
155.00258902087
 20
11.57788274627017
 30
0.0
 10
153.7839743372757
 20
11.20596417697989
 30
0.0
 10
150.1210597607483
 20
10.17874606092428
 30
0.0
 10
147.6697031204681
 20
9.611811520930297
 30
0.0
 10
142.7487952531689
 20
8.705772327865514
 30
0.0
 10
140.2792424449596
 20
8.366687482175367
 30
0.0
 10
136.5614205951733
 20
8.02701126702976
 30
0.0
 10
135.3199307162241
 20
7.941982672533515
 30
0.0
 10
133.4541808761889
 20
7.856850543967065
 30
0.0
 10
132.5204081207299
 20
7.824890978294363
 30
0.0
 10
131.429430245251
 20
7.806223642303989
 30
0.0
 10
130.9615297645313
 20
7.802221778599073
 30
0.0
 10
130.649520791997
 20
7.800443442188082
 30
0.0
 10
130.492131069697
 20
7.799999999999946
 30
0.0
 10
130.337897021674
 20
7.799999999999974
 30
0.0
  0
SPLINE
  5
149
330
23
100
AcDbEntity
  8
0
  6
Continuous
 62
     7
370
    25
100
AcDbSpline
210
0.0
220
0.0
230
1.0
 70
    24
 71
     3
 72
    12
 73
     8
 74
     0
 42
0.000000001
 43
0.00000001
 40
0.0
 40
0.0
 40
0.0
 40
0.0
 40
0.1858668855896539
 40
0.3847250113408713
 40
0.5835831794265149
 40
0.7917764941110025
 40
1.0
 40
1.0
 40
1.0
 40
1.0
 10
-145.4373687469075
 20
7.800000000000002
 30
0.0
 10
-145.3506777775633
 20
7.800000000000002
 30
0.0
 10
-145.1712365389678
 20
7.800000000000002
 30
0.0
 10
-143.4095902009085
 20
7.800000000000002
 30
0.0
 10
-140.443612828936
 20
7.800000000000002
 30
0.0
 10
-136.2380023354503
 20
7.800000000000002
 30
0.0
 10
-132.3046938509934
 20
7.800000000000002
 30
0.0
 10
-130.3378970216804
 20
7.800000000000002
 30
0.0
  0
SPLINE
  5
14A
330
23
100
AcDbEntity
  8
0
  6
Continuous
 62
     7
370
    25
100
AcDbSpline
210
0.0
220
0.0
230
1.0
 70
    24
 71
     3
 72
    13
 73
     9
 74
     0
 42
0.000000001
 43
0.00000001
 40
0.0
 40
0.0
 40
0.0
 40
0.0
 40
0.1814651329936608
 40
0.380369754865295
 40
0.5792743151189941
 40
0.7782862738545515
 40
0.9772982047228345
 40
1.0
 40
1.0
 40
1.0
 40
1.0
 10
130.3378970216786
 20
7.800000000000002
 30
0.0
 10
132.0658917521379
 20
7.800000000000002
 30
0.0
 10
135.6879480733172
 20
7.800000000000002
 30
0.0
 10
139.8229479985318
 20
7.800000000000002
 30
0.0
 10
143.0069012634187
 20
7.800000000000002
 30
0.0
 10
144.8490587269412
 20
7.800000000000002
 30
0.0
 10
145.6262393372753
 20
7.800000000000002
 30
0.0
 10
145.4329825192686
 20
7.800000000000002
 30
0.0
 10
145.4131944944378
 20
7.800000000000002
 30
0.0
  0
SPLINE
  5
14C
330
23
100
AcDbEntity
  8
0
  6
Continuous
 62
     8
370
    25
100
AcDbSpline
210
0.0
220
0.0
230
1.0
 70
     8
 71
     3
 72
    15
 73
    11
 74
     0
 42
0.000000001
 43
0.00000001
 40
0.0
 40
0.0
 40
0.0
 40
0.0
 40
0.0000001140259822
 40
0.1054727520303527
 40
0.2109453879072911
 40
0.3164352573105817
 40
0.4219251258305803
 40
0.6192838540122461
 40
0.8166425587247322
 40
1.0
 40
1.0
 40
1.0
 40
1.0
 10
-220.5987533788034
 20
83.30406738926067
 30
0.0
 10
-220.5987545791926
 20
83.30406753081981
 30
0.0
 10
-221.7091011705513
 20
83.4350081649761
 30
0.0
 10
-223.8135768119034
 20
83.67816723972189
 30
0.0
 10
-226.6213064122641
 20
83.98842848656183
 30
0.0
 10
-229.0778162856106
 20
84.24540798084684
 30
0.0
 10
-231.7979719820819
 20
84.51050439899561
 30
0.0
 10
-234.3070291188811
 20
84.71737253738166
 30
0.0
 10
-236.1040040232422
 20
84.80261490800635
 30
0.0
 10
-236.2716556412698
 20
84.7224400267727
 30
0.0
 10
-236.3523986621035
 20
84.68382684676321
 30
0.0
  0
LWPOLYLINE
  5
14D
330
23
100
AcDbEntity
  8
0
  6
Continuous
 62
     8
370
    25
100
AcDbPolyline
 90
        9
 70
   128
 43
0.0
 10
236.3307586948
 20
84.6797423122
 10
236.3887894452
 20
84.7057228656
 10
235.6518290249
 20
84.7668123535
 10
233.6729008553
 20
84.6591163289
 10
230.4531725992
 20
84.3786099587
 10
225.9982766731
 20
83.9183631795
 10
220.59875698
 20
83.3040678139
 10
220.5987533788
 20
83.3040673893
 10
220.5987533788
 20
83.3040673893
  0
LINE
  5
150
330
23
100
AcDbEntity
  8
0
  6
Continuous
 62
     7
370
    25
100
AcDbLine
 10
-42.2
 20
5.0
 30
0.0
 11
-42.2
 21
4.2
 31
0.0
  0
LINE
  5
151
330
23
100
AcDbEntity
  8
0
  6
Continuous
 62
     7
370
    25
100
AcDbLine
 10
42.2
 20
4.2
 30
0.0
 11
42.2
 21
5.0
 31
0.0
  0
LINE
  5
152
330
23
100
AcDbEntity
  8
0
  6
Continuous
 62
     7
370
    25
100
AcDbLine
 10
350.0
 20
357.8
 30
0.0
 11
-350.0
 21
357.8
 31
0.0
  0
LINE
  5
153
330
23
100
AcDbEntity
  8
0
  6
Continuous
 62
     7
370
    25
100
AcDbLine
 10
320.0
 20
357.8
 30
0.0
 11
320.0
 21
390.0
 31
0.0
  0
LINE
  5
154
330
23
100
AcDbEntity
  8
0
  6
Continuous
 62
     7
370
    25
100
AcDbLine
 10
350.0
 20
357.8
 30
0.0
 11
350.0
 21
383.0
 31
0.0
  0
LINE
  5
155
330
23
100
AcDbEntity
  8
0
  6
Continuous
 62
     7
370
    25
100
AcDbLine
 10
-343.0
 20
390.0
 30
0.0
 11
343.0
 21
390.0
 31
0.0
  0
LINE
  5
156
330
23
100
AcDbEntity
  8
0
  6
Continuous
 62
     7
370
    25
100
AcDbLine
 10
-320.0
 20
357.8
 30
0.0
 11
-320.0
 21
390.0
 31
0.0
  0
LINE
  5
157
330
23
100
AcDbEntity
  8
0
  6
Continuous
 62
     7
370
    25
100
AcDbLine
 10
350.0
 20
383.0
 30
0.0
 11
-350.0
 21
383.0
 31
0.0
  0
LINE
  5
158
330
23
100
AcDbEntity
  8
0
  6
Continuous
 62
     7
370
    25
100
AcDbLine
 10
-350.0
 20
357.8
 30
0.0
 11
-350.0
 21
383.0
 31
0.0
  0
LINE
  5
159
330
23
100
AcDbEntity
  8
0
  6
Continuous
 62
     7
370
    25
100
AcDbLine
 10
135.0000009369
 20
83.2968240022
 30
0.0
 11
-134.9999999742
 21
83.2968240022
 31
0.0
  0
LINE
  5
15A
330
23
100
AcDbEntity
  8
0
  6
Continuous
 62
     7
370
    25
100
AcDbLine
 10
-236.3523986621
 20
84.6838268468
 30
0.0
 11
-236.3561178115
 21
84.6831713442
 31
0.0
  0
LINE
  5
15B
330
23
100
AcDbEntity
  8
0
  6
Continuous
 62
     7
370
    25
100
AcDbLine
 10
236.326538338
 20
84.6778528449
 30
0.0
 11
236.3307586948
 21
84.6797423122
 31
0.0
  0
LINE
  5
15C
330
23
100
AcDbEntity
  8
0
  6
Continuous
 62
     7
370
    25
100
AcDbLine
 10
-130.3378970217
 20
7.8
 30
0.0
 11
130.3378970217
 21
7.8
 31
0.0
  0
LINE
  5
15D
330
23
100
AcDbEntity
  8
0
  6
Continuous
 62
     7
370
    25
100
AcDbLine
 10
-37.9999999728
 20
0.0
 30
0.0
 11
38.0
 21
0.0
 31
0.0
  0
LINE
  5
15E
330
23
100
AcDbEntity
  8
0
  6
Continuous
 62
     8
370
    25
100
AcDbLine
 10
-42.2
 20
5.0
 30
0.0
 11
42.2
 21
5.0
 31
0.0
  0
LINE
  5
15F
330
23
100
AcDbEntity
  8
0
  6
Continuous
 62
     8
370
    25
100
AcDbLine
 10
42.2
 20
4.2
 30
0.0
 11
-42.2
 21
4.2
 31
0.0
  0
ARC
  5
160
330
23
100
AcDbEntity
  8
0
  6
Continuous
 62
     7
370
    25
100
AcDbCircle
 10
-145.4741059259
 20
99.9999999998
 30
0.0
 40
92.19999999980982
100
AcDbArc
 50
189.5666231223
 51
270.005118463
  0
ARC
  5
161
330
23
100
AcDbEntity
  8
0
  6
Continuous
 62
     7
370
    25
100
AcDbCircle
 10
145.4741059489
 20
100.0
 30
0.0
 40
92.19999999997859
100
AcDbArc
 50
269.9999960297
 51
350.4276032863
  0
ARC
  5
162
330
23
100
AcDbEntity
  8
0
  6
Continuous
 62
     7
370
    25
100
AcDbCircle
 10
-45.0
 20
5.0
 30
0.0
 40
2.799999999999998
100
AcDbArc
 50
0.0
 51
90.0
  0
ARC
  5
163
330
23
100
AcDbEntity
  8
0
  6
Continuous
 62
     7
370
    25
100
AcDbCircle
 10
45.0
 20
5.0
 30
0.0
 40
2.800000000000013
100
AcDbArc
 50
90.0
 51
180.0
  0
ARC
  5
164
330
23
100
AcDbEntity
  8
0
  6
Continuous
 62
     7
370
    25
100
AcDbCircle
 10
-38.0
 20
4.2
 30
0.0
 40
4.200000000000013
100
AcDbArc
 50
180.0
 51
270.0
  0
ARC
  5
165
330
23
100
AcDbEntity
  8
0
  6
Continuous
 62
     7
370
    25
100
AcDbCircle
 10
38.0
 20
4.2
 30
0.0
 40
4.200000000000013
100
AcDbArc
 50
270.0
 51
0.0
  0
ARC
  5
166
330
23
100
AcDbEntity
  8
0
  6
Continuous
 62
     7
370
    25
100
AcDbCircle
 10
-343.0
 20
383.0
 30
0.0
 40
7.000000000000057
100
AcDbArc
 50
90.0
 51
180.0
  0
ARC
  5
167
330
23
100
AcDbEntity
  8
0
  6
Continuous
 62
     7
370
    25
100
AcDbCircle
 10
343.0
 20
383.0
 30
0.0
 40
7.000000000000057
100
AcDbArc
 50
0.0
 51
90.0
  0
VIEWPORT
  5
16A
330
23
100
AcDbEntity
  8
0
100
AcDbViewport
 10
0.0
 20
0.0
 30
0.0
 40
205.6
 41
156.0
 68
     1
 69
     1
 12
0.0
 22
0.0
 13
0.0
 23
0.0
 14
10.0
 24
10.0
 15
10.0
 25
10.0
 16
0.0
 26
0.0
 36
1.0
 17
0.0
 27
0.0
 37
0.0
 42
50.0
 43
0.0
 44
0.0
 45
1238.2879377432
 50
0.0
 51
0.0
 72
   100
 90
   557152
  1

281
     0
 71
     1
 74
     0
110
0.0
120
0.0
130
0.0
111
1.0
121
0.0
131
0.0
112
0.0
122
1.0
132
0.0
 79
     0
146
0.0
  0
ENDBLK
  5
25
330
23
100
AcDbEntity
  8
0
100
AcDbBlockEnd
  0
ENDSEC
  0
SECTION
  2
ENTITIES
  0
SPLINE
  5
73
330
1F
100
AcDbEntity
  8
0
  6
Continuous
 62
     7
370
    25
100
AcDbSpline
210
0.0
220
0.0
230
1.0
 70
     8
 71
     3
 72
    40
 73
    36
 74
     0
 42
0.000000001
 43
0.00000001
 40
0.0
 40
0.0
 40
0.0
 40
0.0
 40
0.007797749666503
 40
0.0155969124495908
 40
0.0233988133152935
 40
0.0312050136410057
 40
0.0390173124301017
 40
0.0468377469846441
 40
0.0546685930778207
 40
0.0625123646822804
 40
0.0937772268407906
 40
0.1250204610030439
 40
0.1562876797209075
 40
0.1875287486688351
 40
0.2188377700627313
 40
0.2500399437870669
 40
0.3127459573394759
 40
0.375022233045625
 40
0.4375053955366431
 40
0.5000108601995916
 40
0.5621989690089764
 40
0.624985933331817
 40
0.6872469462732091
 40
0.7499764682238134
 40
0.7812390963794565
 40
0.8124745611649347
 40
0.8437992819066498
 40
0.8749813101711489
 40
0.9063573553647017
 40
0.937487576080772
 40
0.9501396982699827
 40
0.9627096684217009
 40
0.975205742790309
 40
0.987634329364974
 40
1.0
 40
1.0
 40
1.0
 40
1.0
 10
564.8753882025024
 20
-134.9999999741717
 30
0.0
 10
564.8539389646809
 20
-135.3067445183121
 30
0.0
 10
564.8110366019831
 20
-135.9202891951693
 30
0.0
 10
564.7358813199565
 20
-136.8407092762349
 30
0.0
 10
564.6527024145539
 20
-137.761302615699
 30
0.0
 10
564.560662267029
 20
-138.6821518614584
 30
0.0
 10
564.4599160514773
 20
-139.6033622116694
 30
0.0
 10
564.3503742101942
 20
-140.5250691808574
 30
0.0
 10
564.2320429005349
 20
-141.4474437813555
 30
0.0
 10
563.9784604970706
 20
-143.2888489430009
 30
0.0
 10
563.5356005559689
 20
-146.0433980452124
 30
0.0
 10
562.8110198571651
 20
-149.6963989927341
 30
0.0
 10
561.9530747797157
 20
-153.3235693768936
 30
0.0
 10
560.9621996223365
 20
-156.9218898928468
 30
0.0
 10
559.840875229563
 20
-160.4799481034802
 30
0.0
 10
558.1703102192919
 20
-165.1726332639945
 30
0.0
 10
555.7626737776974
 20
-170.8999706812293
 30
0.0
 10
552.3704650400599
 20
-177.5134436297027
 30
0.0
 10
548.494883042395
 20
-183.8036737729699
 30
0.0
 10
544.1562557667139
 20
-189.7169541767959
 30
0.0
 10
539.3763862214513
 20
-195.2117188006804
 30
0.0
 10
534.2058773642792
 20
-200.2219764931137
 30
0.0
 10
528.6665285611784
 20
-204.7241130545447
 30
0.0
 10
523.8028152875828
 20
-208.0069481462133
 30
0.0
 10
519.7782474899115
 20
-210.3409462656745
 30
0.0
 10
516.7057088560582
 20
-211.939548864657
 30
0.0
 10
513.5848737771278
 20
-213.3827945298488
 30
0.0
 10
510.4150156754021
 20
-214.6708228028496
 30
0.0
 10
507.2137886380127
 20
-215.795542284663
 30
0.0
 10
504.6206414205072
 20
-216.5667952417453
 30
0.0
 10
502.666477299877
 20
-217.0754557408604
 30
0.0
 10
501.3549328120108
 20
-217.3883112164123
 30
0.0
 10
500.0479914134423
 20
-217.6710855019898
 30
0.0
 10
498.7456415036008
 20
-217.9267186225979
 30
0.0
 10
497.8780769882814
 20
-218.0737535999579
 30
0.0
 10
497.4453954620574
 20
-218.1470845364924
 30
0.0
  0
SPLINE
  5
75
330
1F
100
AcDbEntity
  8
0
  6
Continuous
 62
     7
370
    25
100
AcDbSpline
210
0.0
220
0.0
230
1.0
 70
     8
 71
     3
 72
    40
 73
    36
 74
     0
 42
0.000000001
 43
0.00000001
 40
0.0
 40
0.0
 40
0.0
 40
0.0
 40
0.0067852039013345
 40
0.0136080805332673
 40
0.0204688545311604
 40
0.0273679795995305
 40
0.0343061423371405
 40
0.0412842653752625
 40
0.0483035098368605
 40
0.0553652771405206
 40
0.0624712101909089
 40
0.0931973154893729
 40
0.1244811323709013
 40
0.1552597274668723
 40
0.1863530724245011
 40
0.2173074565245207
 40
0.2483150544493368
 40
0.3112142579367368
 40
0.3729735498400479
 40
0.4365500595555027
 40
0.4987341581753614
 40
0.5620257010485847
 40
0.6249399565925459
 40
0.6874559400198919
 40
0.7507043394556026
 40
0.7818348713227306
 40
0.8132676172896518
 40
0.8443365954890959
 40
0.8756116813973701
 40
0.9065874144835591
 40
0.9378082164228316
 40
0.9533364255792086
 40
0.9688635575186334
 40
0.9844117923091309
 40
1.0
 40
1.0
 40
1.0
 40
1.0
 10
497.4453954620554
 20
218.1470845364924
 30
0.0
 10
497.6996235900127
 20
218.1138718601988
 30
0.0
 10
498.2094913683983
 20
218.0472621045745
 30
0.0
 10
498.9750723406264
 20
217.9360225617503
 30
0.0
 10
499.7437790649184
 20
217.8159263856549
 30
0.0
 10
500.5154480336375
 20
217.6860084074031
 30
0.0
 10
501.2900564323581
 20
217.546323164568
 30
0.0
 10
502.0675803607141
 20
217.3966688109817
 30
0.0
 10
502.8480329795639
 20
217.2369300615024
 30
0.0
 10
503.6314636035036
 20
217.0669976718549
 30
0.0
 10
505.2875640043047
 20
216.6874415346423
 30
0.0
 10
507.8211060408876
 20
216.0251793467765
 30
0.0
 10
511.1779750392657
 20
214.966278934884
 30
0.0
 10
514.496676161727
 20
213.7366930791288
 30
0.0
 10
517.7458573770098
 20
212.3499636273992
 30
0.0
 10
520.9383831109578
 20
210.8016621685454
 30
0.0
 10
525.1266807518001
 20
208.5180330191528
 30
0.0
 10
530.1541026785768
 20
205.2885404679334
 30
0.0
 10
535.8669968190625
 20
200.8090485542789
 30
0.0
 10
541.1452027656039
 20
195.8083215998205
 30
0.0
 10
546.0032238444383
 20
190.2688675753898
 30
0.0
 10
550.3472238073587
 20
184.3037189421277
 30
0.0
 10
554.1665123298767
 20
177.9357357717224
 30
0.0
 10
557.4338860453421
 20
171.2377394283708
 30
0.0
 10
559.6782177863479
 20
165.4384962108884
 30
0.0
 10
561.1856446644516
 20
160.6809141151713
 30
0.0
 10
562.1628442736139
 20
157.0929112089806
 30
0.0
 10
562.9950180378748
 20
153.4590935526447
 30
0.0
 10
563.6759471121886
 20
149.8093288406874
 30
0.0
 10
564.2092293947977
 20
146.1266574246427
 30
0.0
 10
564.5279173137337
 20
143.0473216179409
 30
0.0
 10
564.7084838388893
 20
140.5734577049206
 30
0.0
 10
564.8043846969232
 20
138.7195010269869
 30
0.0
 10
564.8643541859353
 20
136.8614044764967
 30
0.0
 10
564.8717070504493
 20
135.6209989516278
 30
0.0
 10
564.8753882025023
 20
134.9999999741714
 30
0.0
  0
SPLINE
  5
76
330
1F
100
AcDbEntity
  8
0
  6
Continuous
 62
     7
370
    25
100
AcDbSpline
210
0.0
220
0.0
230
1.0
 70
     8
 71
     3
 72
    22
 73
    18
 74
     0
 42
0.000000001
 43
0.00000001
 40
0.0
 40
0.0
 40
0.0
 40
0.0
 40
0.1250000000000001
 40
0.1250000000000001
 40
0.1875000000000002
 40
0.1875000000000002
 40
0.2500000000000003
 40
0.2500000000000003
 40
0.5000000000000003
 40
0.5000000000000003
 40
0.7500000000000003
 40
0.7500000000000003
 40
0.8750000000000002
 40
0.8750000000000002
 40
0.9375000000000001
 40
0.9375000000000001
 40
1.0
 40
1.0
 40
1.0
 40
1.0
 10
-554.6734515521025
 20
218.4388578897341
 30
0.0
 10
-510.8747697031151
 20
221.0710915534451
 30
0.0
 10
-467.0551621313972
 20
223.3768719022576
 30
0.0
 10
-401.3036265311464
 20
226.3422504428295
 30
0.0
 10
-379.3809599541615
 20
227.248539344134
 30
0.0
 10
-335.5365960942798
 20
228.8961781457817
 30
0.0
 10
-313.614294991654
 20
229.6375626840414
 30
0.0
 10
-204.0021898631081
 20
232.9305933207276
 30
0.0
 10
-116.3105858154551
 20
234.2424180539031
 30
0.0
 10
59.07650689162995
 20
234.2064505473612
 30
0.0
 10
146.7719969063577
 20
232.8588807790779
 30
0.0
 10
278.3181397802271
 20
228.8387173553563
 30
0.0
 10
322.1709463856063
 20
227.1652750203895
 30
0.0
 10
387.9177086458919
 20
224.1570272831138
 30
0.0
 10
409.829104401798
 20
223.0711460496754
 30
0.0
 10
453.6435290476926
 20
220.7335338543419
 30
0.0
 10
475.5477111805757
 20
219.4817335904723
 30
0.0
 10
497.4453954620554
 20
218.1470845364924
 30
0.0
  0
SPLINE
  5
77
330
1F
100
AcDbEntity
  8
0
  6
Continuous
 62
     7
370
    25
100
AcDbSpline
210
0.0
220
0.0
230
1.0
 70
     8
 71
     3
 72
    51
 73
    47
 74
     0
 42
0.000000001
 43
0.00000001
 40
0.0
 40
0.0
 40
0.0
 40
0.0
 40
0.0070355501830873
 40
0.0140982888254705
 40
0.0211891897993064
 40
0.0283094317871092
 40
0.035460399839205
 40
0.0426436864291901
 40
0.0498610920173406
 40
0.0571146251419378
 40
0.0644065020691825
 40
0.071739117669423
 40
0.0791142331346539
 40
0.0865328205122778
 40
0.0939959338238602
 40
0.1015047603063025
 40
0.109060620941931
 40
0.1166649706717616
 40
0.1243193982887488
 40
0.1524043034026626
 40
0.1824383946372436
 40
0.2144483952161966
 40
0.2484799656702867
 40
0.2770363651408251
 40
0.3109315415061026
 40
0.3423202778448949
 40
0.373690537142329
 40
0.4399913212947372
 40
0.4998421258624003
 40
0.5633333723494516
 40
0.6260504355972776
 40
0.6870187864030998
 40
0.7513796479445383
 40
0.7810646495717491
 40
0.8115924930737829
 40
0.8430839888770385
 40
0.8757029391404509
 40
0.8904475085110577
 40
0.9049413422516328
 40
0.9191919554071666
 40
0.9332042116953713
 40
0.9469846296436182
 40
0.9605463460248995
 40
0.9738995716752007
 40
0.9870502014806994
 40
1.0
 40
1.0
 40
1.0
 40
1.0
 10
-633.5754649849887
 20
134.9999999741925
 30
0.0
 10
-633.5750803599531
 20
135.2966826962367
 30
0.0
 10
-633.5743096235215
 20
135.8911946528084
 30
0.0
 10
-633.5606907350179
 20
136.7846454462011
 30
0.0
 10
-633.5377615625987
 20
137.6814695630174
 30
0.0
 10
-633.5044845593272
 20
138.5817029281896
 30
0.0
 10
-633.4609687433763
 20
139.485402022669
 30
0.0
 10
-633.407031547941
 20
140.3926482946013
 30
0.0
 10
-633.3425867460336
 20
141.3035480462198
 30
0.0
 10
-633.2675427218695
 20
142.2182338381607
 30
0.0
 10
-633.1818228475975
 20
143.1368632516962
 30
0.0
 10
-633.0853944832749
 20
144.0595880231947
 30
0.0
 10
-632.9781373727865
 20
144.9864987719903
 30
0.0
 10
-632.859801200832
 20
145.9176105436849
 30
0.0
 10
-632.7301720752064
 20
146.8529122946145
 30
0.0
 10
-632.5890333594765
 20
147.7924028921283
 30
0.0
 10
-632.4361743344479
 20
148.7360925562789
 30
0.0
 10
-632.2713916558837
 20
149.6840108587042
 30
0.0
 10
-631.9374845069482
 20
151.4811112675012
 30
0.0
 10
-631.3573412148428
 20
154.1944304315773
 30
0.0
 10
-630.4001622021883
 20
157.8740356735826
 30
0.0
 10
-629.1985435236577
 20
161.7449219354988
 30
0.0
 10
-627.8280242040803
 20
165.4932685703463
 30
0.0
 10
-626.2518335321292
 20
169.2455322548525
 30
0.0
 10
-624.5483837935982
 20
172.8193532774239
 30
0.0
 10
-622.6142004234907
 20
176.4089024493952
 30
0.0
 10
-619.8060971613068
 20
181.0728351627354
 30
0.0
 10
-615.9579391646316
 20
186.5030145081429
 30
0.0
 10
-610.7177925247082
 20
192.5583741422716
 30
0.0
 10
-605.0369467333373
 20
197.9887862467837
 30
0.0
 10
-598.8240413790746
 20
202.8770194330595
 30
0.0
 10
-592.153202305206
 20
207.1844580757362
 30
0.0
 10
-586.344772090691
 20
210.2076432010051
 30
0.0
 10
-581.5263539423704
 20
212.3038365909598
 30
0.0
 10
-577.913882401559
 20
213.6880687127464
 30
0.0
 10
-574.1246551564266
 20
214.9451333724309
 30
0.0
 10
-570.9209105953363
 20
215.8414810376173
 30
0.0
 10
-568.3855924772295
 20
216.4558578447279
 30
0.0
 10
-566.5940519498092
 20
216.8486341074683
 30
0.0
 10
-564.8247867929958
 20
217.1967519148741
 30
0.0
 10
-563.078227409019
 20
217.5023672522977
 30
0.0
 10
-561.3544446232534
 20
217.7673844271274
 30
0.0
 10
-559.6530530152309
 20
217.9927847780604
 30
0.0
 10
-557.9736929221891
 20
218.1790339962731
 30
0.0
 10
-556.3166877089421
 20
218.3306639383011
 30
0.0
 10
-555.2183799397316
 20
218.4029787160316
 30
0.0
 10
-554.6734515521025
 20
218.4388578897341
 30
0.0
  0
SPLINE
  5
79
330
1F
100
AcDbEntity
  8
0
  6
Continuous
 62
     7
370
    25
100
AcDbSpline
210
0.0
220
0.0
230
1.0
 70
     8
 71
     3
 72
    51
 73
    47
 74
     0
 42
0.000000001
 43
0.00000001
 40
0.0
 40
0.0
 40
0.0
 40
0.0
 40
0.0070687626248711
 40
0.0141594736365591
 40
0.0212731764643108
 40
0.0284111676460597
 40
0.0355749995982513
 40
0.0427664827753569
 40
0.0499876872346048
 40
0.057240943636346
 40
0.0645288437266588
 40
0.0718542233939616
 40
0.0792192571457679
 40
0.0866249544730065
 40
0.0940723674437749
 40
0.1015627000703264
 40
0.1090973090500592
 40
0.1166777041397386
 40
0.1243055481617654
 40
0.1528155427320829
 40
0.1829940892001184
 40
0.2148826905240297
 40
0.2485405573169275
 40
0.2778837317295526
 40
0.3110278881300786
 40
0.3364607222330419
 40
0.3738117091975914
 40
0.445566324912723
 40
0.4999817808391476
 40
0.5631555580043378
 40
0.6261747355257858
 40
0.6839355722263205
 40
0.7514432139690722
 40
0.7752550804551175
 40
0.8136599438387183
 40
0.8481306139319805
 40
0.8756891537303729
 40
0.8895212812086779
 40
0.9033162169902992
 40
0.9170860789532765
 40
0.9308422499183362
 40
0.9445970414603728
 40
0.9583699427523766
 40
0.9721817934478773
 40
0.9860523095299484
 40
1.0
 40
1.0
 40
1.0
 40
1.0
 10
-554.6734515521002
 20
-218.4388578897344
 30
0.0
 10
-554.9710542567373
 20
-218.4210641412107
 30
0.0
 10
-555.5671837173094
 20
-218.385421394879
 30
0.0
 10
-556.4619994782478
 20
-218.3193821391511
 30
0.0
 10
-557.3589861945485
 20
-218.2438547098114
 30
0.0
 10
-558.2581341475136
 20
-218.1578074166603
 30
0.0
 10
-559.1595278062108
 20
-218.0613567947222
 30
0.0
 10
-560.0632664410537
 20
-217.9543287021779
 30
0.0
 10
-560.9694869793477
 20
-217.8366461538523
 30
0.0
 10
-561.8783597375805
 20
-217.708227595208
 30
0.0
 10
-562.7900893103391
 20
-217.5690080990617
 30
0.0
 10
-563.7048817458077
 20
-217.4189678705536
 30
0.0
 10
-564.6228678005517
 20
-217.2580279162118
 30
0.0
 10
-565.5440699147957
 20
-217.0859410154557
 30
0.0
 10
-566.4684711886224
 20
-216.9025061311253
 30
0.0
 10
-567.3960649007334
 20
-216.7075195144755
 30
0.0
 10
-568.3268590631393
 20
-216.500783922239
 30
0.0
 10
-569.2608849672192
 20
-216.2821107772643
 30
0.0
 10
-571.051387664863
 20
-215.8411949896956
 30
0.0
 10
-573.7492720169938
 20
-215.0990882353712
 30
0.0
 10
-577.3861224274809
 20
-213.9249514891984
 30
0.0
 10
-581.1686197771666
 20
-212.5083668289687
 30
0.0
 10
-584.8456437944413
 20
-210.9234618391989
 30
0.0
 10
-588.4914178904177
 20
-209.1448934071908
 30
0.0
 10
-591.7463597074858
 20
-207.3646905579857
 30
0.0
 10
-595.2084383858567
 20
-205.2688967315225
 30
0.0
 10
-599.921034740832
 20
-202.1032593523337
 30
0.0
 10
-605.3216879496965
 20
-197.7884291810301
 30
0.0
 10
-611.0575410192054
 20
-192.2196558494135
 30
0.0
 10
-616.0310286775135
 20
-186.433068541028
 30
0.0
 10
-620.5026054430984
 20
-180.0772225224779
 30
0.0
 10
-624.4606118009921
 20
-173.1812856019916
 30
0.0
 10
-627.0659036362787
 20
-167.4446049833706
 30
0.0
 10
-628.9826137335878
 20
-162.3190258402255
 30
0.0
 10
-630.2325046054657
 20
-158.4344758238488
 30
0.0
 10
-631.3097191474436
 20
-154.3356852141245
 30
0.0
 10
-631.9784392718293
 20
-151.2056195561014
 30
0.0
 10
-632.3940137072404
 20
-148.9152159748999
 30
0.0
 10
-632.6697960448636
 20
-147.190928095417
 30
0.0
 10
-632.9091482570118
 20
-145.4644498132104
 30
0.0
 10
-633.1124574303868
 20
-143.7350611741845
 30
0.0
 10
-633.2801536257953
 20
-142.0017316207939
 30
0.0
 10
-633.4116969199724
 20
-140.2629064465564
 30
0.0
 10
-633.5055235836468
 20
-138.5167890846849
 30
0.0
 10
-633.5645400081444
 20
-136.7616688827451
 30
0.0
 10
-633.5718165970385
 20
-135.5883080053633
 30
0.0
 10
-633.5754649849885
 20
-134.9999999741923
 30
0.0
  0
SPLINE
  5
7A
330
1F
100
AcDbEntity
  8
0
  6
Continuous
 62
     7
370
    25
100
AcDbSpline
210
0.0
220
0.0
230
1.0
 70
     8
 71
     3
 72
    20
 73
    16
 74
     0
 42
0.000000001
 43
0.00000001
 40
0.0
 40
0.0
 40
0.0
 40
0.0
 40
0.1249999999999998
 40
0.1249999999999998
 40
0.1874999999999998
 40
0.1874999999999998
 40
0.2499999999999997
 40
0.2499999999999997
 40
0.4999999999999998
 40
0.4999999999999998
 40
0.7499999999999999
 40
0.7499999999999999
 40
0.8749999999999999
 40
0.8749999999999999
 40
1.0
 40
1.0
 40
1.0
 40
1.0
 10
497.4453954620571
 20
-218.1470845364924
 30
0.0
 10
453.6498626752033
 20
-220.8163926601755
 30
0.0
 10
409.8326717049655
 20
-223.1543161610664
 30
0.0
 10
344.0840194577968
 20
-226.1626360404736
 30
0.0
 10
322.1621568879082
 20
-227.0823257106963
 30
0.0
 10
278.3192700855651
 20
-228.75529403036
 30
0.0
 10
256.3976321811503
 20
-229.5086107807184
 30
0.0
 10
146.7884697110009
 20
-232.8584420100971
 30
0.0
 10
59.09803045860285
 20
-234.2062279596765
 30
0.0
 10
-116.2890287899662
 20
-234.2426317532523
 30
0.0
 10
-203.9856516499202
 20
-232.9310246598328
 30
0.0
 10
-335.5352269422766
 20
-228.9790340444787
 30
0.0
 10
-379.3894137111483
 20
-227.3305850320203
 30
0.0
 10
-467.0557175792151
 20
-223.3768380227073
 30
0.0
 10
-510.8726524072736
 20
-221.0712188172692
 30
0.0
 10
-554.6734515521002
 20
-218.4388578897344
 30
0.0
  0
SPLINE
  5
7B
330
1F
100
AcDbEntity
  8
0
  6
Continuous
 62
     7
370
    25
100
AcDbSpline
210
0.0
220
0.0
230
1.0
 70
     8
 71
     3
 72
     8
 73
     4
 74
     0
 42
0.000000001
 43
0.00000001
 40
0.0
 40
0.0
 40
0.0
 40
0.0
 40
1.0
 40
1.0
 40
1.0
 40
1.0
 10
587.5071233580954
 20
-270.4393227499307
 30
0.0
 10
590.0124593615005
 20
-270.3746607865913
 30
0.0
 10
592.5160590457243
 20
-270.243419504312
 30
0.0
 10
595.015328882029
 20
-270.045059082463
 30
0.0
  0
SPLINE
  5
7C
330
1F
100
AcDbEntity
  8
0
  6
Continuous
 62
     7
370
    25
100
AcDbSpline
210
0.0
220
0.0
230
1.0
 70
     8
 71
     3
 72
    16
 73
    12
 74
     0
 42
0.000000001
 43
0.00000001
 40
0.0
 40
0.0
 40
0.0
 40
0.0
 40
0.25
 40
0.25
 40
0.375
 40
0.375
 40
0.5
 40
0.5
 40
0.75
 40
0.75
 40
1.0
 40
1.0
 40
1.0
 40
1.0
 10
-555.0277768686841
 20
-270.380240020827
 30
0.0
 10
-459.843857855365
 20
-274.0277726146968
 30
0.0
 10
-364.6297898746797
 20
-276.7747946277477
 30
0.0
 10
-221.7764367127688
 20
-279.5261849402946
 30
0.0
 10
-174.1578821578486
 20
-280.2151351430386
 30
0.0
 10
-78.92820290477259
 20
-281.1348394847269
 30
0.0
 10
-31.3156678122013
 20
-281.3657394699349
 30
0.0
 10
111.5150157793868
 20
-281.3708143309838
 30
0.0
 10
206.7262376855375
 20
-280.4569673300098
 30
0.0
 10
397.1303536031517
 20
-276.807681740419
 30
0.0
 10
492.3229638110791
 20
-274.0726576535054
 30
0.0
 10
587.5071233580954
 20
-270.4393227499307
 30
0.0
  0
SPLINE
  5
7D
330
1F
100
AcDbEntity
  8
0
  6
Continuous
 62
     7
370
    25
100
AcDbSpline
210
0.0
220
0.0
230
1.0
 70
     8
 71
     3
 72
    54
 73
    50
 74
     0
 42
0.000000001
 43
0.00000001
 40
0.0
 40
0.0
 40
0.0
 40
0.0
 40
0.0625000000000017
 40
0.0625000000000017
 40
0.1250000000000034
 40
0.1250000000000034
 40
0.1875000000000051
 40
0.1875000000000051
 40
0.2187500000000059
 40
0.2187500000000059
 40
0.2500000000000067
 40
0.2500000000000067
 40
0.3125000000000078
 40
0.3125000000000078
 40
0.3750000000000088
 40
0.3750000000000088
 40
0.4062500000000088
 40
0.4062500000000088
 40
0.4375000000000088
 40
0.4375000000000088
 40
0.5000000000000073
 40
0.5000000000000073
 40
0.5625000000000059
 40
0.5625000000000059
 40
0.6250000000000044
 40
0.6250000000000044
 40
0.640625000000004
 40
0.640625000000004
 40
0.6562500000000036
 40
0.6562500000000036
 40
0.6875000000000024
 40
0.6875000000000024
 40
0.7500000000000003
 40
0.7500000000000003
 40
0.8124999999999983
 40
0.8124999999999983
 40
0.843749999999998
 40
0.843749999999998
 40
0.859374999999998
 40
0.859374999999998
 40
0.874999999999998
 40
0.874999999999998
 40
0.9374999999999982
 40
0.9374999999999982
 40
0.9687499999999983
 40
0.9687499999999983
 40
0.9843749999999992
 40
0.9843749999999992
 40
1.0
 40
1.0
 40
1.0
 40
1.0
 10
-685.4748450050051
 20
-135.0000000078169
 30
0.0
 10
-685.4748450050052
 20
-139.3654859708284
 30
0.0
 10
-685.2624291948625
 20
-143.6975219400993
 30
0.0
 10
-684.4321202751621
 20
-152.2977424003433
 30
0.0
 10
-683.812953821075
 20
-156.5657263687154
 30
0.0
 10
-682.1677159495621
 20
-165.0376181086206
 30
0.0
 10
-681.1422822122747
 20
-169.24162627538
 30
0.0
 10
-679.2926623530636
 20
-175.4985907681481
 30
0.0
 10
-678.6224022436027
 20
-177.5802364266215
 30
0.0
 10
-677.1900069604301
 20
-181.6865522849399
 30
0.0
 10
-676.4268536468629
 20
-183.7152193544276
 30
0.0
 10
-673.9994256904492
 20
-189.7292600637659
 30
0.0
 10
-672.1977293163953
 20
-193.6429581240231
 30
0.0
 10
-668.2303790449266
 20
-201.2805235895314
 30
0.0
 10
-666.065689783196
 20
-205.0048941402693
 30
0.0
 10
-662.5419948281792
 20
-210.4471508984123
 30
0.0
 10
-661.3213991651162
 20
-212.2372281080684
 30
0.0
 10
-658.786834014557
 20
-215.7686812334209
 30
0.0
 10
-657.4693525291527
 20
-217.5141998847675
 30
0.0
 10
-653.4124841943348
 20
-222.6255156803522
 30
0.0
 10
-650.5631580608333
 20
-225.8784152900552
 30
0.0
 10
-644.5840751647426
 20
-232.0846094897561
 30
0.0
 10
-641.4535647207567
 20
-235.0370989357216
 30
0.0
 10
-634.9129356086877
 20
-240.6433515038975
 30
0.0
 10
-631.5016215175265
 20
-243.2958375330309
 30
0.0
 10
-627.05816682701
 20
-246.4198727485835
 30
0.0
 10
-626.1604787313757
 20
-247.0350674628441
 30
0.0
 10
-624.3468407218363
 20
-248.2459464423609
 30
0.0
 10
-623.4319558123536
 20
-248.8408493029189
 30
0.0
 10
-620.6744591413348
 20
-250.5869609992057
 30
0.0
 10
-618.8147471116911
 20
-251.7025359705611
 30
0.0
 10
-613.1727951217296
 20
-254.9067721677748
 30
0.0
 10
-609.3276559694813
 20
-256.8527557560507
 30
0.0
 10
-601.4727431246854
 20
-260.3712738859733
 30
0.0
 10
-597.4629860124099
 20
-261.9438459831912
 30
0.0
 10
-591.323094209169
 20
-264.0185794077876
 30
0.0
 10
-589.2555760106028
 20
-264.6627768397304
 30
0.0
 10
-586.1225336043376
 20
-265.5570186396709
 30
0.0
 10
-585.0728891855289
 20
-265.8430839071498
 30
0.0
 10
-582.9629034176977
 20
-266.3909500661405
 30
0.0
 10
-581.9028688545512
 20
-266.6526345439154
 30
0.0
 10
-576.5990907511234
 20
-267.8946606954084
 30
0.0
 10
-572.3264195569906
 20
-268.6816450422804
 30
0.0
 10
-565.872953571626
 20
-269.552265729037
 30
0.0
 10
-563.7143825851323
 20
-269.7907891210691
 30
0.0
 10
-560.4653265245431
 20
-270.070521404182
 30
0.0
 10
-559.3804404190523
 20
-270.1507509993251
 30
0.0
 10
-557.2069200973093
 20
-270.2850891490127
 30
0.0
 10
-556.1181784786442
 20
-270.3384548594892
 30
0.0
 10
-555.0277768686841
 20
-270.3802400208269
 30
0.0
  0
SPLINE
  5
7F
330
1F
100
AcDbEntity
  8
0
  6
Continuous
 62
     7
370
    25
100
AcDbSpline
210
0.0
220
0.0
230
1.0
 70
     8
 71
     3
 72
    54
 73
    50
 74
     0
 42
0.000000001
 43
0.00000001
 40
0.0
 40
0.0
 40
0.0
 40
0.0
 40
0.0156250000000009
 40
0.0156250000000009
 40
0.0312500000000019
 40
0.0312500000000019
 40
0.0625000000000022
 40
0.0625000000000022
 40
0.1250000000000011
 40
0.1250000000000011
 40
0.1875000000000001
 40
0.1875000000000001
 40
0.2187499999999988
 40
0.2187499999999988
 40
0.2499999999999975
 40
0.2499999999999975
 40
0.3124999999999946
 40
0.3124999999999946
 40
0.3749999999999918
 40
0.3749999999999918
 40
0.4374999999999889
 40
0.4374999999999889
 40
0.453124999999989
 40
0.453124999999989
 40
0.4687499999999891
 40
0.4687499999999891
 40
0.4999999999999891
 40
0.4999999999999891
 40
0.6249999999999896
 40
0.6249999999999896
 40
0.6562499999999893
 40
0.6562499999999893
 40
0.6718749999999895
 40
0.6718749999999895
 40
0.6874999999999895
 40
0.6874999999999895
 40
0.7499999999999911
 40
0.7499999999999911
 40
0.8124999999999928
 40
0.8124999999999928
 40
0.8749999999999943
 40
0.8749999999999943
 40
0.8906249999999951
 40
0.8906249999999951
 40
0.9062499999999958
 40
0.9062499999999958
 40
0.9374999999999972
 40
0.9374999999999972
 40
1.0
 40
1.0
 40
1.0
 40
1.0
 10
-555.0277768949002
 20
270.3802400198222
 30
0.0
 10
-556.1184771044004
 20
270.3384434158821
 30
0.0
 10
-557.2067567281663
 20
270.285086983371
 30
0.0
 10
-559.3775676842989
 20
270.1509407994336
 30
0.0
 10
-560.4602548612585
 20
270.0708923116981
 30
0.0
 10
-563.700228146549
 20
269.7921385212289
 30
0.0
 10
-565.8494308535968
 20
269.5548479621434
 30
0.0
 10
-572.2652158241356
 20
268.6910693598236
 30
0.0
 10
-576.5000041512466
 20
267.9128147551553
 30
0.0
 10
-584.8863175590743
 20
265.9588511446665
 30
0.0
 10
-589.037741698717
 20
264.7826602727962
 30
0.0
 10
-595.2007060578748
 20
262.71205162758
 30
0.0
 10
-597.2443116580429
 20
261.9706970083701
 30
0.0
 10
-601.3096258143455
 20
260.3834632264712
 30
0.0
 10
-603.3184068744524
 20
259.5425284499372
 30
0.0
 10
-609.2581632108113
 20
256.8877366596864
 30
0.0
 10
-613.1099233885764
 20
254.9391512150409
 30
0.0
 10
-620.6012967724362
 20
250.6911587653792
 30
0.0
 10
-624.2410926575343
 20
248.3920539010544
 30
0.0
 10
-631.307081309326
 20
243.4406141602911
 30
0.0
 10
-634.7338524934103
 20
240.7892358071184
 30
0.0
 10
-638.8787219572729
 20
237.2458225701222
 30
0.0
 10
-639.6999450557626
 20
236.5263672276034
 30
0.0
 10
-641.3198808263887
 20
235.0723827959707
 30
0.0
 10
-642.1196309888159
 20
234.3369739057794
 30
0.0
 10
-644.4885239812453
 20
232.1057407687678
 30
0.0
 10
-646.0273279630095
 20
230.5849254162812
 30
0.0
 10
-653.5203132125571
 20
222.8152498038799
 30
0.0
 10
-658.8803908303167
 20
216.0770068105461
 30
0.0
 10
-664.7807424121567
 20
206.9954264874964
 30
0.0
 10
-665.9203312121308
 20
205.1457644699152
 30
0.0
 10
-667.5679464753457
 20
202.3203911724375
 30
0.0
 10
-668.1067738681897
 20
201.3701890704249
 30
0.0
 10
-669.1580102058509
 20
199.4632245006927
 30
0.0
 10
-669.6711825729853
 20
198.5051753101637
 30
0.0
 10
-672.1753580570632
 20
193.6922939516898
 30
0.0
 10
-673.9810975839101
 20
189.7694805042681
 30
0.0
 10
-677.2088018042364
 20
181.7830298720719
 30
0.0
 10
-678.6301843361167
 20
177.7191790661344
 30
0.0
 10
-681.0865779367352
 20
169.4497008313043
 30
0.0
 10
-682.1220167970721
 20
165.2442303754863
 30
0.0
 10
-683.1674636852675
 20
159.8960777156539
 30
0.0
 10
-683.3641113044473
 20
158.8214535111811
 30
0.0
 10
-683.7306560292452
 20
156.6719443703042
 30
0.0
 10
-683.9007742519236
 20
155.5959789607522
 30
0.0
 10
-684.3718159938567
 20
152.3644639691591
 30
0.0
 10
-684.6334225177959
 20
150.2052952493019
 30
0.0
 10
-685.2622979805216
 20
143.7134343603923
 30
0.0
 10
-685.4748450041918
 20
139.3664999819695
 30
0.0
 10
-685.4748450050054
 20
134.9999999994694
 30
0.0
  0
SPLINE
  5
80
330
1F
100
AcDbEntity
  8
0
  6
Continuous
 62
     7
370
    25
100
AcDbSpline
210
0.0
220
0.0
230
1.0
 70
     8
 71
     3
 72
    18
 73
    14
 74
     0
 42
0.000000001
 43
0.00000001
 40
0.0
 40
0.0
 40
0.0
 40
0.0
 40
0.0625000000000001
 40
0.0625000000000001
 40
0.125
 40
0.125
 40
0.25
 40
0.25
 40
0.5
 40
0.5
 40
0.75
 40
0.75
 40
1.0
 40
1.0
 40
1.0
 40
1.0
 10
587.507123358095
 20
270.4393227499307
 30
0.0
 10
563.7119672312283
 20
271.3476227385533
 30
0.0
 10
539.9129652574401
 20
272.2000245942724
 30
0.0
 10
492.3139896501091
 20
273.7918745626801
 30
0.0
 10
468.5128914906658
 20
274.5313625670037
 30
0.0
 10
397.1047668072855
 20
276.5806071810509
 30
0.0
 10
349.4929029918551
 20
277.7208722207239
 30
0.0
 10
206.6377984836262
 20
280.4583200143954
 30
0.0
 10
111.406650800198
 20
281.3715038225988
 30
0.0
 10
-79.03414874902504
 20
281.3633498723028
 30
0.0
 10
-174.2454798313615
 20
280.4419842370812
 30
0.0
 10
-364.6500996436121
 20
276.7740617529666
 30
0.0
 10
-459.8433913280658
 20
274.0277904926035
 30
0.0
 10
-555.0277768949002
 20
270.3802400198222
 30
0.0
  0
SPLINE
  5
81
330
1F
100
AcDbEntity
  8
0
  6
Continuous
 62
     7
370
    25
100
AcDbSpline
210
0.0
220
0.0
230
1.0
 70
     8
 71
     3
 72
     8
 73
     4
 74
     0
 42
0.000000001
 43
0.00000001
 40
0.0
 40
0.0
 40
0.0
 40
0.0
 40
1.0
 40
1.0
 40
1.0
 40
1.0
 10
595.0153288804926
 20
270.045059082585
 30
0.0
 10
592.5160590447126
 20
270.2434195043647
 30
0.0
 10
590.0124593618988
 20
270.3746607836327
 30
0.0
 10
587.507123358095
 20
270.4393227499307
 30
0.0
  0
SPLINE
  5
82
330
1F
100
AcDbEntity
  8
0
  6
Continuous
 62
     7
370
    25
100
AcDbSpline
210
0.0
220
0.0
230
1.0
 70
     8
 71
     3
 72
    48
 73
    44
 74
     0
 42
0.000000001
 43
0.00000001
 40
0.0
 40
0.0
 40
0.0
 40
0.0
 40
0.0624999999999998
 40
0.0624999999999998
 40
0.1249999999999995
 40
0.1249999999999995
 40
0.1874999999999993
 40
0.1874999999999993
 40
0.2187499999999987
 40
0.2187499999999987
 40
0.2343749999999984
 40
0.2343749999999984
 40
0.2499999999999982
 40
0.2499999999999982
 40
0.3124999999999969
 40
0.3124999999999969
 40
0.3749999999999956
 40
0.3749999999999956
 40
0.4374999999999943
 40
0.4374999999999943
 40
0.4687499999999936
 40
0.4687499999999936
 40
0.4999999999999929
 40
0.4999999999999929
 40
0.5624999999999925
 40
0.5624999999999925
 40
0.624999999999992
 40
0.624999999999992
 40
0.6562499999999923
 40
0.6562499999999923
 40
0.6718749999999925
 40
0.6718749999999925
 40
0.6874999999999925
 40
0.6874999999999925
 40
0.7499999999999946
 40
0.7499999999999946
 40
0.8749999999999967
 40
0.8749999999999967
 40
0.9062499999999971
 40
0.9062499999999971
 40
0.9374999999999976
 40
0.9374999999999976
 40
1.0
 40
1.0
 40
1.0
 40
1.0
 10
721.7082039325005
 20
135.0000000076774
 30
0.0
 10
721.7082039325006
 20
139.2836302457155
 30
0.0
 10
721.5016767653896
 20
143.5309559332471
 30
0.0
 10
720.6947200131614
 20
151.956341893709
 30
0.0
 10
720.0930684931748
 20
156.1341850165381
 30
0.0
 10
718.4965419084125
 20
164.4207203278333
 30
0.0
 10
717.502347937865
 20
168.5295330599799
 30
0.0
 10
715.712441789931
 20
174.6402335716803
 30
0.0
 10
715.0659148511113
 20
176.6683591311667
 30
0.0
 10
714.019735669402
 20
179.6971122507888
 30
0.0
 10
713.6577526675206
 20
180.7058012219009
 30
0.0
 10
712.9115468133567
 20
182.709265980041
 30
0.0
 10
712.5271852378635
 20
183.704546621416
 30
0.0
 10
710.5499896458659
 20
188.6492173554071
 30
0.0
 10
708.7915896171316
 20
192.5037357992772
 30
0.0
 10
704.9289675736569
 20
200.0145622886612
 30
0.0
 10
702.8258999230094
 20
203.6715725025242
 30
0.0
 10
698.2750961692409
 20
210.7879912796347
 30
0.0
 10
695.8282656412625
 20
214.2479902449214
 30
0.0
 10
691.894138993606
 20
219.2866831522476
 30
0.0
 10
690.5345897366678
 20
220.9447989804771
 30
0.0
 10
687.7520920100486
 20
224.1799290841788
 30
0.0
 10
686.3278535314606
 20
225.7590555826801
 30
0.0
 10
681.9579072011686
 20
230.3830408595745
 30
0.0
 10
678.9143500553743
 20
233.3137563002379
 30
0.0
 10
672.5744263740618
 20
238.8805537636934
 30
0.0
 10
669.2770916140067
 20
241.5153084224167
 30
0.0
 10
664.1398330378844
 20
245.2445204623442
 30
0.0
 10
662.3956017705132
 20
246.45050011561
 30
0.0
 10
659.7307050608189
 20
248.2028024088538
 30
0.0
 10
658.8342835853568
 20
248.7774171540727
 30
0.0
 10
657.0250865073907
 20
249.9075731921893
 30
0.0
 10
656.1111283637332
 20
250.4638408264612
 30
0.0
 10
651.517344832232
 20
253.1871675583354
 30
0.0
 10
647.7691725917937
 20
255.179278954626
 30
0.0
 10
636.3126903960931
 20
260.6147523557993
 30
0.0
 10
628.3948120697481
 20
263.5233480053125
 30
0.0
 10
618.1465153526221
 20
266.2630899361818
 30
0.0
 10
616.0792061622915
 20
266.7659855602213
 30
0.0
 10
611.9087896987487
 20
267.6804086117414
 30
0.0
 10
609.8114620138002
 20
268.0906581587496
 30
0.0
 10
603.5057889281338
 20
269.1757830821851
 30
0.0
 10
599.2744662620869
 20
269.7070226387661
 30
0.0
 10
595.0153288804926
 20
270.045059082585
 30
0.0
  0
SPLINE
  5
84
330
1F
100
AcDbEntity
  8
0
  6
Continuous
 62
     7
370
    25
100
AcDbSpline
210
0.0
220
0.0
230
1.0
 70
     8
 71
     3
 72
    50
 73
    46
 74
     0
 42
0.000000001
 43
0.00000001
 40
0.0
 40
0.0
 40
0.0
 40
0.0
 40
0.0625000000000009
 40
0.0625000000000009
 40
0.1250000000000018
 40
0.1250000000000018
 40
0.1875000000000027
 40
0.1875000000000027
 40
0.2187500000000024
 40
0.2187500000000024
 40
0.2343750000000029
 40
0.2343750000000029
 40
0.2500000000000033
 40
0.2500000000000033
 40
0.3125000000000034
 40
0.3125000000000034
 40
0.3750000000000035
 40
0.3750000000000035
 40
0.4375000000000035
 40
0.4375000000000035
 40
0.4531250000000035
 40
0.4531250000000035
 40
0.4687500000000034
 40
0.4687500000000034
 40
0.5000000000000042
 40
0.5000000000000042
 40
0.6250000000000061
 40
0.6250000000000061
 40
0.6875000000000078
 40
0.6875000000000078
 40
0.7031250000000075
 40
0.7031250000000075
 40
0.7187500000000073
 40
0.7187500000000073
 40
0.7500000000000068
 40
0.7500000000000068
 40
0.8125000000000053
 40
0.8125000000000053
 40
0.8750000000000039
 40
0.8750000000000039
 40
0.906250000000003
 40
0.906250000000003
 40
0.937500000000002
 40
0.937500000000002
 40
1.0
 40
1.0
 40
1.0
 40
1.0
 10
595.015328882029
 20
-270.045059082463
 30
0.0
 10
599.2749332647737
 20
-269.7069855739536
 30
0.0
 10
603.4868694370134
 20
-269.1772680348557
 30
0.0
 10
611.8187353129664
 20
-267.746979219523
 30
0.0
 10
615.9388548121202
 20
-266.8472588728893
 30
0.0
 10
624.087613418594
 20
-264.6805731815687
 30
0.0
 10
628.1162180216501
 20
-263.413295428747
 30
0.0
 10
634.0887005821
 20
-261.2293301569825
 30
0.0
 10
636.0677708007267
 20
-260.4540564677999
 30
0.0
 10
639.018428109924
 20
-259.2189610508258
 30
0.0
 10
640.0002314177904
 20
-258.7946745082217
 30
0.0
 10
641.9509696076747
 20
-257.9248380362252
 30
0.0
 10
642.9195049813108
 20
-257.479508773914
 30
0.0
 10
647.7282901180914
 20
-255.2012464665399
 30
0.0
 10
651.4667768322784
 20
-253.213249551119
 30
0.0
 10
658.7316298752132
 20
-248.9141297922833
 30
0.0
 10
662.2576095983446
 20
-246.6024471257496
 30
0.0
 10
669.0964498039746
 20
-241.6544258870465
 30
0.0
 10
672.409221694525
 20
-239.0181500458799
 30
0.0
 10
676.4121662470214
 20
-235.5124856357818
 30
0.0
 10
677.2058790600657
 20
-234.800883033152
 30
0.0
 10
678.7794055219473
 20
-233.3565273244892
 30
0.0
 10
679.559950523429
 20
-232.6230336571934
 30
0.0
 10
681.8686222073082
 20
-230.4018995854982
 30
0.0
 10
683.3670267291448
 20
-228.890466093479
 30
0.0
 10
690.658872613402
 20
-221.1822960008591
 30
0.0
 10
695.8594789930424
 20
-214.5387281845893
 30
0.0
 10
702.7136164801585
 20
-203.8599995405332
 30
0.0
 10
704.8389475433139
 20
-200.1802737852947
 30
0.0
 10
707.2899934979417
 20
-195.4257285967225
 30
0.0
 10
707.7691381619327
 20
-194.4683477472749
 30
0.0
 10
708.7015847000725
 20
-192.5481593352713
 30
0.0
 10
709.155486547553
 20
-191.5842674603579
 30
0.0
 10
710.4807185091836
 20
-188.6813514808995
 30
0.0
 10
711.3156242480183
 20
-186.7311022387932
 30
0.0
 10
713.676791030747
 20
-180.8361252424261
 30
0.0
 10
715.0591698297975
 20
-176.8470629607242
 30
0.0
 10
717.4437820465514
 20
-168.7517946875711
 30
0.0
 10
718.446371030825
 20
-164.6457009904055
 30
0.0
 10
719.6602329822016
 20
-158.397204486147
 30
0.0
 10
720.0163741924504
 20
-156.2994356641106
 30
0.0
 10
720.6294652422837
 20
-152.0733360041235
 30
0.0
 10
720.8863577792677
 20
-149.9434110965863
 30
0.0
 10
721.5015730507808
 20
-143.5555554519992
 30
0.0
 10
721.7082039317063
 20
-139.2842438880986
 30
0.0
 10
721.7082039325007
 20
-134.9999999991284
 30
0.0
  0
SPLINE
  5
85
330
1F
100
AcDbEntity
  8
0
  6
Continuous
 62
     7
370
    25
100
AcDbSpline
210
0.0
220
0.0
230
1.0
 70
    11
 71
     3
 72
   114
 73
   110
 74
     0
 42
0.000000001
 43
0.00000001
 40
0.0
 40
0.0
 40
0.0
 40
0.0
 40
0.0312499999999977
 40
0.0312499999999977
 40
0.046874999999997
 40
0.046874999999997
 40
0.0624999999999963
 40
0.0624999999999963
 40
0.0937499999999946
 40
0.0937499999999946
 40
0.1093749999999938
 40
0.1093749999999938
 40
0.124999999999993
 40
0.124999999999993
 40
0.1562499999999922
 40
0.1562499999999922
 40
0.1718749999999917
 40
0.1718749999999917
 40
0.1874999999999912
 40
0.1874999999999912
 40
0.2031249999999908
 40
0.2031249999999908
 40
0.2187499999999903
 40
0.2187499999999903
 40
0.2499999999999895
 40
0.2499999999999895
 40
0.2656249999999891
 40
0.2656249999999891
 40
0.2734374999999888
 40
0.2734374999999888
 40
0.2812499999999886
 40
0.2812499999999886
 40
0.3124999999999876
 40
0.3124999999999876
 40
0.3203124999999872
 40
0.3203124999999872
 40
0.328124999999987
 40
0.328124999999987
 40
0.3437499999999863
 40
0.3437499999999863
 40
0.3749999999999847
 40
0.3749999999999847
 40
0.4062499999999832
 40
0.4062499999999832
 40
0.4218749999999827
 40
0.4218749999999827
 40
0.4374999999999822
 40
0.4374999999999822
 40
0.4687499999999811
 40
0.4687499999999811
 40
0.4843749999999811
 40
0.4843749999999811
 40
0.499999999999981
 40
0.499999999999981
 40
0.5312499999999813
 40
0.5312499999999813
 40
0.5468749999999817
 40
0.5468749999999817
 40
0.5624999999999821
 40
0.5781249999999825
 40
0.5781249999999825
 40
0.5937499999999829
 40
0.5937499999999829
 40
0.6249999999999836
 40
0.6249999999999836
 40
0.6406249999999839
 40
0.6406249999999839
 40
0.6562499999999843
 40
0.6562499999999843
 40
0.6874999999999855
 40
0.6874999999999855
 40
0.6953124999999856
 40
0.6953124999999856
 40
0.7031249999999858
 40
0.7031249999999858
 40
0.7187499999999862
 40
0.7187499999999862
 40
0.749999999999987
 40
0.749999999999987
 40
0.7578124999999872
 40
0.7578124999999872
 40
0.7656249999999875
 40
0.7656249999999875
 40
0.7812499999999879
 40
0.7968749999999885
 40
0.7968749999999885
 40
0.8046874999999888
 40
0.8046874999999888
 40
0.812499999999989
 40
0.812499999999989
 40
0.8437499999999908
 40
0.8437499999999908
 40
0.8593749999999918
 40
0.8593749999999918
 40
0.8749999999999927
 40
0.8749999999999927
 40
0.9062499999999942
 40
0.9062499999999942
 40
0.9218749999999952
 40
0.9218749999999952
 40
0.9374999999999961
 40
0.9374999999999961
 40
0.9531249999999971
 40
0.9531249999999971
 40
0.9609374999999974
 40
0.9609374999999974
 40
0.9687499999999979
 40
0.9687499999999979
 40
1.0
 40
1.0
 40
1.0
 40
1.0
 10
-677.1052631578946
 20
26.00000000000006
 30
0.0
 10
-676.791541961814
 20
26.00000000000006
 30
0.0
 10
-676.4829171049862
 20
25.83428412089366
 30
0.0
 10
-676.0273248456322
 20
25.34687466716314
 30
0.0
 10
-675.8766938589204
 20
25.14430857677288
 30
0.0
 10
-675.5779548501329
 20
24.65713803824961
 30
0.0
 10
-675.4292358359302
 20
24.37082342524271
 30
0.0
 10
-674.9959474582671
 20
23.40424257000712
 30
0.0
 10
-674.7216621391583
 20
22.61479131658917
 30
0.0
 10
-674.3319413311608
 20
21.21454362967598
 30
0.0
 10
-674.2056772089503
 20
20.7115342299829
 30
0.0
 10
-673.96073092282
 20
19.63004544558128
 30
0.0
 10
-673.8439515184778
 20
19.05988278841802
 30
0.0
 10
-673.5109571476538
 20
17.26743162893668
 30
0.0
 10
-673.311565640236
 20
15.96238762644494
 30
0.0
 10
-673.0471855697638
 20
13.83581068574284
 30
0.0
 10
-672.9646011359574
 20
13.09498932148942
 30
0.0
 10
-672.8148001084134
 20
11.58702584591019
 30
0.0
 10
-672.7471503875422
 20
10.81706148777544
 30
0.0
 10
-672.6260988224029
 20
9.245726771417315
 30
0.0
 10
-672.5726971928506
 20
8.444355939905517
 30
0.0
 10
-672.4803065197343
 20
6.809845214767416
 30
0.0
 10
-672.4412523733688
 20
5.974971560667321
 30
0.0
 10
-672.3470136151223
 20
3.431691263526291
 30
0.0
 10
-672.3160400275622
 20
1.72939784550715
 30
0.0
 10
-672.3156664453523
 20
-0.8338424059617631
 30
0.0
 10
-672.3232803093579
 20
-1.689901352861852
 30
0.0
 10
-672.3466163280176
 20
-2.976523484967506
 30
0.0
 10
-672.3564228028401
 20
-3.407034303848647
 30
0.0
 10
-672.37987384827
 20
-4.26091641719948
 30
0.0
 10
-672.3935106426369
 20
-4.68459841143249
 30
0.0
 10
-672.4710645165644
 20
-6.787031011733588
 30
0.0
 10
-672.5628207802768
 20
-8.418310794165809
 30
0.0
 10
-672.7144782302382
 20
-10.39438344909106
 30
0.0
 10
-672.7466746810783
 20
-10.7864178858974
 30
0.0
 10
-672.8148621911549
 20
-11.56401626867009
 30
0.0
 10
-672.8508638024072
 20
-11.94951426240343
 30
0.0
 10
-672.963341174057
 20
-13.08336661464403
 30
0.0
 10
-673.0446523487416
 20
-13.81358115384233
 30
0.0
 10
-673.3070154191728
 20
-15.92939378556212
 30
0.0
 10
-673.506319674362
 20
-17.24088033872669
 30
0.0
 10
-673.9551410840864
 20
-19.65996992644176
 30
0.0
 10
-674.1977421937174
 20
-20.72988548534938
 30
0.0
 10
-674.5866158281567
 20
-22.1307855790879
 30
0.0
 10
-674.7204879716948
 20
-22.56379066660813
 30
0.0
 10
-674.9968768858595
 20
-23.36068285845979
 30
0.0
 10
-675.1398465995053
 20
-23.72512280068593
 30
0.0
 10
-675.5728385772165
 20
-24.69143265465749
 30
0.0
 10
-675.8695541579538
 20
-25.17624862533929
 30
0.0
 10
-676.3265326780781
 20
-25.66787448844502
 30
0.0
 10
-676.4812828504192
 20
-25.79242454305745
 30
0.0
 10
-676.7930735323282
 20
-25.958639327845
 30
0.0
 10
-676.9484936499883
 20
-25.99968033880105
 30
0.0
 10
-677.413373854609
 20
-26.00063375596126
 30
0.0
 10
-677.7214665861761
 20
-25.83950896933441
 30
0.0
 10
-678.1808071473632
 20
-25.35009763307498
 30
0.0
 10
-678.3337788197136
 20
-25.14435918495361
 30
0.0
 10
-678.6322424286369
 20
-24.65771083444098
 30
0.0
 10
-678.924850143203
 20
-24.09461852763933
 30
0.0
 10
-679.2059279972435
 20
-23.38101323341188
 30
0.0
 10
-679.481167090665
 20
-22.591187649991
 30
0.0
 10
-679.6161275218537
 20
-22.15723597604555
 30
0.0
 10
-680.0102375623085
 20
-20.74212711717477
 30
0.0
 10
-680.2521563996106
 20
-19.67315883728628
 30
0.0
 10
-680.5847224430158
 20
-17.88690834353368
 30
0.0
 10
-680.6904892619652
 20
-17.26080509268247
 30
0.0
 10
-680.8915525495818
 20
-15.94545704821558
 30
0.0
 10
-680.9870478605794
 20
-15.25379351281187
 30
0.0
 10
-681.251268272587
 20
-13.12865941795836
 30
0.0
 10
-681.400198992088
 20
-11.63241759013544
 30
0.0
 10
-681.5523794458934
 20
-9.662867128011648
 30
0.0
 10
-681.5811009979515
 20
-9.263949675618324
 30
0.0
 10
-681.6350525549377
 20
-8.455917606256401
 30
0.0
 10
-681.6603434395806
 20
-8.045692244256244
 30
0.0
 10
-681.7303728970743
 20
-6.807841498624702
 30
0.0
 10
-681.7691545506344
 20
-5.976258607792539
 30
0.0
 10
-681.8624933882635
 20
-3.463031288098295
 30
0.0
 10
-681.8942673386581
 20
-1.76308723803886
 30
0.0
 10
-681.894847825357
 20
0.3932778435372855
 30
0.0
 10
-681.8929721428482
 20
0.8272181424681644
 30
0.0
 10
-681.8852778535946
 20
1.689299519557785
 30
0.0
 10
-681.8794695720161
 20
2.118204884227541
 30
0.0
 10
-681.8562701126433
 20
3.39863346604292
 30
0.0
 10
-681.8099663911497
 20
5.089135214118159
 30
0.0
 10
-681.7333776628041
 20
6.746662060510568
 30
0.0
 10
-681.66441634291
 20
7.977264242785841
 30
0.0
 10
-681.6395058169616
 20
8.385370714026559
 30
0.0
 10
-681.5857669603439
 20
9.197317874892352
 30
0.0
 10
-681.5569670204802
 20
9.600523864513946
 30
0.0
 10
-681.4048147613604
 20
11.5835199268946
 30
0.0
 10
-681.2561228979537
 20
13.08261546555663
 30
0.0
 10
-680.993685895581
 20
15.2037246504567
 30
0.0
 10
-680.8995419340043
 20
15.889684741726
 30
0.0
 10
-680.697819356214
 20
17.21610183040997
 30
0.0
 10
-680.5918273276089
 20
17.84619901441289
 30
0.0
 10
-680.2590520096766
 20
19.64098334231565
 30
0.0
 10
-680.0176060038035
 20
20.71104426884475
 30
0.0
 10
-679.625783040344
 20
22.12476310159533
 30
0.0
 10
-679.4899606402284
 20
22.56396666664939
 30
0.0
 10
-679.2141501995137
 20
23.35928698996427
 30
0.0
 10
-679.0734713512799
 20
23.71811695718068
 30
0.0
 10
-678.7866784603975
 20
24.35968533741953
 30
0.0
 10
-678.6405642579177
 20
24.64242151282502
 30
0.0
 10
-678.4172833067155
 20
25.00899159402383
 30
0.0
 10
-678.3421701850001
 20
25.12157583675105
 30
0.0
 10
-678.1905512175525
 20
25.32724648515452
 30
0.0
 10
-678.1138754923184
 20
25.42049870203457
 30
0.0
 10
-677.7295848399964
 20
25.83424754528302
 30
0.0
 10
-677.4189843539749
 20
26.00000000000006
 30
0.0
 10
-677.1052631578945
 20
26.00000000000006
 30
0.0
  0
SPLINE
  5
87
330
1F
100
AcDbEntity
  8
0
  6
Continuous
 62
     7
370
    25
100
AcDbSpline
210
0.0
220
0.0
230
1.0
 70
     8
 71
     3
 72
    26
 73
    22
 74
     0
 42
0.000000001
 43
0.00000001
 40
0.0
 40
0.0
 40
0.0
 40
0.0
 40
0.2499999999999998
 40
0.2499999999999998
 40
0.4999999999999997
 40
0.4999999999999997
 40
0.6249999999999996
 40
0.6249999999999996
 40
0.7499999999999996
 40
0.7499999999999996
 40
0.8749999999999997
 40
0.8749999999999997
 40
0.9374999999999997
 40
0.9374999999999997
 40
0.9687499999999997
 40
0.9687499999999997
 40
0.9843749999999999
 40
0.9843749999999999
 40
0.9921875
 40
0.9921875
 40
1.0
 40
1.0
 40
1.0
 40
1.0
 10
-556.1671516999011
 20
299.8615334461608
 30
0.0
 10
-460.034422893119
 20
303.5768117263389
 30
0.0
 10
-363.8925095717653
 20
306.3658465993942
 30
0.0
 10
-171.5900816348742
 20
310.0680059783994
 30
0.0
 10
-75.42956258851214
 20
310.9806836428763
 30
0.0
 10
68.82524616056213
 20
310.9347792757556
 30
0.0
 10
116.912520507663
 20
310.6836844861733
 30
0.0
 10
213.0917336003965
 20
309.711097875752
 30
0.0
 10
261.1852181145987
 20
308.9893121114512
 30
0.0
 10
357.3701356278988
 20
307.0773490575389
 30
0.0
 10
405.455579839356
 20
305.8869398288682
 30
0.0
 10
477.5733223609452
 20
303.7529603573369
 30
0.0
 10
501.6108317317282
 20
302.9835449510754
 30
0.0
 10
537.6644905812698
 20
301.742355241283
 30
0.0
 10
549.681942902932
 20
301.3141222450084
 30
0.0
 10
567.7074727620695
 20
300.6500956099637
 30
0.0
 10
573.7158746251149
 20
300.4251410057864
 30
0.0
 10
582.7283156964452
 20
300.0823042720057
 30
0.0
 10
585.7324842749248
 20
299.9687457238331
 30
0.0
 10
591.7405720484819
 20
299.7332941772585
 30
0.0
 10
594.7422006432705
 20
299.5348487942664
 30
0.0
 10
597.7413918127835
 20
299.2549441021187
 30
0.0
  0
SPLINE
  5
89
330
1F
100
AcDbEntity
  8
0
  6
Continuous
 62
     7
370
    25
100
AcDbSpline
210
0.0
220
0.0
230
1.0
 70
     8
 71
     3
 72
    50
 73
    46
 74
     0
 42
0.000000001
 43
0.00000001
 40
0.0
 40
0.0
 40
0.0
 40
0.0
 40
0.062499999999999
 40
0.062499999999999
 40
0.0937499999999985
 40
0.0937499999999985
 40
0.124999999999998
 40
0.124999999999998
 40
0.187499999999997
 40
0.187499999999997
 40
0.249999999999996
 40
0.249999999999996
 40
0.312499999999995
 40
0.312499999999995
 40
0.3281249999999946
 40
0.3281249999999946
 40
0.3437499999999941
 40
0.3437499999999941
 40
0.3749999999999936
 40
0.3749999999999936
 40
0.4374999999999936
 40
0.4374999999999936
 40
0.4999999999999937
 40
0.4999999999999937
 40
0.5312499999999942
 40
0.5312499999999942
 40
0.5624999999999949
 40
0.5624999999999949
 40
0.6249999999999956
 40
0.6249999999999956
 40
0.6874999999999962
 40
0.6874999999999962
 40
0.7499999999999969
 40
0.7499999999999969
 40
0.7656249999999969
 40
0.7656249999999969
 40
0.7812499999999968
 40
0.7812499999999968
 40
0.8124999999999971
 40
0.8124999999999971
 40
0.8749999999999981
 40
0.8749999999999981
 40
0.9374999999999991
 40
0.9374999999999991
 40
1.0
 40
1.0
 40
1.0
 40
1.0
 10
597.7413918127834
 20
299.2549441021187
 30
0.0
 10
602.8605588703397
 20
298.7771890013889
 30
0.0
 10
607.9421254754784
 20
298.0654557513255
 30
0.0
 10
615.5086172037848
 20
296.6502644883255
 30
0.0
 10
618.0240032664562
 20
296.1200644937856
 30
0.0
 10
623.0249449121006
 20
294.9458831169833
 30
0.0
 10
625.5026829270406
 20
294.3038124549062
 30
0.0
 10
632.8688108411352
 20
292.2153506612418
 30
0.0
 10
637.6902401457673
 20
290.6070133352705
 30
0.0
 10
647.1569859801011
 20
286.9644046860896
 30
0.0
 10
651.802394814457
 20
284.9303566044389
 30
0.0
 10
660.9161512975473
 20
280.4340326843657
 30
0.0
 10
665.3842615968332
 20
277.9711828092255
 30
0.0
 10
670.8549031068819
 20
274.6157075949423
 30
0.0
 10
671.9437354744488
 20
273.9303861142278
 30
0.0
 10
674.0986401017294
 20
272.5389312104712
 30
0.0
 10
675.16609203632
 20
271.8319525590595
 30
0.0
 10
678.3387899011273
 20
269.6776491307135
 30
0.0
 10
680.4144472218486
 20
268.1970348806838
 30
0.0
 10
686.5248056401057
 20
263.6239928786113
 30
0.0
 10
690.4425137352353
 20
260.399938954447
 30
0.0
 10
697.969042043971
 20
253.6043083601144
 30
0.0
 10
701.5782205852547
 20
250.0331348362845
 30
0.0
 10
706.755827839215
 20
244.4106756658871
 30
0.0
 10
708.4424614286656
 20
242.4923796437914
 30
0.0
 10
711.7357650980712
 20
238.5658224696582
 30
0.0
 10
713.3446702258352
 20
236.5539571997914
 30
0.0
 10
718.0009353039288
 20
230.443070995232
 30
0.0
 10
720.8952415902909
 20
226.2523724942952
 30
0.0
 10
726.2739009590812
 20
217.6428727322992
 30
0.0
 10
728.7581217013296
 20
213.2239978356147
 30
0.0
 10
733.3170334082887
 20
204.1583808815295
 30
0.0
 10
735.3910463788565
 20
199.5112615802537
 30
0.0
 10
737.7214245091095
 20
193.5565057566454
 30
0.0
 10
738.1743403586187
 20
192.358232338256
 30
0.0
 10
739.0535063264402
 20
189.9468483765825
 30
0.0
 10
739.4800641856257
 20
188.7327387745665
 30
0.0
 10
740.7131154033037
 20
185.0868444525325
 30
0.0
 10
741.4751375023532
 20
182.6459713017095
 30
0.0
 10
743.5847407497378
 20
175.2931329246851
 30
0.0
 10
744.7563988894213
 20
170.3510412548312
 30
0.0
 10
746.6375971675551
 20
160.387721183478
 30
0.0
 10
747.3465101786771
 20
155.3663853877496
 30
0.0
 10
748.2976741301406
 20
145.2437989023364
 30
0.0
 10
748.5410196624986
 20
140.1427356592216
 30
0.0
 10
748.5410196624983
 20
135.0000000076766
 30
0.0
  0
SPLINE
  5
8E
330
1F
100
AcDbEntity
  8
0
  6
Continuous
 62
     7
370
    25
100
AcDbSpline
210
0.0
220
0.0
230
1.0
 70
     8
 71
     3
 72
    54
 73
    50
 74
     0
 42
0.000000001
 43
0.00000001
 40
0.0
 40
0.0
 40
0.0
 40
0.0
 40
0.0312499999999958
 40
0.0312499999999958
 40
0.0624999999999916
 40
0.0624999999999916
 40
0.1249999999999844
 40
0.1249999999999844
 40
0.1406249999999836
 40
0.1406249999999836
 40
0.1562499999999828
 40
0.1562499999999828
 40
0.1874999999999827
 40
0.1874999999999827
 40
0.2499999999999836
 40
0.2499999999999836
 40
0.3124999999999845
 40
0.3124999999999845
 40
0.3437499999999845
 40
0.3437499999999845
 40
0.3593749999999845
 40
0.3593749999999845
 40
0.3749999999999845
 40
0.3749999999999845
 40
0.4374999999999846
 40
0.4374999999999846
 40
0.4999999999999848
 40
0.4999999999999848
 40
0.5624999999999849
 40
0.5624999999999849
 40
0.5781249999999855
 40
0.5781249999999855
 40
0.593749999999986
 40
0.593749999999986
 40
0.624999999999987
 40
0.624999999999987
 40
0.6874999999999891
 40
0.6874999999999891
 40
0.7499999999999911
 40
0.7499999999999911
 40
0.7812499999999923
 40
0.7812499999999923
 40
0.8124999999999936
 40
0.8124999999999936
 40
0.8749999999999957
 40
0.8749999999999957
 40
0.9374999999999979
 40
0.9374999999999979
 40
1.0
 40
1.0
 40
1.0
 40
1.0
 10
-556.1671516736338
 20
-299.8615334471762
 30
0.0
 10
-558.8223785695054
 20
-299.7589158793905
 30
0.0
 10
-561.4689960401583
 20
-299.5963716032368
 30
0.0
 10
-566.7434632517892
 20
-299.1406485155986
 30
0.0
 10
-569.3715994382537
 20
-298.849463534665
 30
0.0
 10
-577.2289175504661
 20
-297.787343004009
 30
0.0
 10
-582.4310339520351
 20
-296.828015345282
 30
0.0
 10
-588.88846481267
 20
-295.3141350377975
 30
0.0
 10
-590.1790758063905
 20
-294.9951835503567
 30
0.0
 10
-592.7478785177922
 20
-294.3274905742913
 30
0.0
 10
-594.0257682706207
 20
-293.9788730257648
 30
0.0
 10
-597.8400950271953
 20
-292.8891434313661
 30
0.0
 10
-600.3572036818913
 20
-292.1041865413414
 30
0.0
 10
-607.8322814405537
 20
-289.5763527963986
 30
0.0
 10
-612.7140791816983
 20
-287.6606871780263
 30
0.0
 10
-622.2772604158569
 20
-283.3747319352272
 30
0.0
 10
-626.958632351473
 20
-281.0044160937518
 30
0.0
 10
-633.8276183688205
 20
-277.1017107613668
 30
0.0
 10
-636.0917808234963
 20
-275.7429652518098
 30
0.0
 10
-639.4489838740133
 20
-273.6162863763646
 30
0.0
 10
-640.5628752696304
 20
-272.891712061684
 30
0.0
 10
-642.7707717150503
 20
-271.4170973464331
 30
0.0
 10
-643.8636086018968
 20
-270.6679180783471
 30
0.0
 10
-649.2730097468052
 20
-266.8634885144128
 30
0.0
 10
-653.4257998609097
 20
-263.6332536805564
 30
0.0
 10
-661.3884139178336
 20
-256.8063416942642
 30
0.0
 10
-665.199411198375
 20
-253.2109181949028
 30
0.0
 10
-672.4783823105823
 20
-245.6535676793453
 30
0.0
 10
-675.9471031429571
 20
-241.6924387963011
 30
0.0
 10
-680.0627626287977
 20
-236.5057105309735
 30
0.0
 10
-680.8754642556088
 20
-235.455625781636
 30
0.0
 10
-682.4755679461517
 20
-233.3355322932865
 30
0.0
 10
-683.2611775121019
 20
-232.2679532426783
 30
0.0
 10
-685.5752985838644
 20
-229.0429421187417
 30
0.0
 10
-687.0611696168495
 20
-226.8632710967877
 30
0.0
 10
-691.3506427125427
 20
-220.2365653613529
 30
0.0
 10
-693.9858716329062
 20
-215.7017163856419
 30
0.0
 10
-698.8154130937496
 20
-206.402060460729
 30
0.0
 10
-701.0087759929481
 20
-201.636758230347
 30
0.0
 10
-703.963754453422
 20
-194.314052763556
 30
0.0
 10
-704.8927472343921
 20
-191.8439443703562
 30
0.0
 10
-706.6364694130519
 20
-186.8441340254855
 30
0.0
 10
-707.4524197590147
 20
-184.3095746214176
 30
0.0
 10
-709.7040698270434
 20
-176.6912901204039
 30
0.0
 10
-710.9523560011953
 20
-171.5726243565014
 30
0.0
 10
-712.9550878693809
 20
-161.2575300545345
 30
0.0
 10
-713.7089135919456
 20
-156.0610038924325
 30
0.0
 10
-714.719947883594
 20
-145.5897515641653
 30
0.0
 10
-714.9784406626782
 20
-140.3152276166039
 30
0.0
 10
-714.9784406626777
 20
-135.0000000078157
 30
0.0
  0
SPLINE
  5
91
330
1F
100
AcDbEntity
  8
0
  6
Continuous
 62
     7
370
    25
100
AcDbSpline
210
0.0
220
0.0
230
1.0
 70
     8
 71
     3
 72
    25
 73
    21
 74
     0
 42
0.000000001
 43
0.00000001
 40
0.0
 40
0.0
 40
0.0
 40
0.0
 40
0.0078125000000002
 40
0.0078125000000002
 40
0.0156250000000003
 40
0.0156250000000003
 40
0.0312500000000003
 40
0.0625000000000003
 40
0.0625000000000003
 40
0.1250000000000004
 40
0.1250000000000004
 40
0.2500000000000003
 40
0.2500000000000003
 40
0.3750000000000003
 40
0.3750000000000003
 40
0.5000000000000002
 40
0.5000000000000002
 40
0.7500000000000001
 40
0.7500000000000001
 40
1.0
 40
1.0
 40
1.0
 40
1.0
 10
597.741391814644
 20
-299.2549441019451
 30
0.0
 10
594.742160612828
 20
-299.5348525302102
 30
0.0
 10
591.7405213823914
 20
-299.7332967372427
 30
0.0
 10
585.7324708771202
 20
-299.9687456744493
 30
0.0
 10
582.7283224763049
 20
-300.0823040087579
 30
0.0
 10
573.7159411065368
 20
-300.4251384874861
 30
0.0
 10
555.6908588680096
 20
-301.0999987127583
 30
0.0
 10
537.6648155010117
 20
-301.7423437171345
 30
0.0
 10
501.6114426658395
 20
-302.9835245957365
 30
0.0
 10
477.5741450274493
 20
-303.7529343138586
 30
0.0
 10
405.4571009465441
 20
-305.8868982200676
 30
0.0
 10
357.3722066474584
 20
-307.077299109843
 30
0.0
 10
261.1885592586993
 20
-308.9892544757059
 30
0.0
 10
213.093715498122
 20
-309.7110729993351
 30
0.0
 10
116.9135072871851
 20
-310.6836793424839
 30
0.0
 10
68.82581518535459
 20
-310.9347783401615
 30
0.0
 10
-75.4300068808885
 20
-310.9806852932937
 30
0.0
 10
-171.5908815067799
 20
-310.067996014403
 30
0.0
 10
-363.8933843659896
 20
-306.3658243230794
 30
0.0
 10
-460.0350171817023
 20
-303.5767887584732
 30
0.0
 10
-556.1671516736338
 20
-299.861533447176
 30
0.0
  0
SPLINE
  5
94
330
1F
100
AcDbEntity
  8
0
  6
Continuous
 62
     7
370
    25
100
AcDbSpline
210
0.0
220
0.0
230
1.0
 70
     8
 71
     3
 72
    52
 73
    48
 74
     0
 42
0.000000001
 43
0.00000001
 40
0.0
 40
0.0
 40
0.0
 40
0.0
 40
0.0625000000000001
 40
0.0625000000000001
 40
0.0937500000000002
 40
0.0937500000000002
 40
0.1250000000000003
 40
0.1250000000000003
 40
0.1875000000000007
 40
0.1875000000000007
 40
0.2500000000000012
 40
0.2500000000000012
 40
0.2812500000000013
 40
0.2812500000000013
 40
0.2968750000000014
 40
0.2968750000000014
 40
0.3125000000000016
 40
0.3125000000000016
 40
0.3750000000000015
 40
0.3750000000000015
 40
0.4375000000000015
 40
0.4375000000000015
 40
0.5000000000000014
 40
0.5000000000000014
 40
0.5312500000000014
 40
0.5312500000000014
 40
0.5468750000000017
 40
0.5468750000000017
 40
0.5625000000000019
 40
0.5625000000000019
 40
0.625000000000003
 40
0.625000000000003
 40
0.687500000000004
 40
0.687500000000004
 40
0.750000000000005
 40
0.750000000000005
 40
0.7656250000000046
 40
0.7656250000000046
 40
0.7812500000000042
 40
0.7812500000000042
 40
0.8125000000000036
 40
0.8125000000000036
 40
0.8750000000000024
 40
0.8750000000000024
 40
0.9375000000000012
 40
0.9375000000000012
 40
1.0
 40
1.0
 40
1.0
 40
1.0
 10
748.5410196624982
 20
-135.0000000039998
 30
0.0
 10
748.5410196615643
 20
-140.1436272980597
 30
0.0
 10
748.29753698202
 20
-145.2723908071421
 30
0.0
 10
747.572861288409
 20
-152.9435927751392
 30
0.0
 10
747.2703892514446
 20
-155.5013252794034
 30
0.0
 10
746.5486165912542
 20
-160.5777194166743
 30
0.0
 10
746.1293540822318
 20
-163.0984160584506
 30
0.0
 10
744.7000173913524
 20
-170.6090777531363
 30
0.0
 10
743.5189955510511
 20
-175.5477948989673
 30
0.0
 10
740.7086362140429
 20
-185.2908299288262
 30
0.0
 10
739.0790162294213
 20
-190.0950631266151
 30
0.0
 10
736.2942689117289
 20
-197.1993901660676
 30
0.0
 10
735.309348756895
 20
-199.5505099283768
 30
0.0
 10
733.7457514421874
 20
-203.0513428005517
 30
0.0
 10
733.2101701232419
 20
-204.2139754886756
 30
0.0
 10
732.1098917902867
 20
-206.5305123544021
 30
0.0
 10
731.5444225780116
 20
-207.6858955741905
 30
0.0
 10
728.6535050096401
 20
-213.4208117018623
 30
0.0
 10
726.1443339976723
 20
-217.8652542951824
 30
0.0
 10
720.7455315722186
 20
-226.4762265001468
 30
0.0
 10
717.8560887396538
 20
-230.6428938635395
 30
0.0
 10
711.7007935777931
 20
-238.701274652544
 30
0.0
 10
708.4337929126104
 20
-242.5921492590587
 30
0.0
 10
703.246887397629
 20
-248.2192527123783
 30
0.0
 10
701.4699446154779
 20
-250.0599103363396
 30
0.0
 10
698.7309248988587
 20
-252.7671305039632
 30
0.0
 10
697.8051191976582
 20
-253.6610738829036
 30
0.0
 10
695.9387700352456
 20
-255.4217772017695
 30
0.0
 10
694.9970913257959
 20
-256.289688042157
 30
0.0
 10
690.2466457175212
 20
-260.5677236419787
 30
0.0
 10
686.3115957212904
 20
-263.7931069301627
 30
0.0
 10
678.1790701124659
 20
-269.8599670657206
 30
0.0
 10
673.9820301154074
 20
-272.7020811817104
 30
0.0
 10
665.3256527877963
 20
-278.0025906398415
 30
0.0
 10
660.8667585647115
 20
-280.4616342106629
 30
0.0
 10
655.1254196856471
 20
-283.2900769159791
 30
0.0
 10
653.968760796549
 20
-283.8434899693037
 30
0.0
 10
651.638513715701
 20
-284.9255499406332
 30
0.0
 10
650.4662411294039
 20
-285.4535435111438
 30
0.0
 10
646.9418445834497
 20
-286.9925086491645
 30
0.0
 10
644.5768616972649
 20
-287.9609635121947
 30
0.0
 10
637.4364953095975
 20
-290.6965210293924
 30
0.0
 10
632.6157877786084
 20
-292.2941669342357
 30
0.0
 10
622.8559773756338
 20
-295.046804155647
 30
0.0
 10
617.9169148285941
 20
-296.2019462384771
 30
0.0
 10
607.9198340197821
 20
-298.0674806995829
 30
0.0
 10
602.861606636241
 20
-298.7770912167707
 30
0.0
 10
597.741391814644
 20
-299.2549441019451
 30
0.0
  0
SPLINE
  5
95
330
1F
100
AcDbEntity
  8
0
  6
Continuous
 62
     7
370
    25
100
AcDbSpline
210
0.0
220
0.0
230
1.0
 70
     8
 71
     3
 72
    53
 73
    49
 74
     0
 42
0.000000001
 43
0.00000001
 40
0.0
 40
0.0
 40
0.0
 40
0.0
 40
0.0625000000000031
 40
0.0625000000000031
 40
0.0937500000000048
 40
0.1093750000000056
 40
0.1093750000000056
 40
0.1250000000000064
 40
0.1250000000000064
 40
0.1875000000000083
 40
0.1875000000000083
 40
0.2500000000000102
 40
0.2500000000000102
 40
0.312500000000012
 40
0.312500000000012
 40
0.3281250000000125
 40
0.3281250000000125
 40
0.343750000000013
 40
0.343750000000013
 40
0.3750000000000143
 40
0.3750000000000143
 40
0.4375000000000158
 40
0.4375000000000158
 40
0.5000000000000172
 40
0.5000000000000172
 40
0.5312500000000181
 40
0.5312500000000181
 40
0.5468750000000183
 40
0.5468750000000183
 40
0.5625000000000185
 40
0.5625000000000185
 40
0.6250000000000154
 40
0.6250000000000154
 40
0.6875000000000124
 40
0.6875000000000124
 40
0.7500000000000093
 40
0.7500000000000093
 40
0.7812500000000083
 40
0.7812500000000083
 40
0.8125000000000073
 40
0.8125000000000073
 40
0.8750000000000054
 40
0.8750000000000054
 40
0.9375000000000034
 40
0.9375000000000034
 40
0.9687500000000018
 40
0.9687500000000018
 40
1.0
 40
1.0
 40
1.0
 40
1.0
 10
-714.9784406626775
 20
135.0000000049756
 30
0.0
 10
-714.9784406616853
 20
140.3164643761274
 30
0.0
 10
-714.719788639573
 20
145.609112344081
 30
0.0
 10
-713.954034910638
 20
153.5132991114558
 30
0.0
 10
-713.4762230090718
 20
157.4566509778236
 30
0.0
 10
-712.8549334384787
 20
161.386791572927
 30
0.0
 10
-712.4087324808827
 20
164.0039380486114
 30
0.0
 10
-712.1693574378061
 20
165.3123575437737
 30
0.0
 10
-710.8967346572263
 20
171.824164448367
 30
0.0
 10
-709.636251027614
 20
176.9446679353667
 30
0.0
 10
-706.6459009585146
 20
187.0134373810208
 30
0.0
 10
-704.9155960774966
 20
191.9615424558824
 30
0.0
 10
-700.986425299179
 20
201.6858166300552
 30
0.0
 10
-698.7881457184674
 20
206.462200875124
 30
0.0
 10
-695.7397850984614
 20
212.3224102136791
 30
0.0
 10
-695.1150933549108
 20
213.4889407117928
 30
0.0
 10
-693.8353978550718
 20
215.8108788759875
 30
0.0
 10
-693.1794654468433
 20
216.9678525564211
 30
0.0
 10
-691.1737170257687
 20
220.408125857688
 30
0.0
 10
-689.7864260050306
 20
222.6603506312084
 30
0.0
 10
-685.4767822841993
 20
229.295298998795
 30
0.0
 10
-682.4081675662765
 20
233.5575393814413
 30
0.0
 10
-675.8844104851262
 20
241.7636183312749
 30
0.0
 10
-672.4297598559708
 20
245.7078619639812
 30
0.0
 10
-666.9567128463843
 20
251.3844578728276
 30
0.0
 10
-665.083471174785
 20
253.2363812155533
 30
0.0
 10
-662.1996960011694
 20
255.9533807344009
 30
0.0
 10
-661.2261131901042
 20
256.8488950104201
 30
0.0
 10
-659.2540575229887
 20
258.6194204093062
 30
0.0
 10
-658.2543446902225
 20
259.4954837473466
 30
0.0
 10
-653.2081394123345
 20
263.810628336426
 30
0.0
 10
-649.036314741251
 20
267.0397061149997
 30
0.0
 10
-640.4338520083834
 20
273.0698251812009
 30
0.0
 10
-636.0026354821746
 20
275.8699097799894
 30
0.0
 10
-626.8823848859281
 20
281.0436894601258
 30
0.0
 10
-622.1931683937424
 20
283.4170828440402
 30
0.0
 10
-614.9620051982026
 20
286.6508062642047
 30
0.0
 10
-612.5166461090765
 20
287.6750741673338
 30
0.0
 10
-607.5670869273173
 20
289.6087526028444
 30
0.0
 10
-605.0789748366568
 20
290.5119937982027
 30
0.0
 10
-597.5754892815728
 20
293.0349694356896
 30
0.0
 10
-592.5210677118216
 20
294.4684385623869
 30
0.0
 10
-582.3104985140459
 20
296.8501282698343
 30
0.0
 10
-577.1544514183919
 20
297.7988284050637
 30
0.0
 10
-569.3429694372246
 20
298.8526149237587
 30
0.0
 10
-566.7262325199405
 20
299.1422964162123
 30
0.0
 10
-561.4665053527924
 20
299.596427069542
 30
0.0
 10
-558.8230983095069
 20
299.758888063319
 30
0.0
 10
-556.167151699901
 20
299.8615334461606
 30
0.0
  0
SPLINE
  5
AE
330
1F
100
AcDbEntity
  8
0
  6
Continuous
 62
     7
370
    25
100
AcDbSpline
210
0.0
220
0.0
230
1.0
 70
     8
 71
     3
 72
    24
 73
    20
 74
     0
 42
0.000000001
 43
0.00000001
 40
0.0
 40
0.0
 40
0.0
 40
0.0
 40
0.0409510070512879
 40
0.105402829099216
 40
0.1698502177824193
 40
0.2337992590930827
 40
0.2977430847893657
 40
0.3606680175996259
 40
0.4235894384217475
 40
0.4855817946430814
 40
0.5475737755142274
 40
0.6091327950137245
 40
0.6706944659037434
 40
0.7324866034871466
 40
0.7942831649657262
 40
0.8568649814829059
 40
0.9194511910188039
 40
0.9830516518355212
 40
1.0
 40
1.0
 40
1.0
 40
1.0
 10
-678.2396871126538
 20
25.20954792355427
 30
0.0
 10
-678.0705452354733
 20
24.99756016685099
 30
0.0
 10
-677.6351949557686
 20
24.45192989058118
 30
0.0
 10
-676.9807316056286
 20
22.73889735176862
 30
0.0
 10
-676.2986023058053
 20
20.24915954282402
 30
0.0
 10
-675.7087195336235
 20
17.12336126903625
 30
0.0
 10
-675.2249917250606
 20
13.53341246235228
 30
0.0
 10
-674.8642488389469
 20
9.552800862510596
 30
0.0
 10
-674.6312397500841
 20
5.339670563117115
 30
0.0
 10
-674.5348825814644
 20
0.9893355661912747
 30
0.0
 10
-674.5700486502794
 20
-3.357154627192713
 30
0.0
 10
-674.739723393214
 20
-7.595304879381514
 30
0.0
 10
-675.0325258604296
 20
-11.61800317431729
 30
0.0
 10
-675.4454931588791
 20
-15.31299919872626
 30
0.0
 10
-675.9645708360883
 20
-18.6026753096724
 30
0.0
 10
-676.5789608559968
 20
-21.38853481510546
 30
0.0
 10
-677.2752061589621
 20
-23.55412966580955
 30
0.0
 10
-677.8409169816495
 20
-24.84075457771739
 30
0.0
 10
-678.1765805697611
 20
-25.16659937225842
 30
0.0
 10
-678.2472078506531
 20
-25.23516067186438
 30
0.0
  0
SPLINE
  5
AF
330
1F
100
AcDbEntity
  8
0
  6
Continuous
 62
     7
370
    25
100
AcDbSpline
210
0.0
220
0.0
230
1.0
 70
    24
 71
     3
 72
    52
 73
    48
 74
     0
 42
0.000000001
 43
0.00000001
 40
0.0
 40
0.0
 40
0.0
 40
0.0
 40
0.015625
 40
0.015625
 40
0.03125
 40
0.03125
 40
0.0625
 40
0.0625
 40
0.125
 40
0.125
 40
0.1875
 40
0.1875
 40
0.25
 40
0.25
 40
0.265625
 40
0.265625
 40
0.28125
 40
0.28125
 40
0.3125
 40
0.3125
 40
0.375
 40
0.375
 40
0.4375
 40
0.4375
 40
0.5
 40
0.5
 40
0.515625
 40
0.515625
 40
0.53125
 40
0.5625
 40
0.5625
 40
0.625
 40
0.625
 40
0.6875
 40
0.6875
 40
0.75
 40
0.75
 40
0.765625
 40
0.765625
 40
0.78125
 40
0.8125
 40
0.8125
 40
0.875
 40
0.875
 40
0.9375
 40
0.9375
 40
1.0
 40
1.0
 40
1.0
 40
1.0
 10
-554.6734515521002
 20
-218.4388578897344
 30
0.0
 10
-554.6605152036663
 20
-218.3202470470078
 30
0.0
 10
-554.6468368689466
 20
-218.1948330774887
 30
0.0
 10
-554.6180101621752
 20
-217.9305266543398
 30
0.0
 10
-554.6028617901233
 20
-217.7916342007099
 30
0.0
 10
-554.5552325208274
 20
-217.3549307678658
 30
0.0
 10
-554.5205674704438
 20
-217.0370937166969
 30
0.0
 10
-554.4080029296005
 20
-216.0050115090621
 30
0.0
 10
-554.3215313556055
 20
-215.2121705991482
 30
0.0
 10
-554.1260741410734
 20
-213.4200617168885
 30
0.0
 10
-554.0170881693055
 20
-212.420790707556
 30
0.0
 10
-553.7764373828796
 20
-210.2143108244341
 30
0.0
 10
-553.6447741743406
 20
-209.0071166768298
 30
0.0
 10
-553.4655916062381
 20
-207.3642268371765
 30
0.0
 10
-553.4290235477653
 20
-207.0289414779072
 30
0.0
 10
-553.3544078899644
 20
-206.344805139319
 30
0.0
 10
-553.3163608615648
 20
-205.9959593947337
 30
0.0
 10
-553.2005991244969
 20
-204.9345627216991
 30
0.0
 10
-553.1210699839917
 20
-204.2053756234417
 30
0.0
 10
-552.8755416714583
 20
-201.95417465964
 30
0.0
 10
-552.7026145923062
 20
-200.3686401718303
 30
0.0
 10
-552.338603624207
 20
-197.0310949667002
 30
0.0
 10
-552.1475192876693
 20
-195.2790801455054
 30
0.0
 10
-551.7471066904141
 20
-191.6077755388845
 30
0.0
 10
-551.5377795501435
 20
-189.6884960266184
 30
0.0
 10
-551.2644016799333
 20
-187.1819479281519
 30
0.0
 10
-551.2090970742165
 20
-186.6748708403502
 30
0.0
 10
-551.0974883498138
 20
-185.6515523262791
 30
0.0
 10
-550.9289235873898
 20
-184.1060150653517
 30
0.0
 10
-550.7569406263191
 20
-182.5291370111484
 30
0.0
 10
-550.4084913472549
 20
-179.3342738820382
 30
0.0
 10
-550.1702219793182
 20
-177.1496287581858
 30
0.0
 10
-549.6819241241965
 20
-172.6725214513718
 30
0.0
 10
-549.4318954605353
 20
-170.3800576503347
 30
0.0
 10
-548.9199929555324
 20
-165.6865239362585
 30
0.0
 10
-548.6581199602721
 20
-163.2854617807702
 30
0.0
 10
-548.3231503717363
 20
-160.2141912915333
 30
0.0
 10
-548.255729001863
 20
-159.5960179685729
 30
0.0
 10
-548.1207714302524
 20
-158.3586184518037
 30
0.0
 10
-547.9179386106483
 20
-156.4988840925656
 30
0.0
 10
-547.7139282466717
 20
-154.6283530598244
 30
0.0
 10
-547.3043609094236
 20
-150.87311043692
 30
0.0
 10
-547.0292566083289
 20
-148.3507330321293
 30
0.0
 10
-546.4749807130623
 20
-143.2686860096818
 30
0.0
 10
-546.1958090982765
 20
-140.7090162030186
 30
0.0
 10
-545.633358118469
 20
-135.5520134330729
 30
0.0
 10
-545.3500774829165
 20
-132.9546688205443
 30
0.0
 10
-545.0646780119715
 20
-130.3378970216797
 30
0.0
  0
SPLINE
  5
B0
330
1F
100
AcDbEntity
  8
0
  6
Continuous
 62
     7
370
    25
100
AcDbSpline
210
0.0
220
0.0
230
1.0
 70
     8
 71
     3
 72
    20
 73
    16
 74
     0
 42
0.000000001
 43
0.00000001
 40
0.0
 40
0.0
 40
0.0
 40
0.0
 40
0.1250000000000001
 40
0.1250000000000001
 40
0.2500000000000003
 40
0.2500000000000003
 40
0.3750000000000002
 40
0.3750000000000002
 40
0.5000000000000002
 40
0.5000000000000002
 40
0.7500000000000001
 40
0.7500000000000001
 40
0.8750000000000001
 40
0.8750000000000001
 40
1.0
 40
1.0
 40
1.0
 40
1.0
 10
-545.0646780119712
 20
-130.3378970216796
 30
0.0
 10
-502.2135655314424
 20
-132.8374453650238
 30
0.0
 10
-459.343425868609
 20
-135.0319751243847
 30
0.0
 10
-373.5854752450824
 20
-138.8024209234338
 30
0.0
 10
-330.6988755781393
 20
-140.378602875289
 30
0.0
 10
-244.9102867041848
 20
-142.9071765783736
 30
0.0
 10
-202.0083031448131
 20
-143.8597972475747
 30
0.0
 10
-116.1888590022704
 20
-145.137702373363
 30
0.0
 10
-73.26946036297915
 20
-145.4630782306608
 30
0.0
 10
55.49965128352439
 20
-145.4953358300558
 30
0.0
 10
141.3179518392461
 20
-144.257401315972
 30
0.0
 10
270.0039654575782
 20
-140.5214794779813
 30
0.0
 10
312.8923954566797
 20
-138.9629264079288
 30
0.0
 10
398.6555399576367
 20
-135.223874647308
 30
0.0
 10
441.5251200875209
 20
-133.0432178856711
 30
0.0
 10
484.37694101251
 20
-130.5548922991262
 30
0.0
  0
SPLINE
  5
B1
330
1F
100
AcDbEntity
  8
0
  6
Continuous
 62
     7
370
    25
100
AcDbSpline
210
0.0
220
0.0
230
1.0
 70
     8
 71
     3
 72
    62
 73
    58
 74
     0
 42
0.000000001
 43
0.00000001
 40
0.0
 40
0.0
 40
0.0
 40
0.0
 40
0.0078904973156637
 40
0.0157920028549172
 40
0.023704525734186
 40
0.0316280750427818
 40
0.0395626598429321
 40
0.0475082891698002
 40
0.0554649720315071
 40
0.0634327174091578
 40
0.0714115342568638
 40
0.0794014315017706
 40
0.087402418044075
 40
0.0954145027570514
 40
0.103437694487078
 40
0.1114720020536671
 40
0.1195174342494739
 40
0.1275739998403395
 40
0.1356417075653054
 40
0.1437205661366427
 40
0.1518105842398814
 40
0.1599117705338329
 40
0.1680241336506208
 40
0.1761476821957103
 40
0.1842824247479313
 40
0.1924283698595142
 40
0.2005855260561164
 40
0.2087539018368562
 40
0.2169335056743395
 40
0.2251243460146978
 40
0.233326431277618
 40
0.2415397698563775
 40
0.2497643701178825
 40
0.2805839790193754
 40
0.3117149364342486
 40
0.34315766598326
 40
0.374912583039017
 40
0.4364990653402139
 40
0.4998380508016148
 40
0.5611374410015953
 40
0.6249180259149417
 40
0.6855665421994366
 40
0.7498822587501651
 40
0.7788213108778704
 40
0.8093132418303914
 40
0.8413583062639935
 40
0.8749567655632832
 40
0.8844794979695828
 40
0.894664710021274
 40
0.9055124342398441
 40
0.9170227051490563
 40
0.929195559291439
 40
0.9420310352397585
 40
0.9555291736050889
 40
0.9696900170425942
 40
0.9845136102558063
 40
1.0
 40
1.0
 40
1.0
 40
1.0
 10
497.4453954620571
 20
-218.1470845364924
 30
0.0
 10
497.4356767397101
 20
-218.0819507964639
 30
0.0
 10
497.4162257361915
 20
-217.9515924467514
 30
0.0
 10
497.3850718727867
 20
-217.7428764478329
 30
0.0
 10
497.3524446049304
 20
-217.5243244631881
 30
0.0
 10
497.3182020628941
 20
-217.2949808626425
 30
0.0
 10
497.2823813561423
 20
-217.0550824199906
 30
0.0
 10
497.2449716488333
 20
-216.8045474931786
 30
0.0
 10
497.2059750922674
 20
-216.5433817118486
 30
0.0
 10
497.1653904650158
 20
-216.2715690644699
 30
0.0
 10
497.1232175667326
 20
-215.9891011602226
 30
0.0
 10
497.0794560394133
 20
-215.6959693896061
 30
0.0
 10
497.0341056849101
 20
-215.3921670469036
 30
0.0
 10
496.9871663806878
 20
-215.0776887776531
 30
0.0
 10
496.9386381034321
 20
-214.7525307442163
 30
0.0
 10
496.8885209236968
 20
-214.4166905983669
 30
0.0
 10
496.8368150083058
 20
-214.070167505527
 30
0.0
 10
496.7835206206578
 20
-213.7129621549578
 30
0.0
 10
496.7286381215914
 20
-213.3450767735424
 30
0.0
 10
496.6721679700719
 20
-212.9665151384179
 30
0.0
 10
496.6141107239186
 20
-212.5772825897244
 30
0.0
 10
496.5544670405046
 20
-212.1773860431169
 30
0.0
 10
496.4932376774502
 20
-211.7668340021741
 30
0.0
 10
496.4304234933
 20
-211.3456365704938
 30
0.0
 10
496.3660254481713
 20
-210.9138054641486
 30
0.0
 10
496.3000446044866
 20
-210.4713540219918
 30
0.0
 10
496.2324821273151
 20
-210.0182972231722
 30
0.0
 10
496.1633392860955
 20
-209.5546516768388
 30
0.0
 10
496.0926174511494
 20
-209.0804357149734
 30
0.0
 10
496.0203181095991
 20
-208.5956690986569
 30
0.0
 10
495.9464428086609
 20
-208.1003741690824
 30
0.0
 10
495.8709933704486
 20
-207.5945715946515
 30
0.0
 10
495.723473220098
 20
-206.6057537345055
 30
0.0
 10
495.494553131304
 20
-205.0715486378273
 30
0.0
 10
495.169788561298
 20
-202.8948842738186
 30
0.0
 10
494.8218582832033
 20
-200.5627641090797
 30
0.0
 10
494.3358941892005
 20
-197.3053308767203
 30
0.0
 10
493.6793055366036
 20
-192.9050696492345
 30
0.0
 10
492.8316012679371
 20
-187.2225540729405
 30
0.0
 10
491.9119248164048
 20
-181.0592320390375
 30
0.0
 10
490.9510280166616
 20
-174.6177785516014
 30
0.0
 10
489.92647533157
 20
-167.7518983257141
 30
0.0
 10
489.0579179763428
 20
-161.9291082186798
 30
0.0
 10
488.3435964292969
 20
-157.1420859691394
 30
0.0
 10
487.8088312735415
 20
-153.5582085941388
 30
0.0
 10
487.240549448075
 20
-149.7489177110375
 30
0.0
 10
486.7918602504122
 20
-146.7408502335844
 30
0.0
 10
486.4719626413385
 20
-144.597082922526
 30
0.0
 10
486.2881514525216
 20
-143.3656196614752
 30
0.0
 10
486.0919807896084
 20
-142.0513383020576
 30
0.0
 10
485.8834389367398
 20
-140.6540239452555
 30
0.0
 10
485.6625275582354
 20
-139.1735558480393
 30
0.0
 10
485.4292522753533
 20
-137.6099134428953
 30
0.0
 10
485.183627529464
 20
-135.9631982784157
 30
0.0
 10
484.9256736348743
 20
-134.2336530274954
 30
0.0
 10
484.6554310250398
 20
-132.4216808502401
 30
0.0
 10
484.4711145162064
 20
-131.1861609644617
 30
0.0
 10
484.3769410125097
 20
-130.5548922991262
 30
0.0
  0
SPLINE
  5
B2
330
1F
100
AcDbEntity
  8
0
  6
Continuous
 62
     7
370
    25
100
AcDbSpline
210
0.0
220
0.0
230
1.0
 70
     8
 71
     3
 72
    20
 73
    16
 74
     0
 42
0.000000001
 43
0.00000001
 40
0.0
 40
0.0
 40
0.0
 40
0.0
 40
0.2499999999999999
 40
0.2499999999999999
 40
0.375
 40
0.375
 40
0.4375
 40
0.4375
 40
0.5
 40
0.5
 40
0.7499999999999999
 40
0.7499999999999999
 40
0.875
 40
0.875
 40
1.0
 40
1.0
 40
1.0
 40
1.0
 10
484.3769410125098
 20
130.554892299126
 30
0.0
 10
398.6731282949165
 20
135.5315533941809
 30
0.0
 10
312.9257632151899
 20
139.2751552647194
 30
0.0
 10
184.2383458625493
 20
143.0114909531838
 30
0.0
 10
141.3314931726867
 20
143.9441749856699
 30
0.0
 10
76.95455428574691
 20
144.8715254842942
 30
0.0
 10
55.49333546550969
 20
145.10199222014
 30
0.0
 10
12.57493969235517
 20
145.4058177553866
 30
0.0
 10
-8.883400341917763
 20
145.4791938453423
 30
0.0
 10
-116.1708002683444
 20
145.4523853714189
 30
0.0
 10
-201.9869707676496
 20
144.1721723969698
 30
0.0
 10
-330.690768507001
 20
140.378915020884
 30
0.0
 10
-373.5884811717888
 20
138.8023069163116
 30
0.0
 10
-459.3479593583691
 20
135.0317576508929
 30
0.0
 10
-502.2133870707727
 20
132.8374557748132
 30
0.0
 10
-545.0646780119716
 20
130.3378970216793
 30
0.0
  0
SPLINE
  5
B3
330
1F
100
AcDbEntity
  8
0
  6
Continuous
 62
     7
370
    25
100
AcDbSpline
210
0.0
220
0.0
230
1.0
 70
    24
 71
     3
 72
    52
 73
    48
 74
     0
 42
0.000000001
 43
0.00000001
 40
0.0
 40
0.0
 40
0.0
 40
0.0
 40
0.015625
 40
0.015625
 40
0.03125
 40
0.03125
 40
0.0625
 40
0.0625
 40
0.125
 40
0.125
 40
0.1875
 40
0.1875
 40
0.25
 40
0.25
 40
0.265625
 40
0.265625
 40
0.28125
 40
0.28125
 40
0.3125
 40
0.3125
 40
0.375
 40
0.375
 40
0.4375
 40
0.4375
 40
0.5
 40
0.5
 40
0.515625
 40
0.515625
 40
0.53125
 40
0.5625
 40
0.5625
 40
0.625
 40
0.625
 40
0.6875
 40
0.6875
 40
0.75
 40
0.75
 40
0.765625
 40
0.765625
 40
0.78125
 40
0.8125
 40
0.8125
 40
0.875
 40
0.875
 40
0.9375
 40
0.9375
 40
1.0
 40
1.0
 40
1.0
 40
1.0
 10
-554.6734515521025
 20
218.4388578897341
 30
0.0
 10
-554.6605152036684
 20
218.3202470470075
 30
0.0
 10
-554.6468368689488
 20
218.1948330774883
 30
0.0
 10
-554.6180101621774
 20
217.9305266543394
 30
0.0
 10
-554.6028617901252
 20
217.7916342007097
 30
0.0
 10
-554.5552325208295
 20
217.3549307678656
 30
0.0
 10
-554.5205674704459
 20
217.0370937166966
 30
0.0
 10
-554.4080029296027
 20
216.0050115090618
 30
0.0
 10
-554.3215313556078
 20
215.2121705991479
 30
0.0
 10
-554.1260741410754
 20
213.4200617168882
 30
0.0
 10
-554.0170881693075
 20
212.4207907075558
 30
0.0
 10
-553.7764373828817
 20
210.214310824434
 30
0.0
 10
-553.6447741743423
 20
209.0071166768296
 30
0.0
 10
-553.4655916062399
 20
207.3642268371762
 30
0.0
 10
-553.429023547767
 20
207.0289414779069
 30
0.0
 10
-553.3544078899662
 20
206.3448051393187
 30
0.0
 10
-553.3163608615669
 20
205.9959593947334
 30
0.0
 10
-553.200599124499
 20
204.9345627216988
 30
0.0
 10
-553.1210699839936
 20
204.2053756234414
 30
0.0
 10
-552.8755416714603
 20
201.9541746596398
 30
0.0
 10
-552.7026145923077
 20
200.36864017183
 30
0.0
 10
-552.3386036242085
 20
197.0310949666998
 30
0.0
 10
-552.1475192876708
 20
195.2790801455052
 30
0.0
 10
-551.7471066904156
 20
191.6077755388843
 30
0.0
 10
-551.5377795501456
 20
189.6884960266182
 30
0.0
 10
-551.2644016799348
 20
187.1819479281517
 30
0.0
 10
-551.2090970742179
 20
186.6748708403499
 30
0.0
 10
-551.0974883498152
 20
185.6515523262789
 30
0.0
 10
-550.9289235873911
 20
184.1060150653515
 30
0.0
 10
-550.7569406263209
 20
182.5291370111482
 30
0.0
 10
-550.4084913472566
 20
179.334273882038
 30
0.0
 10
-550.1702219793195
 20
177.1496287581856
 30
0.0
 10
-549.6819241241978
 20
172.6725214513716
 30
0.0
 10
-549.4318954605367
 20
170.3800576503345
 30
0.0
 10
-548.9199929555336
 20
165.6865239362582
 30
0.0
 10
-548.658119960273
 20
163.2854617807699
 30
0.0
 10
-548.3231503717373
 20
160.214191291533
 30
0.0
 10
-548.2557290018638
 20
159.5960179685725
 30
0.0
 10
-548.1207714302533
 20
158.3586184518033
 30
0.0
 10
-547.9179386106484
 20
156.4988840925652
 30
0.0
 10
-547.7139282466723
 20
154.6283530598242
 30
0.0
 10
-547.3043609094241
 20
150.8731104369198
 30
0.0
 10
-547.0292566083297
 20
148.3507330321289
 30
0.0
 10
-546.4749807130631
 20
143.2686860096814
 30
0.0
 10
-546.1958090982768
 20
140.7090162030183
 30
0.0
 10
-545.6333581184691
 20
135.5520134330727
 30
0.0
 10
-545.3500774829167
 20
132.954668820544
 30
0.0
 10
-545.0646780119716
 20
130.3378970216794
 30
0.0
  0
SPLINE
  5
B4
330
1F
100
AcDbEntity
  8
0
  6
Continuous
 62
     7
370
    25
100
AcDbSpline
210
0.0
220
0.0
230
1.0
 70
     8
 71
     3
 72
    62
 73
    58
 74
     0
 42
0.000000001
 43
0.00000001
 40
0.0
 40
0.0
 40
0.0
 40
0.0
 40
0.0078905360438814
 40
0.0157920777295873
 40
0.0237046341735157
 40
0.0316282144649627
 40
0.0395628276661332
 40
0.0475084828121762
 40
0.055465188911195
 40
0.0634329549442807
 40
0.0714117898655321
 40
0.0794017026020775
 40
0.087402702054103
 40
0.095414797094868
 40
0.10343799657074
 40
0.1114723093012118
 40
0.1195177440789262
 40
0.1275743096697074
 40
0.1356420148125765
 40
0.143720868219788
 40
0.1518108785768475
 40
0.1599120545425438
 40
0.168024404748975
 40
0.1761479378015759
 40
0.1842826622791459
 40
0.1924285867338788
 40
0.200585719691395
 40
0.2087540696507686
 40
0.2169336450845611
 40
0.2251244544388541
 40
0.2333265061332786
 40
0.2415398085610538
 40
0.2497643700890206
 40
0.2805844322909596
 40
0.3117155408222208
 40
0.3431581192686735
 40
0.3749125829724855
 40
0.4364998315702593
 40
0.4998380507275614
 40
0.5611382992933092
 40
0.6249180258541985
 40
0.6855674421233516
 40
0.7498822587369841
 40
0.7788220734242943
 40
0.8093142586224902
 40
0.8413590689035605
 40
0.8749567655592378
 40
0.884480230176262
 40
0.894666011757151
 40
0.9055141428137222
 40
0.9170246578587697
 40
0.929197593422547
 40
0.9420329880642379
 40
0.9555308823800187
 40
0.9696913190088388
 40
0.9845143426366942
 40
1.0
 40
1.0
 40
1.0
 40
1.0
 10
497.4453954620553
 20
218.1470845364924
 30
0.0
 10
497.4356766920245
 20
218.0819504718662
 30
0.0
 10
497.4162255963183
 20
217.9515914942631
 30
0.0
 10
497.3850715901325
 20
217.7428744630449
 30
0.0
 10
497.3524441829209
 20
217.5243214317484
 30
0.0
 10
497.3182015051115
 20
217.2949767718516
 30
0.0
 10
497.282380667053
 20
217.0550772696159
 30
0.0
 10
497.2449708336268
 20
216.8045412927018
 30
0.0
 10
497.2059741568937
 20
216.5433744811501
 30
0.0
 10
497.1653894161876
 20
216.2715608336362
 30
0.0
 10
497.1232164119319
 20
215.9890919695724
 30
0.0
 10
497.0794547868934
 20
215.6959592896532
 30
0.0
 10
497.034104343704
 20
215.3921560983323
 30
0.0
 10
496.987164960607
 20
215.077677051284
 30
0.0
 10
496.9386366150776
 20
214.7525183209684
 30
0.0
 10
496.888519378457
 20
214.4166775692165
 30
0.0
 10
496.8368134183617
 20
214.0701539714607
 30
0.0
 10
496.7835189989889
 20
213.7129482269214
 30
0.0
 10
496.7286364819739
 20
213.3450625723862
 30
0.0
 10
496.6721663270857
 20
212.9665007948348
 30
0.0
 10
496.614109092947
 20
212.5772682441869
 30
0.0
 10
496.5544654377385
 20
212.1773718458068
 30
0.0
 10
496.4932361198866
 20
211.7668201129084
 30
0.0
 10
496.4304219987454
 20
211.3456231586466
 30
0.0
 10
496.3660240352463
 20
210.9137927085667
 30
0.0
 10
496.3000432926208
 20
210.4713421109077
 30
0.0
 10
496.2324809367465
 20
210.0182863541106
 30
0.0
 10
496.1633382378969
 20
209.5546420565178
 30
0.0
 10
496.0926165671224
 20
209.080427559211
 30
0.0
 10
496.02031741267
 20
208.5956626322269
 30
0.0
 10
495.946442321406
 20
208.1003696257427
 30
0.0
 10
495.8709931205913
 20
207.5945692165037
 30
0.0
 10
495.7234715725157
 20
206.6057434117233
 30
0.0
 10
495.4945494498183
 20
205.0715251844279
 30
0.0
 10
495.169783195813
 20
202.8948479585321
 30
0.0
 10
494.8218545149637
 20
200.5627367584292
 30
0.0
 10
494.3358891281901
 20
197.3052981722921
 30
0.0
 10
493.6793022787448
 20
192.9050470088434
 30
0.0
 10
492.8315936039297
 20
187.2225028626802
 30
0.0
 10
491.9119204456294
 20
181.0592028905003
 30
0.0
 10
490.9510187286341
 20
174.6177161667757
 30
0.0
 10
489.9264702560159
 20
167.7518646836595
 30
0.0
 10
489.057908573794
 20
161.9290445671556
 30
0.0
 10
488.3435859817489
 20
157.1420169191028
 30
0.0
 10
487.8088163157374
 20
153.5581083767615
 30
0.0
 10
487.2405389243613
 20
149.7488465857565
 30
0.0
 10
486.7918513296135
 20
146.7407902615904
 30
0.0
 10
486.4719503991613
 20
144.5970010920022
 30
0.0
 10
486.2881288976184
 20
143.3654687069055
 30
0.0
 10
486.0919508354726
 20
142.0511376810194
 30
0.0
 10
485.88340451521
 20
140.6537932578608
 30
0.0
 10
485.6624916130519
 20
139.1733148316631
 30
0.0
 10
485.4292177633656
 20
137.6096819571179
 30
0.0
 10
485.1835974187796
 20
135.9629962813628
 30
0.0
 10
484.9256509036309
 20
134.233500542309
 30
0.0
 10
484.6554186573446
 20
132.4215979212468
 30
0.0
 10
484.4711100636677
 20
131.1861311094472
 30
0.0
 10
484.3769410125096
 20
130.554892299126
 30
0.0
  0
SPLINE
  5
B5
330
1F
100
AcDbEntity
  8
0
  6
Continuous
 62
     7
370
    25
100
AcDbSpline
210
0.0
220
0.0
230
1.0
 70
    24
 71
     3
 72
    52
 73
    48
 74
     0
 42
0.000000001
 43
0.00000001
 40
0.0
 40
0.0
 40
0.0
 40
0.0
 40
0.015625
 40
0.015625
 40
0.03125
 40
0.03125
 40
0.0625
 40
0.0625
 40
0.125
 40
0.125
 40
0.1875
 40
0.1875
 40
0.25
 40
0.25
 40
0.265625
 40
0.265625
 40
0.28125
 40
0.28125
 40
0.3125
 40
0.3125
 40
0.375
 40
0.375
 40
0.4375
 40
0.4375
 40
0.5
 40
0.5
 40
0.515625
 40
0.515625
 40
0.53125
 40
0.5625
 40
0.5625
 40
0.625
 40
0.625
 40
0.6875
 40
0.6875
 40
0.75
 40
0.75
 40
0.765625
 40
0.765625
 40
0.78125
 40
0.8125
 40
0.8125
 40
0.875
 40
0.875
 40
0.9375
 40
0.9375
 40
1.0
 40
1.0
 40
1.0
 40
1.0
 10
-633.5754649849883
 20
-134.9999999741923
 30
0.0
 10
-633.4562463642068
 20
-134.9937204064363
 30
0.0
 10
-633.3301928703252
 20
-134.9870808273963
 30
0.0
 10
-633.0645445038176
 20
-134.9730884082101
 30
0.0
 10
-632.9249496311921
 20
-134.965735568064
 30
0.0
 10
-632.4860454963843
 20
-134.9426172981588
 30
0.0
 10
-632.1666167172716
 20
-134.9257921189332
 30
0.0
 10
-631.1293927216915
 20
-134.8711587209308
 30
0.0
 10
-630.3326350325525
 20
-134.8291913347849
 30
0.0
 10
-628.5317295026057
 20
-134.7343327613218
 30
0.0
 10
-627.5275786118547
 20
-134.6814414133558
 30
0.0
 10
-625.3103688423425
 20
-134.5646549677
 30
0.0
 10
-624.097324760597
 20
-134.500760649409
 30
0.0
 10
-622.4464977506651
 20
-134.4138071182034
 30
0.0
 10
-622.1095936608544
 20
-134.3960614670175
 30
0.0
 10
-621.4221565611444
 20
-134.3598522924996
 30
0.0
 10
-621.0716550183732
 20
-134.3413904266265
 30
0.0
 10
-620.0052218129184
 20
-134.2852185004033
 30
0.0
 10
-619.272579680773
 20
-134.2466282543528
 30
0.0
 10
-617.0107262700167
 20
-134.1274903071594
 30
0.0
 10
-615.4177075498088
 20
-134.0435816951939
 30
0.0
 10
-612.0644404203583
 20
-133.8669560304651
 30
0.0
 10
-610.304187896247
 20
-133.7742387609606
 30
0.0
 10
-606.6156493555359
 20
-133.5799534426486
 30
0.0
 10
-604.6873736643029
 20
-133.478385937706
 30
0.0
 10
-602.16909229969
 20
-133.3457412354416
 30
0.0
 10
-601.6596267592123
 20
-133.3189063051275
 30
0.0
 10
-600.6315711340822
 20
-133.2647558300365
 30
0.0
 10
-599.0788820407237
 20
-133.1829714887824
 30
0.0
 10
-597.4947150656952
 20
-133.0995291222174
 30
0.0
 10
-594.2850941431813
 20
-132.9304696923892
 30
0.0
 10
-592.0903708642861
 20
-132.8148676711169
 30
0.0
 10
-587.5926347577872
 20
-132.5779597246524
 30
0.0
 10
-585.2896203064611
 20
-132.4566537139344
 30
0.0
 10
-580.5745091897614
 20
-132.2082960367476
 30
0.0
 10
-578.1624203146594
 20
-132.0812447806136
 30
0.0
 10
-575.0770599252195
 20
-131.918730489722
 30
0.0
 10
-574.4560617404926
 20
-131.8860208328595
 30
0.0
 10
-573.2130174762829
 20
-131.8205463236785
 30
0.0
 10
-571.3448003932385
 20
-131.7221422683462
 30
0.0
 10
-569.465740260296
 20
-131.6231670801987
 30
0.0
 10
-565.693378449126
 20
-131.4244665631288
 30
0.0
 10
-563.1595070381179
 20
-131.2910006908826
 30
0.0
 10
-558.0543113349286
 20
-131.0220962016676
 30
0.0
 10
-555.4829868534227
 20
-130.8866575747265
 30
0.0
 10
-550.3025123566179
 20
-130.6137879474986
 30
0.0
 10
-547.693350643965
 20
-130.4763563310805
 30
0.0
 10
-545.0646780119715
 20
-130.3378970216797
 30
0.0
  0
SPLINE
  5
B6
330
1F
100
AcDbEntity
  8
0
  6
Continuous
 62
     7
370
    25
100
AcDbSpline
210
0.0
220
0.0
230
1.0
 70
     8
 71
     3
 72
    61
 73
    57
 74
     0
 42
0.000000001
 43
0.00000001
 40
0.0
 40
0.0
 40
0.0
 40
0.0
 40
0.0078780555084443
 40
0.0157673047992529
 40
0.0236677504428726
 40
0.0315793949988374
 40
0.0395022410158243
 40
0.0474362910317144
 40
0.055381547573646
 40
0.0633380131580838
 40
0.0713056902908602
 40
0.0792845814672461
 40
0.087274689172006
 40
0.0952760158794451
 40
0.1032885640534797
 40
0.1113123361476817
 40
0.1193473346053418
 40
0.1273935618595177
 40
0.13545102033309
 40
0.1435197124388277
 40
0.1515996405794265
 40
0.1596908071475696
 40
0.1677932145259878
 40
0.175906865087496
 40
0.1840317611950647
 40
0.1921679052018629
 40
0.2003152994513028
 40
0.2084739462771092
 40
0.2166438480033558
 40
0.2248250069445245
 40
0.233017425405553
 40
0.2412211056818862
 40
0.2494360500595201
 40
0.3096610117272236
 40
0.3714274082050283
 40
0.4347359487340171
 40
0.4995872852303463
 40
0.5608877502998625
 40
0.624803150127908
 40
0.6853275380073417
 40
0.7497536841365324
 40
0.7784932595516948
 40
0.8089339673025099
 40
0.8410757765933572
 40
0.8749186525405812
 40
0.8828508039331707
 40
0.8914707379484172
 40
0.9007784527361021
 40
0.9107739462677836
 40
0.9214572163424846
 40
0.9328282605906499
 40
0.9448870764769968
 40
0.9576336613025704
 40
0.9710680122062957
 40
0.9851901261661381
 40
1.0
 40
1.0
 40
1.0
 40
1.0
 10
-633.5754649849882
 20
134.9999999741924
 30
0.0
 10
-633.5149547273556
 20
134.996812096884
 30
0.0
 10
-633.3938482341924
 20
134.990431812672
 30
0.0
 10
-633.1986099194537
 20
134.980138978195
 30
0.0
 10
-632.993247873575
 20
134.9693090999907
 30
0.0
 10
-632.7767738487852
 20
134.9578905798195
 30
0.0
 10
-632.5494290938983
 20
134.9458972728073
 30
0.0
 10
-632.3111265466196
 20
134.9333254585897
 30
0.0
 10
-632.0618691546365
 20
134.9201761361496
 30
0.0
 10
-631.8016375682981
 20
134.906449037239
 30
0.0
 10
-631.530420316637
 20
134.8921442338835
 30
0.0
 10
-631.2482057239403
 20
134.8772617067404
 30
0.0
 10
-630.9549840994636
 20
134.8618014610001
 30
0.0
 10
-630.6507471684906
 20
134.8457634952659
 30
0.0
 10
-630.335488243948
 20
134.8291478099088
 30
0.0
 10
-630.0092021989983
 20
134.8119544048286
 30
0.0
 10
-629.6718854928962
 20
134.7941832800461
 30
0.0
 10
-629.3235361823399
 20
134.7758344355503
 30
0.0
 10
-628.964153936539
 20
134.7569078713453
 30
0.0
 10
-628.593740051068
 20
134.7374035874293
 30
0.0
 10
-628.212297461849
 20
134.7173215837944
 30
0.0
 10
-627.819830758869
 20
134.6966618604374
 30
0.0
 10
-627.4163461998226
 20
134.6754244173674
 30
0.0
 10
-627.0018517232413
 20
134.6536092545578
 30
0.0
 10
-626.5763569627097
 20
134.6312163720673
 30
0.0
 10
-626.1398732561156
 20
134.6082457696812
 30
0.0
 10
-625.6924136725817
 20
134.5846974481952
 30
0.0
 10
-625.2339929723436
 20
134.5605714045939
 30
0.0
 10
-624.7646278164448
 20
134.5358676501744
 30
0.0
 10
-624.2843360412083
 20
134.5105861426619
 30
0.0
 10
-623.793139429212
 20
134.4847270401444
 30
0.0
 10
-623.2910534031864
 20
134.4582897514011
 30
0.0
 10
-621.6958865505854
 20
134.3742805302502
 30
0.0
 10
-618.761850335615
 20
134.2195431106822
 30
0.0
 10
-614.0517950019946
 20
133.9712755778122
 30
0.0
 10
-608.6974412251775
 20
133.6894242725991
 30
0.0
 10
-602.8598640561321
 20
133.3821869916165
 30
0.0
 10
-596.5605665110886
 20
133.0502569789676
 30
0.0
 10
-590.0194384658531
 20
132.7058245702751
 30
0.0
 10
-583.0315866062904
 20
132.3376310059963
 30
0.0
 10
-577.1091957542479
 20
132.0258029825668
 30
0.0
 10
-572.2353823066769
 20
131.7690098633811
 30
0.0
 10
-568.5870818480486
 20
131.5768024730991
 30
0.0
 10
-564.689451860457
 20
131.371536607328
 30
0.0
 10
-561.6706413133295
 20
131.2125994042187
 30
0.0
 10
-559.6023296810943
 20
131.1036193528325
 30
0.0
 10
-558.5389794092164
 20
131.0475580349726
 30
0.0
 10
-557.3886257038358
 20
130.9869082063716
 30
0.0
 10
-556.150976924383
 20
130.9216658947795
 30
0.0
 10
-554.8258076203919
 20
130.8518321463251
 30
0.0
 10
-553.4129654735746
 20
130.7774065624703
 30
0.0
 10
-551.9123927109068
 20
130.6983891035735
 30
0.0
 10
-550.3241447493273
 20
130.6147800219413
 30
0.0
 10
-548.6484111941102
 20
130.5265779570741
 30
0.0
 10
-546.8855375685508
 20
130.433788239168
 30
0.0
 10
-545.6811744137874
 20
130.3703633315253
 30
0.0
 10
-545.0646780119714
 20
130.3378970216813
 30
0.0
  0
SPLINE
  5
B8
330
1F
100
AcDbEntity
  8
0
  6
Continuous
 62
     7
370
    25
100
AcDbSpline
210
0.0
220
0.0
230
1.0
 70
    24
 71
     3
 72
    69
 73
    65
 74
     0
 42
0.000000001
 43
0.00000001
 40
0.0
 40
0.0
 40
0.0
 40
0.0
 40
0.015625
 40
0.015625
 40
0.03125
 40
0.03125
 40
0.0625
 40
0.0625
 40
0.078125
 40
0.078125
 40
0.09375
 40
0.09375
 40
0.125
 40
0.125
 40
0.1875
 40
0.1875
 40
0.25
 40
0.25
 40
0.265625
 40
0.265625
 40
0.28125
 40
0.3125
 40
0.3125
 40
0.375
 40
0.375
 40
0.390625
 40
0.390625
 40
0.40625
 40
0.40625
 40
0.4375
 40
0.4375
 40
0.5
 40
0.5
 40
0.515625
 40
0.515625
 40
0.53125
 40
0.53125
 40
0.5625
 40
0.5625
 40
0.625
 40
0.625
 40
0.6875
 40
0.6875
 40
0.703125
 40
0.703125
 40
0.71875
 40
0.71875
 40
0.75
 40
0.75
 40
0.765625
 40
0.765625
 40
0.78125
 40
0.78125
 40
0.8125
 40
0.8125
 40
0.875
 40
0.875
 40
0.9375
 40
0.9375
 40
0.96875
 40
0.96875
 40
0.984375
 40
0.984375
 40
1.0
 40
1.0
 40
1.0
 40
1.0
 10
564.8753882025024
 20
-134.9999999741717
 30
0.0
 10
564.6410640722085
 20
-134.9870606439563
 30
0.0
 10
564.4027507063654
 20
-134.9739010289755
 30
0.0
 10
563.9181510923763
 20
-134.947141538095
 30
0.0
 10
563.6718648442305
 20
-134.9335416621955
 30
0.0
 10
562.9210551595326
 20
-134.892082106037
 30
0.0
 10
562.40458078272
 20
-134.8635624973182
 30
0.0
 10
561.6060008697551
 20
-134.819465078993
 30
0.0
 10
561.3358249145548
 20
-134.80454601839
 30
0.0
 10
560.7874950124909
 20
-134.7742673541275
 30
0.0
 10
560.5093007975823
 20
-134.7589055268748
 30
0.0
 10
559.6648890209957
 20
-134.7122772824797
 30
0.0
 10
559.0881649094148
 20
-134.6804306958155
 30
0.0
 10
557.3172559515652
 20
-134.5826414678846
 30
0.0
 10
556.0823839058783
 20
-134.5144520878457
 30
0.0
 10
553.5061221020853
 20
-134.3721914416255
 30
0.0
 10
552.1647293873441
 20
-134.2981200121795
 30
0.0
 10
550.4217002426245
 20
-134.2018703017878
 30
0.0
 10
550.0697763055335
 20
-134.182437134461
 30
0.0
 10
549.3592846702719
 20
-134.1432039326888
 30
0.0
 10
548.2835808179713
 20
-134.0838037875076
 30
0.0
 10
547.1779239525159
 20
-134.022749643109
 30
0.0
 10
544.9264071874338
 20
-133.8984213510447
 30
0.0
 10
543.3718425295837
 20
-133.8125786108034
 30
0.0
 10
541.3600376173717
 20
-133.7014871578855
 30
0.0
 10
540.9540408892713
 20
-133.6790681021755
 30
0.0
 10
540.1359961610672
 20
-133.6338958407618
 30
0.0
 10
539.7247308777967
 20
-133.6111858565203
 30
0.0
 10
538.484262735662
 20
-133.542687461188
 30
0.0
 10
537.6483897434533
 20
-133.4965307267077
 30
0.0
 10
535.114459457554
 20
-133.3566076181874
 30
0.0
 10
533.390122540553
 20
-133.2613900887605
 30
0.0
 10
531.1916276270423
 20
-133.1399896524201
 30
0.0
 10
530.7497724604958
 20
-133.1155905011242
 30
0.0
 10
529.8617583840983
 20
-133.0665545467135
 30
0.0
 10
529.4155994732524
 20
-133.0419177435437
 30
0.0
 10
528.0706742950598
 20
-132.9676512521935
 30
0.0
 10
527.1654614888761
 20
-132.917665587466
 30
0.0
 10
524.4240236261237
 20
-132.7662839532884
 30
0.0
 10
522.5620304410321
 20
-132.6634650730881
 30
0.0
 10
518.7685072394008
 20
-132.4539875031763
 30
0.0
 10
516.8369804312795
 20
-132.347328990633
 30
0.0
 10
514.3779627522927
 20
-132.211542540838
 30
0.0
 10
513.8836364216276
 20
-132.1842459426659
 30
0.0
 10
512.8942861503075
 20
-132.1296142244419
 30
0.0
 10
512.3988384877899
 20
-132.102255706556
 30
0.0
 10
510.9101962672743
 20
-132.0200531897274
 30
0.0
 10
509.914703211052
 20
-131.9650822681862
 30
0.0
 10
508.4169260089649
 20
-131.8823753195566
 30
0.0
 10
507.916910485949
 20
-131.8547645653546
 30
0.0
 10
506.9153743101272
 20
-131.7994599439938
 30
0.0
 10
506.4138536562458
 20
-131.7717660767755
 30
0.0
 10
504.9070435654469
 20
-131.6885603338915
 30
0.0
 10
503.8995066720145
 20
-131.63292435414
 30
0.0
 10
500.8679574458473
 20
-131.4655228302235
 30
0.0
 10
498.8350170791077
 20
-131.3532642818595
 30
0.0
 10
494.7453428038694
 20
-131.1274333106559
 30
0.0
 10
492.6886092485736
 20
-131.01386090732
 30
0.0
 10
489.5854242426892
 20
-130.842503670401
 30
0.0
 10
488.5480139241579
 20
-130.7852180862682
 30
0.0
 10
486.9873146424684
 20
-130.6990365933618
 30
0.0
 10
486.4663175812566
 20
-130.6702672429418
 30
0.0
 10
485.4227853860293
 20
-130.6126436100386
 30
0.0
 10
484.9002502520137
 20
-130.5837893275552
 30
0.0
 10
484.3769410125099
 20
-130.5548922991262
 30
0.0
  0
SPLINE
  5
B9
330
1F
100
AcDbEntity
  8
0
  6
Continuous
 62
     7
370
    25
100
AcDbSpline
210
0.0
220
0.0
230
1.0
 70
     8
 71
     3
 72
    53
 73
    49
 74
     0
 42
0.000000001
 43
0.00000001
 40
0.0
 40
0.0
 40
0.0
 40
0.0
 40
0.0093386734711822
 40
0.0187010670789977
 40
0.0280871832729492
 40
0.037497024483992
 40
0.0469305931247283
 40
0.0563878915895824
 40
0.065868922254989
 40
0.0753736874795597
 40
0.0849021896042692
 40
0.0944544309526198
 40
0.1040304138308219
 40
0.1136301405279587
 40
0.1232536133161512
 40
0.1329008344507323
 40
0.1425718061703938
 40
0.1522665306973655
 40
0.1619850102375685
 40
0.1717272469807661
 40
0.1814932431007247
 40
0.1912830007553749
 40
0.2010965220869473
 40
0.2109338092221421
 40
0.2207948642722542
 40
0.2306796893333422
 40
0.2405882864863597
 40
0.2505206577973072
 40
0.3104030352776644
 40
0.3720365184852594
 40
0.4354214315007379
 40
0.5005580660152306
 40
0.558106993179621
 40
0.6189369973328983
 40
0.683048034206069
 40
0.7504400261174694
 40
0.7790169843166534
 40
0.809294895817375
 40
0.8412737389392636
 40
0.8749534897383202
 40
0.8860309039101656
 40
0.8984093037035841
 40
0.9120886828341974
 40
0.9270690343174187
 40
0.9433503504774536
 40
0.960932622953061
 40
0.9798158427012896
 40
1.0
 40
1.0
 40
1.0
 40
1.0
 10
564.8753882025022
 20
134.9999999741714
 30
0.0
 10
564.7357562063547
 20
134.9922890262202
 30
0.0
 10
564.4561375501946
 20
134.9768475445876
 30
0.0
 10
564.0252661967768
 20
134.953047987646
 30
0.0
 10
563.5853303092307
 20
134.9287452439309
 30
0.0
 10
563.1355247526686
 20
134.9038953303503
 30
0.0
 10
562.6760457530486
 20
134.8785100768848
 30
0.0
 10
562.2068221231339
 20
134.8525863016609
 30
0.0
 10
561.727856548506
 20
134.8261248604574
 30
0.0
 10
561.2391338227472
 20
134.7991255230797
 30
0.0
 10
560.7406455572839
 20
134.7715883514143
 30
0.0
 10
560.232383564068
 20
134.7435133287921
 30
0.0
 10
559.714341663878
 20
134.7149004596714
 30
0.0
 10
559.1865152284302
 20
134.6857497428281
 30
0.0
 10
558.648901331895
 20
134.6560611785684
 30
0.0
 10
558.1014987384164
 20
134.6258347667856
 30
0.0
 10
557.5443079336204
 20
134.5950705074822
 30
0.0
 10
556.9773311442351
 20
134.5637684006426
 30
0.0
 10
556.400572360518
 20
134.5319284462267
 30
0.0
 10
555.8140373588102
 20
134.4995506442744
 30
0.0
 10
555.2177337200554
 20
134.4666349945727
 30
0.0
 10
554.6116708637085
 20
134.4331814978315
 30
0.0
 10
553.995860023135
 20
134.399190151302
 30
0.0
 10
553.370314439605
 20
134.3646609651987
 30
0.0
 10
552.7350487367979
 20
134.3295939011695
 30
0.0
 10
552.0900813640474
 20
134.293989102801
 30
0.0
 10
551.4354255446932
 20
134.2578460321752
 30
0.0
 10
549.6580589214435
 20
134.1597090591599
 30
0.0
 10
546.6021989393113
 20
133.9908558191715
 30
0.0
 10
542.0187537602496
 20
133.7376653654057
 30
0.0
 10
537.0252135845931
 20
133.462006333123
 30
0.0
 10
531.8818566547963
 20
133.1781776246304
 30
0.0
 10
526.5926625025991
 20
132.8858619955707
 30
0.0
 10
521.1465306630594
 20
132.5849511805971
 30
0.0
 10
515.2263488732522
 20
132.2582076965618
 30
0.0
 10
510.1654866471764
 20
131.9789634703806
 30
0.0
 10
506.115074211552
 20
131.7552430819201
 30
0.0
 10
503.176941329759
 20
131.5929817040352
 30
0.0
 10
500.0508952015761
 20
131.4203772748168
 30
0.0
 10
497.5342390134315
 20
131.2814508477005
 30
0.0
 10
495.6541230702144
 20
131.1776002723327
 30
0.0
 10
494.4301218433536
 20
131.109966525578
 30
0.0
 10
493.0752825549006
 20
131.0351141561644
 30
0.0
 10
491.5892956795789
 20
130.9530390594499
 30
0.0
 10
489.9720002620317
 20
130.8637425100702
 30
0.0
 10
488.2234207457797
 20
130.7672227985851
 30
0.0
 10
486.3438208222186
 20
130.6634850247947
 30
0.0
 10
485.0469626736405
 20
130.591884634946
 30
0.0
 10
484.3769410125096
 20
130.5548922991253
 30
0.0
  0
CIRCLE
  5
BB
330
1F
100
AcDbEntity
  8
0
  6
Continuous
 62
     7
370
    25
100
AcDbCircle
 10
-490.0
 20
0.0
 30
0.0
 40
44.99999999999996
  0
CIRCLE
  5
BC
330
1F
100
AcDbEntity
  8
0
  6
Continuous
 62
     7
370
    25
100
AcDbCircle
 10
-490.0
 20
0.0
 30
0.0
 40
39.99999999999999
  0
CIRCLE
  5
BD
330
1F
100
AcDbEntity
  8
0
  6
Continuous
 62
     7
370
    25
100
AcDbCircle
 10
-490.0
 20
0.0
 30
0.0
 40
37.99999999999983
  0
CIRCLE
  5
BE
330
1F
100
AcDbEntity
  8
0
  6
Continuous
 62
     7
370
    25
100
AcDbCircle
 10
-490.0
 20
0.0
 30
0.0
 40
25.99999999999997
  0
LINE
  5
BF
330
1F
100
AcDbEntity
  8
0
  6
Continuous
 62
     7
370
    25
100
AcDbLine
 10
564.8753882025
 20
134.9999999742
 30
0.0
 11
564.8753882025
 21
-134.9999999742
 31
0.0
  0
LINE
  5
C0
330
1F
100
AcDbEntity
  8
0
  6
Continuous
 62
     7
370
    25
100
AcDbLine
 10
-633.575464985
 20
-134.9999999742
 30
0.0
 11
-633.575464985
 21
134.9999999742
 31
0.0
  0
LINE
  5
C1
330
1F
100
AcDbEntity
  8
0
  6
Continuous
 62
     7
370
    25
100
AcDbLine
 10
-685.474845005
 20
134.9999999995
 30
0.0
 11
-685.474845005
 21
-135.0000000078
 31
0.0
  0
LINE
  5
C2
330
1F
100
AcDbEntity
  8
0
  6
Continuous
 62
     7
370
    25
100
AcDbLine
 10
721.7082039325
 20
-134.9999999991
 30
0.0
 11
721.7082039325
 21
135.0000000077
 31
0.0
  0
LINE
  5
C3
330
1F
100
AcDbEntity
  8
0
  6
Continuous
 62
     7
370
    25
100
AcDbLine
 10
-556.1671516999
 20
299.8615334462
 30
0.0
 11
-555.0277768949
 21
270.3802400198
 31
0.0
  0
LINE
  5
C4
330
1F
100
AcDbEntity
  8
0
  6
Continuous
 62
     7
370
    25
100
AcDbLine
 10
597.7413918128
 20
299.2549441021
 30
0.0
 11
595.0153288805
 21
270.0450590826
 31
0.0
  0
LINE
  5
C5
330
1F
100
AcDbEntity
  8
0
  6
Continuous
 62
     7
370
    25
100
AcDbLine
 10
721.7082039325
 20
135.0000000077
 30
0.0
 11
748.5410196625
 21
135.0000000077
 31
0.0
  0
LINE
  5
C6
330
1F
100
AcDbEntity
  8
0
  6
Continuous
 62
     7
370
    25
100
AcDbLine
 10
748.5410196625
 20
135.0000000077
 30
0.0
 11
748.5410196625
 21
-135.000000004
 31
0.0
  0
LINE
  5
C7
330
1F
100
AcDbEntity
  8
0
  6
Continuous
 62
     7
370
    25
100
AcDbLine
 10
721.7082039325
 20
-134.9999999991
 30
0.0
 11
748.5410196625
 21
-135.000000004
 31
0.0
  0
LINE
  5
C8
330
1F
100
AcDbEntity
  8
0
  6
Continuous
 62
     7
370
    25
100
AcDbLine
 10
-555.0277768687
 20
-270.3802400208
 30
0.0
 11
-556.1671516736
 21
-299.8615334472
 31
0.0
  0
LINE
  5
C9
330
1F
100
AcDbEntity
  8
0
  6
Continuous
 62
     7
370
    25
100
AcDbLine
 10
-714.9784406627
 20
-135.0000000078
 30
0.0
 11
-685.474845005
 21
-135.0000000078
 31
0.0
  0
LINE
  5
CA
330
1F
100
AcDbEntity
  8
0
  6
Continuous
 62
     7
370
    25
100
AcDbLine
 10
595.015328882
 20
-270.0450590825
 30
0.0
 11
597.7413918146
 21
-299.2549441019
 31
0.0
  0
LINE
  5
CB
330
1F
100
AcDbEntity
  8
0
  6
Continuous
 62
     7
370
    25
100
AcDbLine
 10
-714.9784406627
 20
-135.0000000078
 30
0.0
 11
-714.9784406627
 21
135.000000005
 31
0.0
  0
LINE
  5
CC
330
1F
100
AcDbEntity
  8
0
  6
Continuous
 62
     7
370
    25
100
AcDbLine
 10
-714.9784406627
 20
135.000000005
 30
0.0
 11
-685.474845005
 21
134.9999999995
 31
0.0
  0
LINE
  5
CD
330
1F
100
AcDbEntity
  8
0
  6
Continuous
 62
     7
370
    25
100
AcDbLine
 10
793.0
 20
-320.0
 30
0.0
 11
793.0
 21
320.0
 31
0.0
  0
LINE
  5
CE
330
1F
100
AcDbEntity
  8
0
  6
Continuous
 62
     7
370
    25
100
AcDbLine
 10
-770.0
 20
-343.0
 30
0.0
 11
770.0
 21
-343.0
 31
0.0
  0
LINE
  5
CF
330
1F
100
AcDbEntity
  8
0
  6
Continuous
 62
     7
370
    25
100
AcDbLine
 10
-793.0
 20
320.0
 30
0.0
 11
-793.0
 21
-320.0
 31
0.0
  0
LINE
  5
D0
330
1F
100
AcDbEntity
  8
0
  6
Continuous
 62
     7
370
    25
100
AcDbLine
 10
770.0
 20
343.0
 30
0.0
 11
-770.0
 21
343.0
 31
0.0
  0
LINE
  5
D1
330
1F
100
AcDbEntity
  8
0
  6
Continuous
 62
     7
370
    25
100
AcDbLine
 10
-800.0
 20
320.0
 30
0.0
 11
-793.0
 21
320.0
 31
0.0
  0
LINE
  5
D2
330
1F
100
AcDbEntity
  8
0
  6
Continuous
 62
     7
370
    25
100
AcDbLine
 10
-770.0
 20
343.0
 30
0.0
 11
-770.0
 21
350.0
 31
0.0
  0
LINE
  5
D3
330
1F
100
AcDbEntity
  8
0
  6
Continuous
 62
     7
370
    25
100
AcDbLine
 10
770.0
 20
343.0
 30
0.0
 11
770.0
 21
350.0
 31
0.0
  0
LINE
  5
D4
330
1F
100
AcDbEntity
  8
0
  6
Continuous
 62
     7
370
    25
100
AcDbLine
 10
793.0
 20
320.0
 30
0.0
 11
800.0
 21
320.0
 31
0.0
  0
LINE
  5
D5
330
1F
100
AcDbEntity
  8
0
  6
Continuous
 62
     7
370
    25
100
AcDbLine
 10
793.0
 20
-320.0
 30
0.0
 11
800.0
 21
-320.0
 31
0.0
  0
LINE
  5
D6
330
1F
100
AcDbEntity
  8
0
  6
Continuous
 62
     7
370
    25
100
AcDbLine
 10
770.0
 20
-350.0
 30
0.0
 11
770.0
 21
-343.0
 31
0.0
  0
LINE
  5
D7
330
1F
100
AcDbEntity
  8
0
  6
Continuous
 62
     7
370
    25
100
AcDbLine
 10
-800.0
 20
-320.0
 30
0.0
 11
-800.0
 21
320.0
 31
0.0
  0
LINE
  5
D8
330
1F
100
AcDbEntity
  8
0
  6
Continuous
 62
     7
370
    25
100
AcDbLine
 10
-800.0
 20
-320.0
 30
0.0
 11
-793.0
 21
-320.0
 31
0.0
  0
LINE
  5
D9
330
1F
100
AcDbEntity
  8
0
  6
Continuous
 62
     7
370
    25
100
AcDbLine
 10
770.0
 20
-350.0
 30
0.0
 11
-770.0
 21
-350.0
 31
0.0
  0
LINE
  5
DA
330
1F
100
AcDbEntity
  8
0
  6
Continuous
 62
     7
370
    25
100
AcDbLine
 10
-770.0
 20
-350.0
 30
0.0
 11
-770.0
 21
-343.0
 31
0.0
  0
LINE
  5
DB
330
1F
100
AcDbEntity
  8
0
  6
Continuous
 62
     7
370
    25
100
AcDbLine
 10
800.0
 20
320.0
 30
0.0
 11
800.0
 21
-320.0
 31
0.0
  0
LINE
  5
DC
330
1F
100
AcDbEntity
  8
0
  6
Continuous
 62
     7
370
    25
100
AcDbLine
 10
-770.0
 20
350.0
 30
0.0
 11
770.0
 21
350.0
 31
0.0
  0
LINE
  5
DD
330
1F
100
AcDbEntity
  8
0
  6
Continuous
 62
     7
370
    25
100
AcDbLine
 10
-545.064678012
 20
130.3378970217
 30
0.0
 11
-545.064678012
 21
-130.3378970217
 31
0.0
  0
LINE
  5
DE
330
1F
100
AcDbEntity
  8
0
  6
Continuous
 62
     7
370
    25
100
AcDbLine
 10
484.3769410125
 20
-130.5548922991
 30
0.0
 11
484.3769410125
 21
130.5548922991
 31
0.0
  0
ARC
  5
DF
330
1F
100
AcDbEntity
  8
0
  6
Continuous
 62
     7
370
    25
100
AcDbCircle
 10
770.0
 20
320.0
 30
0.0
 40
23.0
100
AcDbArc
 50
0.0
 51
90.0
  0
ARC
  5
E0
330
1F
100
AcDbEntity
  8
0
  6
Continuous
 62
     7
370
    25
100
AcDbCircle
 10
770.0
 20
-320.0
 30
0.0
 40
23.0
100
AcDbArc
 50
270.0
 51
0.0
  0
ARC
  5
E1
330
1F
100
AcDbEntity
  8
0
  6
Continuous
 62
     7
370
    25
100
AcDbCircle
 10
-770.0
 20
-320.0
 30
0.0
 40
23.0
100
AcDbArc
 50
180.0
 51
270.0
  0
ARC
  5
E2
330
1F
100
AcDbEntity
  8
0
  6
Continuous
 62
     7
370
    25
100
AcDbCircle
 10
-770.0
 20
320.0
 30
0.0
 40
23.0
100
AcDbArc
 50
90.0
 51
180.0
  0
ARC
  5
E3
330
1F
100
AcDbEntity
  8
0
  6
Continuous
 62
     7
370
    25
100
AcDbCircle
 10
-770.0
 20
320.0
 30
0.0
 40
30.00000000000017
100
AcDbArc
 50
90.0
 51
180.0
  0
ARC
  5
E4
330
1F
100
AcDbEntity
  8
0
  6
Continuous
 62
     7
370
    25
100
AcDbCircle
 10
770.0
 20
320.0
 30
0.0
 40
30.00000000000011
100
AcDbArc
 50
0.0
 51
90.0
  0
ARC
  5
E5
330
1F
100
AcDbEntity
  8
0
  6
Continuous
 62
     7
370
    25
100
AcDbCircle
 10
770.0
 20
-320.0
 30
0.0
 40
30.00000000000017
100
AcDbArc
 50
270.0
 51
0.0
  0
ARC
  5
E6
330
1F
100
AcDbEntity
  8
0
  6
Continuous
 62
     7
370
    25
100
AcDbCircle
 10
-770.0
 20
-320.0
 30
0.0
 40
30.00000000000011
100
AcDbArc
 50
180.0
 51
270.0
  0
SPLINE
  5
100
330
1B
100
AcDbEntity
 67
     1
  8
0
  6
Continuous
 62
     7
370
    25
100
AcDbSpline
210
0.0
220
0.0
230
1.0
 70
     8
 71
     3
 72
    55
 73
    51
 74
     0
 42
0.000000001
 43
0.00000001
 40
0.0
 40
0.0
 40
0.0
 40
0.0
 40
0.0130104047260735
 40
0.0235673743647239
 40
0.0316708797993792
 40
0.0397363114416905
 40
0.0502560480116841
 40
0.0632306128522555
 40
0.0818427926946205
 40
0.0949273470853678
 40
0.107950952271002
 40
0.1264614887014291
 40
0.1450317254447425
 40
0.1581116304423363
 40
0.171153224937706
 40
0.1896870092308767
 40
0.2082452318071994
 40
0.2213241253979599
 40
0.2343840045571975
 40
0.2529113191941751
 40
0.2639312559117136
 40
0.2804911876249412
 40
0.3127305746323005
 40
0.3442386445636418
 40
0.3647917152719845
 40
0.3703155575377621
 40
0.3792768950596096
 40
0.3969619360623746
 40
0.4167621171757142
 40
0.4446431671982677
 40
0.4723802908474097
 40
0.4909476020331424
 40
0.4966338522931866
 40
0.5056325636372765
 40
0.5423494104340526
 40
0.5925265804204312
 40
0.6292404161177366
 40
0.6550872117236656
 40
0.6910174080266238
 40
0.7269706317014462
 40
0.7528455706017187
 40
0.7659753186149157
 40
0.7920024805479456
 40
0.8327438568498272
 40
0.8677504235558636
 40
0.9019152895426299
 40
0.9464041511660032
 40
0.9837029295497969
 40
0.9917320649739251
 40
1.0
 40
1.0
 40
1.0
 40
1.0
 10
-605.2620280389184
 20
30.16362659950408
 30
0.0
 10
-605.0869507336511
 20
30.35980102444011
 30
0.0
 10
-604.769811299262
 20
30.71515631204205
 30
0.0
 10
-604.3402464880025
 20
31.19772101585944
 30
0.0
 10
-603.9738755593739
 20
31.60628796061332
 30
0.0
 10
-603.6017583131402
 20
32.01445846547391
 30
0.0
 10
-603.1594342591642
 20
32.49981631072927
 30
0.0
 10
-602.566596622324
 20
33.15240129658631
 30
0.0
 10
-601.9352207155223
 20
33.85240381683693
 30
0.0
 10
-601.2978797507288
 20
34.55944509062795
 30
0.0
 10
-600.6480975495477
 20
35.26532007570082
 30
0.0
 10
-599.913068271915
 20
36.06462125664023
 30
0.0
 10
-599.1738818036572
 20
36.87389663018678
 30
0.0
 10
-598.5105655069011
 20
37.60059529826379
 30
0.0
 10
-597.8353855924084
 20
38.32677656001615
 30
0.0
 10
-597.0726489137317
 20
39.14813367723233
 30
0.0
 10
-596.3062350855993
 20
39.97836859730467
 30
0.0
 10
-595.6205271191395
 20
40.72387443422967
 30
0.0
 10
-594.9232184405682
 20
41.46812662333235
 30
0.0
 10
-594.2524371403654
 20
42.1815997444881
 30
0.0
 10
-593.5243876642801
 20
42.95914340617429
 30
0.0
 10
-592.5702994919619
 20
43.97030101165708
 30
0.0
 10
-591.2844748072995
 20
45.34354451847128
 30
0.0
 10
-589.9159371686119
 20
46.79809843156568
 30
0.0
 10
-588.9760492285753
 20
47.80179170267937
 30
0.0
 10
-588.3944278207349
 20
48.41001014744115
 30
0.0
 10
-587.8610037329695
 20
48.97080365266296
 30
0.0
 10
-587.092014828703
 20
49.78649752102302
 30
0.0
 10
-585.9950381141931
 20
50.93456758260231
 30
0.0
 10
-584.7244486776359
 20
52.27020216163012
 30
0.0
 10
-583.464873472975
 20
53.59312042755701
 30
0.0
 10
-582.578504595607
 20
54.52668174335301
 30
0.0
 10
-582.0047856272897
 20
55.1216825609411
 30
0.0
 10
-581.1197571480766
 20
56.04552155528808
 30
0.0
 10
-579.4504403207904
 20
57.7710076437197
 30
0.0
 10
-577.2841767740879
 20
60.02026961273887
 30
0.0
 10
-575.2966252097916
 20
62.09348472859383
 30
0.0
 10
-573.5379760880991
 20
63.90504896853189
 30
0.0
 10
-571.7881329816742
 20
65.7159892943622
 30
0.0
 10
-570.0315816008398
 20
67.54145255461717
 30
0.0
 10
-568.6737897590507
 20
68.94379402326665
 30
0.0
 10
-567.4848273056822
 20
70.15704336830689
 30
0.0
 10
-566.0333463461304
 20
71.66326317053756
 30
0.0
 10
-564.1797465254336
 20
73.59357468795297
 30
0.0
 10
-562.1633943755759
 20
75.68308103483014
 30
0.0
 10
-560.0720334313396
 20
77.85386483876195
 30
0.0
 10
-557.9258020723906
 20
80.07387482613194
 30
0.0
 10
-556.2488758586984
 20
81.79237750000236
 30
0.0
 10
-555.2560620015602
 20
82.82877024483174
 30
0.0
 10
-554.9538300651458
 20
83.14409486607065
 30
0.0
 10
-554.8004998073724
 20
83.30406738926068
 30
0.0
  0
SPLINE
  5
101
330
1B
100
AcDbEntity
 67
     1
  8
0
  6
Continuous
 62
     7
370
    25
100
AcDbSpline
210
0.0
220
0.0
230
1.0
 70
     8
 71
     3
 72
    46
 73
    42
 74
     0
 42
0.000000001
 43
0.00000001
 40
0.0
 40
0.0
 40
0.0
 40
0.0
 40
0.006731403604192
 40
0.0302221811711189
 40
0.0953799203129935
 40
0.1516897583027576
 40
0.199980377718653
 40
0.2403870264613612
 40
0.2488894107649945
 40
0.2576585234698747
 40
0.3220951802623845
 40
0.3865212297652613
 40
0.413468952681149
 40
0.4509346716154916
 40
0.4884204154709199
 40
0.5153926627167862
 40
0.5513764949705801
 40
0.6004798812899649
 40
0.636499247649819
 40
0.6451370322965501
 40
0.6505988195372743
 40
0.6683712133332365
 40
0.6949064470501568
 40
0.7215729969239182
 40
0.7405863002504657
 40
0.7576188658453483
 40
0.7662809537945119
 40
0.7717617626541369
 40
0.7895334368415363
 40
0.8160537286467576
 40
0.842708512228569
 40
0.861740229502625
 40
0.8788046435813381
 40
0.8965360616690645
 40
0.9090222099640559
 40
0.9215690996685115
 40
0.9394026538675126
 40
0.9571645443483577
 40
0.9696468233931703
 40
0.9821844148767299
 40
1.0
 40
1.0
 40
1.0
 40
1.0
 10
-635.739061999884
 20
83.29682400222643
 30
0.0
 10
-635.7148855764614
 20
83.16657257911444
 30
0.0
 10
-635.6063399756159
 20
82.58177892558354
 30
0.0
 10
-635.2460724260455
 20
80.75128224903766
 30
0.0
 10
-634.6192900764712
 20
77.9742446810931
 30
0.0
 10
-633.7542683354004
 20
74.73729999238626
 30
0.0
 10
-632.9199027784992
 20
71.9885168568697
 30
0.0
 10
-632.3041402625086
 20
70.15169700739989
 30
0.0
 10
-631.9241940882729
 20
69.07506474180045
 30
0.0
 10
-631.3776571046835
 20
67.55324238253304
 30
0.0
 10
-630.3830211217469
 20
64.9765649315994
 30
0.0
 10
-629.1351873021465
 20
62.10949694324169
 30
0.0
 10
-628.0212594174826
 20
59.74649952935179
 30
0.0
 10
-627.0962081783156
 20
57.88799954261626
 30
0.0
 10
-626.1231119803923
 20
56.04908676002168
 30
0.0
 10
-625.1214588661443
 20
54.25042702900429
 30
0.0
 10
-623.9460457889815
 20
52.24074819925936
 30
0.0
 10
-622.6085564740567
 20
50.09834772271326
 30
0.0
 10
-621.5213087895307
 20
48.46388041243161
 30
0.0
 10
-620.9223659283952
 20
47.59276363885387
 30
0.0
 10
-620.5395045236313
 20
47.0416453156296
 30
0.0
 10
-619.9292030924983
 20
46.17789765732586
 30
0.0
 10
-619.0378274350727
 20
44.95654846108968
 30
0.0
 10
-618.1032901584986
 20
43.7245476866776
 30
0.0
 10
-617.2729401409182
 20
42.6653638954656
 30
0.0
 10
-616.6661050102218
 20
41.91113537342386
 30
0.0
 10
-616.2387918207368
 20
41.38979188999989
 30
0.0
 10
-615.7991714179831
 20
40.85882109884875
 30
0.0
 10
-615.0992592561862
 20
40.02741571545232
 30
0.0
 10
-614.0800324925978
 20
38.85473610176701
 30
0.0
 10
-613.014815308083
 20
37.67516568827536
 30
0.0
 10
-612.0701336183706
 20
36.66287375264862
 30
0.0
 10
-611.2387969854157
 20
35.79502275071797
 30
0.0
 10
-610.5002097728624
 20
35.04328162342094
 30
0.0
 10
-609.8223540693874
 20
34.36829606815786
 30
0.0
 10
-609.1310576456771
 20
33.69241025464282
 30
0.0
 10
-608.3439065292345
 20
32.93984834381772
 30
0.0
 10
-607.5468084199774
 20
32.19743881524079
 30
0.0
 10
-606.8288779896031
 20
31.54383247790885
 30
0.0
 10
-606.0982398986902
 20
30.88991869067073
 30
0.0
 10
-605.5713073941222
 20
30.43225128716026
 30
0.0
 10
-605.2620280389184
 20
30.16362659950392
 30
0.0
  0
LWPOLYLINE
  5
102
330
1B
100
AcDbEntity
 67
     1
  8
0
  6
Continuous
 62
     7
370
    25
100
AcDbPolyline
 90
        2
 70
   128
 43
0.0
 10
566.8431280227
 20
58.7669064949
 10
566.8431280227
 20
58.7669064949
  0
SPLINE
  5
103
330
1B
100
AcDbEntity
 67
     1
  8
0
  6
Continuous
 62
     7
370
    25
100
AcDbSpline
210
0.0
220
0.0
230
1.0
 70
     8
 71
     3
 72
    45
 73
    41
 74
     0
 42
0.000000001
 43
0.00000001
 40
0.0
 40
0.0
 40
0.0
 40
0.0
 40
0.0121288167869311
 40
0.0267531309677693
 40
0.04387323246608
 40
0.063489298210048
 40
0.0831502487336483
 40
0.1002593349605274
 40
0.1148161455971277
 40
0.126820890671983
 40
0.1536285078994815
 40
0.1905336948921107
 40
0.2271656537410827
 40
0.2536376010565888
 40
0.28033408728692
 40
0.3170970118205142
 40
0.3538893605474025
 40
0.380420761233952
 40
0.4071427783723242
 40
0.4440734699354086
 40
0.4807674233373971
 40
0.5071989807099161
 40
0.5204802857276556
 40
0.5465680357144771
 40
0.60495792909765
 40
0.656002140313357
 40
0.6844425435861257
 40
0.7167974572874124
 40
0.7371862428378814
 40
0.7452860215697706
 40
0.7536159059375857
 40
0.7669076897950089
 40
0.7762835201283869
 40
0.7930061238027332
 40
0.8514401242876478
 40
0.902521410903513
 40
0.94673745698468
 40
0.9837986195044331
 40
0.9917810306783307
 40
1.0
 40
1.0
 40
1.0
 40
1.0
 10
535.0580729390886
 20
22.97881546846414
 30
0.0
 10
535.2329952254374
 20
23.09441977854246
 30
0.0
 10
535.6188299625004
 20
23.34941392201864
 30
0.0
 10
536.2441536710105
 20
23.77113052274429
 30
0.0
 10
536.9703868371487
 20
24.26974196951595
 30
0.0
 10
537.7602861958273
 20
24.82423711494394
 30
0.0
 10
538.5428607763728
 20
25.38639835851872
 30
0.0
 10
539.2486691289713
 20
25.90443907949586
 30
0.0
 10
539.8438885242713
 20
26.34939923044763
 30
0.0
 10
540.5646278554486
 20
26.89649182924209
 30
0.0
 10
541.570728300389
 20
27.67728557735727
 30
0.0
 10
542.8810892452072
 20
28.7312025416239
 30
0.0
 10
544.1627919801169
 20
29.80505582556031
 30
0.0
 10
545.2906278748659
 20
30.78336622030456
 30
0.0
 10
546.3946805926546
 20
31.76905498972785
 30
0.0
 10
547.6042651956532
 20
32.88637367866459
 30
0.0
 10
548.7873729896088
 20
34.02312163552018
 30
0.0
 10
549.8297689774183
 20
35.0590366108067
 30
0.0
 10
550.8502390091984
 20
36.10211091368989
 30
0.0
 10
551.9639400433229
 20
37.27921316790683
 30
0.0
 10
553.0499166806741
 20
38.47242298457446
 30
0.0
 10
553.8605440685462
 20
39.39320740434651
 30
0.0
 10
554.5479155221321
 20
40.19045540005894
 30
0.0
 10
555.5535604832567
 20
41.38128454527942
 30
0.0
 10
556.9067675131379
 20
43.05686297571179
 30
0.0
 10
558.2266654107733
 20
44.78889923533427
 30
0.0
 10
559.2644871116587
 20
46.20985824473595
 30
0.0
 10
559.9986057945713
 20
47.24845785873658
 30
0.0
 10
560.5382702560589
 20
48.03415679916623
 30
0.0
 10
560.8591046170922
 20
48.50856750569438
 30
0.0
 10
561.1168194498987
 20
48.89307705181642
 30
0.0
 10
561.3831014350044
 20
49.2951130756647
 30
0.0
 10
561.7194679856864
 20
49.80934547731383
 30
0.0
 10
562.4385427764122
 20
50.92476833306142
 30
0.0
 10
563.4763595899811
 20
52.60473029045842
 30
0.0
 10
564.6764365966704
 20
54.67366763153331
 30
0.0
 10
565.6627897732606
 20
56.47257538788161
 30
0.0
 10
566.2976580285974
 20
57.68880903284621
 30
0.0
 10
566.6729844431704
 20
58.42763962469238
 30
0.0
 10
566.7858641067094
 20
58.65272205368991
 30
0.0
 10
566.8431280227023
 20
58.76690649490365
 30
0.0
  0
SPLINE
  5
104
330
1B
100
AcDbEntity
 67
     1
  8
0
  6
Continuous
 62
     7
370
    25
100
AcDbSpline
210
0.0
220
0.0
230
1.0
 70
     8
 71
     3
 72
    58
 73
    54
 74
     0
 42
0.000000001
 43
0.00000001
 40
0.0
 40
0.0
 40
0.0
 40
0.0
 40
0.0033192970057803
 40
0.0245856826690207
 40
0.070586395379682
 40
0.1094203581565883
 40
0.1472438609510311
 40
0.1959815568744949
 40
0.236725886165832
 40
0.2451531287886307
 40
0.2538558064064894
 40
0.2715294368161693
 40
0.2914072997641909
 40
0.3334707005651687
 40
0.3659661958521979
 40
0.3808231779644943
 40
0.3984951990257764
 40
0.4183619888331241
 40
0.4463939306601885
 40
0.4742199332825797
 40
0.4928813446922209
 40
0.498666159259386
 40
0.507798224264029
 40
0.5210353559597765
 40
0.5300116571985616
 40
0.5441642622443283
 40
0.5712758000298329
 40
0.5981818613256379
 40
0.6162484050407303
 40
0.6218992764741759
 40
0.6308050350417072
 40
0.6483719278595516
 40
0.6689571353473776
 40
0.6912474629400528
 40
0.713833553719134
 40
0.7355645212682992
 40
0.7472435522550793
 40
0.7538227916514898
 40
0.7667836238156281
 40
0.7736534252081916
 40
0.7832736354816787
 40
0.8089381938764039
 40
0.8318524796800306
 40
0.8516604614631015
 40
0.8684059869818908
 40
0.8726220002667355
 40
0.8769095355540673
 40
0.9101787605083168
 40
0.938454765139482
 40
0.9583328022765645
 40
0.9767333110879026
 40
0.9889013260860672
 40
1.0
 40
1.0
 40
1.0
 40
1.0
 10
497.572282993846
 20
81.68262854099183
 30
0.0
 10
497.621599369373
 20
81.60715531158638
 30
0.0
 10
497.9868805590303
 20
81.04813306532863
 30
0.0
 10
499.0406216481917
 20
79.45021626302876
 30
0.0
 10
500.6150523975015
 20
77.05768575819651
 30
0.0
 10
502.4145382910136
 20
74.30526163284604
 30
0.0
 10
504.2469860636757
 20
71.51356594346211
 30
0.0
 10
506.0909213853607
 20
68.70235890812351
 30
0.0
 10
507.4945462710878
 20
66.56086996123304
 30
0.0
 10
508.3261763065184
 20
65.30642868916134
 30
0.0
 10
508.825563979223
 20
64.55378905849365
 30
0.0
 10
509.4909987268873
 20
63.5589931869405
 30
0.0
 10
510.6154512342458
 20
61.84604994398557
 30
0.0
 10
511.938464469987
 20
59.83115912380707
 30
0.0
 10
513.1769261822341
 20
57.94381511850987
 30
0.0
 10
514.0684456283
 20
56.5801975068331
 30
0.0
 10
514.7893054340328
 20
55.49043715641844
 30
0.0
 10
515.6753122101275
 20
54.12972070712718
 30
0.0
 10
516.6925860488409
 20
52.57270451694784
 30
0.0
 10
517.6816029695214
 20
51.05526597378554
 30
0.0
 10
518.3706271390275
 20
50.00113163168224
 30
0.0
 10
518.8050303051177
 20
49.32447536693968
 30
0.0
 10
519.1696661923002
 20
48.75958652772203
 30
0.0
 10
519.5763556558845
 20
48.134803108379
 30
0.0
 10
520.0430619651127
 20
47.41203998837742
 30
0.0
 10
520.6790670799525
 20
46.41607464928757
 30
0.0
 10
521.536340984569
 20
45.07818982239717
 30
0.0
 10
522.4297044329983
 20
43.68082809009014
 30
0.0
 10
523.0520168091392
 20
42.71120692107108
 30
0.0
 10
523.4443496265486
 20
42.08763210865693
 30
0.0
 10
523.83112811236
 20
41.47675296661749
 30
0.0
 10
524.400066721574
 20
40.59067024189009
 30
0.0
 10
525.1053036972289
 20
39.45749636967369
 30
0.0
 10
525.8633962185529
 20
38.2468630733741
 30
0.0
 10
526.6220256277834
 20
37.03073157003472
 30
0.0
 10
527.2500312248823
 20
36.02227997426602
 30
0.0
 10
527.6968298167191
 20
35.31106081865465
 30
0.0
 10
528.037068274168
 20
34.75705921947214
 30
0.0
 10
528.3260499247609
 20
34.29257135739899
 30
0.0
 10
528.6477610488774
 20
33.77871766220728
 30
0.0
 10
529.0938308909642
 20
33.04374671050888
 30
0.0
 10
529.7050009922137
 20
32.04311568662169
 30
0.0
 10
530.4058668853048
 20
30.88783006977311
 30
0.0
 10
530.9987724500443
 20
29.89868553519196
 30
0.0
 10
531.4018795289779
 20
29.23166767986548
 30
0.0
 10
531.6443698073563
 20
28.82102333068451
 30
0.0
 10
532.0469596608965
 20
28.14496610641831
 30
0.0
 10
532.6698829391171
 20
27.09690962661745
 30
0.0
 10
533.4076523314491
 20
25.83572786816515
 30
0.0
 10
533.9941198423737
 20
24.82919937905631
 30
0.0
 10
534.4266573060303
 20
24.08119672186054
 30
0.0
 10
534.7761943355994
 20
23.47271555594946
 30
0.0
 10
534.9670371272664
 20
23.13832596293558
 30
0.0
 10
535.0580729390891
 20
22.9788154684645
 30
0.0
  0
SPLINE
  5
105
330
1B
100
AcDbEntity
 67
     1
  8
0
  6
Continuous
 62
     7
370
    25
100
AcDbSpline
210
0.0
220
0.0
230
1.0
 70
     8
 71
     3
 72
    20
 73
    16
 74
     0
 42
0.000000001
 43
0.00000001
 40
0.0
 40
0.0
 40
0.0
 40
0.0
 40
0.125
 40
0.125
 40
0.2500000000000001
 40
0.2500000000000001
 40
0.5000000000000001
 40
0.5000000000000001
 40
0.6250000000000001
 40
0.6250000000000001
 40
0.7500000000000002
 40
0.7500000000000002
 40
0.8750000000000001
 40
0.8750000000000001
 40
1.0
 40
1.0
 40
1.0
 40
1.0
 10
497.5722829938459
 20
81.68262854099176
 30
0.0
 10
453.7738715068576
 20
82.12399037725034
 30
0.0
 10
409.953527157653
 20
82.51419522882185
 30
0.0
 10
322.2840764808298
 20
83.19890373457879
 30
0.0
 10
278.4415121458321
 20
83.49282683238866
 30
0.0
 10
146.8903238484359
 20
84.23782070807118
 30
0.0
 10
59.15820139087855
 20
84.55118390557716
 30
0.0
 10
-72.48692148982846
 20
84.75766267707415
 30
0.0
 10
-116.3654910081431
 20
84.78175167876057
 30
0.0
 10
-204.1009640781767
 20
84.74044881762173
 30
0.0
 10
-247.9603144961694
 20
84.67443870315599
 30
0.0
 10
-335.6623166226071
 20
84.4494439545179
 30
0.0
 10
-379.5049612267708
 20
84.29002330835651
 30
0.0
 10
-467.1736141936011
 20
83.87274660782711
 30
0.0
 10
-510.998674998259
 20
83.61466247236811
 30
0.0
 10
-554.8004998073721
 20
83.30406738926067
 30
0.0
  0
SPLINE
  5
106
330
1B
100
AcDbEntity
 67
     1
  8
0
  6
Continuous
 62
     7
370
    25
100
AcDbSpline
210
0.0
220
0.0
230
1.0
 70
     8
 71
     3
 72
    26
 73
    22
 74
     0
 42
0.000000001
 43
0.00000001
 40
0.0
 40
0.0
 40
0.0
 40
0.0
 40
0.2499999999999965
 40
0.2499999999999965
 40
0.499999999999993
 40
0.499999999999993
 40
0.6249999999999929
 40
0.6249999999999929
 40
0.6874999999999949
 40
0.6874999999999949
 40
0.7499999999999969
 40
0.7499999999999969
 40
0.8750000000000002
 40
0.8750000000000002
 40
0.937500000000001
 40
0.937500000000001
 40
0.968750000000001
 40
0.9843750000000006
 40
0.9921875000000003
 40
0.9921875000000003
 40
1.0
 40
1.0
 40
1.0
 40
1.0
 10
535.0580729390889
 20
22.97881546846448
 30
0.0
 10
531.1008651837634
 20
20.37491149674086
 30
0.0
 10
527.061128749702
 20
18.15017804002009
 30
0.0
 10
518.8376325499278
 20
14.36242660825121
 30
0.0
 10
514.6536940213676
 20
12.80022985966384
 30
0.0
 10
508.2761827543986
 20
10.92375925374653
 30
0.0
 10
506.1333342765474
 20
10.37642906977518
 30
0.0
 10
502.8937416234525
 20
9.671768678498227
 30
0.0
 10
501.8090579315543
 20
9.456218982038273
 30
0.0
 10
499.6394618323678
 20
9.065350720799309
 30
0.0
 10
498.5536150834304
 20
8.88980557575053
 30
0.0
 10
495.2929650689955
 20
8.42214851969511
 30
0.0
 10
493.1149423166625
 20
8.188934124240099
 30
0.0
 10
489.8422283858256
 20
7.955626163595964
 30
0.0
 10
488.7503870348338
 20
7.897292954406193
 30
0.0
 10
487.1112216460724
 20
7.838931059660048
 30
0.0
 10
486.2912880201519
 20
7.817036317515708
 30
0.0
 10
485.3340840689449
 20
7.804258017796411
 30
0.0
 10
484.9237219532055
 20
7.801519829401165
 30
0.0
 10
484.6501178935922
 20
7.800303202466802
 30
0.0
 10
484.5123277890264
 20
7.799999999999974
 30
0.0
 10
484.3769410125113
 20
7.799999999999974
 30
0.0
  0
SPLINE
  5
107
330
1B
100
AcDbEntity
 67
     1
  8
0
  6
Continuous
 62
     7
370
    25
100
AcDbSpline
210
0.0
220
0.0
230
1.0
 70
    24
 71
     3
 72
    20
 73
    16
 74
     0
 42
0.000000001
 43
0.00000001
 40
0.0
 40
0.0
 40
0.0
 40
0.0
 40
0.1250000000000001
 40
0.1250000000000001
 40
0.2500000000000002
 40
0.2500000000000002
 40
0.3750000000000002
 40
0.3750000000000002
 40
0.5000000000000001
 40
0.5000000000000001
 40
0.75
 40
0.75
 40
0.875
 40
0.875
 40
1.0
 40
1.0
 40
1.0
 40
1.0
 10
-545.0646780119713
 20
7.800000000000002
 30
0.0
 10
-502.2135655314426
 20
7.800000000000002
 30
0.0
 10
-459.3434258686088
 20
7.800000000000057
 30
0.0
 10
-373.5854752450825
 20
7.800000000000057
 30
0.0
 10
-330.6988755781391
 20
7.800000000000002
 30
0.0
 10
-244.9102867041848
 20
7.799999999999974
 30
0.0
 10
-202.0083031448133
 20
7.800000000000029
 30
0.0
 10
-116.1888590022707
 20
7.800000000000057
 30
0.0
 10
-73.26946036297926
 20
7.799999999999946
 30
0.0
 10
55.49965128352419
 20
7.799999999999946
 30
0.0
 10
141.3179518392462
 20
7.799999999999918
 30
0.0
 10
270.0039654575784
 20
7.799999999999946
 30
0.0
 10
312.8923954566798
 20
7.800000000000084
 30
0.0
 10
398.6555399576367
 20
7.800000000000084
 30
0.0
 10
441.5251200875212
 20
7.800000000000002
 30
0.0
 10
484.3769410125101
 20
7.800000000000002
 30
0.0
  0
SPLINE
  5
108
330
1B
100
AcDbEntity
 67
     1
  8
0
  6
Continuous
 62
     7
370
    25
100
AcDbSpline
210
0.0
220
0.0
230
1.0
 70
     8
 71
     3
 72
    28
 73
    24
 74
     0
 42
0.000000001
 43
0.00000001
 40
0.0
 40
0.0
 40
0.0
 40
0.0
 40
0.1250000000000017
 40
0.1250000000000017
 40
0.2500000000000033
 40
0.2500000000000033
 40
0.5000000000000061
 40
0.5000000000000061
 40
0.5625000000000066
 40
0.5625000000000066
 40
0.6250000000000071
 40
0.6250000000000071
 40
0.7500000000000048
 40
0.7500000000000048
 40
0.8750000000000024
 40
0.8750000000000024
 40
0.9375000000000009
 40
0.9375000000000009
 40
0.9687500000000002
 40
0.9843749999999999
 40
0.9921875
 40
0.9921875
 40
1.0
 40
1.0
 40
1.0
 40
1.0
 10
-605.2620280389184
 20
30.16362659950395
 30
0.0
 10
-603.0128310946876
 20
28.22487048805888
 30
0.0
 10
-600.718794236314
 20
26.43611447389177
 30
0.0
 10
-596.050512765871
 20
23.12691914031914
 30
0.0
 10
-593.6762255257072
 20
21.60662241328484
 30
0.0
 10
-586.4421152621828
 20
17.41789242736544
 30
0.0
 10
-581.4719032998559
 20
15.11874390172144
 30
0.0
 10
-575.0887210478528
 20
12.81491557953493
 30
0.0
 10
-573.8014973267994
 20
12.38230368614804
 30
0.0
 10
-571.2217931443228
 20
11.57788274627017
 30
0.0
 10
-569.9293768392827
 20
11.20596417697989
 30
0.0
 10
-566.0446332755714
 20
10.17874606092428
 30
0.0
 10
-563.4448259813632
 20
9.611811520930297
 30
0.0
 10
-558.2259260399145
 20
8.705772327865514
 30
0.0
 10
-555.6068317154192
 20
8.366687482175367
 30
0.0
 10
-551.6638889836742
 20
8.02701126702976
 30
0.0
 10
-550.3471541027345
 20
7.941982672533515
 30
0.0
 10
-548.3685825659167
 20
7.856850543967065
 30
0.0
 10
-547.3784468759005
 20
7.824890978294363
 30
0.0
 10
-546.2217968421596
 20
7.806223642303989
 30
0.0
 10
-545.7257693479417
 20
7.802221778599073
 30
0.0
 10
-545.3950130842394
 20
7.800443442188082
 30
0.0
 10
-545.2281712322211
 20
7.799999999999946
 30
0.0
 10
-545.0646780119702
 20
7.799999999999974
 30
0.0
  0
LINE
  5
10F
330
1B
100
AcDbEntity
 67
     1
  8
0
  6
Continuous
 62
     7
370
    25
100
AcDbLine
 10
-686.3054365258
 20
357.8
 30
0.0
 11
-635.7430435917
 21
83.318438358
 31
0.0
  0
LINE
  5
110
330
1B
100
AcDbEntity
 67
     1
  8
0
  6
Continuous
 62
     7
370
    25
100
AcDbLine
 10
566.8431280227
 20
58.7669064949
 30
0.0
 11
716.3596747752
 21
357.8
 31
0.0
  0
LINE
  5
111
330
1B
100
AcDbEntity
 67
     1
  8
0
  6
Continuous
 62
     7
370
    25
100
AcDbLine
 10
-532.2
 20
5.0
 30
0.0
 11
-532.2
 21
4.2
 31
0.0
  0
LINE
  5
112
330
1B
100
AcDbEntity
 67
     1
  8
0
  6
Continuous
 62
     7
370
    25
100
AcDbLine
 10
-447.8
 20
4.2
 30
0.0
 11
-447.8
 21
5.0
 31
0.0
  0
LINE
  5
113
330
1B
100
AcDbEntity
 67
     1
  8
0
  6
Continuous
 62
     7
370
    25
100
AcDbLine
 10
-800.0
 20
357.8
 30
0.0
 11
-800.0
 21
383.0
 31
0.0
  0
LINE
  5
114
330
1B
100
AcDbEntity
 67
     1
  8
0
  6
Continuous
 62
     7
370
    25
100
AcDbLine
 10
-770.0
 20
357.8
 30
0.0
 11
-770.0
 21
390.0
 31
0.0
  0
LINE
  5
115
330
1B
100
AcDbEntity
 67
     1
  8
0
  6
Continuous
 62
     7
370
    25
100
AcDbLine
 10
800.0
 20
357.8
 30
0.0
 11
-800.0
 21
357.8
 31
0.0
  0
LINE
  5
116
330
1B
100
AcDbEntity
 67
     1
  8
0
  6
Continuous
 62
     7
370
    25
100
AcDbLine
 10
770.0
 20
357.8
 30
0.0
 11
770.0
 21
390.0
 31
0.0
  0
LINE
  5
117
330
1B
100
AcDbEntity
 67
     1
  8
0
  6
Continuous
 62
     7
370
    25
100
AcDbLine
 10
800.0
 20
383.0
 30
0.0
 11
-800.0
 21
383.0
 31
0.0
  0
LINE
  5
118
330
1B
100
AcDbEntity
 67
     1
  8
0
  6
Continuous
 62
     7
370
    25
100
AcDbLine
 10
800.0
 20
357.8
 30
0.0
 11
800.0
 21
383.0
 31
0.0
  0
LINE
  5
119
330
1B
100
AcDbEntity
 67
     1
  8
0
  6
Continuous
 62
     7
370
    25
100
AcDbLine
 10
-793.0
 20
390.0
 30
0.0
 11
793.0
 21
390.0
 31
0.0
  0
LINE
  5
11A
330
1B
100
AcDbEntity
 67
     1
  8
0
  6
Continuous
 62
     7
370
    25
100
AcDbLine
 10
-528.0
 20
0.0
 30
0.0
 11
-452.0
 21
0.0
 31
0.0
  0
LINE
  5
11B
330
1B
100
AcDbEntity
 67
     1
  8
0
  6
Continuous
 62
     8
370
    25
100
AcDbLine
 10
-532.2
 20
5.0
 30
0.0
 11
-447.8
 21
5.0
 31
0.0
  0
LINE
  5
11C
330
1B
100
AcDbEntity
 67
     1
  8
0
  6
Continuous
 62
     8
370
    25
100
AcDbLine
 10
-447.8
 20
4.2
 30
0.0
 11
-532.2
 21
4.2
 31
0.0
  0
ARC
  5
11D
330
1B
100
AcDbEntity
 67
     1
  8
0
  6
Continuous
 62
     7
370
    25
100
AcDbCircle
 10
-535.0
 20
5.0
 30
0.0
 40
2.800000000000068
100
AcDbArc
 50
0.0
 51
90.0
  0
ARC
  5
11E
330
1B
100
AcDbEntity
 67
     1
  8
0
  6
Continuous
 62
     7
370
    25
100
AcDbCircle
 10
-445.0
 20
5.0
 30
0.0
 40
2.799999999999955
100
AcDbArc
 50
90.0
 51
180.0
  0
ARC
  5
11F
330
1B
100
AcDbEntity
 67
     1
  8
0
  6
Continuous
 62
     7
370
    25
100
AcDbCircle
 10
-528.0
 20
4.2
 30
0.0
 40
4.200000000000095
100
AcDbArc
 50
180.0
 51
270.0
  0
ARC
  5
120
330
1B
100
AcDbEntity
 67
     1
  8
0
  6
Continuous
 62
     7
370
    25
100
AcDbCircle
 10
-452.0
 20
4.2
 30
0.0
 40
4.200000000000102
100
AcDbArc
 50
270.0
 51
0.0
  0
ARC
  5
121
330
1B
100
AcDbEntity
 67
     1
  8
0
  6
Continuous
 62
     7
370
    25
100
AcDbCircle
 10
793.0
 20
383.0
 30
0.0
 40
6.999999999999773
100
AcDbArc
 50
360.0
 51
90.0
  0
ARC
  5
122
330
1B
100
AcDbEntity
 67
     1
  8
0
  6
Continuous
 62
     7
370
    25
100
AcDbCircle
 10
-793.0
 20
383.0
 30
0.0
 40
6.999999999999773
100
AcDbArc
 50
90.0
 51
180.0
  0
VIEWPORT
  5
168
330
1B
100
AcDbEntity
 67
     1
  8
0
100
AcDbViewport
 10
0.0
 20
0.0
 30
0.0
 40
205.6
 41
156.0
 68
     1
 69
     1
 12
0.0
 22
0.0
 13
0.0
 23
0.0
 14
10.0
 24
10.0
 15
10.0
 25
10.0
 16
0.0
 26
0.0
 36
1.0
 17
0.0
 27
0.0
 37
0.0
 42
50.0
 43
0.0
 44
0.0
 45
1238.2879377432
 50
0.0
 51
0.0
 72
   100
 90
   557152
  1

281
     0
 71
     1
 74
     0
110
0.0
120
0.0
130
0.0
111
1.0
121
0.0
131
0.0
112
0.0
122
1.0
132
0.0
 79
     0
146
0.0
  0
ENDSEC
  0
SECTION
  2
OBJECTS
  0
DICTIONARY
  5
C
330
0
100
AcDbDictionary
281
     1
  3
ACAD_GROUP
350
D
  3
ACAD_LAYOUT
350
1A
  3
ACAD_MLINESTYLE
350
17
  3
ACAD_PLOTSETTINGS
350
19
  3
ACAD_PLOTSTYLENAME
350
E
  3
ACAD_SCALELIST
350
47
  0
DICTIONARY
  5
D
102
{ACAD_REACTORS
330
C
102
}
330
C
100
AcDbDictionary
281
     1
  0
DICTIONARY
  5
1A
102
{ACAD_REACTORS
330
C
102
}
330
C
100
AcDbDictionary
281
     1
  3
_Front
350
1E
  3
_Left
350
26
  3
Model
350
22
  0
DICTIONARY
  5
17
102
{ACAD_REACTORS
330
C
102
}
330
C
100
AcDbDictionary
281
     1
  3
Standard
350
18
  0
DICTIONARY
  5
19
102
{ACAD_REACTORS
330
C
102
}
330
C
100
AcDbDictionary
281
     1
  0
ACDBDICTIONARYWDFLT
  5
E
102
{ACAD_REACTORS
330
C
102
}
330
C
100
AcDbDictionary
281
     1
  3
Normal
350
F
100
AcDbDictionaryWithDefault
340
F
  0
DICTIONARY
  5
47
102
{ACAD_REACTORS
330
C
102
}
330
C
100
AcDbDictionary
281
     1
  3
A0
350
48
  3
A1
350
49
  3
A2
350
4A
  3
A3
350
4B
  3
A4
350
4C
  3
A5
350
4D
  3
A6
350
4E
  3
A7
350
4F
  3
A8
350
50
  3
A9
350
51
  3
B0
350
52
  3
B1
350
53
  3
B2
350
54
  3
B3
350
55
  3
B4
350
56
  3
B5
350
57
  3
B6
350
58
  3
B7
350
59
  3
B8
350
5A
  3
B9
350
5B
  3
C0
350
5C
  3
C1
350
5D
  3
C2
350
5E
  3
C3
350
5F
  3
C4
350
60
  3
C5
350
61
  3
C6
350
62
  3
C7
350
63
  3
C8
350
64
  3
C9
350
65
  3
D0
350
66
  3
D1
350
67
  3
D2
350
68
  0
LAYOUT
  5
1E
102
{ACAD_REACTORS
330
1A
102
}
330
1A
100
AcDbPlotSettings
  1

  2
none_device
  4
ISO_A4_(210.00_x_297.00_MM)
  6

 40
7.5
 41
20.0
 42
7.5
 43
20.0
 44
210.0
 45
297.0
 46
0.0
 47
0.0
 48
0.0
 49
0.0
140
0.0
141
0.0
142
1.0
143
6.2256809339
 70
   688
 72
     1
 73
     1
 74
     1
  7

 75
     0
147
0.160625
148
800.0
149
0.0
100
AcDbLayout
  1
_Front
 70
     1
 71
     1
 10
-924.513618677
 20
-46.6926070039
 11
924.513618677
 21
1260.7003891051
 12
0.0
 22
0.0
 32
0.0
 14
-800.0
 24
0.0
 34
0.0
 15
800.0
 25
390.0
 35
0.0
146
0.0
 13
0.0
 23
0.0
 33
0.0
 16
1.0
 26
0.0
 36
0.0
 17
0.0
 27
1.0
 37
0.0
 76
     0
330
1B
331
168
  0
LAYOUT
  5
26
102
{ACAD_REACTORS
330
1A
102
}
330
1A
100
AcDbPlotSettings
  1

  2
none_device
  4
ISO_A4_(210.00_x_297.00_MM)
  6

 40
7.5
 41
20.0
 42
7.5
 43
20.0
 44
210.0
 45
297.0
 46
0.0
 47
0.0
 48
0.0
 49
0.0
140
0.0
141
0.0
142
1.0
143
6.2256809339
 70
   688
 72
     1
 73
     1
 74
     1
  7

 75
     0
147
0.160625
148
800.0
149
0.0
100
AcDbLayout
  1
_Left
 70
     1
 71
     2
 10
0.0
 20
0.0
 11
0.0
 21
0.0
 12
0.0
 22
0.0
 32
0.0
 14
0.0
 24
0.0
 34
0.0
 15
0.0
 25
0.0
 35
0.0
146
0.0
 13
0.0
 23
0.0
 33
0.0
 16
1.0
 26
0.0
 36
0.0
 17
0.0
 27
1.0
 37
0.0
 76
     0
330
23
331
16A
  0
LAYOUT
  5
22
102
{ACAD_REACTORS
330
1A
102
}
330
1A
100
AcDbPlotSettings
  1

  2
none_device
  4
ANSI_A_(11.00_x_8.50_Inches)
  6

 40
6.35
 41
19.05
 42
6.35000508
 43
19.05000254
 44
279.4
 45
215.9
 46
133.34999746
 47
88.89999873
 48
0.0
 49
0.0
140
0.0
141
0.0
142
0.00680625
143
1.0
 70
  1696
 72
     0
 73
     0
 74
     0
  7

 75
     0
147
0.0179189148
148
-1300.4909072572
149
0.0
100
AcDbLayout
  1
Model
 70
     1
 71
     0
 10
0.0
 20
0.0
 11
420.0
 21
297.0
 12
0.0
 22
0.0
 32
0.0
 14
-800.0
 24
-350.0
 34
0.0
 15
800.0
 25
350.0
 35
0.0
146
0.0
 13
0.0
 23
0.0
 33
0.0
 16
1.0
 26
0.0
 36
0.0
 17
0.0
 27
1.0
 37
0.0
 76
     0
330
1F
331
29
  0
MLINESTYLE
  5
18
102
{ACAD_REACTORS
330
17
102
}
330
17
100
AcDbMlineStyle
  2
Standard
 70
     0
  3

 62
   256
 51
90.0
 52
90.0
 71
     2
 49
0.5
 62
   256
  6
BYLAYER
 49
-0.5
 62
   256
  6
BYLAYER
  0
ACDBPLACEHOLDER
  5
F
102
{ACAD_REACTORS
330
E
102
}
330
E
  0
SCALE
  5
48
102
{ACAD_REACTORS
330
47
102
}
330
47
100
AcDbScale
 70
     0
300
1:1
140
1.0
141
1.0
290
     1
  0
SCALE
  5
49
102
{ACAD_REACTORS
330
47
102
}
330
47
100
AcDbScale
 70
     0
300
1:2
140
1.0
141
2.0
290
     0
  0
SCALE
  5
4A
102
{ACAD_REACTORS
330
47
102
}
330
47
100
AcDbScale
 70
     0
300
1:4
140
1.0
141
4.0
290
     0
  0
SCALE
  5
4B
102
{ACAD_REACTORS
330
47
102
}
330
47
100
AcDbScale
 70
     0
300
1:5
140
1.0
141
5.0
290
     0
  0
SCALE
  5
4C
102
{ACAD_REACTORS
330
47
102
}
330
47
100
AcDbScale
 70
     0
300
1:8
140
1.0
141
8.0
290
     0
  0
SCALE
  5
4D
102
{ACAD_REACTORS
330
47
102
}
330
47
100
AcDbScale
 70
     0
300
1:10
140
1.0
141
10.0
290
     0
  0
SCALE
  5
4E
102
{ACAD_REACTORS
330
47
102
}
330
47
100
AcDbScale
 70
     0
300
1:16
140
1.0
141
16.0
290
     0
  0
SCALE
  5
4F
102
{ACAD_REACTORS
330
47
102
}
330
47
100
AcDbScale
 70
     0
300
1:20
140
1.0
141
20.0
290
     0
  0
SCALE
  5
50
102
{ACAD_REACTORS
330
47
102
}
330
47
100
AcDbScale
 70
     0
300
1:30
140
1.0
141
30.0
290
     0
  0
SCALE
  5
51
102
{ACAD_REACTORS
330
47
102
}
330
47
100
AcDbScale
 70
     0
300
1:40
140
1.0
141
40.0
290
     0
  0
SCALE
  5
52
102
{ACAD_REACTORS
330
47
102
}
330
47
100
AcDbScale
 70
     0
300
1:50
140
1.0
141
50.0
290
     0
  0
SCALE
  5
53
102
{ACAD_REACTORS
330
47
102
}
330
47
100
AcDbScale
 70
     0
300
1:100
140
1.0
141
100.0
290
     0
  0
SCALE
  5
54
102
{ACAD_REACTORS
330
47
102
}
330
47
100
AcDbScale
 70
     0
300
2:1
140
2.0
141
1.0
290
     0
  0
SCALE
  5
55
102
{ACAD_REACTORS
330
47
102
}
330
47
100
AcDbScale
 70
     0
300
4:1
140
4.0
141
1.0
290
     0
  0
SCALE
  5
56
102
{ACAD_REACTORS
330
47
102
}
330
47
100
AcDbScale
 70
     0
300
8:1
140
8.0
141
1.0
290
     0
  0
SCALE
  5
57
102
{ACAD_REACTORS
330
47
102
}
330
47
100
AcDbScale
 70
     0
300
10:1
140
10.0
141
1.0
290
     0
  0
SCALE
  5
58
102
{ACAD_REACTORS
330
47
102
}
330
47
100
AcDbScale
 70
     0
300
100:1
140
100.0
141
1.0
290
     0
  0
SCALE
  5
59
102
{ACAD_REACTORS
330
47
102
}
330
47
100
AcDbScale
 70
     0
300
1/128" = 1'-0"
140
0.0078125
141
12.0
290
     0
  0
SCALE
  5
5A
102
{ACAD_REACTORS
330
47
102
}
330
47
100
AcDbScale
 70
     0
300
1/64" = 1'-0"
140
0.015625
141
12.0
290
     0
  0
SCALE
  5
5B
102
{ACAD_REACTORS
330
47
102
}
330
47
100
AcDbScale
 70
     0
300
1/32" = 1'-0"
140
0.03125
141
12.0
290
     0
  0
SCALE
  5
5C
102
{ACAD_REACTORS
330
47
102
}
330
47
100
AcDbScale
 70
     0
300
1/16" = 1'-0"
140
0.0625
141
12.0
290
     0
  0
SCALE
  5
5D
102
{ACAD_REACTORS
330
47
102
}
330
47
100
AcDbScale
 70
     0
300
3/32" = 1'-0"
140
0.09375
141
12.0
290
     0
  0
SCALE
  5
5E
102
{ACAD_REACTORS
330
47
102
}
330
47
100
AcDbScale
 70
     0
300
1/8" = 1'-0"
140
0.125
141
12.0
290
     0
  0
SCALE
  5
5F
102
{ACAD_REACTORS
330
47
102
}
330
47
100
AcDbScale
 70
     0
300
3/16" = 1'-0"
140
0.1875
141
12.0
290
     0
  0
SCALE
  5
60
102
{ACAD_REACTORS
330
47
102
}
330
47
100
AcDbScale
 70
     0
300
1/4" = 1'-0"
140
0.25
141
12.0
290
     0
  0
SCALE
  5
61
102
{ACAD_REACTORS
330
47
102
}
330
47
100
AcDbScale
 70
     0
300
3/8" = 1'-0"
140
0.375
141
12.0
290
     0
  0
SCALE
  5
62
102
{ACAD_REACTORS
330
47
102
}
330
47
100
AcDbScale
 70
     0
300
1/2" = 1'-0"
140
0.5
141
12.0
290
     0
  0
SCALE
  5
63
102
{ACAD_REACTORS
330
47
102
}
330
47
100
AcDbScale
 70
     0
300
3/4" = 1'-0"
140
0.75
141
12.0
290
     0
  0
SCALE
  5
64
102
{ACAD_REACTORS
330
47
102
}
330
47
100
AcDbScale
 70
     0
300
1" = 1'-0"
140
1.0
141
12.0
290
     0
  0
SCALE
  5
65
102
{ACAD_REACTORS
330
47
102
}
330
47
100
AcDbScale
 70
     0
300
1-1/2" = 1'-0"
140
1.5
141
12.0
290
     0
  0
SCALE
  5
66
102
{ACAD_REACTORS
330
47
102
}
330
47
100
AcDbScale
 70
     0
300
3" = 1'-0"
140
3.0
141
12.0
290
     0
  0
SCALE
  5
67
102
{ACAD_REACTORS
330
47
102
}
330
47
100
AcDbScale
 70
     0
300
6" = 1'-0"
140
6.0
141
12.0
290
     0
  0
SCALE
  5
68
102
{ACAD_REACTORS
330
47
102
}
330
47
100
AcDbScale
 70
     0
300
1'-0" = 1'-0"
140
12.0
141
12.0
290
     0
  0
ENDSEC
  0
EOF
