  0
SECTION
  2
HEADER
  9
$ACADVER
  1
AC1015
  9
$ACADMAINTVER
 70
     6
  9
$DWGCODEPAGE
  3
ANSI_1252
  9
$INSBASE
 10
0.0
 20
0.0
 30
0.0
  9
$EXTMIN
 10
-47.2099541959
 20
-44.25
 30
0.0
  9
$EXTMAX
 10
30.0715011807
 20
44.25
 30
0.0
  9
$LIMMIN
 10
0.0
 20
0.0
  9
$LIMMAX
 10
420.0
 20
297.0
  9
$ORTHOMODE
 70
     0
  9
$REGENMODE
 70
     1
  9
$FILLMODE
 70
     1
  9
$QTEXTMODE
 70
     0
  9
$MIRRTEXT
 70
     1
  9
$LTSCALE
 40
1.0
  9
$ATTMODE
 70
     1
  9
$TEXTSIZE
 40
3.5
  9
$TRACEWID
 40
1.0
  9
$TEXTSTYLE
  7
Standard
  9
$CLAYER
  8
0
  9
$CELTYPE
  6
ByLayer
  9
$CECOLOR
 62
   256
  9
$CELTSCALE
 40
1.0
  9
$DISPSILH
 70
     0
  9
$DIMSCALE
 40
1.0
  9
$DIMASZ
 40
3.302
  9
$DIMEXO
 40
1.0
  9
$DIMDLI
 40
3.75
  9
$DIMRND
 40
0.0
  9
$DIMDLE
 40
0.0
  9
$DIMEXE
 40
1.0
  9
$DIMTP
 40
0.0
  9
$DIMTM
 40
0.0
  9
$DIMTXT
 40
3.5
  9
$DIMCEN
 40
2.5
  9
$DIMTSZ
 40
0.0
  9
$DIMTOL
 70
     0
  9
$DIMLIM
 70
     0
  9
$DIMTIH
 70
     1
  9
$DIMTOH
 70
     1
  9
$DIMSE1
 70
     0
  9
$DIMSE2
 70
     0
  9
$DIMTAD
 70
     1
  9
$DIMZIN
 70
     1
  9
$DIMBLK
  1

  9
$DIMASO
 70
     1
  9
$DIMSHO
 70
     1
  9
$DIMPOST
  1

  9
$DIMAPOST
  1

  9
$DIMALT
 70
     0
  9
$DIMALTD
 70
     3
  9
$DIMALTF
 40
0.0393700787
  9
$DIMLFAC
 40
1.0
  9
$DIMTOFL
 70
     1
  9
$DIMTVP
 40
0.0
  9
$DIMTIX
 70
     0
  9
$DIMSOXD
 70
     0
  9
$DIMSAH
 70
     0
  9
$DIMBLK1
  1

  9
$DIMBLK2
  1

  9
$DIMSTYLE
  2
ISO-25
  9
$DIMCLRD
 70
     0
  9
$DIMCLRE
 70
     0
  9
$DIMCLRT
 70
     0
  9
$DIMTFAC
 40
1.0
  9
$DIMGAP
 40
1.524
  9
$DIMJUST
 70
     0
  9
$DIMSD1
 70
     0
  9
$DIMSD2
 70
     0
  9
$DIMTOLJ
 70
     0
  9
$DIMTZIN
 70
     1
  9
$DIMALTZ
 70
     0
  9
$DIMALTTZ
 70
     0
  9
$DIMUPT
 70
     0
  9
$DIMDEC
 70
     2
  9
$DIMTDEC
 70
     2
  9
$DIMALTU
 70
     2
  9
$DIMALTTD
 70
     3
  9
$DIMTXSTY
  7
Standard
  9
$DIMAUNIT
 70
     0
  9
$DIMADEC
 70
     2
  9
$DIMALTRND
 40
0.0
  9
$DIMAZIN
 70
     0
  9
$DIMDSEP
 70
    44
  9
$DIMATFIT
 70
     3
  9
$DIMFRAC
 70
     0
  9
$DIMLDRBLK
  1

  9
$DIMLUNIT
 70
     2
  9
$DIMLWD
 70
    -2
  9
$DIMLWE
 70
    -2
  9
$DIMTMOVE
 70
     0
  9
$LUNITS
 70
     2
  9
$LUPREC
 70
     2
  9
$SKETCHINC
 40
1.0
  9
$FILLETRAD
 40
10.0
  9
$AUNITS
 70
     0
  9
$AUPREC
 70
     2
  9
$MENU
  1
.
  9
$ELEVATION
 40
0.0
  9
$PELEVATION
 40
0.0
  9
$THICKNESS
 40
0.0
  9
$LIMCHECK
 70
     0
  9
$CHAMFERA
 40
0.0
  9
$CHAMFERB
 40
0.0
  9
$CHAMFERC
 40
0.0
  9
$CHAMFERD
 40
0.0
  9
$SKPOLY
 70
     0
  9
$TDCREATE
 40
2458719.61406375
  9
$TDUCREATE
 40
2458719.572397084
  9
$TDUPDATE
 40
2458719.614165845
  9
$TDUUPDATE
 40
2458719.572499178
  9
$TDINDWG
 40
0.0000000116
  9
$TDUSRTIMER
 40
0.0000000116
  9
$USRTIMER
 70
     1
  9
$ANGBASE
 50
0.0
  9
$ANGDIR
 70
     0
  9
$PDMODE
 70
     0
  9
$PDSIZE
 40
-1.0
  9
$PLINEWID
 40
0.0
  9
$SPLFRAME
 70
     0
  9
$SPLINETYPE
 70
     6
  9
$SPLINESEGS
 70
     8
  9
$HANDSEED
  5
1D1
  9
$SURFTAB1
 70
     6
  9
$SURFTAB2
 70
     6
  9
$SURFTYPE
 70
     6
  9
$SURFU
 70
     6
  9
$SURFV
 70
     6
  9
$UCSBASE
  2

  9
$UCSNAME
  2

  9
$UCSORG
 10
0.0
 20
0.0
 30
0.0
  9
$UCSXDIR
 10
1.0
 20
0.0
 30
0.0
  9
$UCSYDIR
 10
0.0
 20
1.0
 30
0.0
  9
$UCSORTHOREF
  2

  9
$UCSORTHOVIEW
 70
     0
  9
$UCSORGTOP
 10
0.0
 20
0.0
 30
0.0
  9
$UCSORGBOTTOM
 10
0.0
 20
0.0
 30
0.0
  9
$UCSORGLEFT
 10
0.0
 20
0.0
 30
0.0
  9
$UCSORGRIGHT
 10
0.0
 20
0.0
 30
0.0
  9
$UCSORGFRONT
 10
0.0
 20
0.0
 30
0.0
  9
$UCSORGBACK
 10
0.0
 20
0.0
 30
0.0
  9
$PUCSBASE
  2

  9
$PUCSNAME
  2

  9
$PUCSORG
 10
0.0
 20
0.0
 30
0.0
  9
$PUCSXDIR
 10
1.0
 20
0.0
 30
0.0
  9
$PUCSYDIR
 10
0.0
 20
1.0
 30
0.0
  9
$PUCSORTHOREF
  2

  9
$PUCSORTHOVIEW
 70
     0
  9
$PUCSORGTOP
 10
0.0
 20
0.0
 30
0.0
  9
$PUCSORGBOTTOM
 10
0.0
 20
0.0
 30
0.0
  9
$PUCSORGLEFT
 10
0.0
 20
0.0
 30
0.0
  9
$PUCSORGRIGHT
 10
0.0
 20
0.0
 30
0.0
  9
$PUCSORGFRONT
 10
0.0
 20
0.0
 30
0.0
  9
$PUCSORGBACK
 10
0.0
 20
0.0
 30
0.0
  9
$USERI1
 70
     0
  9
$USERI2
 70
     0
  9
$USERI3
 70
     0
  9
$USERI4
 70
     0
  9
$USERI5
 70
     0
  9
$USERR1
 40
0.0
  9
$USERR2
 40
0.0
  9
$USERR3
 40
0.0
  9
$USERR4
 40
0.0
  9
$USERR5
 40
0.0
  9
$WORLDVIEW
 70
     1
  9
$SHADEDGE
 70
     3
  9
$SHADEDIF
 70
    70
  9
$TILEMODE
 70
     0
  9
$MAXACTVP
 70
    64
  9
$PINSBASE
 10
0.0
 20
0.0
 30
0.0
  9
$PLIMCHECK
 70
     0
  9
$PEXTMIN
 10
-47.2099541959
 20
-44.25
 30
0.0
  9
$PEXTMAX
 10
30.0715011807
 20
44.25
 30
0.0
  9
$PLIMMIN
 10
0.0
 20
0.0
  9
$PLIMMAX
 10
0.0
 20
0.0
  9
$UNITMODE
 70
     0
  9
$VISRETAIN
 70
     1
  9
$PLINEGEN
 70
     0
  9
$PSLTSCALE
 70
     1
  9
$TREEDEPTH
 70
  3020
  9
$CMLSTYLE
  2
Standard
  9
$CMLJUST
 70
     0
  9
$CMLSCALE
 40
20.0
  9
$PROXYGRAPHICS
 70
     1
  9
$MEASUREMENT
 70
     1
  9
$CELWEIGHT
370
    -1
  9
$ENDCAPS
280
     0
  9
$JOINSTYLE
280
     0
  9
$LWDISPLAY
290
     1
  9
$INSUNITS
 70
     4
  9
$HYPERLINKBASE
  1

  9
$STYLESHEET
  1

  9
$XEDIT
290
     1
  9
$CEPSNTYPE
380
     0
  9
$PSTYLEMODE
290
     1
  9
$FINGERPRINTGUID
  2
{d71639f8-d73e-4438-be0a-bb13bc740cf5}
  9
$VERSIONGUID
  2
{FAEB1C32-E019-11D5-929B-00C0DF256EC4}
  9
$EXTNAMES
290
     1
  9
$PSVPSCALE
 40
0.0
  9
$OLESTARTUP
290
     0
  0
ENDSEC
  0
SECTION
  2
CLASSES
  0
CLASS
  1
ACDBDICTIONARYWDFLT
  2
AcDbDictionaryWithDefault
  3
ObjectDBX Classes
 90
        0
280
     0
281
     0
  0
CLASS
  1
VISUALSTYLE
  2
AcDbVisualStyle
  3
ObjectDBX Classes
 90
     4095
280
     0
281
     0
  0
CLASS
  1
MATERIAL
  2
AcDbMaterial
  3
ObjectDBX Classes
 90
     1153
280
     0
281
     0
  0
CLASS
  1
SCALE
  2
AcDbScale
  3
ObjectDBX Classes
 90
     1153
280
     0
281
     0
  0
CLASS
  1
TABLESTYLE
  2
AcDbTableStyle
  3
ObjectDBX Classes
 90
     4095
280
     0
281
     0
  0
CLASS
  1
MLEADERSTYLE
  2
AcDbMLeaderStyle
  3
ACDB_MLEADERSTYLE_CLASS
 90
     4095
280
     0
281
     0
  0
CLASS
  1
SUN
  2
AcDbSun
  3
SCENEOE
 90
     1153
280
     0
281
     0
  0
CLASS
  1
ACDBPLACEHOLDER
  2
AcDbPlaceHolder
  3
ObjectDBX Classes
 90
        0
280
     0
281
     0
  0
CLASS
  1
LAYOUT
  2
AcDbLayout
  3
ObjectDBX Classes
 90
        0
280
     0
281
     0
  0
ENDSEC
  0
SECTION
  2
TABLES
  0
TABLE
  2
VPORT
  5
8
330
0
100
AcDbSymbolTable
 70
     1
  0
VPORT
  5
29
330
8
100
AcDbSymbolTableRecord
100
AcDbViewportTableRecord
  2
*Active
 70
     0
 10
0.0
 20
0.0
 11
1.0
 21
1.0
 12
-8.5692265076
 22
0.0
 13
0.0
 23
0.0
 14
10.0
 24
10.0
 15
10.0
 25
10.0
 16
0.0
 26
0.0
 36
1.0
 17
0.0
 27
0.0
 37
0.0
 40
90.27
 41
0.8732367839
 42
50.0
 43
0.0
 44
0.0
 50
0.0
 51
0.0
 71
     0
 72
   100
 73
     1
 74
     3
 75
     0
 76
     0
 77
     0
 78
     0
281
     0
 65
     1
110
0.0
120
0.0
130
0.0
111
1.0
121
0.0
131
0.0
112
0.0
122
1.0
132
0.0
 79
     0
146
0.0
  0
ENDTAB
  0
TABLE
  2
LTYPE
  5
5
330
0
100
AcDbSymbolTable
 70
     6
  0
LTYPE
  5
14
330
5
100
AcDbSymbolTableRecord
100
AcDbLinetypeTableRecord
  2
ByBlock
 70
     0
  3

 72
    65
 73
     0
 40
0.0
  0
LTYPE
  5
15
330
5
100
AcDbSymbolTableRecord
100
AcDbLinetypeTableRecord
  2
ByLayer
 70
     0
  3

 72
    65
 73
     0
 40
0.0
  0
LTYPE
  5
16
330
5
100
AcDbSymbolTableRecord
100
AcDbLinetypeTableRecord
  2
Continuous
 70
     0
  3
Solid line
 72
    65
 73
     0
 40
0.0
  0
LTYPE
  5
6E
330
5
100
AcDbSymbolTableRecord
100
AcDbLinetypeTableRecord
  2
HIDDEN
 70
     0
  3
Hidden __ __ __ __ __ __ __ __ __ __ __ __ __ __
 72
    65
 73
     2
 40
1.905
 49
1.27
 74
     0
 49
-0.635
 74
     0
  0
LTYPE
  5
6F
330
5
100
AcDbSymbolTableRecord
100
AcDbLinetypeTableRecord
  2
PHANTOM
 70
     0
  3
Phantom ______  __  __  ______  __  __  ______
 72
    65
 73
     6
 40
12.7
 49
6.35
 74
     0
 49
-1.27
 74
     0
 49
1.27
 74
     0
 49
-1.27
 74
     0
 49
1.27
 74
     0
 49
-1.27
 74
     0
  0
LTYPE
  5
70
330
5
100
AcDbSymbolTableRecord
100
AcDbLinetypeTableRecord
  2
CENTER
 70
     0
  3
Center ____ _ ____ _ ____ _ ____ _ ____ _ ____
 72
    65
 73
     4
 40
10.16
 49
6.35
 74
     0
 49
-1.27
 74
     0
 49
1.27
 74
     0
 49
-1.27
 74
     0
  0
LTYPE
  5
71
330
5
100
AcDbSymbolTableRecord
100
AcDbLinetypeTableRecord
  2
CENTERX2
 70
     0
  3
Center (2x) ________  __  ________  __  _____
 72
    65
 73
     4
 40
20.32
 49
12.7
 74
     0
 49
-2.54
 74
     0
 49
2.54
 74
     0
 49
-2.54
 74
     0
  0
LTYPE
  5
72
330
5
100
AcDbSymbolTableRecord
100
AcDbLinetypeTableRecord
  2
DOT2
 70
     0
  3
Dot (.5x) ........................................
 72
    65
 73
     2
 40
0.635
 49
0.0
 74
     0
 49
-0.635
 74
     0
  0
ENDTAB
  0
TABLE
  2
LAYER
  5
2
330
0
100
AcDbSymbolTable
 70
     1
  0
LAYER
  5
10
330
2
100
AcDbSymbolTableRecord
100
AcDbLayerTableRecord
  2
0
 70
     0
 62
     7
  6
Continuous
370
    -3
390
F
  0
ENDTAB
  0
TABLE
  2
STYLE
  5
3
330
0
100
AcDbSymbolTable
 70
     1
  0
STYLE
  5
11
330
3
100
AcDbSymbolTableRecord
100
AcDbTextStyleTableRecord
  2
Standard
 70
     0
 40
0.0
 41
1.0
 50
0.0
 71
     0
 42
3.5
  3
txt
  4

  0
ENDTAB
  0
TABLE
  2
VIEW
  5
6
330
0
100
AcDbSymbolTable
 70
     0
  0
ENDTAB
  0
TABLE
  2
UCS
  5
7
330
0
100
AcDbSymbolTable
 70
     0
  0
ENDTAB
  0
TABLE
  2
APPID
  5
9
330
0
100
AcDbSymbolTable
 70
     1
  0
APPID
  5
12
330
9
100
AcDbSymbolTableRecord
100
AcDbRegAppTableRecord
  2
ACAD
 70
     0
  0
ENDTAB
  0
TABLE
  2
DIMSTYLE
  5
A
330
0
100
AcDbSymbolTable
 70
     1
100
AcDbDimStyleTable
  0
DIMSTYLE
105
27
330
A
100
AcDbSymbolTableRecord
100
AcDbDimStyleTableRecord
  2
ISO-25
 70
     0
 41
2.5
 42
0.625
 43
3.75
 44
1.25
 73
     0
 74
     0
 77
     1
 78
     8
140
2.5
141
2.5
143
0.0393700787
147
0.625
171
     3
172
     1
178
     0
271
     2
272
     2
274
     3
278
    44
283
     0
284
     8
340
11
  0
ENDTAB
  0
TABLE
  2
BLOCK_RECORD
  5
1
330
0
100
AcDbSymbolTable
 70
     2
  0
BLOCK_RECORD
  5
1F
330
1
100
AcDbSymbolTableRecord
100
AcDbBlockTableRecord
  2
*Model_Space
340
22
  0
BLOCK_RECORD
  5
142
330
1
100
AcDbSymbolTableRecord
100
AcDbBlockTableRecord
  2
*Paper_Space
340
143
  0
BLOCK_RECORD
  5
1B
330
1
100
AcDbSymbolTableRecord
100
AcDbBlockTableRecord
  2
*Paper_Space0
340
1E
  0
BLOCK_RECORD
  5
23
330
1
100
AcDbSymbolTableRecord
100
AcDbBlockTableRecord
  2
*Paper_Space1
340
26
  0
ENDTAB
  0
ENDSEC
  0
SECTION
  2
BLOCKS
  0
BLOCK
  5
20
330
1F
100
AcDbEntity
  8
0
100
AcDbBlockBegin
  2
*Model_Space
 70
     0
 10
0.0
 20
0.0
 30
0.0
  3
*Model_Space
  1

  0
ENDBLK
  5
21
330
1F
100
AcDbEntity
  8
0
100
AcDbBlockEnd
  0
BLOCK
  5
144
330
142
100
AcDbEntity
 67
     1
  8
0
100
AcDbBlockBegin
  2
*Paper_Space
 70
     0
 10
0.0
 20
0.0
 30
0.0
  3
*Paper_Space
  1

  0
ENDBLK
  5
145
330
142
100
AcDbEntity
 67
     1
  8
0
100
AcDbBlockEnd
  0
BLOCK
  5
1C
330
1B
100
AcDbEntity
  8
0
100
AcDbBlockBegin
  2
*Paper_Space0
 70
     0
 10
0.0
 20
0.0
 30
0.0
  3
*Paper_Space0
  1

  0
SPLINE
  5
C8
330
1B
100
AcDbEntity
  8
0
  6
Continuous
 62
     7
370
    25
100
AcDbSpline
210
0.0
220
0.0
230
1.0
 70
    24
 71
     3
 72
    22
 73
    18
 74
     0
 42
0.000000001
 43
0.00000001
 40
0.0
 40
0.0
 40
0.0
 40
0.0
 40
0.125
 40
0.125
 40
0.25
 40
0.25
 40
0.375
 40
0.375
 40
0.5
 40
0.5
 40
0.625
 40
0.625
 40
0.75
 40
0.75
 40
0.875
 40
0.875
 40
1.0
 40
1.0
 40
1.0
 40
1.0
 10
-46.1367703284387
 20
99.59217435514265
 30
0.0
 10
-46.20678566690098
 20
99.80999985258082
 30
0.0
 10
-46.2777732857803
 20
100.0308502224276
 30
0.0
 10
-46.41488295502455
 20
100.4574136378542
 30
0.0
 10
-46.48173340490298
 20
100.6653928152537
 30
0.0
 10
-46.61194446984951
 20
101.0704939061985
 30
0.0
 10
-46.67432964485356
 20
101.2645811173222
 30
0.0
 10
-46.79048244171422
 20
101.625945374222
 30
0.0
 10
-46.8451119050127
 20
101.795903704484
 30
0.0
 10
-46.94503020651941
 20
102.1067606425049
 30
0.0
 10
-46.98940290961431
 20
102.2448090521334
 30
0.0
 10
-47.06727927889235
 20
102.4870910898873
 30
0.0
 10
-47.10102426418763
 20
102.5920754885837
 30
0.0
 10
-47.15484964125604
 20
102.759532217241
 30
0.0
 10
-47.17522581488763
 20
102.8229247574281
 30
0.0
 10
-47.20284778720738
 20
102.908859782423
 30
0.0
 10
-47.20995419586963
 20
102.9309686093722
 30
0.0
 10
-47.20995419586963
 20
102.9309686093722
 30
0.0
  0
LWPOLYLINE
  5
CE
330
1B
100
AcDbEntity
  8
0
  6
Continuous
 62
     7
370
    25
100
AcDbPolyline
 90
       10
 70
   128
 43
0.0
 10
16.25
 20
0.0
 10
16.7722492358
 20
0.0759612349
 10
17.2786301928
 20
0.3015368961
 10
17.7537567419
 20
0.6698729811
 10
18.1831924034
 20
1.1697777844
 10
18.5538889919
 20
1.7860619516
 10
18.8545830792
 20
2.5
 10
19.0761382277
 20
3.2898992834
 10
19.2118225962
 20
4.1317591117
 10
19.2575134838
 20
5.0
  0
LWPOLYLINE
  5
D6
330
1B
100
AcDbEntity
  8
0
  6
Continuous
 62
     7
370
    25
100
AcDbPolyline
 90
        3
 70
   128
 43
0.0
 10
-19.3877495499
 20
103.1022887912
 10
-19.8379865928
 20
102.8605276499
 10
-21.5933601742
 20
101.9434478106
  0
LINE
  5
DB
330
1B
100
AcDbEntity
  8
0
  6
Continuous
 62
     7
370
    25
100
AcDbLine
 10
0.183067457
 20
0.0
 30
0.0
 11
0.2175566909
 21
-0.0200522026
 31
0.0
  0
LINE
  5
DC
330
1B
100
AcDbEntity
  8
0
  6
Continuous
 62
     7
370
    25
100
AcDbLine
 10
24.3094996064
 20
171.9182805471
 30
0.0
 11
30.0715011807
 21
170.2451583587
 31
0.0
  0
LINE
  5
DD
330
1B
100
AcDbEntity
  8
0
  6
Continuous
 62
     7
370
    25
100
AcDbLine
 10
-45.3702977919
 20
97.2075931303
 30
0.0
 11
-46.1367703284
 21
99.5921743551
 31
0.0
  0
LINE
  5
DE
330
1B
100
AcDbEntity
  8
0
  6
Continuous
 62
     7
370
    25
100
AcDbLine
 10
-4.0326086957
 20
5.0
 30
0.0
 11
21.25
 21
5.0
 31
0.0
  0
LINE
  5
DF
330
1B
100
AcDbEntity
  8
0
  6
Continuous
 62
     7
370
    25
100
AcDbLine
 10
-20.0453856944
 20
107.3038530473
 30
0.0
 11
-3.25
 21
0.0
 31
0.0
  0
LINE
  5
E0
330
1B
100
AcDbEntity
  8
0
  6
Continuous
 62
     7
370
    25
100
AcDbLine
 10
16.25
 20
0.0
 30
0.0
 11
-3.25
 21
0.0
 31
0.0
  0
LINE
  5
E1
330
1B
100
AcDbEntity
  8
0
  6
Continuous
 62
     7
370
    25
100
AcDbLine
 10
21.25
 20
148.9007070258
 30
0.0
 11
21.25
 21
5.0
 31
0.0
  0
LINE
  5
E2
330
1B
100
AcDbEntity
  8
0
  6
Continuous
 62
     7
370
    25
100
AcDbLine
 10
-29.8024845052
 20
102.5047336428
 30
0.0
 11
-27.4180317201
 21
100.9504682555
 31
0.0
  0
LINE
  5
E3
330
1B
100
AcDbEntity
  8
0
  6
Continuous
 62
     7
370
    25
100
AcDbLine
 10
-26.5989304926
 20
102.2070800408
 30
0.0
 11
-28.1619940481
 21
103.2259366932
 31
0.0
  0
LINE
  5
E4
330
1B
100
AcDbEntity
  8
0
  6
Continuous
 62
     7
370
    25
100
AcDbLine
 10
-20.9107903062
 20
100.6077463562
 30
0.0
 11
-19.1419266885
 21
101.5317538431
 31
0.0
  0
LINE
  5
E5
330
1B
100
AcDbEntity
  8
0
  6
Continuous
 62
     8
370
    25
100
AcDbLine
 10
19.2575134838
 20
5.0
 30
0.0
 11
19.2575134838
 21
145.4220680641
 31
0.0
  0
ARC
  5
E6
330
1B
100
AcDbEntity
  8
0
  6
Continuous
 62
     7
370
    25
100
AcDbCircle
 10
-71.5806023006
 20
199.7620523827
 30
0.0
 40
99.85082510307939
100
AcDbArc
 50
284.126914149
 51
343.8081982554
  0
ARC
  5
E7
330
1B
100
AcDbEntity
  8
0
  6
Continuous
 62
     7
370
    25
100
AcDbCircle
 10
-71.5806023006
 20
199.7620523827
 30
0.0
 40
103.3508251030803
100
AcDbArc
 50
284.2521083514
 51
343.8081982554
  0
ARC
  5
E8
330
1B
100
AcDbEntity
  8
0
  6
Continuous
 62
     7
370
    25
100
AcDbCircle
 10
-71.5806023006
 20
199.7620523827
 30
0.0
 40
105.8508251030806
100
AcDbArc
 50
284.3364542369
 51
343.8081982554
  0
ARC
  5
E9
330
1B
100
AcDbEntity
  8
0
  6
Continuous
 62
     7
370
    25
100
AcDbCircle
 10
16.25
 20
5.0
 30
0.0
 40
5.000000000000007
100
AcDbArc
 50
270.0
 51
0.0
  0
ARC
  5
EA
330
1B
100
AcDbEntity
  8
0
  6
Continuous
 62
     7
370
    25
100
AcDbCircle
 10
-23.8685930675
 20
106.395785992
 30
0.0
 40
6.499999999999958
100
AcDbArc
 50
236.902357955
 51
297.0679312216
  0
ARC
  5
EB
330
1B
100
AcDbEntity
  8
0
  6
Continuous
 62
     7
370
    25
100
AcDbCircle
 10
-23.8685930675
 20
106.395785992
 30
0.0
 40
5.000000000000019
100
AcDbArc
 50
236.902357955
 51
297.0679312216
  0
VIEWPORT
  5
1CB
330
1B
100
AcDbEntity
  8
0
100
AcDbViewport
 10
0.0
 20
0.0
 30
0.0
 40
205.6
 41
156.0
 68
     1
 69
     1
 12
-8.5692265076
 22
0.0
 13
0.0
 23
0.0
 14
10.0
 24
10.0
 15
10.0
 25
10.0
 16
0.0
 26
0.0
 36
1.0
 17
0.0
 27
0.0
 37
0.0
 42
50.0
 43
0.0
 44
0.0
 45
90.27
 50
0.0
 51
0.0
 72
   100
 90
   557152
  1

281
     0
 71
     1
 74
     0
110
0.0
120
0.0
130
0.0
111
1.0
121
0.0
131
0.0
112
0.0
122
1.0
132
0.0
 79
     0
146
0.0
  0
ENDBLK
  5
1D
330
1B
100
AcDbEntity
  8
0
100
AcDbBlockEnd
  0
BLOCK
  5
24
330
23
100
AcDbEntity
  8
0
100
AcDbBlockBegin
  2
*Paper_Space1
 70
     0
 10
0.0
 20
0.0
 30
0.0
  3
*Paper_Space1
  1

  0
LWPOLYLINE
  5
F1
330
23
100
AcDbEntity
  8
0
  6
Continuous
 62
     7
370
    25
100
AcDbPolyline
 90
        9
 70
   128
 43
0.0
 10
40.75
 20
171.5
 10
41.140180644
 20
171.4892838088
 10
41.5153668647
 20
171.4575470523
 10
41.861140466
 20
171.4060093563
 10
42.1642135624
 20
171.3366512856
 10
42.4129392246
 20
171.2521382319
 10
42.597759065
 20
171.1557179845
 10
42.7115705608
 20
171.0510959194
 10
42.75
 20
170.9422926039
  0
LWPOLYLINE
  5
F3
330
23
100
AcDbEntity
  8
0
  6
Continuous
 62
     7
370
    25
100
AcDbPolyline
 90
        9
 70
   128
 43
0.0
 10
-42.75
 20
170.9422926039
 10
-42.7115705608
 20
171.0510959194
 10
-42.597759065
 20
171.1557179845
 10
-42.4129392246
 20
171.2521382319
 10
-42.1642135624
 20
171.3366512856
 10
-41.861140466
 20
171.4060093563
 10
-41.5153668647
 20
171.4575470523
 10
-41.140180644
 20
171.4892838088
 10
-40.75
 20
171.5
  0
LWPOLYLINE
  5
F4
330
23
100
AcDbEntity
  8
0
  6
Continuous
 62
     7
370
    25
100
AcDbPolyline
 90
        9
 70
   128
 43
0.0
 10
-40.75
 20
171.9182805471
 10
-41.4328161271
 20
171.8995272124
 10
-42.0893920133
 20
171.8439878886
 10
-42.6944958156
 20
171.7537969206
 10
-43.2248737342
 20
171.6324202969
 10
-43.6601436431
 20
171.4845224529
 10
-43.9835783638
 20
171.3157870199
 10
-44.1827484814
 20
171.132698406
 10
-44.25
 20
170.9422926039
  0
LWPOLYLINE
  5
F6
330
23
100
AcDbEntity
  8
0
  6
Continuous
 62
     7
370
    25
100
AcDbPolyline
 90
        9
 70
   128
 43
0.0
 10
44.25
 20
170.9422926039
 10
44.1827484814
 20
171.132698406
 10
43.9835783638
 20
171.3157870199
 10
43.6601436431
 20
171.4845224529
 10
43.2248737342
 20
171.6324202969
 10
42.6944958156
 20
171.7537969206
 10
42.0893920133
 20
171.8439878886
 10
41.4328161271
 20
171.8995272124
 10
40.75
 20
171.9182805471
  0
SPLINE
  5
FF
330
23
100
AcDbEntity
  8
0
  6
Continuous
 62
     7
370
    25
100
AcDbSpline
210
0.0
220
0.0
230
1.0
 70
     8
 71
     3
 72
    10
 73
     6
 74
     0
 42
0.000000001
 43
0.00000001
 40
0.0
 40
0.0
 40
0.0
 40
0.0
 40
0.5
 40
0.5
 40
1.0
 40
1.0
 40
1.0
 40
1.0
 10
-40.74999999999999
 20
112.9616179566224
 30
0.0
 10
-40.95456438880272
 20
112.7978465882682
 30
0.0
 10
-41.14851985528425
 20
112.608604833541
 30
0.0
 10
-41.518655251427
 20
112.1874450015445
 30
0.0
 10
-41.69480058189614
 20
111.9554438569509
 30
0.0
 10
-41.86105319495666
 20
111.6996918235255
 30
0.0
  0
SPLINE
  5
100
330
23
100
AcDbEntity
  8
0
  6
Continuous
 62
     7
370
    25
100
AcDbSpline
210
0.0
220
0.0
230
1.0
 70
     8
 71
     3
 72
    18
 73
    14
 74
     0
 42
0.000000001
 43
0.00000001
 40
0.0
 40
0.0
 40
0.0
 40
0.0
 40
0.1249999999999988
 40
0.1249999999999988
 40
0.2499999999999977
 40
0.2499999999999977
 40
0.3749999999999965
 40
0.3749999999999965
 40
0.4999999999999953
 40
0.4999999999999953
 40
0.7499999999999977
 40
0.7499999999999977
 40
1.0
 40
1.0
 40
1.0
 40
1.0
 10
-40.74999999999999
 20
101.5
 30
0.0
 10
-40.88230446701998
 20
101.5
 30
0.0
 10
-41.01239111045584
 20
101.4875996155859
 30
0.0
 10
-41.26831085080044
 20
101.4390162463578
 30
0.0
 10
-41.39547728704616
 20
101.4022376790581
 30
0.0
 10
-41.63785386314734
 20
101.3062753289093
 30
0.0
 10
-41.75279480416607
 20
101.247559025443
 30
0.0
 10
-41.97029537719381
 20
101.1088509969276
 30
0.0
 10
-42.07320598763593
 20
101.0281578794504
 30
0.0
 10
-42.34981114634121
 20
100.7638503095555
 30
0.0
 10
-42.4986277529257
 20
100.5508821493264
 30
0.0
 10
-42.69769245910284
 20
100.0917697698223
 30
0.0
 10
-42.75000000000001
 20
99.84087764218833
 30
0.0
 10
-42.75000000000001
 20
99.59217435514265
 30
0.0
  0
SPLINE
  5
101
330
23
100
AcDbEntity
  8
0
  6
Continuous
 62
     7
370
    25
100
AcDbSpline
210
0.0
220
0.0
230
1.0
 70
     8
 71
     3
 72
    10
 73
     6
 74
     0
 42
0.000000001
 43
0.00000001
 40
0.0
 40
0.0
 40
0.0
 40
0.0
 40
0.5
 40
0.5
 40
1.0
 40
1.0
 40
1.0
 40
1.0
 10
41.86105319495667
 20
111.6996918235255
 30
0.0
 10
41.69480058189615
 20
111.9554438569509
 30
0.0
 10
41.51865525142701
 20
112.1874450015445
 30
0.0
 10
41.14851985528426
 20
112.608604833541
 30
0.0
 10
40.95456438880273
 20
112.7978465882683
 30
0.0
 10
40.74999999999999
 20
112.9616179566224
 30
0.0
  0
SPLINE
  5
103
330
23
100
AcDbEntity
  8
0
  6
Continuous
 62
     7
370
    25
100
AcDbSpline
210
0.0
220
0.0
230
1.0
 70
     8
 71
     3
 72
    22
 73
    18
 74
     0
 42
0.000000001
 43
0.00000001
 40
0.0
 40
0.0
 40
0.0
 40
0.0
 40
0.125
 40
0.125
 40
0.25
 40
0.25
 40
0.375
 40
0.375
 40
0.5
 40
0.5
 40
0.625
 40
0.625
 40
0.75
 40
0.75
 40
0.875
 40
0.875
 40
1.0
 40
1.0
 40
1.0
 40
1.0
 10
42.75000000000001
 20
99.59217435514269
 30
0.0
 10
42.75000000000001
 20
99.71642316161163
 30
0.0
 10
42.73698590939355
 20
99.84261580895071
 30
0.0
 10
42.68599014089219
 20
100.0868976496807
 30
0.0
 10
42.64828662387159
 20
100.2056601837888
 30
0.0
 10
42.54829816438712
 20
100.4363813810824
 30
0.0
 10
42.48577137594143
 20
100.5479984022714
 30
0.0
 10
42.34120530949994
 20
100.7546073491852
 30
0.0
 10
42.25866838925361
 20
100.8509337889448
 30
0.0
 10
42.07226061566754
 20
101.0290683786048
 30
0.0
 10
41.97109778869343
 20
101.1082197295699
 30
0.0
 10
41.75463509934063
 20
101.2465034924254
 30
0.0
 10
41.63783978846866
 20
101.3062823715116
 30
0.0
 10
41.39545128267246
 20
101.4022465044131
 30
0.0
 10
41.27076253477005
 20
101.4384023562364
 30
0.0
 10
41.01448089035529
 20
101.4873487544008
 30
0.0
 10
40.88219651984402
 20
101.5000000000001
 30
0.0
 10
40.75000000000001
 20
101.5000000000001
 30
0.0
  0
SPLINE
  5
104
330
23
100
AcDbEntity
  8
0
  6
Continuous
 62
     7
370
    25
100
AcDbSpline
210
0.0
220
0.0
230
1.0
 70
     8
 71
     3
 72
    18
 73
    14
 74
     0
 42
0.000000001
 43
0.00000001
 40
0.0
 40
0.0
 40
0.0
 40
0.0
 40
0.1250000000000002
 40
0.1250000000000002
 40
0.2500000000000005
 40
0.2500000000000005
 40
0.3750000000000008
 40
0.3750000000000008
 40
0.500000000000001
 40
0.500000000000001
 40
0.7500000000000004
 40
0.7500000000000004
 40
1.0
 40
1.0
 40
1.0
 40
1.0
 10
7.755871295896542
 20
159.0868876554755
 30
0.0
 10
8.032940611166056
 20
159.0868876554755
 30
0.0
 10
8.301800967691875
 20
159.0339269814275
 30
0.0
 10
8.812458158142697
 20
158.8455307003595
 30
0.0
 10
9.044728237015194
 20
158.7151650890535
 30
0.0
 10
9.478819598207394
 20
158.4070215357598
 30
0.0
 10
9.67487928152885
 20
158.2329630903668
 30
0.0
 10
10.03598342171514
 20
157.8630036602093
 30
0.0
 10
10.20168246940396
 20
157.6661932596095
 30
0.0
 10
10.66620007980895
 20
157.0502734174539
 30
0.0
 10
10.92482739176966
 20
156.6181246859633
 30
0.0
 10
11.38091388955326
 20
155.7316353300793
 30
0.0
 10
11.57750576613652
 20
155.2764801510967
 30
0.0
 10
11.75022514159457
 20
154.812898110178
 30
0.0
  0
SPLINE
  5
106
330
23
100
AcDbEntity
  8
0
  6
Continuous
 62
     7
370
    25
100
AcDbSpline
210
0.0
220
0.0
230
1.0
 70
     8
 71
     3
 72
    22
 73
    18
 74
     0
 42
0.000000001
 43
0.00000001
 40
0.0
 40
0.0
 40
0.0
 40
0.0
 40
0.2500000000000046
 40
0.2500000000000046
 40
0.5000000000000092
 40
0.5000000000000092
 40
0.6250000000000068
 40
0.6250000000000068
 40
0.7500000000000042
 40
0.7500000000000042
 40
0.8125000000000032
 40
0.8125000000000032
 40
0.8750000000000021
 40
0.8750000000000021
 40
0.9375000000000011
 40
0.9375000000000011
 40
1.0
 40
1.0
 40
1.0
 40
1.0
 10
-11.75022514159459
 20
154.8128981101779
 30
0.0
 10
-11.57753500598386
 20
155.2764016707985
 30
0.0
 10
-11.38095170767013
 20
155.7315664847293
 30
0.0
 10
-10.92474683689295
 20
156.6182765977574
 30
0.0
 10
-10.66537228135516
 20
157.0514600547437
 30
0.0
 10
-10.20143013762331
 20
157.6664832235644
 30
0.0
 10
-10.03555487236224
 20
157.8635876762191
 30
0.0
 10
-9.672455404688197
 20
158.2353003067636
 30
0.0
 10
-9.474569522406204
 20
158.4101696115821
 30
0.0
 10
-9.153546421099417
 20
158.6378534250815
 30
0.0
 10
-9.042163171042084
 20
158.7082713843457
 30
0.0
 10
-8.808484760873213
 20
158.8353899842867
 30
0.0
 10
-8.68493789328659
 20
158.892539840169
 30
0.0
 10
-8.430552843825376
 20
158.9864632867156
 30
0.0
 10
-8.30024444610955
 20
159.0232450820919
 30
0.0
 10
-8.032512747888
 20
159.0735246234067
 30
0.0
 10
-7.894209339111828
 20
159.0868876554755
 30
0.0
 10
-7.755871295896555
 20
159.0868876554755
 30
0.0
  0
CIRCLE
  5
10F
330
23
100
AcDbEntity
  8
0
  6
Continuous
 62
     7
370
    25
100
AcDbCircle
 10
0.0
 20
75.0
 30
0.0
 40
3.499999999999997
  0
CIRCLE
  5
110
330
23
100
AcDbEntity
  8
0
  6
Continuous
 62
     7
370
    25
100
AcDbCircle
 10
0.0
 20
50.0
 30
0.0
 40
3.49999999999999
  0
LINE
  5
123
330
23
100
AcDbEntity
  8
0
  6
Continuous
 62
     7
370
    25
100
AcDbLine
 10
-44.25
 20
170.2451583587
 30
0.0
 11
-42.75
 21
170.2451583587
 31
0.0
  0
LINE
  5
124
330
23
100
AcDbEntity
  8
0
  6
Continuous
 62
     7
370
    25
100
AcDbLine
 10
-42.75
 20
97.2075931303
 30
0.0
 11
-44.25
 21
97.2075931303
 31
0.0
  0
LINE
  5
125
330
23
100
AcDbEntity
  8
0
  6
Continuous
 62
     7
370
    25
100
AcDbLine
 10
-44.25
 20
97.2075931303
 30
0.0
 11
-44.25
 21
170.9422926039
 31
0.0
  0
LINE
  5
126
330
23
100
AcDbEntity
  8
0
  6
Continuous
 62
     7
370
    25
100
AcDbLine
 10
-42.75
 20
97.2075931303
 30
0.0
 11
-42.75
 21
170.9422926039
 31
0.0
  0
LINE
  5
127
330
23
100
AcDbEntity
  8
0
  6
Continuous
 62
     7
370
    25
100
AcDbLine
 10
42.75
 20
97.2075931303
 30
0.0
 11
42.75
 21
170.9422926039
 31
0.0
  0
LINE
  5
128
330
23
100
AcDbEntity
  8
0
  6
Continuous
 62
     7
370
    25
100
AcDbLine
 10
-40.75
 20
171.5
 30
0.0
 11
40.75
 21
171.5
 31
0.0
  0
LINE
  5
129
330
23
100
AcDbEntity
  8
0
  6
Continuous
 62
     7
370
    25
100
AcDbLine
 10
40.75
 20
171.9182805471
 30
0.0
 11
-40.75
 21
171.9182805471
 31
0.0
  0
LINE
  5
12A
330
23
100
AcDbEntity
  8
0
  6
Continuous
 62
     7
370
    25
100
AcDbLine
 10
44.25
 20
97.2075931303
 30
0.0
 11
44.25
 21
170.9422926039
 31
0.0
  0
LINE
  5
12B
330
23
100
AcDbEntity
  8
0
  6
Continuous
 62
     7
370
    25
100
AcDbLine
 10
42.75
 20
170.2451583587
 30
0.0
 11
44.25
 21
170.2451583587
 31
0.0
  0
LINE
  5
12C
330
23
100
AcDbEntity
  8
0
  6
Continuous
 62
     7
370
    25
100
AcDbLine
 10
44.25
 20
97.2075931303
 30
0.0
 11
42.75
 21
97.2075931303
 31
0.0
  0
LINE
  5
12D
330
23
100
AcDbEntity
  8
0
  6
Continuous
 62
     7
370
    25
100
AcDbLine
 10
-40.75
 20
112.9616179566
 30
0.0
 11
-40.75
 21
171.5
 31
0.0
  0
LINE
  5
12E
330
23
100
AcDbEntity
  8
0
  6
Continuous
 62
     7
370
    25
100
AcDbLine
 10
40.75
 20
112.9616179566
 30
0.0
 11
40.75
 21
171.5
 31
0.0
  0
LINE
  5
12F
330
23
100
AcDbEntity
  8
0
  6
Continuous
 62
     7
370
    25
100
AcDbLine
 10
7.7558712959
 20
159.0868876555
 30
0.0
 11
-7.7558712959
 21
159.0868876555
 31
0.0
  0
LINE
  5
130
330
23
100
AcDbEntity
  8
0
  6
Continuous
 62
     7
370
    25
100
AcDbLine
 10
22.4382242371
 20
0.0
 30
0.0
 11
-22.4382242371
 21
0.0
 31
0.0
  0
LINE
  5
131
330
23
100
AcDbEntity
  8
0
  6
Continuous
 62
     7
370
    25
100
AcDbLine
 10
-7.7558712959
 20
159.0868876555
 30
0.0
 11
-7.7558712959
 21
0.0
 31
0.0
  0
LINE
  5
132
330
23
100
AcDbEntity
  8
0
  6
Continuous
 62
     7
370
    25
100
AcDbLine
 10
-29.2863171355
 20
5.0
 30
0.0
 11
29.2863171355
 21
5.0
 31
0.0
  0
LINE
  5
133
330
23
100
AcDbEntity
  8
0
  6
Continuous
 62
     7
370
    25
100
AcDbLine
 10
7.7558712959
 20
0.0
 30
0.0
 11
7.7558712959
 21
159.0868876555
 31
0.0
  0
LINE
  5
134
330
23
100
AcDbEntity
  8
0
  6
Continuous
 62
     7
370
    25
100
AcDbLine
 10
11.7502251416
 20
154.8128981102
 30
0.0
 11
11.7502251416
 21
5.0
 31
0.0
  0
LINE
  5
135
330
23
100
AcDbEntity
  8
0
  6
Continuous
 62
     7
370
    25
100
AcDbLine
 10
-11.7502251416
 20
5.0
 30
0.0
 11
-11.7502251416
 21
154.8128981102
 31
0.0
  0
LINE
  5
136
330
23
100
AcDbEntity
  8
0
  6
Continuous
 62
     7
370
    25
100
AcDbLine
 10
40.75
 20
101.5
 30
0.0
 11
40.6590025575
 21
101.5
 31
0.0
  0
LINE
  5
137
330
23
100
AcDbEntity
  8
0
  6
Continuous
 62
     7
370
    25
100
AcDbLine
 10
-40.6590025575
 20
101.5
 30
0.0
 11
-40.75
 21
101.5
 31
0.0
  0
LINE
  5
138
330
23
100
AcDbEntity
  8
0
  6
Continuous
 62
     7
370
    25
100
AcDbLine
 10
29.2863171355
 20
5.0
 30
0.0
 11
41.861053195
 21
111.6996918235
 31
0.0
  0
LINE
  5
139
330
23
100
AcDbEntity
  8
0
  6
Continuous
 62
     7
370
    25
100
AcDbLine
 10
-41.861053195
 20
111.6996918235
 30
0.0
 11
-29.2863171355
 21
5.0
 31
0.0
  0
LINE
  5
13A
330
23
100
AcDbEntity
  8
0
  6
Continuous
 62
     8
370
    25
100
AcDbLine
 10
-40.75
 20
101.5
 30
0.0
 11
-40.75
 21
102.2721354167
 31
0.0
  0
LINE
  5
13B
330
23
100
AcDbEntity
  8
0
  6
Continuous
 62
     8
370
    25
100
AcDbLine
 10
40.75
 20
101.5
 30
0.0
 11
40.75
 21
102.2721354167
 31
0.0
  0
ARC
  5
13C
330
23
100
AcDbEntity
  8
0
  6
Continuous
 62
     7
370
    25
100
AcDbCircle
 10
-102.4974618977
 20
186.7209098576
 30
0.0
 40
96.1934623170169
100
AcDbArc
 50
309.9343264176
 51
340.6276046406
  0
ARC
  5
13D
330
23
100
AcDbEntity
  8
0
  6
Continuous
 62
     7
370
    25
100
AcDbCircle
 10
102.4974618977
 20
186.7209098576
 30
0.0
 40
96.19346231701665
100
AcDbArc
 50
199.3723953594
 51
230.0656735824
  0
ARC
  5
13E
330
23
100
AcDbEntity
  8
0
  6
Continuous
 62
     7
370
    25
100
AcDbCircle
 10
7.1664917169
 20
4.566324382
 30
0.0
 40
4.604203150396073
100
AcDbArc
 50
277.3545568799
 51
5.4047727235
  0
ARC
  5
13F
330
23
100
AcDbEntity
  8
0
  6
Continuous
 62
     7
370
    25
100
AcDbCircle
 10
-7.1664917169
 20
4.566324382
 30
0.0
 40
4.604203150396056
100
AcDbArc
 50
174.5952272765
 51
262.6454431201
  0
ARC
  5
140
330
23
100
AcDbEntity
  8
0
  6
Continuous
 62
     7
370
    25
100
AcDbCircle
 10
22.8987117227
 20
6.5589454185
 30
0.0
 40
6.575090396913276
100
AcDbArc
 50
265.9839935007
 51
346.2846333896
  0
ARC
  5
141
330
23
100
AcDbEntity
  8
0
  6
Continuous
 62
     7
370
    25
100
AcDbCircle
 10
-22.8987117227
 20
6.5589454185
 30
0.0
 40
6.575090396913274
100
AcDbArc
 50
193.7153666104
 51
274.0160064993
  0
VIEWPORT
  5
1CD
330
23
100
AcDbEntity
  8
0
100
AcDbViewport
 10
0.0
 20
0.0
 30
0.0
 40
205.6
 41
156.0
 68
     1
 69
     1
 12
-8.5692265076
 22
0.0
 13
0.0
 23
0.0
 14
10.0
 24
10.0
 15
10.0
 25
10.0
 16
0.0
 26
0.0
 36
1.0
 17
0.0
 27
0.0
 37
0.0
 42
50.0
 43
0.0
 44
0.0
 45
90.27
 50
0.0
 51
0.0
 72
   100
 90
   557152
  1

281
     0
 71
     1
 74
     0
110
0.0
120
0.0
130
0.0
111
1.0
121
0.0
131
0.0
112
0.0
122
1.0
132
0.0
 79
     0
146
0.0
  0
ENDBLK
  5
25
330
23
100
AcDbEntity
  8
0
100
AcDbBlockEnd
  0
ENDSEC
  0
SECTION
  2
ENTITIES
  0
SPLINE
  5
76
330
1F
100
AcDbEntity
  8
0
  6
Continuous
 62
     7
370
    25
100
AcDbSpline
210
0.0
220
0.0
230
1.0
 70
     8
 71
     3
 72
    22
 73
    18
 74
     0
 42
0.000000001
 43
0.00000001
 40
0.0
 40
0.0
 40
0.0
 40
0.0
 40
0.125
 40
0.125
 40
0.25
 40
0.25
 40
0.375
 40
0.375
 40
0.5
 40
0.5
 40
0.625
 40
0.625
 40
0.75
 40
0.75
 40
0.875
 40
0.875
 40
1.0
 40
1.0
 40
1.0
 40
1.0
 10
-47.2099541958696
 20
40.75000000000001
 30
0.0
 10
-47.20995419586959
 20
40.9815374677645
 30
0.0
 10
-47.20297827340837
 20
41.20919227494537
 30
0.0
 10
-47.17564785330786
 20
41.65705563875048
 30
0.0
 10
-47.15495836827075
 20
41.87959736780446
 30
0.0
 10
-47.10097560100348
 20
42.30375865390992
 30
0.0
 10
-47.06794551809642
 20
42.50490500260478
 30
0.0
 10
-46.98991809656233
 20
42.88552854728899
 30
0.0
 10
-46.94452617307033
 20
43.06562020194388
 30
0.0
 10
-46.84540710973418
 20
43.38832266097978
 30
0.0
 10
-46.79132904345207
 20
43.53310601452624
 30
0.0
 10
-46.67391802206369
 20
43.78873830188655
 30
0.0
 10
-46.61148671426407
 20
43.89718928529598
 30
0.0
 10
-46.48235943353001
 20
44.07136985421986
 30
0.0
 10
-46.41470656243614
 20
44.13839589019375
 30
0.0
 10
-46.27629956822338
 20
44.22790880085117
 30
0.0
 10
-46.2067188041682
 20
44.25000000000001
 30
0.0
 10
-46.13677032843871
 20
44.25000000000001
 30
0.0
  0
SPLINE
  5
7B
330
1F
100
AcDbEntity
  8
0
  6
Continuous
 62
     7
370
    25
100
AcDbSpline
210
0.0
220
0.0
230
1.0
 70
     8
 71
     3
 72
    20
 73
    16
 74
     0
 42
0.000000001
 43
0.00000001
 40
0.0
 40
0.0
 40
0.0
 40
0.0
 40
0.2499999999999964
 40
0.2499999999999964
 40
0.4999999999999928
 40
0.4999999999999928
 40
0.6249999999999956
 40
0.6249999999999956
 40
0.7499999999999982
 40
0.7499999999999982
 40
0.875000000000001
 40
0.875000000000001
 40
0.9375000000000004
 40
0.9375000000000004
 40
1.0
 40
1.0
 40
1.0
 40
1.0
 10
1.249999999999984
 20
-17.875
 30
0.0
 10
1.58999140926057
 20
-17.87500000000001
 30
0.0
 10
1.920709520420351
 20
-17.81886731068438
 30
0.0
 10
2.564105349488274
 20
-17.59333278576131
 30
0.0
 10
2.879599070699968
 20
-17.42112614019497
 30
0.0
 10
3.308946511349279
 20
-17.06482353778912
 30
0.0
 10
3.446610495461952
 20
-16.92815633016604
 30
0.0
 10
3.701294832903913
 20
-16.61617840184544
 30
0.0
 10
3.816904383621308
 20
-16.44320557941817
 30
0.0
 10
4.017980386110906
 20
-16.05251918713789
 30
0.0
 10
4.101602958056574
 20
-15.83699639944516
 30
0.0
 10
4.188836932115841
 20
-15.48941566725433
 30
0.0
 10
4.211739486635516
 20
-15.36816831896108
 30
0.0
 10
4.242161852200839
 20
-15.12416506126851
 30
0.0
 10
4.250000000000004
 20
-15.00047900071851
 30
0.0
 10
4.250000000000004
 20
-14.87499999999998
 30
0.0
  0
SPLINE
  5
7F
330
1F
100
AcDbEntity
  8
0
  6
Continuous
 62
     7
370
    25
100
AcDbSpline
210
0.0
220
0.0
230
1.0
 70
     8
 71
     3
 72
    18
 73
    14
 74
     0
 42
0.000000001
 43
0.00000001
 40
0.0
 40
0.0
 40
0.0
 40
0.0
 40
0.1250000000000031
 40
0.1250000000000031
 40
0.2500000000000054
 40
0.2500000000000054
 40
0.3750000000000079
 40
0.3750000000000079
 40
0.5000000000000103
 40
0.5000000000000103
 40
0.7500000000000052
 40
0.7500000000000052
 40
1.0
 40
1.0
 40
1.0
 40
1.0
 10
4.250000000000004
 20
14.87499999999998
 30
0.0
 10
4.250000000000007
 20
15.12595550306159
 30
0.0
 10
4.219048136938117
 20
15.36761071342035
 30
0.0
 10
4.102556952948181
 20
15.83459938756712
 30
0.0
 10
4.019875006465778
 20
16.04824006480542
 30
0.0
 10
3.81838189903363
 20
16.44092280200042
 30
0.0
 10
3.702324862431664
 20
16.61455922245741
 30
0.0
 10
3.449832028257422
 20
16.92456155476969
 30
0.0
 10
3.311518850057309
 20
17.06244301614749
 30
0.0
 10
2.881421228700153
 20
17.420099692877
 30
0.0
 10
2.572109285545181
 20
17.58991103330818
 30
0.0
 10
1.922187889049604
 20
17.81895623668531
 30
0.0
 10
1.58981341949913
 20
17.87500000000001
 30
0.0
 10
1.249999999999999
 20
17.875
 30
0.0
  0
SPLINE
  5
81
330
1F
100
AcDbEntity
  8
0
  6
Continuous
 62
     7
370
    25
100
AcDbSpline
210
0.0
220
0.0
230
1.0
 70
     8
 71
     3
 72
    20
 73
    16
 74
     0
 42
0.000000001
 43
0.00000001
 40
0.0
 40
0.0
 40
0.0
 40
0.0
 40
0.2500000000000026
 40
0.2500000000000026
 40
0.375000000000002
 40
0.375000000000002
 40
0.5000000000000014
 40
0.5000000000000014
 40
0.6250000000000009
 40
0.6250000000000009
 40
0.7500000000000002
 40
0.7500000000000002
 40
0.8749999999999997
 40
0.8749999999999997
 40
1.0
 40
1.0
 40
1.0
 40
1.0
 10
-31.20995419586957
 20
17.875
 30
0.0
 10
-31.58805108621188
 20
17.87500000000001
 30
0.0
 10
-31.95837818970482
 20
17.80532141175943
 30
0.0
 10
-32.49292732509521
 20
17.59358611457795
 30
0.0
 10
-32.66291939141502
 20
17.50667499382126
 30
0.0
 10
-32.98636573208518
 20
17.30011508728361
 30
0.0
 10
-33.14108625419233
 20
17.17925902982448
 30
0.0
 10
-33.42607525168615
 20
16.90667127488083
 30
0.0
 10
-33.55433758737391
 20
16.75734611719869
 30
0.0
 10
-33.78180184426234
 20
16.43222832775124
 30
0.0
 10
-33.88196817901054
 20
16.25387423627334
 30
0.0
 10
-34.04294549838552
 20
15.88252824547417
 30
0.0
 10
-34.10441784773131
 20
15.68977004220378
 30
0.0
 10
-34.18817566010489
 20
15.2896889962243
 30
0.0
 10
-34.20995419586959
 20
15.08225855209801
 30
0.0
 10
-34.20995419586959
 20
14.87499999999998
 30
0.0
  0
SPLINE
  5
85
330
1F
100
AcDbEntity
  8
0
  6
Continuous
 62
     7
370
    25
100
AcDbSpline
210
0.0
220
0.0
230
1.0
 70
     8
 71
     3
 72
    22
 73
    18
 74
     0
 42
0.000000001
 43
0.00000001
 40
0.0
 40
0.0
 40
0.0
 40
0.0
 40
0.1250000000000009
 40
0.1250000000000009
 40
0.2500000000000008
 40
0.2500000000000008
 40
0.3750000000000006
 40
0.3750000000000006
 40
0.5000000000000004
 40
0.5000000000000004
 40
0.6250000000000003
 40
0.6250000000000003
 40
0.7500000000000002
 40
0.7500000000000002
 40
0.8750000000000002
 40
0.8750000000000002
 40
1.0
 40
1.0
 40
1.0
 40
1.0
 10
-34.20995419586959
 20
-14.87499999999998
 30
0.0
 10
-34.2099541958696
 20
-15.08188782139738
 30
0.0
 10
-34.18878297974005
 20
-15.28482604749396
 30
0.0
 10
-34.10619487008681
 20
-15.68318826385279
 30
0.0
 10
-34.04360803666127
 20
-15.88057128421254
 30
0.0
 10
-33.88330603014193
 20
-16.25121134541862
 30
0.0
 10
-33.78570006053088
 20
-16.4260518052398
 30
0.0
 10
-33.55630248079999
 20
-16.75512717326822
 30
0.0
 10
-33.4265804646558
 20
-16.9059624467324
 30
0.0
 10
-33.14417163739746
 20
-17.17653065684553
 30
0.0
 10
-32.98909708816514
 20
-17.29822514372776
 30
0.0
 10
-32.66338257457507
 20
-17.50652341360927
 30
0.0
 10
-32.49336559567674
 20
-17.59327733520683
 30
0.0
 10
-32.13978948600815
 20
-17.73359805244931
 30
0.0
 10
-31.95541297736896
 20
-17.78699460055797
 30
0.0
 10
-31.58563138542107
 20
-17.85732929064582
 30
0.0
 10
-31.3987767688645
 20
-17.875
 30
0.0
 10
-31.20995419586956
 20
-17.875
 30
0.0
  0
SPLINE
  5
88
330
1F
100
AcDbEntity
  8
0
  6
Continuous
 62
     7
370
    25
100
AcDbSpline
210
0.0
220
0.0
230
1.0
 70
     8
 71
     3
 72
    22
 73
    18
 74
     0
 42
0.000000001
 43
0.00000001
 40
0.0
 40
0.0
 40
0.0
 40
0.0
 40
0.125
 40
0.125
 40
0.25
 40
0.25
 40
0.375
 40
0.375
 40
0.5
 40
0.5
 40
0.625
 40
0.625
 40
0.75
 40
0.75
 40
0.875
 40
0.875
 40
1.0
 40
1.0
 40
1.0
 40
1.0
 10
-46.1367703284387
 20
-44.25000000000004
 30
0.0
 10
-46.20678566690098
 20
-44.25000000000004
 30
0.0
 10
-46.2777732857803
 20
-44.22713677386358
 30
0.0
 10
-46.41488295502455
 20
-44.13809853773832
 30
0.0
 10
-46.48173340490298
 20
-44.07219320004099
 30
0.0
 10
-46.61194446984951
 20
-43.89659289673614
 30
0.0
 10
-46.67432964485356
 20
-43.78777527290656
 30
0.0
 10
-46.79048244171422
 20
-43.53501584842923
 30
0.0
 10
-46.8451119050127
 20
-43.38932844179587
 30
0.0
 10
-46.94503020651941
 20
-43.06393444285938
 30
0.0
 10
-46.98940290961431
 20
-42.88763237197112
 30
0.0
 10
-47.06727927889235
 20
-42.5085580952374
 30
0.0
 10
-47.10102426418763
 20
-42.30333268036679
 30
0.0
 10
-47.15484964125604
 20
-41.88049523501089
 30
0.0
 10
-47.17522581488763
 20
-41.66241218444888
 30
0.0
 10
-47.20284778720738
 20
-41.2128589611096
 30
0.0
 10
-47.20995419586963
 20
-40.98131272518047
 30
0.0
 10
-47.20995419586963
 20
-40.75000000000001
 30
0.0
  0
SPLINE
  5
98
330
1F
100
AcDbEntity
  8
0
  6
Continuous
 62
     7
370
    25
100
AcDbSpline
210
0.0
220
0.0
230
1.0
 70
    11
 71
     3
 72
    70
 73
    66
 74
     0
 42
0.000000001
 43
0.00000001
 40
0.0
 40
0.0
 40
0.0
 40
0.0
 40
0.03125
 40
0.03125
 40
0.0625
 40
0.0625
 40
0.09375
 40
0.09375
 40
0.125
 40
0.125
 40
0.15625
 40
0.15625
 40
0.1875
 40
0.1875
 40
0.2187499999999999
 40
0.2187499999999999
 40
0.25
 40
0.25
 40
0.2812499999999999
 40
0.2812499999999999
 40
0.3124999999999999
 40
0.3124999999999999
 40
0.34375
 40
0.34375
 40
0.375
 40
0.375
 40
0.40625
 40
0.40625
 40
0.4375
 40
0.4375
 40
0.46875
 40
0.46875
 40
0.4999999999999999
 40
0.4999999999999999
 40
0.5312499999999999
 40
0.5312499999999999
 40
0.5624999999999999
 40
0.5624999999999999
 40
0.5937499999999999
 40
0.5937499999999999
 40
0.6249999999999999
 40
0.6249999999999999
 40
0.65625
 40
0.65625
 40
0.6875
 40
0.6875
 40
0.71875
 40
0.71875
 40
0.75
 40
0.75
 40
0.78125
 40
0.78125
 40
0.8125
 40
0.8125
 40
0.84375
 40
0.84375
 40
0.875
 40
0.875
 40
0.9062500000000001
 40
0.9062500000000001
 40
0.9375000000000001
 40
0.9375000000000001
 40
0.9687500000000001
 40
0.9687500000000001
 40
1.0
 40
1.0
 40
1.0
 40
1.0
 10
-18.1342304470451
 20
0.0000000000000001
 30
0.0
 10
-18.1342304470451
 20
-0.2642828294764586
 30
0.0
 10
-18.1115529309389
 20
-0.5241449437288104
 30
0.0
 10
-18.0227558529362
 20
-1.035390664049193
 30
0.0
 10
-17.95555854805381
 20
-1.289423181208553
 30
0.0
 10
-17.78031667750145
 20
-1.773822283826606
 30
0.0
 10
-17.67314950734465
 20
-2.003563188092232
 30
0.0
 10
-17.42030597262057
 20
-2.438357978308985
 30
0.0
 10
-17.27330147449219
 20
-2.644203259251374
 30
0.0
 10
-16.95272139096937
 20
-3.013167511412164
 30
0.0
 10
-16.77803601414204
 20
-3.17873916265917
 30
0.0
 10
-16.39945476789379
 20
-3.471155174475739
 30
0.0
 10
-16.19823211837378
 20
-3.595407353438612
 30
0.0
 10
-15.7830636511847
 20
-3.794904087507584
 30
0.0
 10
-15.56605914710996
 20
-3.871689095401386
 30
0.0
 10
-15.12250200965187
 20
-3.974445548993185
 30
0.0
 10
-14.9000118236757
 20
-3.999860370789225
 30
0.0
 10
-14.45370045157394
 20
-4.000138492715698
 30
0.0
 10
-14.22753405925587
 20
-3.974178864554155
 30
0.0
 10
-13.79059416734851
 20
-3.872145208373307
 30
0.0
 10
-13.57868888131468
 20
-3.796649219018636
 30
0.0
 10
-13.16792236062368
 20
-3.596420797912394
 30
0.0
 10
-12.96966186202867
 20
-3.471192108080598
 30
0.0
 10
-12.60340652297569
 20
-3.18169928923003
 30
0.0
 10
-12.43302944350648
 20
-3.016436968015683
 30
0.0
 10
-12.11848849352498
 20
-2.64326135681116
 30
0.0
 10
-11.97908890750946
 20
-2.440880360684699
 30
0.0
 10
-11.73576424819027
 20
-2.007766319019482
 30
0.0
 10
-11.63074794443351
 20
-1.774071300368172
 30
0.0
 10
-11.4623932871904
 20
-1.28938243360359
 30
0.0
 10
-11.39904222391913
 20
-1.040050961383063
 30
0.0
 10
-11.31334275680079
 20
-0.5275764173279467
 30
0.0
 10
-11.29138868131739
 20
-0.2624704204383422
 30
0.0
 10
-11.29123349214598
 20
0.2596276698891917
 30
0.0
 10
-11.31232264562733
 20
0.5190854850508989
 30
0.0
 10
-11.39776700942645
 20
1.034752971036624
 30
0.0
 10
-11.46200618968994
 20
1.287649873504312
 30
0.0
 10
-11.62882836774367
 20
1.769154523969066
 30
0.0
 10
-11.73247679668327
 20
2.001353789270968
 30
0.0
 10
-11.97802067504948
 20
2.439529987876326
 30
0.0
 10
-12.11713609211317
 20
2.641103527086922
 30
0.0
 10
-12.42736892643947
 20
3.010262217819795
 30
0.0
 10
-12.60066451100219
 20
3.17928860271657
 30
0.0
 10
-12.96811876330207
 20
3.470212968432807
 30
0.0
 10
-13.16245740442668
 20
3.593226176507151
 30
0.0
 10
-13.57266036140494
 20
3.794226678445156
 30
0.0
 10
-13.78881900823851
 20
3.871529513299962
 30
0.0
 10
-14.22430214418569
 20
3.973623014435738
 30
0.0
 10
-14.44591497691267
 20
3.999730803227551
 30
0.0
 10
-14.89722053109221
 20
4.00026509511896
 30
0.0
 10
-15.12093998803225
 20
3.974509200928502
 30
0.0
 10
-15.5600879431426
 20
3.873365551996188
 30
0.0
 10
-15.77839412998662
 20
3.796881060992723
 30
0.0
 10
-16.19691453461484
 20
3.59630351274307
 30
0.0
 10
-16.39561555032137
 20
3.473579027607248
 30
0.0
 10
-16.77199149597836
 20
3.183935458369147
 30
0.0
 10
-16.95076840571259
 20
3.015155190918974
 30
0.0
 10
-17.27178342753649
 20
2.646207686362214
 30
0.0
 10
-17.41592913477492
 20
2.445037194166949
 30
0.0
 10
-17.67064063808163
 20
2.008702142693107
 30
0.0
 10
-17.77953173168454
 20
1.775401768958862
 30
0.0
 10
-17.95403024158164
 20
1.294230147867633
 30
0.0
 10
-18.02108467542603
 20
1.043340679505701
 30
0.0
 10
-18.11155008916077
 20
0.5258022850490643
 30
0.0
 10
-18.1342304470451
 20
0.2642828294764576
 30
0.0
 10
-18.1342304470451
 20
0.0
 30
0.0
  0
SPLINE
  5
9C
330
1F
100
AcDbEntity
  8
0
  6
Continuous
 62
     7
370
    25
100
AcDbSpline
210
0.0
220
0.0
230
1.0
 70
     8
 71
     3
 72
    12
 73
     8
 74
     0
 42
0.000000001
 43
0.00000001
 40
0.0
 40
0.0
 40
0.0
 40
0.0
 40
0.2323363707545706
 40
0.4646691094026099
 40
0.6970960970917258
 40
0.9295844981458865
 40
1.0
 40
1.0
 40
1.0
 40
1.0
 10
-17.35668293214137
 20
0.0
 30
0.0
 10
-17.31800982115202
 20
0.4491722826721037
 30
0.0
 10
-17.24066420374875
 20
1.347509826121391
 30
0.0
 10
-16.63986638901344
 20
2.551307462358157
 30
0.0
 10
-15.75738587666367
 20
3.435431679617706
 30
0.0
 10
-14.92138617426172
 20
3.910310787023211
 30
0.0
 10
-14.42026935123736
 20
3.921197458894065
 30
0.0
 10
-14.30377566382691
 20
3.923728263073036
 30
0.0
  0
SPLINE
  5
9D
330
1F
100
AcDbEntity
  8
0
  6
Continuous
 62
     7
370
    25
100
AcDbSpline
210
0.0
220
0.0
230
1.0
 70
     8
 71
     3
 72
    12
 73
     8
 74
     0
 42
0.000000001
 43
0.00000001
 40
0.0
 40
0.0
 40
0.0
 40
0.0
 40
0.1743047077167937
 40
0.4016646168973522
 40
0.6291521414885332
 40
0.8566953277507271
 40
1.0
 40
1.0
 40
1.0
 40
1.0
 10
-14.19607316624464
 20
-3.944238093726025
 30
0.0
 10
-14.49057417939461
 20
-3.904085909261438
 30
0.0
 10
-15.16921698928913
 20
-3.811559941364091
 30
0.0
 10
-16.11664540275066
 20
-3.149961532801672
 30
0.0
 10
-16.89616256662564
 20
-2.131315308281435
 30
0.0
 10
-17.30074748292472
 20
-1.012891513659467
 30
0.0
 10
-17.3410925951547
 20
-0.2823132780738683
 30
0.0
 10
-17.35668293214137
 20
0.0
 30
0.0
  0
LINE
  5
A7
330
1F
100
AcDbEntity
  8
0
  6
Continuous
 62
     7
370
    25
100
AcDbLine
 10
-46.1367703284
 20
44.25
 30
0.0
 11
30.0715011807
 21
44.25
 31
0.0
  0
LINE
  5
A8
330
1F
100
AcDbEntity
  8
0
  6
Continuous
 62
     7
370
    25
100
AcDbLine
 10
-47.2099541959
 20
40.75
 30
0.0
 11
24.3094996064
 21
40.75
 31
0.0
  0
LINE
  5
A9
330
1F
100
AcDbEntity
  8
0
  6
Continuous
 62
     7
370
    25
100
AcDbLine
 10
24.3094996064
 20
40.75
 30
0.0
 11
24.3094996064
 21
-40.75
 31
0.0
  0
LINE
  5
AA
330
1F
100
AcDbEntity
  8
0
  6
Continuous
 62
     7
370
    25
100
AcDbLine
 10
-47.2099541959
 20
-40.75
 30
0.0
 11
24.3094996064
 21
-40.75
 31
0.0
  0
LINE
  5
AB
330
1F
100
AcDbEntity
  8
0
  6
Continuous
 62
     7
370
    25
100
AcDbLine
 10
-47.2099541959
 20
-40.75
 30
0.0
 11
-47.2099541959
 21
40.75
 31
0.0
  0
LINE
  5
AC
330
1F
100
AcDbEntity
  8
0
  6
Continuous
 62
     7
370
    25
100
AcDbLine
 10
-31.2099541959
 20
-17.875
 30
0.0
 11
1.25
 21
-17.875
 31
0.0
  0
LINE
  5
AD
330
1F
100
AcDbEntity
  8
0
  6
Continuous
 62
     7
370
    25
100
AcDbLine
 10
4.25
 20
-14.875
 30
0.0
 11
4.25
 21
14.875
 31
0.0
  0
LINE
  5
AE
330
1F
100
AcDbEntity
  8
0
  6
Continuous
 62
     7
370
    25
100
AcDbLine
 10
1.25
 20
17.875
 30
0.0
 11
-31.2099541959
 21
17.875
 31
0.0
  0
LINE
  5
AF
330
1F
100
AcDbEntity
  8
0
  6
Continuous
 62
     7
370
    25
100
AcDbLine
 10
-34.2099541959
 20
-14.875
 30
0.0
 11
-34.2099541959
 21
14.875
 31
0.0
  0
LINE
  5
B0
330
1F
100
AcDbEntity
  8
0
  6
Continuous
 62
     7
370
    25
100
AcDbLine
 10
-46.1367703284
 20
-44.25
 30
0.0
 11
30.0715011807
 21
-44.25
 31
0.0
  0
LINE
  5
B1
330
1F
100
AcDbEntity
  8
0
  6
Continuous
 62
     7
370
    25
100
AcDbLine
 10
27.6706671914
 20
42.75
 30
0.0
 11
30.0715011807
 21
42.75
 31
0.0
  0
LINE
  5
B2
330
1F
100
AcDbEntity
  8
0
  6
Continuous
 62
     7
370
    25
100
AcDbLine
 10
25.75
 20
-40.75
 30
0.0
 11
25.75
 21
40.75
 31
0.0
  0
LINE
  5
B3
330
1F
100
AcDbEntity
  8
0
  6
Continuous
 62
     7
370
    25
100
AcDbLine
 10
30.0715011807
 20
-42.75
 30
0.0
 11
27.6706671914
 21
-42.75
 31
0.0
  0
LINE
  5
B4
330
1F
100
AcDbEntity
  8
0
  6
Continuous
 62
     7
370
    25
100
AcDbLine
 10
30.0715011807
 20
-44.25
 30
0.0
 11
30.0715011807
 21
-42.75
 31
0.0
  0
LINE
  5
B5
330
1F
100
AcDbEntity
  8
0
  6
Continuous
 62
     7
370
    25
100
AcDbLine
 10
30.0715011807
 20
42.75
 30
0.0
 11
30.0715011807
 21
44.25
 31
0.0
  0
LINE
  5
B6
330
1F
100
AcDbEntity
  8
0
  6
Continuous
 62
     7
370
    25
100
AcDbLine
 10
-4.6662420114
 20
-10.0
 30
0.0
 11
-4.6662420114
 21
10.0
 31
0.0
  0
LINE
  5
B7
330
1F
100
AcDbEntity
  8
0
  6
Continuous
 62
     7
370
    25
100
AcDbLine
 10
-8.0525333498
 20
-10.0
 30
0.0
 11
-8.0525333498
 21
10.0
 31
0.0
  0
LINE
  5
B8
330
1F
100
AcDbEntity
  8
0
  6
Continuous
 62
     7
370
    25
100
AcDbLine
 10
-21.5933601742
 20
-10.0
 30
0.0
 11
-21.5933601742
 21
10.0
 31
0.0
  0
LINE
  5
B9
330
1F
100
AcDbEntity
  8
0
  6
Continuous
 62
     7
370
    25
100
AcDbLine
 10
-26.5989304926
 20
-10.0
 30
0.0
 11
-26.5989304926
 21
10.0
 31
0.0
  0
LINE
  5
BA
330
1F
100
AcDbEntity
  8
0
  6
Continuous
 62
     7
370
    25
100
AcDbLine
 10
4.25
 20
-10.0
 30
0.0
 11
-34.2099541959
 21
-10.0
 31
0.0
  0
LINE
  5
BB
330
1F
100
AcDbEntity
  8
0
  6
Continuous
 62
     7
370
    25
100
AcDbLine
 10
4.25
 20
10.0
 30
0.0
 11
-34.2099541959
 21
10.0
 31
0.0
  0
LINE
  5
BC
330
1F
100
AcDbEntity
  8
0
  6
Continuous
 62
     7
370
    25
100
AcDbLine
 10
-3.4847826087
 20
17.875
 30
0.0
 11
-3.4847826087
 21
10.0
 31
0.0
  0
LINE
  5
BD
330
1F
100
AcDbEntity
  8
0
  6
Continuous
 62
     7
370
    25
100
AcDbLine
 10
-3.4847826087
 20
-10.0
 30
0.0
 11
-3.4847826087
 21
-17.875
 31
0.0
  0
LINE
  5
BE
330
1F
100
AcDbEntity
  8
0
  6
Continuous
 62
     8
370
    25
100
AcDbLine
 10
0.3167777843
 20
-17.875
 30
0.0
 11
4.2459765566
 21
-14.9165444538
 31
0.0
  0
LINE
  5
BF
330
1F
100
AcDbEntity
  8
0
  6
Continuous
 62
     8
370
    25
100
AcDbLine
 10
4.2445821265
 20
14.9175943777
 30
0.0
 11
0.3167777843
 21
17.875
 31
0.0
  0
ARC
  5
C0
330
1F
100
AcDbEntity
  8
0
  6
Continuous
 62
     7
370
    25
100
AcDbCircle
 10
27.7415170108
 20
40.8180394618
 30
0.0
 40
3.43269177651914
100
AcDbArc
 50
91.1826531964
 51
181.1357353244
  0
ARC
  5
C1
330
1F
100
AcDbEntity
  8
0
  6
Continuous
 62
     7
370
    25
100
AcDbCircle
 10
27.7415170108
 20
-40.8180394618
 30
0.0
 40
3.432691776519137
100
AcDbArc
 50
178.8642646756
 51
268.8173468036
  0
ARC
  5
C2
330
1F
100
AcDbEntity
  8
0
  6
Continuous
 62
     7
370
    25
100
AcDbCircle
 10
27.7111528025
 20
40.7888796925
 30
0.0
 40
1.961538158010931
100
AcDbArc
 50
91.1826531964
 51
181.1357353244
  0
ARC
  5
C3
330
1F
100
AcDbEntity
  8
0
  6
Continuous
 62
     7
370
    25
100
AcDbCircle
 10
27.7111528025
 20
-40.7888796925
 30
0.0
 40
1.96153815801093
100
AcDbArc
 50
178.8642646756
 51
268.8173468036
  0
SPLINE
  5
146
330
142
100
AcDbEntity
 67
     1
  8
0
  6
Continuous
 62
     7
370
    25
100
AcDbSpline
210
0.0
220
0.0
230
1.0
 70
     8
 71
     3
 72
    26
 73
    22
 74
     0
 42
0.000000001
 43
0.00000001
 40
0.0
 40
0.0
 40
0.0
 40
0.0
 40
0.1249999999999998
 40
0.1249999999999998
 40
0.1874999999999996
 40
0.1874999999999996
 40
0.2499999999999995
 40
0.2499999999999995
 40
0.3749999999999992
 40
0.3749999999999992
 40
0.4374999999999993
 40
0.4374999999999993
 40
0.4999999999999993
 40
0.4999999999999993
 40
0.6249999999999994
 40
0.6249999999999994
 40
0.7499999999999996
 40
0.7499999999999996
 40
0.8749999999999998
 40
0.8749999999999998
 40
1.0
 40
1.0
 40
1.0
 40
1.0
 10
9.051843525114865
 20
-1.336656161373672
 30
0.0
 10
8.958283892352519
 20
-1.702168011708317
 30
0.0
 10
8.81946679000254
 20
-2.048165810269884
 30
0.0
 10
8.544775726741161
 20
-2.538504046679622
 30
0.0
 10
8.441543554080143
 20
-2.697424432521588
 30
0.0
 10
8.21788673394299
 20
-2.997056244361083
 30
0.0
 10
8.096779281775344
 20
-3.138763617475141
 30
0.0
 10
7.707511386579272
 20
-3.541213110763803
 30
0.0
 10
7.411250625845221
 20
-3.779690021965703
 30
0.0
 10
6.936699787766004
 20
-4.073387005224395
 30
0.0
 10
6.772670473387038
 20
-4.161477473593826
 30
0.0
 10
6.432724238718713
 20
-4.317712149214636
 30
0.0
 10
6.255963044209813
 20
-4.385980813653611
 30
0.0
 10
5.721579914546998
 20
-4.55510245694338
 30
0.0
 10
5.35602558094888
 20
-4.623036663632985
 30
0.0
 10
4.606034790112908
 20
-4.667907879719368
 30
0.0
 10
4.231370450082143
 20
-4.645573956496306
 30
0.0
 10
3.497667472870758
 20
-4.514691037397462
 30
0.0
 10
3.133476288442237
 20
-4.403973757789649
 30
0.0
 10
2.453158935523354
 20
-4.10590624140479
 30
0.0
 10
2.13237077039004
 20
-3.9184434099995
 30
0.0
 10
1.831838527376672
 20
-3.690794942756358
 30
0.0
  0
SPLINE
  5
147
330
142
100
AcDbEntity
 67
     1
  8
0
  6
Continuous
 62
     7
370
    25
100
AcDbSpline
210
0.0
220
0.0
230
1.0
 70
     8
 71
     3
 72
    26
 73
    22
 74
     0
 42
0.000000001
 43
0.00000001
 40
0.0
 40
0.0
 40
0.0
 40
0.0
 40
0.0506224351963014
 40
0.1003060191857458
 40
0.1559062195282923
 40
0.2124742362007644
 40
0.2680744365433109
 40
0.3236746368858574
 40
0.3802426535583295
 40
0.4358428539008758
 40
0.4914430542434224
 40
0.5480110709158944
 40
0.6036112712584408
 40
0.6592114716009873
 40
0.7157794882734594
 40
0.7713796886160058
 40
0.8269798889585523
 40
0.8835479056310245
 40
0.9391481059735709
 40
0.9947483063161177
 40
1.0
 40
1.0
 40
1.0
 40
1.0
 10
9.051843525114887
 20
-1.336656161373618
 30
0.0
 10
8.924150337053703
 20
-1.652088800644256
 30
0.0
 10
8.671132177775382
 20
-2.277104018576774
 30
0.0
 10
8.005274532043572
 20
-3.098328403180862
 30
0.0
 10
7.140653962386414
 20
-3.767217436373146
 30
0.0
 10
6.090322346594672
 20
-4.201423743959634
 30
0.0
 10
4.96492931190248
 20
-4.348842848806123
 30
0.0
 10
3.839180030710435
 20
-4.201504474616406
 30
0.0
 10
2.789929556574295
 20
-3.766890297981671
 30
0.0
 10
1.889789292120433
 20
-3.075079325652942
 30
0.0
 10
1.197981822982592
 20
-2.174945589252667
 30
0.0
 10
0.7633600660063231
 20
-1.12567225250281
 30
0.0
 10
0.6160481209180196
 20
-0.0000067202497813
 30
0.0
 10
0.763368796258131
 20
1.125699367456754
 30
0.0
 10
1.197946446080582
 20
2.174849625972403
 30
0.0
 10
1.889919349707728
 20
3.07542880265777
 30
0.0
 10
2.789440175378809
 20
3.765576186755815
 30
0.0
 10
3.841028486293651
 20
4.206467793181453
 30
0.0
 10
4.958165852574563
 20
4.330682236123813
 30
0.0
 10
5.761682010153788
 20
4.288377369032739
 30
0.0
 10
6.136536914793419
 20
4.128610751719034
 30
0.0
 10
6.168887972497775
 20
4.114822432580156
 30
0.0
  0
SPLINE
  5
148
330
142
100
AcDbEntity
 67
     1
  8
0
  6
Continuous
 62
     7
370
    25
100
AcDbSpline
210
0.0
220
0.0
230
1.0
 70
     8
 71
     3
 72
    14
 73
    10
 74
     0
 42
0.000000001
 43
0.00000001
 40
0.0
 40
0.0
 40
0.0
 40
0.0
 40
0.25
 40
0.25
 40
0.5
 40
0.5
 40
0.75
 40
0.75
 40
1.0
 40
1.0
 40
1.0
 40
1.0
 10
9.05115739286655
 20
-1.338752266569034
 30
0.0
 10
9.226516789592974
 20
-0.8035010024952176
 30
0.0
 10
9.295307911502945
 20
-0.2335695900590662
 30
0.0
 10
9.20937141488299
 20
0.8896375383906185
 30
0.0
 10
9.05467769885518
 20
1.442470141948518
 30
0.0
 10
8.545186234741092
 20
2.447158045153476
 30
0.0
 10
8.190589484323066
 20
2.89861698894358
 30
0.0
 10
7.335210898083176
 20
3.631629136901406
 30
0.0
 10
6.834766514629838
 20
3.912893163049628
 30
0.0
 10
6.299331427678467
 20
4.087690478172749
 30
0.0
  0
SPLINE
  5
14D
330
142
100
AcDbEntity
 67
     1
  8
0
  6
Continuous
 62
     7
370
    25
100
AcDbSpline
210
0.0
220
0.0
230
1.0
 70
     8
 71
     3
 72
    12
 73
     8
 74
     0
 42
0.000000001
 43
0.00000001
 40
0.0
 40
0.0
 40
0.0
 40
0.0
 40
0.5
 40
0.5
 40
0.75
 40
0.75
 40
1.0
 40
1.0
 40
1.0
 40
1.0
 10
1.831838527376672
 20
-3.690794942756358
 30
0.0
 10
1.347410194165869
 20
-3.279574765704817
 30
0.0
 10
0.947599239224892
 20
-2.775134844540414
 30
0.0
 10
0.5132432678687845
 20
-1.929084861866409
 30
0.0
 10
0.3964399593651691
 20
-1.633406451386541
 30
0.0
 10
0.2223018219588459
 20
-1.023042839141652
 30
0.0
 10
0.1655791418852474
 20
-0.7110577016203855
 30
0.0
 10
0.1396961500560578
 20
-0.3943981340373195
 30
0.0
  0
SPLINE
  5
14E
330
142
100
AcDbEntity
 67
     1
  8
0
  6
Continuous
 62
     7
370
    25
100
AcDbSpline
210
0.0
220
0.0
230
1.0
 70
     8
 71
     3
 72
    28
 73
    24
 74
     0
 42
0.000000001
 43
0.00000001
 40
0.0
 40
0.0
 40
0.0
 40
0.0
 40
0.1249999999999998
 40
0.1249999999999998
 40
0.1874999999999997
 40
0.1874999999999997
 40
0.2499999999999996
 40
0.2499999999999996
 40
0.3749999999999994
 40
0.3749999999999994
 40
0.4374999999999994
 40
0.4374999999999994
 40
0.4999999999999993
 40
0.4999999999999993
 40
0.6249999999999991
 40
0.6249999999999991
 40
0.6874999999999993
 40
0.6874999999999993
 40
0.7499999999999994
 40
0.7499999999999994
 40
0.8749999999999997
 40
0.8749999999999997
 40
1.0
 40
1.0
 40
1.0
 40
1.0
 10
0.1396961500560578
 20
-0.3943981340373194
 30
0.0
 10
0.1298819203873619
 20
-0.0168431782362424
 30
0.0
 10
0.1630275524001096
 20
0.3558004048537262
 30
0.0
 10
0.2801581096494917
 20
0.9070589112467163
 30
0.0
 10
0.3306408728054079
 20
1.089826531930631
 30
0.0
 10
0.4518963922771086
 20
1.444553388119674
 30
0.0
 10
0.5228350997419275
 20
1.617564922734422
 30
0.0
 10
0.7664743809106898
 20
2.123590140126334
 30
0.0
 10
0.9716051144098639
 20
2.444382633665239
 30
0.0
 10
1.326437237172941
 20
2.876112442459492
 30
0.0
 10
1.453069690338354
 20
3.012822119673146
 30
0.0
 10
1.723256409964104
 20
3.27165855506261
 30
0.0
 10
1.867967040532287
 20
3.39451604633843
 30
0.0
 10
2.319262269383171
 20
3.730527215429097
 30
0.0
 10
2.643026011743963
 20
3.91387779749821
 30
0.0
 10
3.16298370982299
 20
4.127986372285386
 30
0.0
 10
3.342806961439879
 20
4.189108996871776
 30
0.0
 10
3.704070284236778
 20
4.287096747173876
 30
0.0
 10
3.886661768133223
 20
4.324533582303295
 30
0.0
 10
4.440239538370878
 20
4.402622016668133
 30
0.0
 10
4.822279594763342
 20
4.408901211340416
 30
0.0
 10
5.562118425447768
 20
4.325012384020257
 30
0.0
 10
5.92298646846996
 20
4.235974662338588
 30
0.0
 10
6.274400745209286
 20
4.097750020510261
 30
0.0
  0
SPLINE
  5
159
330
142
100
AcDbEntity
 67
     1
  8
0
  6
Continuous
 62
     7
370
    25
100
AcDbSpline
210
0.0
220
0.0
230
1.0
 70
     8
 71
     3
 72
    10
 73
     6
 74
     0
 42
0.000000001
 43
0.00000001
 40
0.0
 40
0.0
 40
0.0
 40
0.0
 40
0.5
 40
0.5
 40
1.0
 40
1.0
 40
1.0
 40
1.0
 10
-20.78930506964504
 20
-40.75000000000001
 30
0.0
 10
-20.78930506964504
 20
-40.94977051844364
 30
0.0
 10
-20.7844495025436
 20
-41.14411231028841
 30
0.0
 10
-20.7653332242475
 20
-41.52228055048906
 30
0.0
 10
-20.75134001207848
 20
-41.69932905679322
 30
0.0
 10
-20.73343002455182
 20
-41.8610531949567
 30
0.0
  0
SPLINE
  5
161
330
142
100
AcDbEntity
 67
     1
  8
0
  6
Continuous
 62
     7
370
    25
100
AcDbSpline
210
0.0
220
0.0
230
1.0
 70
     8
 71
     3
 72
    10
 73
     6
 74
     0
 42
0.000000001
 43
0.00000001
 40
0.0
 40
0.0
 40
0.0
 40
0.0
 40
0.5
 40
0.5
 40
1.0
 40
1.0
 40
1.0
 40
1.0
 10
-20.73343002455182
 20
41.86105319495666
 30
0.0
 10
-20.75133217025297
 20
41.6993998671424
 30
0.0
 10
-20.7652181545735
 20
41.52413339525201
 30
0.0
 10
-20.78444440811645
 20
41.14463397332468
 30
0.0
 10
-20.78930506964603
 20
40.94976164677347
 30
0.0
 10
-20.78930506964605
 20
40.75000000000104
 30
0.0
  0
SPLINE
  5
166
330
142
100
AcDbEntity
 67
     1
  8
0
  6
Continuous
 62
     7
370
    25
100
AcDbSpline
210
0.0
220
0.0
230
1.0
 70
     8
 71
     3
 72
    18
 73
    14
 74
     0
 42
0.000000001
 43
0.00000001
 40
0.0
 40
0.0
 40
0.0
 40
0.0
 40
0.1249999999999988
 40
0.1249999999999988
 40
0.2499999999999977
 40
0.2499999999999977
 40
0.3749999999999965
 40
0.3749999999999965
 40
0.4999999999999953
 40
0.4999999999999953
 40
0.7499999999999977
 40
0.7499999999999977
 40
1.0
 40
1.0
 40
1.0
 40
1.0
 10
-46.74999999999999
 20
40.74999999999999
 30
0.0
 10
-46.74999999999999
 20
40.88230446701998
 30
0.0
 10
-46.7460141621526
 20
41.01239111045584
 30
0.0
 10
-46.73039807918642
 20
41.26831085080044
 30
0.0
 10
-46.71857639684011
 20
41.39547728704616
 30
0.0
 10
-46.68773135572081
 20
41.63785386314734
 30
0.0
 10
-46.6688582581781
 20
41.75279480416607
 30
0.0
 10
-46.62427353472673
 20
41.97029537719381
 30
0.0
 10
-46.59833646125191
 20
42.07320598763593
 30
0.0
 10
-46.51338045664284
 20
42.34981114634121
 30
0.0
 10
-46.44492640514063
 20
42.4986277529257
 30
0.0
 10
-46.29735456887145
 20
42.69769245910284
 30
0.0
 10
-46.21671067070339
 20
42.75000000000001
 30
0.0
 10
-46.1367703284387
 20
42.75000000000001
 30
0.0
  0
SPLINE
  5
168
330
142
100
AcDbEntity
 67
     1
  8
0
  6
Continuous
 62
     7
370
    25
100
AcDbSpline
210
0.0
220
0.0
230
1.0
 70
     8
 71
     3
 72
    22
 73
    18
 74
     0
 42
0.000000001
 43
0.00000001
 40
0.0
 40
0.0
 40
0.0
 40
0.0
 40
0.125
 40
0.125
 40
0.25
 40
0.25
 40
0.375
 40
0.375
 40
0.5
 40
0.5
 40
0.625
 40
0.625
 40
0.75
 40
0.75
 40
0.875
 40
0.875
 40
1.0
 40
1.0
 40
1.0
 40
1.0
 10
-46.13677032843872
 20
-42.75000000000001
 30
0.0
 10
-46.17670744480375
 20
-42.75000000000001
 30
0.0
 10
-46.21726936716274
 20
-42.73698590939355
 30
0.0
 10
-46.29578853025451
 20
-42.68599014089219
 30
0.0
 10
-46.3339622019321
 20
-42.64828662387159
 30
0.0
 10
-46.40812258677648
 20
-42.54829816438712
 30
0.0
 10
-46.44399948644438
 20
-42.48577137594143
 30
0.0
 10
-46.51040950509525
 20
-42.34120530949994
 30
0.0
 10
-46.54137157501797
 20
-42.25866838925361
 30
0.0
 10
-46.59862912169441
 20
-42.07226061566754
 30
0.0
 10
-46.62407062736173
 20
-41.97109778869343
 30
0.0
 10
-46.66851897970817
 20
-41.75463509934063
 30
0.0
 10
-46.68773361941442
 20
-41.63783978846866
 30
0.0
 10
-46.71857923356136
 20
-41.39545128267246
 30
0.0
 10
-46.7302007573617
 20
-41.27076253477005
 30
0.0
 10
-46.74593352820025
 20
-41.01448089035529
 30
0.0
 10
-46.75000000000003
 20
-40.88219651984402
 30
0.0
 10
-46.75000000000003
 20
-40.75000000000001
 30
0.0
  0
SPLINE
  5
16C
330
142
100
AcDbEntity
 67
     1
  8
0
  6
Continuous
 62
     7
370
    25
100
AcDbSpline
210
0.0
220
0.0
230
1.0
 70
     8
 71
     3
 72
    22
 73
    18
 74
     0
 42
0.000000001
 43
0.00000001
 40
0.0
 40
0.0
 40
0.0
 40
0.0
 40
0.125
 40
0.125
 40
0.25
 40
0.25
 40
0.375
 40
0.375
 40
0.5
 40
0.5
 40
0.625
 40
0.625
 40
0.75
 40
0.75
 40
0.875
 40
0.875
 40
1.0
 40
1.0
 40
1.0
 40
1.0
 10
-47.2099541958696
 20
-40.75000000000001
 30
0.0
 10
-47.20995419586959
 20
-40.9815374677645
 30
0.0
 10
-47.20297827340837
 20
-41.20919227494537
 30
0.0
 10
-47.17564785330786
 20
-41.65705563875048
 30
0.0
 10
-47.15495836827075
 20
-41.87959736780446
 30
0.0
 10
-47.10097560100348
 20
-42.30375865390992
 30
0.0
 10
-47.06794551809642
 20
-42.50490500260478
 30
0.0
 10
-46.98991809656233
 20
-42.88552854728899
 30
0.0
 10
-46.94452617307033
 20
-43.06562020194388
 30
0.0
 10
-46.84540710973418
 20
-43.38832266097978
 30
0.0
 10
-46.79132904345207
 20
-43.53310601452624
 30
0.0
 10
-46.67391802206369
 20
-43.78873830188655
 30
0.0
 10
-46.61148671426407
 20
-43.89718928529598
 30
0.0
 10
-46.48235943353001
 20
-44.07136985421986
 30
0.0
 10
-46.41470656243614
 20
-44.13839589019375
 30
0.0
 10
-46.27629956822338
 20
-44.22790880085117
 30
0.0
 10
-46.2067188041682
 20
-44.25000000000001
 30
0.0
 10
-46.13677032843871
 20
-44.25000000000001
 30
0.0
  0
SPLINE
  5
16E
330
142
100
AcDbEntity
 67
     1
  8
0
  6
Continuous
 62
     7
370
    25
100
AcDbSpline
210
0.0
220
0.0
230
1.0
 70
     8
 71
     3
 72
    22
 73
    18
 74
     0
 42
0.000000001
 43
0.00000001
 40
0.0
 40
0.0
 40
0.0
 40
0.0
 40
0.125
 40
0.125
 40
0.25
 40
0.25
 40
0.375
 40
0.375
 40
0.5
 40
0.5
 40
0.625
 40
0.625
 40
0.75
 40
0.75
 40
0.875
 40
0.875
 40
1.0
 40
1.0
 40
1.0
 40
1.0
 10
-46.1367703284387
 20
44.25000000000004
 30
0.0
 10
-46.20678566690098
 20
44.25000000000004
 30
0.0
 10
-46.2777732857803
 20
44.22713677386358
 30
0.0
 10
-46.41488295502455
 20
44.13809853773832
 30
0.0
 10
-46.48173340490298
 20
44.07219320004099
 30
0.0
 10
-46.61194446984951
 20
43.89659289673614
 30
0.0
 10
-46.67432964485356
 20
43.78777527290656
 30
0.0
 10
-46.79048244171422
 20
43.53501584842923
 30
0.0
 10
-46.8451119050127
 20
43.38932844179587
 30
0.0
 10
-46.94503020651941
 20
43.06393444285938
 30
0.0
 10
-46.98940290961431
 20
42.88763237197112
 30
0.0
 10
-47.06727927889235
 20
42.5085580952374
 30
0.0
 10
-47.10102426418763
 20
42.30333268036679
 30
0.0
 10
-47.15484964125604
 20
41.88049523501089
 30
0.0
 10
-47.17522581488763
 20
41.66241218444888
 30
0.0
 10
-47.20284778720738
 20
41.2128589611096
 30
0.0
 10
-47.20995419586963
 20
40.98131272518047
 30
0.0
 10
-47.20995419586963
 20
40.75000000000001
 30
0.0
  0
SPLINE
  5
181
330
142
100
AcDbEntity
 67
     1
  8
0
  6
Continuous
 62
     7
370
    25
100
AcDbSpline
210
0.0
220
0.0
230
1.0
 70
    11
 71
     3
 72
    70
 73
    66
 74
     0
 42
0.000000001
 43
0.00000001
 40
0.0
 40
0.0
 40
0.0
 40
0.0
 40
0.0312500000000001
 40
0.0312500000000001
 40
0.0625000000000003
 40
0.0625000000000003
 40
0.0937500000000004
 40
0.0937500000000004
 40
0.1250000000000005
 40
0.1250000000000005
 40
0.1562500000000007
 40
0.1562500000000007
 40
0.1875000000000006
 40
0.1875000000000006
 40
0.2187500000000006
 40
0.2187500000000006
 40
0.2500000000000006
 40
0.2500000000000006
 40
0.2812500000000005
 40
0.2812500000000005
 40
0.3125000000000005
 40
0.3125000000000005
 40
0.3437500000000004
 40
0.3437500000000004
 40
0.3750000000000004
 40
0.3750000000000004
 40
0.4062500000000004
 40
0.4062500000000004
 40
0.4375000000000004
 40
0.4375000000000004
 40
0.4687500000000003
 40
0.4687500000000003
 40
0.5000000000000003
 40
0.5000000000000003
 40
0.5312500000000002
 40
0.5312500000000002
 40
0.5625000000000001
 40
0.5625000000000001
 40
0.5937500000000001
 40
0.5937500000000001
 40
0.625
 40
0.625
 40
0.6562499999999999
 40
0.6562499999999999
 40
0.6874999999999998
 40
0.6874999999999998
 40
0.7187499999999998
 40
0.7187499999999998
 40
0.7499999999999997
 40
0.7499999999999997
 40
0.7812499999999996
 40
0.7812499999999996
 40
0.8124999999999994
 40
0.8124999999999994
 40
0.8437499999999994
 40
0.8437499999999994
 40
0.8749999999999996
 40
0.8749999999999996
 40
0.9062499999999997
 40
0.9062499999999997
 40
0.9374999999999998
 40
0.9374999999999998
 40
0.96875
 40
0.96875
 40
1.0
 40
1.0
 40
1.0
 40
1.0
 10
-17.35668293214137
 20
0.0
 30
0.0
 10
-17.35668293214137
 20
-0.2642822044238528
 30
0.0
 10
-17.33401218524587
 20
-0.5241438210890058
 30
0.0
 10
-17.24524079544144
 20
-1.035388754903538
 30
0.0
 10
-17.17806275029364
 20
-1.289420925214041
 30
0.0
 10
-17.00286826079235
 20
-1.773820330952195
 30
0.0
 10
-16.89572908951677
 20
-2.003561471513235
 30
0.0
 10
-16.64294696323343
 20
-2.438356713599728
 30
0.0
 10
-16.49597581419349
 20
-2.644202650439608
 30
0.0
 10
-16.17546126910555
 20
-3.013167884919022
 30
0.0
 10
-16.00080853253213
 20
-3.178739756920834
 30
0.0
 10
-15.62228888941643
 20
-3.471155755695009
 30
0.0
 10
-15.4210937362327
 20
-3.595408288672539
 30
0.0
 10
-15.00597186804917
 20
-3.794904832539384
 30
0.0
 10
-14.78898688329177
 20
-3.871689485513408
 30
0.0
 10
-14.34545558083601
 20
-3.974445701313667
 30
0.0
 10
-14.12297224314945
 20
-3.999860385572995
 30
0.0
 10
-13.67666202743174
 20
-4.000138478166121
 30
0.0
 10
-13.45048963847143
 20
-3.974179006633147
 30
0.0
 10
-13.0135246587649
 20
-3.872145620805486
 30
0.0
 10
-12.80160097185719
 20
-3.79664982019117
 30
0.0
 10
-12.39078801408057
 20
-3.596422031809099
 30
0.0
 10
-12.1924982965043
 20
-3.471193119993444
 30
0.0
 10
-11.82618100837676
 20
-3.181699956502029
 30
0.0
 10
-11.65577080114219
 20
-3.016437534584502
 30
0.0
 10
-11.34116290189519
 20
-2.643262372381614
 30
0.0
 10
-11.20172880762845
 20
-2.440879408972001
 30
0.0
 10
-10.95834270738729
 20
-2.007764724053712
 30
0.0
 10
-10.85329825927584
 20
-1.774070310940196
 30
0.0
 10
-10.68489614150633
 20
-1.289380215505076
 30
0.0
 10
-10.62152657145027
 20
-1.040048693409071
 30
0.0
 10
-10.53580194004332
 20
-0.5275754437807237
 30
0.0
 10
-10.51384117905957
 20
-0.2624699566122056
 30
0.0
 10
-10.51368596460627
 20
0.2596276051907495
 30
0.0
 10
-10.53478157217319
 20
0.5190847333082873
 30
0.0
 10
-10.62025085542322
 20
1.034750008588311
 30
0.0
 10
-10.68450909178921
 20
1.287648097750266
 30
0.0
 10
-10.85137787209443
 20
1.769152751225808
 30
0.0
 10
-10.95505340017641
 20
2.001350271414287
 30
0.0
 10
-11.20066033711609
 20
2.439529175071447
 30
0.0
 10
-11.3398092564453
 20
2.641103356056229
 30
0.0
 10
-11.65010860293628
 20
3.010262278143235
 30
0.0
 10
-11.82343773129155
 20
3.179288629532856
 30
0.0
 10
-12.19095518809735
 20
3.470214181709172
 30
0.0
 10
-12.38532211173334
 20
3.593227271545685
 30
0.0
 10
-12.795571206104
 20
3.794227000322125
 30
0.0
 10
-13.01174951440874
 20
3.871529991295854
 30
0.0
 10
-13.4472580574613
 20
3.973623243347194
 30
0.0
 10
-13.66887686361078
 20
3.999730744911978
 30
0.0
 10
-14.1201794786343
 20
4.00026515161569
 30
0.0
 10
-14.34389417121185
 20
3.974509234252953
 30
0.0
 10
-14.78301596260453
 20
3.873365951644998
 30
0.0
 10
-15.00130154547303
 20
3.79688237067904
 30
0.0
 10
-15.41977665842751
 20
3.596304343906862
 30
0.0
 10
-15.61845004133683
 20
3.473579689582203
 30
0.0
 10
-15.99476424282008
 20
3.183936747598929
 30
0.0
 10
-16.1735080927088
 20
3.015156191226733
 30
0.0
 10
-16.49445826830436
 20
2.646206920537255
 30
0.0
 10
-16.63857096466746
 20
2.445036095329494
 30
0.0
 10
-16.89321972450326
 20
2.008702547705071
 30
0.0
 10
-17.00208356021052
 20
1.775399738566749
 30
0.0
 10
-17.17653496811264
 20
1.294227575669896
 30
0.0
 10
-17.24356959161132
 20
1.043341160133255
 30
0.0
 10
-17.3340093473576
 20
0.5258016571529491
 30
0.0
 10
-17.35668293214138
 20
0.2642822044238516
 30
0.0
 10
-17.35668293214137
 20
0.0000000000000003
 30
0.0
  0
SPLINE
  5
189
330
142
100
AcDbEntity
 67
     1
  8
0
  6
Continuous
 62
     7
370
    25
100
AcDbSpline
210
0.0
220
0.0
230
1.0
 70
     8
 71
     3
 72
    22
 73
    18
 74
     0
 42
0.000000001
 43
0.00000001
 40
0.0
 40
0.0
 40
0.0
 40
0.0
 40
0.125
 40
0.125
 40
0.25
 40
0.25
 40
0.375
 40
0.375
 40
0.5
 40
0.5
 40
0.625
 40
0.625
 40
0.75
 40
0.75
 40
0.875
 40
0.875
 40
1.0
 40
1.0
 40
1.0
 40
1.0
 10
-34.20995419586959
 20
-14.87499999999998
 30
0.0
 10
-34.20995419586959
 20
-15.08159173921127
 30
0.0
 10
-34.18884284615244
 20
-15.28425654779005
 30
0.0
 10
-34.10647576538957
 20
-15.68211294748531
 30
0.0
 10
-34.04405294306933
 20
-15.87928105805363
 30
0.0
 10
-33.88408153935412
 20
-16.24967781798966
 30
0.0
 10
-33.78666063941453
 20
-16.4244359855862
 30
0.0
 10
-33.55765769331381
 20
-16.75341855232631
 30
0.0
 10
-33.428001363133
 20
-16.90441015239795
 30
0.0
 10
-33.14578855582648
 20
-17.17517045752515
 30
0.0
 10
-32.99081676403888
 20
-17.29697448126854
 30
0.0
 10
-32.66496702707806
 20
-17.50565952484187
 30
0.0
 10
-32.49486625476374
 20
-17.59257844463772
 30
0.0
 10
-32.14109156235844
 20
-17.73318383008849
 30
0.0
 10
-31.95649666745915
 20
-17.78673501044057
 30
0.0
 10
-31.58618656706907
 20
-17.85727692137635
 30
0.0
 10
-31.39905902972351
 20
-17.875
 30
0.0
 10
-31.20995419586957
 20
-17.875
 30
0.0
  0
SPLINE
  5
18C
330
142
100
AcDbEntity
 67
     1
  8
0
  6
Continuous
 62
     7
370
    25
100
AcDbSpline
210
0.0
220
0.0
230
1.0
 70
     8
 71
     3
 72
    20
 73
    16
 74
     0
 42
0.000000001
 43
0.00000001
 40
0.0
 40
0.0
 40
0.0
 40
0.0
 40
0.2499999999999978
 40
0.2499999999999978
 40
0.3749999999999982
 40
0.3749999999999982
 40
0.4999999999999986
 40
0.4999999999999986
 40
0.6249999999999989
 40
0.6249999999999989
 40
0.7499999999999992
 40
0.7499999999999992
 40
0.8749999999999997
 40
0.8749999999999997
 40
1.0
 40
1.0
 40
1.0
 40
1.0
 10
-31.20995419586957
 20
17.875
 30
0.0
 10
-31.58860290287197
 20
17.875
 30
0.0
 10
-31.95952232149404
 20
17.80506790932165
 30
0.0
 10
-32.49438375593126
 20
17.59290880775772
 30
0.0
 10
-32.66444693257677
 20
17.5058402859326
 30
0.0
 10
-32.98797821799216
 20
17.29894313216604
 30
0.0
 10
-33.14277597613386
 20
17.17783564417764
 30
0.0
 10
-33.4274661628739
 20
16.90514598355674
 30
0.0
 10
-33.55558758310901
 20
16.75578269089174
 30
0.0
 10
-33.78278074660439
 20
16.43060375980657
 30
0.0
 10
-33.8827888797664
 20
16.25224266622628
 30
0.0
 10
-34.04335760302943
 20
15.88131393780014
 30
0.0
 10
-34.10468922786588
 20
15.68875562360711
 30
0.0
 10
-34.1882525539429
 20
15.28903865848079
 30
0.0
 10
-34.2099541958696
 20
15.08194726304483
 30
0.0
 10
-34.20995419586959
 20
14.87499999999998
 30
0.0
  0
SPLINE
  5
18F
330
142
100
AcDbEntity
 67
     1
  8
0
  6
Continuous
 62
     7
370
    25
100
AcDbSpline
210
0.0
220
0.0
230
1.0
 70
     8
 71
     3
 72
    16
 73
    12
 74
     0
 42
0.000000001
 43
0.00000001
 40
0.0
 40
0.0
 40
0.0
 40
0.0
 40
0.107707530581235
 40
0.2244352231389934
 40
0.3412304051633294
 40
0.4580266611367099
 40
0.5747557787214412
 40
0.6914543763765729
 40
0.8082066721143533
 40
0.9250130899611425
 40
1.0
 40
1.0
 40
1.0
 40
1.0
 10
-14.19607316624464
 20
3.944238093726024
 30
0.0
 10
-13.84964465290391
 20
3.85481614266536
 30
0.0
 10
-13.12777534373155
 20
3.668483437500538
 30
0.0
 10
-12.21783542820919
 20
2.862395850979823
 30
0.0
 10
-11.55662843862933
 20
1.750540978315682
 30
0.0
 10
-11.24643708763354
 20
0.4305591843005538
 30
0.0
 10
-11.31815327615611
 20
-0.9335908340065746
 30
0.0
 10
-11.76363190966593
 20
-2.197799887568343
 30
0.0
 10
-12.53877707846363
 20
-3.196422154524933
 30
0.0
 10
-13.4292844690608
 20
-3.818120082417092
 30
0.0
 10
-14.05797262735816
 20
-3.894043788676339
 30
0.0
 10
-14.30377566382692
 20
-3.923728263073036
 30
0.0
  0
LINE
  5
197
330
142
100
AcDbEntity
 67
     1
  8
0
  6
Continuous
 62
     7
370
    25
100
AcDbLine
 10
-3.25
 20
-22.4382242371
 30
0.0
 11
16.25
 21
-7.7558712959
 31
0.0
  0
LINE
  5
198
330
142
100
AcDbEntity
 67
     1
  8
0
  6
Continuous
 62
     7
370
    25
100
AcDbLine
 10
-3.25
 20
-22.4382242371
 30
0.0
 11
-3.25
 21
22.4382242371
 31
0.0
  0
LINE
  5
199
330
142
100
AcDbEntity
 67
     1
  8
0
  6
Continuous
 62
     7
370
    25
100
AcDbLine
 10
16.25
 20
7.7558712959
 30
0.0
 11
-3.25
 21
22.4382242371
 31
0.0
  0
LINE
  5
19A
330
142
100
AcDbEntity
 67
     1
  8
0
  6
Continuous
 62
     7
370
    25
100
AcDbLine
 10
16.25
 20
-7.7558712959
 30
0.0
 11
16.25
 21
7.7558712959
 31
0.0
  0
LINE
  5
19B
330
142
100
AcDbEntity
 67
     1
  8
0
  6
Continuous
 62
     7
370
    25
100
AcDbLine
 10
16.25
 20
-7.7558712959
 30
0.0
 11
19.2575134838
 21
-11.7502251416
 31
0.0
  0
LINE
  5
19C
330
142
100
AcDbEntity
 67
     1
  8
0
  6
Continuous
 62
     7
370
    25
100
AcDbLine
 10
19.2575134838
 20
-11.7502251416
 30
0.0
 11
-20.7334300246
 21
-41.861053195
 31
0.0
  0
LINE
  5
19D
330
142
100
AcDbEntity
 67
     1
  8
0
  6
Continuous
 62
     7
370
    25
100
AcDbLine
 10
16.25
 20
7.7558712959
 30
0.0
 11
19.2575134838
 21
11.7502251416
 31
0.0
  0
LINE
  5
19E
330
142
100
AcDbEntity
 67
     1
  8
0
  6
Continuous
 62
     7
370
    25
100
AcDbLine
 10
16.25
 20
7.7558712959
 30
0.0
 11
21.25
 21
7.7558712959
 31
0.0
  0
LINE
  5
19F
330
142
100
AcDbEntity
 67
     1
  8
0
  6
Continuous
 62
     7
370
    25
100
AcDbLine
 10
21.25
 20
7.7558712959
 30
0.0
 11
21.25
 21
-7.7558712959
 31
0.0
  0
LINE
  5
1A0
330
142
100
AcDbEntity
 67
     1
  8
0
  6
Continuous
 62
     7
370
    25
100
AcDbLine
 10
16.25
 20
-7.7558712959
 30
0.0
 11
21.25
 21
-7.7558712959
 31
0.0
  0
LINE
  5
1A1
330
142
100
AcDbEntity
 67
     1
  8
0
  6
Continuous
 62
     7
370
    25
100
AcDbLine
 10
-20.7893050696
 20
-40.0254734412
 30
0.0
 11
-20.7893050696
 21
-40.75
 31
0.0
  0
LINE
  5
1A2
330
142
100
AcDbEntity
 67
     1
  8
0
  6
Continuous
 62
     7
370
    25
100
AcDbLine
 10
-4.2673913043
 20
-27.5854442532
 30
0.0
 11
-20.7893050696
 21
-40.0254734412
 31
0.0
  0
LINE
  5
1A3
330
142
100
AcDbEntity
 67
     1
  8
0
  6
Continuous
 62
     7
370
    25
100
AcDbLine
 10
-3.4847826087
 20
-20.7373513547
 30
0.0
 11
-3.4847826087
 21
20.7373513547
 31
0.0
  0
LINE
  5
1A4
330
142
100
AcDbEntity
 67
     1
  8
0
  6
Continuous
 62
     7
370
    25
100
AcDbLine
 10
-20.7893050696
 20
40.0254734412
 30
0.0
 11
-4.2673913043
 21
27.5854442532
 31
0.0
  0
LINE
  5
1A5
330
142
100
AcDbEntity
 67
     1
  8
0
  6
Continuous
 62
     7
370
    25
100
AcDbLine
 10
-20.7893050696
 20
40.75
 30
0.0
 11
-20.7893050696
 21
40.0254734412
 31
0.0
  0
LINE
  5
1A6
330
142
100
AcDbEntity
 67
     1
  8
0
  6
Continuous
 62
     7
370
    25
100
AcDbLine
 10
-20.7334300246
 20
41.861053195
 30
0.0
 11
19.2575134838
 21
11.7502251416
 31
0.0
  0
LINE
  5
1A7
330
142
100
AcDbEntity
 67
     1
  8
0
  6
Continuous
 62
     7
370
    25
100
AcDbLine
 10
-46.1367703284
 20
42.75
 30
0.0
 11
30.0715011807
 21
42.75
 31
0.0
  0
LINE
  5
1A8
330
142
100
AcDbEntity
 67
     1
  8
0
  6
Continuous
 62
     7
370
    25
100
AcDbLine
 10
-46.75
 20
-40.75
 30
0.0
 11
-46.75
 21
40.75
 31
0.0
  0
LINE
  5
1A9
330
142
100
AcDbEntity
 67
     1
  8
0
  6
Continuous
 62
     7
370
    25
100
AcDbLine
 10
-46.1367703284
 20
-42.75
 30
0.0
 11
30.0715011807
 21
-42.75
 31
0.0
  0
LINE
  5
1AA
330
142
100
AcDbEntity
 67
     1
  8
0
  6
Continuous
 62
     7
370
    25
100
AcDbLine
 10
-45.3702977919
 20
-44.25
 30
0.0
 11
-45.3702977919
 21
-42.75
 31
0.0
  0
LINE
  5
1AB
330
142
100
AcDbEntity
 67
     1
  8
0
  6
Continuous
 62
     7
370
    25
100
AcDbLine
 10
-46.1367703284
 20
-44.25
 30
0.0
 11
30.0715011807
 21
-44.25
 31
0.0
  0
LINE
  5
1AC
330
142
100
AcDbEntity
 67
     1
  8
0
  6
Continuous
 62
     7
370
    25
100
AcDbLine
 10
-47.2099541959
 20
40.75
 30
0.0
 11
-47.2099541959
 21
-40.75
 31
0.0
  0
LINE
  5
1AD
330
142
100
AcDbEntity
 67
     1
  8
0
  6
Continuous
 62
     7
370
    25
100
AcDbLine
 10
-45.3702977919
 20
42.75
 30
0.0
 11
-45.3702977919
 21
44.25
 31
0.0
  0
LINE
  5
1AE
330
142
100
AcDbEntity
 67
     1
  8
0
  6
Continuous
 62
     7
370
    25
100
AcDbLine
 10
-46.1367703284
 20
44.25
 30
0.0
 11
30.0715011807
 21
44.25
 31
0.0
  0
LINE
  5
1AF
330
142
100
AcDbEntity
 67
     1
  8
0
  6
Continuous
 62
     7
370
    25
100
AcDbLine
 10
30.0715011807
 20
44.25
 30
0.0
 11
30.0715011807
 21
42.75
 31
0.0
  0
LINE
  5
1B0
330
142
100
AcDbEntity
 67
     1
  8
0
  6
Continuous
 62
     7
370
    25
100
AcDbLine
 10
30.0715011807
 20
-42.75
 30
0.0
 11
30.0715011807
 21
-44.25
 31
0.0
  0
LINE
  5
1B1
330
142
100
AcDbEntity
 67
     1
  8
0
  6
Continuous
 62
     7
370
    25
100
AcDbLine
 10
-46.75
 20
-40.75
 30
0.0
 11
-20.7893050696
 21
-40.75
 31
0.0
  0
LINE
  5
1B2
330
142
100
AcDbEntity
 67
     1
  8
0
  6
Continuous
 62
     7
370
    25
100
AcDbLine
 10
-19.2578125
 20
-40.75
 30
0.0
 11
25.75
 21
-40.75
 31
0.0
  0
LINE
  5
1B3
330
142
100
AcDbEntity
 67
     1
  8
0
  6
Continuous
 62
     7
370
    25
100
AcDbLine
 10
-19.2578125
 20
40.75
 30
0.0
 11
25.75
 21
40.75
 31
0.0
  0
LINE
  5
1B4
330
142
100
AcDbEntity
 67
     1
  8
0
  6
Continuous
 62
     7
370
    25
100
AcDbLine
 10
-46.75
 20
40.75
 30
0.0
 11
-20.7893050696
 21
40.75
 31
0.0
  0
LINE
  5
1B5
330
142
100
AcDbEntity
 67
     1
  8
0
  6
Continuous
 62
     7
370
    25
100
AcDbLine
 10
-27.4180317201
 20
10.0
 30
0.0
 11
-27.4180317201
 21
-10.0
 31
0.0
  0
LINE
  5
1B6
330
142
100
AcDbEntity
 67
     1
  8
0
  6
Continuous
 62
     7
370
    25
100
AcDbLine
 10
-36.6974819575
 20
10.0
 30
0.0
 11
-3.4847826087
 21
10.0
 31
0.0
  0
LINE
  5
1B7
330
142
100
AcDbEntity
 67
     1
  8
0
  6
Continuous
 62
     7
370
    25
100
AcDbLine
 10
-20.9107903062
 20
10.0
 30
0.0
 11
-20.9107903062
 21
-10.0
 31
0.0
  0
LINE
  5
1B8
330
142
100
AcDbEntity
 67
     1
  8
0
  6
Continuous
 62
     7
370
    25
100
AcDbLine
 10
-36.6974819575
 20
-10.0
 30
0.0
 11
-3.4847826087
 21
-10.0
 31
0.0
  0
LINE
  5
1B9
330
142
100
AcDbEntity
 67
     1
  8
0
  6
Continuous
 62
     7
370
    25
100
AcDbLine
 10
-7.185065096
 20
10.0
 30
0.0
 11
-7.185065096
 21
-10.0
 31
0.0
  0
LINE
  5
1BA
330
142
100
AcDbEntity
 67
     1
  8
0
  6
Continuous
 62
     7
370
    25
100
AcDbLine
 10
-32.2462349934
 20
10.0
 30
0.0
 11
-32.2462349934
 21
-10.0
 31
0.0
  0
LINE
  5
1BB
330
142
100
AcDbEntity
 67
     1
  8
0
  6
Continuous
 62
     7
370
    25
100
AcDbLine
 10
-34.2099541959
 20
-10.0
 30
0.0
 11
-34.2099541959
 21
-14.875
 31
0.0
  0
LINE
  5
1BC
330
142
100
AcDbEntity
 67
     1
  8
0
  6
Continuous
 62
     7
370
    25
100
AcDbLine
 10
-31.2099541959
 20
-17.875
 30
0.0
 11
-3.4847826087
 21
-17.875
 31
0.0
  0
LINE
  5
1BD
330
142
100
AcDbEntity
 67
     1
  8
0
  6
Continuous
 62
     7
370
    25
100
AcDbLine
 10
-3.4847826087
 20
17.875
 30
0.0
 11
-31.2099541959
 21
17.875
 31
0.0
  0
LINE
  5
1BE
330
142
100
AcDbEntity
 67
     1
  8
0
  6
Continuous
 62
     7
370
    25
100
AcDbLine
 10
-34.2099541959
 20
14.875
 30
0.0
 11
-34.2099541959
 21
10.0
 31
0.0
  0
LINE
  5
1BF
330
142
100
AcDbEntity
 67
     1
  8
0
  6
Continuous
 62
     7
370
    25
100
AcDbLine
 10
-36.6974819575
 20
-10.0
 30
0.0
 11
-36.6974819575
 21
10.0
 31
0.0
  0
LINE
  5
1C0
330
142
100
AcDbEntity
 67
     1
  8
0
  6
Continuous
 62
     7
370
    25
100
AcDbLine
 10
25.75
 20
40.75
 30
0.0
 11
25.75
 21
-40.75
 31
0.0
  0
LINE
  5
1C1
330
142
100
AcDbEntity
 67
     1
  8
0
  6
Continuous
 62
     8
370
    25
100
AcDbLine
 10
5.9998647044
 20
4.1645377778
 30
0.0
 11
5.9998647044
 21
-4.1645377778
 31
0.0
  0
LINE
  5
1C2
330
142
100
AcDbEntity
 67
     1
  8
0
  6
Continuous
 62
     8
370
    25
100
AcDbLine
 10
5.2424811009
 20
-4.2636657186
 30
0.0
 11
5.2424811009
 21
4.2636657186
 31
0.0
  0
ARC
  5
1C3
330
142
100
AcDbEntity
 67
     1
  8
0
  6
Continuous
 62
     7
370
    25
100
AcDbCircle
 10
-21.0495386341
 20
-23.8728357107
 30
0.0
 40
17.85725862686243
100
AcDbArc
 50
342.3529219181
 51
4.6079782462
  0
ARC
  5
1C4
330
142
100
AcDbEntity
 67
     1
  8
0
  6
Continuous
 62
     7
370
    25
100
AcDbCircle
 10
16.25
 20
7.7558712959
 30
0.0
 40
5.000000000000021
100
AcDbArc
 50
0.0
 51
53.0224036473
  0
ARC
  5
1C5
330
142
100
AcDbEntity
 67
     1
  8
0
  6
Continuous
 62
     7
370
    25
100
AcDbCircle
 10
-21.0495386341
 20
23.8728357107
 30
0.0
 40
17.85725862686252
100
AcDbArc
 50
355.3920217538
 51
17.6470780819
  0
ARC
  5
1C6
330
142
100
AcDbEntity
 67
     1
  8
0
  6
Continuous
 62
     7
370
    25
100
AcDbCircle
 10
-21.2843212428
 20
-22.1719628284
 30
0.0
 40
17.85725862686278
100
AcDbArc
 50
342.3529219181
 51
4.6079782462
  0
ARC
  5
1C7
330
142
100
AcDbEntity
 67
     1
  8
0
  6
Continuous
 62
     7
370
    25
100
AcDbCircle
 10
-21.2843212428
 20
22.1719628284
 30
0.0
 40
17.85725862686272
100
AcDbArc
 50
355.3920217538
 51
17.6470780819
  0
ARC
  5
1C8
330
142
100
AcDbEntity
 67
     1
  8
0
  6
Continuous
 62
     7
370
    25
100
AcDbCircle
 10
16.25
 20
-7.7558712959
 30
0.0
 40
5.000000000000021
100
AcDbArc
 50
306.9775963527
 51
0.0
  0
ARC
  5
1C9
330
142
100
AcDbEntity
 67
     1
  8
0
  6
Continuous
 62
     7
370
    25
100
AcDbCircle
 10
27.7111528025
 20
-40.7888796925
 30
0.0
 40
1.96153815801093
100
AcDbArc
 50
178.8642646756
 51
268.8173468036
  0
ARC
  5
1CA
330
142
100
AcDbEntity
 67
     1
  8
0
  6
Continuous
 62
     7
370
    25
100
AcDbCircle
 10
27.7111528025
 20
40.7888796925
 30
0.0
 40
1.961538158010931
100
AcDbArc
 50
91.1826531964
 51
181.1357353244
  0
VIEWPORT
  5
1CF
330
142
100
AcDbEntity
 67
     1
  8
0
100
AcDbViewport
 10
0.0
 20
0.0
 30
0.0
 40
205.6
 41
156.0
 68
     1
 69
     1
 12
-8.5692265076
 22
0.0
 13
0.0
 23
0.0
 14
10.0
 24
10.0
 15
10.0
 25
10.0
 16
0.0
 26
0.0
 36
1.0
 17
0.0
 27
0.0
 37
0.0
 42
50.0
 43
0.0
 44
0.0
 45
90.27
 50
0.0
 51
0.0
 72
   100
 90
   557152
  1

281
     0
 71
     1
 74
     0
110
0.0
120
0.0
130
0.0
111
1.0
121
0.0
131
0.0
112
0.0
122
1.0
132
0.0
 79
     0
146
0.0
  0
ENDSEC
  0
SECTION
  2
OBJECTS
  0
DICTIONARY
  5
C
330
0
100
AcDbDictionary
281
     1
  3
ACAD_GROUP
350
D
  3
ACAD_LAYOUT
350
1A
  3
ACAD_MLINESTYLE
350
17
  3
ACAD_PLOTSETTINGS
350
19
  3
ACAD_PLOTSTYLENAME
350
E
  3
ACAD_SCALELIST
350
47
  0
DICTIONARY
  5
D
102
{ACAD_REACTORS
330
C
102
}
330
C
100
AcDbDictionary
281
     1
  0
DICTIONARY
  5
1A
102
{ACAD_REACTORS
330
C
102
}
330
C
100
AcDbDictionary
281
     1
  3
_Bottom
350
143
  3
_Front
350
1E
  3
_Right
350
26
  3
Model
350
22
  0
DICTIONARY
  5
17
102
{ACAD_REACTORS
330
C
102
}
330
C
100
AcDbDictionary
281
     1
  3
Standard
350
18
  0
DICTIONARY
  5
19
102
{ACAD_REACTORS
330
C
102
}
330
C
100
AcDbDictionary
281
     1
  0
ACDBDICTIONARYWDFLT
  5
E
102
{ACAD_REACTORS
330
C
102
}
330
C
100
AcDbDictionary
281
     1
  3
Normal
350
F
100
AcDbDictionaryWithDefault
340
F
  0
DICTIONARY
  5
47
102
{ACAD_REACTORS
330
C
102
}
330
C
100
AcDbDictionary
281
     1
  3
A0
350
48
  3
A1
350
49
  3
A2
350
4A
  3
A3
350
4B
  3
A4
350
4C
  3
A5
350
4D
  3
A6
350
4E
  3
A7
350
4F
  3
A8
350
50
  3
A9
350
51
  3
B0
350
52
  3
B1
350
53
  3
B2
350
54
  3
B3
350
55
  3
B4
350
56
  3
B5
350
57
  3
B6
350
58
  3
B7
350
59
  3
B8
350
5A
  3
B9
350
5B
  3
C0
350
5C
  3
C1
350
5D
  3
C2
350
5E
  3
C3
350
5F
  3
C4
350
60
  3
C5
350
61
  3
C6
350
62
  3
C7
350
63
  3
C8
350
64
  3
C9
350
65
  3
D0
350
66
  3
D1
350
67
  3
D2
350
68
  0
LAYOUT
  5
143
102
{ACAD_REACTORS
330
1A
102
}
330
1A
100
AcDbPlotSettings
  1

  2
none_device
  4
ANSI_A_(11.00_x_8.50_Inches)
  6

 40
6.35
 41
19.05
 42
6.35000508
 43
19.05000254
 44
279.4
 45
215.9
 46
154.0459866459
 47
88.89999873
 48
0.0
 49
0.0
140
0.0
141
0.0
142
0.0950847458
143
1.0
 70
  1696
 72
     0
 73
     0
 74
     1
  7

 75
     0
147
0.0790960441
148
1199.1328365751
149
1123.95
100
AcDbLayout
  1
_Bottom
 70
     1
 71
     3
 10
0.0
 20
0.0
 11
0.0
 21
0.0
 12
0.0
 22
0.0
 32
0.0
 14
-47.2099541959
 24
-44.25
 34
0.0
 15
30.0715011807
 25
44.25
 35
0.0
146
0.0
 13
0.0
 23
0.0
 33
0.0
 16
1.0
 26
0.0
 36
0.0
 17
0.0
 27
1.0
 37
0.0
 76
     0
330
142
331
1CF
  0
LAYOUT
  5
1E
102
{ACAD_REACTORS
330
1A
102
}
330
1A
100
AcDbPlotSettings
  1

  2
none_device
  4
ISO_A4_(210.00_x_297.00_MM)
  6

 40
7.5
 41
20.0
 42
7.5
 43
20.0
 44
210.0
 45
297.0
 46
0.0
 47
0.0
 48
0.0
 49
0.0
140
0.0
141
0.0
142
1.0
143
0.8817350397
 70
   688
 72
     1
 73
     1
 74
     1
  7

 75
     0
147
1.1341275496
148
47.2099541959
149
0.0200522026
100
AcDbLayout
  1
_Front
 70
     1
 71
     1
 10
-64.8446549907
 20
-6.6330650006
 11
197.0306518127
 21
178.5312933452
 12
0.0
 22
0.0
 32
0.0
 14
1.0000000000E+20
 24
1.0000000000E+20
 34
1.0000000000E+20
 15
-1.0000000000E+20
 25
-1.0000000000E+20
 35
-1.0000000000E+20
146
0.0
 13
0.0
 23
0.0
 33
0.0
 16
1.0
 26
0.0
 36
0.0
 17
0.0
 27
1.0
 37
0.0
 76
     0
330
1B
331
1CB
  0
LAYOUT
  5
26
102
{ACAD_REACTORS
330
1A
102
}
330
1A
100
AcDbPlotSettings
  1

  2
none_device
  4
ISO_A4_(210.00_x_297.00_MM)
  6

 40
7.5
 41
20.0
 42
7.5
 43
20.0
 44
210.0
 45
297.0
 46
0.0
 47
0.0
 48
0.0
 49
0.0
140
0.0
141
0.0
142
1.0
143
0.8817350397
 70
   688
 72
     1
 73
     1
 74
     1
  7

 75
     0
147
1.1341275496
148
47.2099541959
149
0.0200522026
100
AcDbLayout
  1
_Right
 70
     1
 71
     2
 10
0.0
 20
0.0
 11
0.0
 21
0.0
 12
0.0
 22
0.0
 32
0.0
 14
0.0
 24
0.0
 34
0.0
 15
0.0
 25
0.0
 35
0.0
146
0.0
 13
0.0
 23
0.0
 33
0.0
 16
1.0
 26
0.0
 36
0.0
 17
0.0
 27
1.0
 37
0.0
 76
     0
330
23
331
1CD
  0
LAYOUT
  5
22
102
{ACAD_REACTORS
330
1A
102
}
330
1A
100
AcDbPlotSettings
  1

  2
none_device
  4
Letter_(8.50_x_11.00_Inches)
  6

 40
6.35
 41
6.35
 42
6.35000508
 43
6.35000508
 44
215.9
 45
279.4
 46
0.0
 47
0.0
 48
0.0
 49
0.0
140
0.0
141
0.0
142
1.0
143
1.0
 70
  1712
 72
     1
 73
     0
 74
     0
  7

 75
     0
147
1.0
148
0.0
149
0.0
100
AcDbLayout
  1
Model
 70
     1
 71
     0
 10
0.0
 20
0.0
 11
420.0
 21
297.0
 12
0.0
 22
0.0
 32
0.0
 14
-47.2099541959
 24
-44.25
 34
0.0
 15
30.0715011807
 25
44.25
 35
0.0
146
0.0
 13
0.0
 23
0.0
 33
0.0
 16
1.0
 26
0.0
 36
0.0
 17
0.0
 27
1.0
 37
0.0
 76
     0
330
1F
331
29
  0
MLINESTYLE
  5
18
102
{ACAD_REACTORS
330
17
102
}
330
17
100
AcDbMlineStyle
  2
Standard
 70
     0
  3

 62
   256
 51
90.0
 52
90.0
 71
     2
 49
0.5
 62
   256
  6
BYLAYER
 49
-0.5
 62
   256
  6
BYLAYER
  0
ACDBPLACEHOLDER
  5
F
102
{ACAD_REACTORS
330
E
102
}
330
E
  0
SCALE
  5
48
102
{ACAD_REACTORS
330
47
102
}
330
47
100
AcDbScale
 70
     0
300
1:1
140
1.0
141
1.0
290
     1
  0
SCALE
  5
49
102
{ACAD_REACTORS
330
47
102
}
330
47
100
AcDbScale
 70
     0
300
1:2
140
1.0
141
2.0
290
     0
  0
SCALE
  5
4A
102
{ACAD_REACTORS
330
47
102
}
330
47
100
AcDbScale
 70
     0
300
1:4
140
1.0
141
4.0
290
     0
  0
SCALE
  5
4B
102
{ACAD_REACTORS
330
47
102
}
330
47
100
AcDbScale
 70
     0
300
1:5
140
1.0
141
5.0
290
     0
  0
SCALE
  5
4C
102
{ACAD_REACTORS
330
47
102
}
330
47
100
AcDbScale
 70
     0
300
1:8
140
1.0
141
8.0
290
     0
  0
SCALE
  5
4D
102
{ACAD_REACTORS
330
47
102
}
330
47
100
AcDbScale
 70
     0
300
1:10
140
1.0
141
10.0
290
     0
  0
SCALE
  5
4E
102
{ACAD_REACTORS
330
47
102
}
330
47
100
AcDbScale
 70
     0
300
1:16
140
1.0
141
16.0
290
     0
  0
SCALE
  5
4F
102
{ACAD_REACTORS
330
47
102
}
330
47
100
AcDbScale
 70
     0
300
1:20
140
1.0
141
20.0
290
     0
  0
SCALE
  5
50
102
{ACAD_REACTORS
330
47
102
}
330
47
100
AcDbScale
 70
     0
300
1:30
140
1.0
141
30.0
290
     0
  0
SCALE
  5
51
102
{ACAD_REACTORS
330
47
102
}
330
47
100
AcDbScale
 70
     0
300
1:40
140
1.0
141
40.0
290
     0
  0
SCALE
  5
52
102
{ACAD_REACTORS
330
47
102
}
330
47
100
AcDbScale
 70
     0
300
1:50
140
1.0
141
50.0
290
     0
  0
SCALE
  5
53
102
{ACAD_REACTORS
330
47
102
}
330
47
100
AcDbScale
 70
     0
300
1:100
140
1.0
141
100.0
290
     0
  0
SCALE
  5
54
102
{ACAD_REACTORS
330
47
102
}
330
47
100
AcDbScale
 70
     0
300
2:1
140
2.0
141
1.0
290
     0
  0
SCALE
  5
55
102
{ACAD_REACTORS
330
47
102
}
330
47
100
AcDbScale
 70
     0
300
4:1
140
4.0
141
1.0
290
     0
  0
SCALE
  5
56
102
{ACAD_REACTORS
330
47
102
}
330
47
100
AcDbScale
 70
     0
300
8:1
140
8.0
141
1.0
290
     0
  0
SCALE
  5
57
102
{ACAD_REACTORS
330
47
102
}
330
47
100
AcDbScale
 70
     0
300
10:1
140
10.0
141
1.0
290
     0
  0
SCALE
  5
58
102
{ACAD_REACTORS
330
47
102
}
330
47
100
AcDbScale
 70
     0
300
100:1
140
100.0
141
1.0
290
     0
  0
SCALE
  5
59
102
{ACAD_REACTORS
330
47
102
}
330
47
100
AcDbScale
 70
     0
300
1/128" = 1'-0"
140
0.0078125
141
12.0
290
     0
  0
SCALE
  5
5A
102
{ACAD_REACTORS
330
47
102
}
330
47
100
AcDbScale
 70
     0
300
1/64" = 1'-0"
140
0.015625
141
12.0
290
     0
  0
SCALE
  5
5B
102
{ACAD_REACTORS
330
47
102
}
330
47
100
AcDbScale
 70
     0
300
1/32" = 1'-0"
140
0.03125
141
12.0
290
     0
  0
SCALE
  5
5C
102
{ACAD_REACTORS
330
47
102
}
330
47
100
AcDbScale
 70
     0
300
1/16" = 1'-0"
140
0.0625
141
12.0
290
     0
  0
SCALE
  5
5D
102
{ACAD_REACTORS
330
47
102
}
330
47
100
AcDbScale
 70
     0
300
3/32" = 1'-0"
140
0.09375
141
12.0
290
     0
  0
SCALE
  5
5E
102
{ACAD_REACTORS
330
47
102
}
330
47
100
AcDbScale
 70
     0
300
1/8" = 1'-0"
140
0.125
141
12.0
290
     0
  0
SCALE
  5
5F
102
{ACAD_REACTORS
330
47
102
}
330
47
100
AcDbScale
 70
     0
300
3/16" = 1'-0"
140
0.1875
141
12.0
290
     0
  0
SCALE
  5
60
102
{ACAD_REACTORS
330
47
102
}
330
47
100
AcDbScale
 70
     0
300
1/4" = 1'-0"
140
0.25
141
12.0
290
     0
  0
SCALE
  5
61
102
{ACAD_REACTORS
330
47
102
}
330
47
100
AcDbScale
 70
     0
300
3/8" = 1'-0"
140
0.375
141
12.0
290
     0
  0
SCALE
  5
62
102
{ACAD_REACTORS
330
47
102
}
330
47
100
AcDbScale
 70
     0
300
1/2" = 1'-0"
140
0.5
141
12.0
290
     0
  0
SCALE
  5
63
102
{ACAD_REACTORS
330
47
102
}
330
47
100
AcDbScale
 70
     0
300
3/4" = 1'-0"
140
0.75
141
12.0
290
     0
  0
SCALE
  5
64
102
{ACAD_REACTORS
330
47
102
}
330
47
100
AcDbScale
 70
     0
300
1" = 1'-0"
140
1.0
141
12.0
290
     0
  0
SCALE
  5
65
102
{ACAD_REACTORS
330
47
102
}
330
47
100
AcDbScale
 70
     0
300
1-1/2" = 1'-0"
140
1.5
141
12.0
290
     0
  0
SCALE
  5
66
102
{ACAD_REACTORS
330
47
102
}
330
47
100
AcDbScale
 70
     0
300
3" = 1'-0"
140
3.0
141
12.0
290
     0
  0
SCALE
  5
67
102
{ACAD_REACTORS
330
47
102
}
330
47
100
AcDbScale
 70
     0
300
6" = 1'-0"
140
6.0
141
12.0
290
     0
  0
SCALE
  5
68
102
{ACAD_REACTORS
330
47
102
}
330
47
100
AcDbScale
 70
     0
300
1'-0" = 1'-0"
140
12.0
141
12.0
290
     0
  0
ENDSEC
  0
EOF
