  0
SECTION
  2
HEADER
  9
$ACADVER
  1
AC1015
  9
$ACADMAINTVER
 70
     6
  9
$DWGCODEPAGE
  3
ANSI_1252
  9
$INSBASE
 10
0.0
 20
0.0
 30
0.0
  9
$EXTMIN
 10
-199.8638964971
 20
-199.9372137968
 30
0.0
  9
$EXTMAX
 10
199.8635415489
 20
199.9417161576
 30
0.0
  9
$LIMMIN
 10
0.0
 20
0.0
  9
$LIMMAX
 10
420.0
 20
297.0
  9
$ORTHOMODE
 70
     0
  9
$REGENMODE
 70
     1
  9
$FILLMODE
 70
     1
  9
$QTEXTMODE
 70
     0
  9
$MIRRTEXT
 70
     1
  9
$LTSCALE
 40
1.0
  9
$ATTMODE
 70
     1
  9
$TEXTSIZE
 40
3.5
  9
$TRACEWID
 40
1.0
  9
$TEXTSTYLE
  7
Standard
  9
$CLAYER
  8
0
  9
$CELTYPE
  6
ByLayer
  9
$CECOLOR
 62
   256
  9
$CELTSCALE
 40
1.0
  9
$DISPSILH
 70
     0
  9
$DIMSCALE
 40
1.0
  9
$DIMASZ
 40
3.302
  9
$DIMEXO
 40
1.0
  9
$DIMDLI
 40
3.75
  9
$DIMRND
 40
0.0
  9
$DIMDLE
 40
0.0
  9
$DIMEXE
 40
1.0
  9
$DIMTP
 40
0.0
  9
$DIMTM
 40
0.0
  9
$DIMTXT
 40
3.5
  9
$DIMCEN
 40
2.5
  9
$DIMTSZ
 40
0.0
  9
$DIMTOL
 70
     0
  9
$DIMLIM
 70
     0
  9
$DIMTIH
 70
     1
  9
$DIMTOH
 70
     1
  9
$DIMSE1
 70
     0
  9
$DIMSE2
 70
     0
  9
$DIMTAD
 70
     1
  9
$DIMZIN
 70
     1
  9
$DIMBLK
  1

  9
$DIMASO
 70
     1
  9
$DIMSHO
 70
     1
  9
$DIMPOST
  1

  9
$DIMAPOST
  1

  9
$DIMALT
 70
     0
  9
$DIMALTD
 70
     3
  9
$DIMALTF
 40
0.0393700787
  9
$DIMLFAC
 40
1.0
  9
$DIMTOFL
 70
     1
  9
$DIMTVP
 40
0.0
  9
$DIMTIX
 70
     0
  9
$DIMSOXD
 70
     0
  9
$DIMSAH
 70
     0
  9
$DIMBLK1
  1

  9
$DIMBLK2
  1

  9
$DIMSTYLE
  2
ISO-25
  9
$DIMCLRD
 70
     0
  9
$DIMCLRE
 70
     0
  9
$DIMCLRT
 70
     0
  9
$DIMTFAC
 40
1.0
  9
$DIMGAP
 40
1.524
  9
$DIMJUST
 70
     0
  9
$DIMSD1
 70
     0
  9
$DIMSD2
 70
     0
  9
$DIMTOLJ
 70
     0
  9
$DIMTZIN
 70
     1
  9
$DIMALTZ
 70
     0
  9
$DIMALTTZ
 70
     0
  9
$DIMUPT
 70
     0
  9
$DIMDEC
 70
     2
  9
$DIMTDEC
 70
     2
  9
$DIMALTU
 70
     2
  9
$DIMALTTD
 70
     3
  9
$DIMTXSTY
  7
Standard
  9
$DIMAUNIT
 70
     0
  9
$DIMADEC
 70
     2
  9
$DIMALTRND
 40
0.0
  9
$DIMAZIN
 70
     0
  9
$DIMDSEP
 70
    44
  9
$DIMATFIT
 70
     3
  9
$DIMFRAC
 70
     0
  9
$DIMLDRBLK
  1

  9
$DIMLUNIT
 70
     2
  9
$DIMLWD
 70
    -2
  9
$DIMLWE
 70
    -2
  9
$DIMTMOVE
 70
     0
  9
$LUNITS
 70
     2
  9
$LUPREC
 70
     2
  9
$SKETCHINC
 40
1.0
  9
$FILLETRAD
 40
10.0
  9
$AUNITS
 70
     0
  9
$AUPREC
 70
     2
  9
$MENU
  1
.
  9
$ELEVATION
 40
0.0
  9
$PELEVATION
 40
0.0
  9
$THICKNESS
 40
0.0
  9
$LIMCHECK
 70
     0
  9
$CHAMFERA
 40
0.0
  9
$CHAMFERB
 40
0.0
  9
$CHAMFERC
 40
0.0
  9
$CHAMFERD
 40
0.0
  9
$SKPOLY
 70
     0
  9
$TDCREATE
 40
2460292.455022986
  9
$TDUCREATE
 40
2460292.455022986
  9
$TDUPDATE
 40
2460292.455057766
  9
$TDUUPDATE
 40
2460292.455057766
  9
$TDINDWG
 40
0.0000000116
  9
$TDUSRTIMER
 40
0.0000000116
  9
$USRTIMER
 70
     1
  9
$ANGBASE
 50
0.0
  9
$ANGDIR
 70
     0
  9
$PDMODE
 70
     0
  9
$PDSIZE
 40
-1.0
  9
$PLINEWID
 40
0.0
  9
$SPLFRAME
 70
     0
  9
$SPLINETYPE
 70
     6
  9
$SPLINESEGS
 70
     8
  9
$HANDSEED
  5
105
  9
$SURFTAB1
 70
     6
  9
$SURFTAB2
 70
     6
  9
$SURFTYPE
 70
     6
  9
$SURFU
 70
     6
  9
$SURFV
 70
     6
  9
$UCSBASE
  2

  9
$UCSNAME
  2

  9
$UCSORG
 10
0.0
 20
0.0
 30
0.0
  9
$UCSXDIR
 10
1.0
 20
0.0
 30
0.0
  9
$UCSYDIR
 10
0.0
 20
1.0
 30
0.0
  9
$UCSORTHOREF
  2

  9
$UCSORTHOVIEW
 70
     0
  9
$UCSORGTOP
 10
0.0
 20
0.0
 30
0.0
  9
$UCSORGBOTTOM
 10
0.0
 20
0.0
 30
0.0
  9
$UCSORGLEFT
 10
0.0
 20
0.0
 30
0.0
  9
$UCSORGRIGHT
 10
0.0
 20
0.0
 30
0.0
  9
$UCSORGFRONT
 10
0.0
 20
0.0
 30
0.0
  9
$UCSORGBACK
 10
0.0
 20
0.0
 30
0.0
  9
$PUCSBASE
  2

  9
$PUCSNAME
  2

  9
$PUCSORG
 10
0.0
 20
0.0
 30
0.0
  9
$PUCSXDIR
 10
1.0
 20
0.0
 30
0.0
  9
$PUCSYDIR
 10
0.0
 20
1.0
 30
0.0
  9
$PUCSORTHOREF
  2

  9
$PUCSORTHOVIEW
 70
     0
  9
$PUCSORGTOP
 10
0.0
 20
0.0
 30
0.0
  9
$PUCSORGBOTTOM
 10
0.0
 20
0.0
 30
0.0
  9
$PUCSORGLEFT
 10
0.0
 20
0.0
 30
0.0
  9
$PUCSORGRIGHT
 10
0.0
 20
0.0
 30
0.0
  9
$PUCSORGFRONT
 10
0.0
 20
0.0
 30
0.0
  9
$PUCSORGBACK
 10
0.0
 20
0.0
 30
0.0
  9
$USERI1
 70
     0
  9
$USERI2
 70
     0
  9
$USERI3
 70
     0
  9
$USERI4
 70
     0
  9
$USERI5
 70
     0
  9
$USERR1
 40
0.0
  9
$USERR2
 40
0.0
  9
$USERR3
 40
0.0
  9
$USERR4
 40
0.0
  9
$USERR5
 40
0.0
  9
$WORLDVIEW
 70
     1
  9
$SHADEDGE
 70
     3
  9
$SHADEDIF
 70
    70
  9
$TILEMODE
 70
     1
  9
$MAXACTVP
 70
    64
  9
$PINSBASE
 10
0.0
 20
0.0
 30
0.0
  9
$PLIMCHECK
 70
     0
  9
$PEXTMIN
 10
-199.9441980532
 20
0.0
 30
0.0
  9
$PEXTMAX
 10
199.9441980532
 20
117.0000004502
 30
0.0
  9
$PLIMMIN
 10
-231.0639175946
 20
-11.669894828
  9
$PLIMMAX
 10
231.0639175946
 20
315.0871603563
  9
$UNITMODE
 70
     0
  9
$VISRETAIN
 70
     1
  9
$PLINEGEN
 70
     0
  9
$PSLTSCALE
 70
     1
  9
$TREEDEPTH
 70
  3020
  9
$CMLSTYLE
  2
Standard
  9
$CMLJUST
 70
     0
  9
$CMLSCALE
 40
20.0
  9
$PROXYGRAPHICS
 70
     1
  9
$MEASUREMENT
 70
     1
  9
$CELWEIGHT
370
    -1
  9
$ENDCAPS
280
     0
  9
$JOINSTYLE
280
     0
  9
$LWDISPLAY
290
     1
  9
$INSUNITS
 70
     4
  9
$HYPERLINKBASE
  1

  9
$STYLESHEET
  1

  9
$XEDIT
290
     1
  9
$CEPSNTYPE
380
     0
  9
$PSTYLEMODE
290
     1
  9
$FINGERPRINTGUID
  2
{069ca0be-ae3c-4ffd-9ab7-d417370997da}
  9
$VERSIONGUID
  2
{FAEB1C32-E019-11D5-929B-00C0DF256EC4}
  9
$EXTNAMES
290
     1
  9
$PSVPSCALE
 40
0.0
  9
$OLESTARTUP
290
     0
  0
ENDSEC
  0
SECTION
  2
CLASSES
  0
CLASS
  1
ACDBDICTIONARYWDFLT
  2
AcDbDictionaryWithDefault
  3
ObjectDBX Classes
 90
        0
280
     0
281
     0
  0
CLASS
  1
VISUALSTYLE
  2
AcDbVisualStyle
  3
ObjectDBX Classes
 90
     4095
280
     0
281
     0
  0
CLASS
  1
MATERIAL
  2
AcDbMaterial
  3
ObjectDBX Classes
 90
     1153
280
     0
281
     0
  0
CLASS
  1
SCALE
  2
AcDbScale
  3
ObjectDBX Classes
 90
     1153
280
     0
281
     0
  0
CLASS
  1
TABLESTYLE
  2
AcDbTableStyle
  3
ObjectDBX Classes
 90
     4095
280
     0
281
     0
  0
CLASS
  1
MLEADERSTYLE
  2
AcDbMLeaderStyle
  3
ACDB_MLEADERSTYLE_CLASS
 90
     4095
280
     0
281
     0
  0
CLASS
  1
SUN
  2
AcDbSun
  3
SCENEOE
 90
     1153
280
     0
281
     0
  0
CLASS
  1
ACDBPLACEHOLDER
  2
AcDbPlaceHolder
  3
ObjectDBX Classes
 90
        0
280
     0
281
     0
  0
CLASS
  1
LAYOUT
  2
AcDbLayout
  3
ObjectDBX Classes
 90
        0
280
     0
281
     0
  0
ENDSEC
  0
SECTION
  2
TABLES
  0
TABLE
  2
VPORT
  5
8
330
0
100
AcDbSymbolTable
 70
     1
  0
VPORT
  5
29
330
8
100
AcDbSymbolTableRecord
100
AcDbViewportTableRecord
  2
*Active
 70
     0
 10
0.0
 20
0.0
 11
1.0
 21
1.0
 12
-0.0001774741
 22
0.0022511804
 13
0.0
 23
0.0
 14
10.0
 24
10.0
 15
10.0
 25
10.0
 16
0.0
 26
0.0
 36
1.0
 17
0.0
 27
0.0
 37
0.0
 40
407.8765085535
 41
0.9996211556
 42
50.0
 43
0.0
 44
0.0
 50
0.0
 51
0.0
 71
     0
 72
   100
 73
     1
 74
     3
 75
     0
 76
     0
 77
     0
 78
     0
281
     0
 65
     1
110
0.0
120
0.0
130
0.0
111
1.0
121
0.0
131
0.0
112
0.0
122
1.0
132
0.0
 79
     0
146
0.0
  0
ENDTAB
  0
TABLE
  2
LTYPE
  5
5
330
0
100
AcDbSymbolTable
 70
     6
  0
LTYPE
  5
14
330
5
100
AcDbSymbolTableRecord
100
AcDbLinetypeTableRecord
  2
ByBlock
 70
     0
  3

 72
    65
 73
     0
 40
0.0
  0
LTYPE
  5
15
330
5
100
AcDbSymbolTableRecord
100
AcDbLinetypeTableRecord
  2
ByLayer
 70
     0
  3

 72
    65
 73
     0
 40
0.0
  0
LTYPE
  5
16
330
5
100
AcDbSymbolTableRecord
100
AcDbLinetypeTableRecord
  2
Continuous
 70
     0
  3
Solid line
 72
    65
 73
     0
 40
0.0
  0
LTYPE
  5
6E
330
5
100
AcDbSymbolTableRecord
100
AcDbLinetypeTableRecord
  2
HIDDEN
 70
     0
  3
Hidden __ __ __ __ __ __ __ __ __ __ __ __ __ __
 72
    65
 73
     2
 40
1.905
 49
1.27
 74
     0
 49
-0.635
 74
     0
  0
LTYPE
  5
6F
330
5
100
AcDbSymbolTableRecord
100
AcDbLinetypeTableRecord
  2
PHANTOM
 70
     0
  3
Phantom ______  __  __  ______  __  __  ______
 72
    65
 73
     6
 40
12.7
 49
6.35
 74
     0
 49
-1.27
 74
     0
 49
1.27
 74
     0
 49
-1.27
 74
     0
 49
1.27
 74
     0
 49
-1.27
 74
     0
  0
LTYPE
  5
70
330
5
100
AcDbSymbolTableRecord
100
AcDbLinetypeTableRecord
  2
CENTER
 70
     0
  3
Center ____ _ ____ _ ____ _ ____ _ ____ _ ____
 72
    65
 73
     4
 40
10.16
 49
6.35
 74
     0
 49
-1.27
 74
     0
 49
1.27
 74
     0
 49
-1.27
 74
     0
  0
LTYPE
  5
71
330
5
100
AcDbSymbolTableRecord
100
AcDbLinetypeTableRecord
  2
CENTERX2
 70
     0
  3
Center (2x) ________  __  ________  __  _____
 72
    65
 73
     4
 40
20.32
 49
12.7
 74
     0
 49
-2.54
 74
     0
 49
2.54
 74
     0
 49
-2.54
 74
     0
  0
LTYPE
  5
72
330
5
100
AcDbSymbolTableRecord
100
AcDbLinetypeTableRecord
  2
DOT2
 70
     0
  3
Dot (.5x) ........................................
 72
    65
 73
     2
 40
0.635
 49
0.0
 74
     0
 49
-0.635
 74
     0
  0
ENDTAB
  0
TABLE
  2
LAYER
  5
2
330
0
100
AcDbSymbolTable
 70
     1
  0
LAYER
  5
10
330
2
100
AcDbSymbolTableRecord
100
AcDbLayerTableRecord
  2
0
 70
     0
 62
     7
  6
Continuous
370
    -3
390
F
  0
ENDTAB
  0
TABLE
  2
STYLE
  5
3
330
0
100
AcDbSymbolTable
 70
     1
  0
STYLE
  5
11
330
3
100
AcDbSymbolTableRecord
100
AcDbTextStyleTableRecord
  2
Standard
 70
     0
 40
0.0
 41
1.0
 50
0.0
 71
     0
 42
3.5
  3
txt
  4

  0
ENDTAB
  0
TABLE
  2
VIEW
  5
6
330
0
100
AcDbSymbolTable
 70
     0
  0
ENDTAB
  0
TABLE
  2
UCS
  5
7
330
0
100
AcDbSymbolTable
 70
     0
  0
ENDTAB
  0
TABLE
  2
APPID
  5
9
330
0
100
AcDbSymbolTable
 70
     1
  0
APPID
  5
12
330
9
100
AcDbSymbolTableRecord
100
AcDbRegAppTableRecord
  2
ACAD
 70
     0
  0
ENDTAB
  0
TABLE
  2
DIMSTYLE
  5
A
330
0
100
AcDbSymbolTable
 70
     1
100
AcDbDimStyleTable
  0
DIMSTYLE
105
27
330
A
100
AcDbSymbolTableRecord
100
AcDbDimStyleTableRecord
  2
ISO-25
 70
     0
 41
2.5
 42
0.625
 43
3.75
 44
1.25
 73
     0
 74
     0
 77
     1
 78
     8
140
2.5
141
2.5
143
0.0393700787
147
0.625
171
     3
172
     1
178
     0
271
     2
272
     2
274
     3
278
    44
283
     0
284
     8
340
11
  0
ENDTAB
  0
TABLE
  2
BLOCK_RECORD
  5
1
330
0
100
AcDbSymbolTable
 70
     3
  0
BLOCK_RECORD
  5
1F
330
1
100
AcDbSymbolTableRecord
100
AcDbBlockTableRecord
  2
*Model_Space
340
22
  0
BLOCK_RECORD
  5
1B
330
1
100
AcDbSymbolTableRecord
100
AcDbBlockTableRecord
  2
*Paper_Space
340
1E
  0
BLOCK_RECORD
  5
23
330
1
100
AcDbSymbolTableRecord
100
AcDbBlockTableRecord
  2
*Paper_Space0
340
26
  0
BLOCK_RECORD
  5
C1
330
1
100
AcDbSymbolTableRecord
100
AcDbBlockTableRecord
  2
*Paper_Space1
340
C2
  0
BLOCK_RECORD
  5
D1
330
1
100
AcDbSymbolTableRecord
100
AcDbBlockTableRecord
  2
*Paper_Space2
340
D2
  0
ENDTAB
  0
ENDSEC
  0
SECTION
  2
BLOCKS
  0
BLOCK
  5
20
330
1F
100
AcDbEntity
  8
0
100
AcDbBlockBegin
  2
*Model_Space
 70
     0
 10
0.0
 20
0.0
 30
0.0
  3
*Model_Space
  1

  0
ENDBLK
  5
21
330
1F
100
AcDbEntity
  8
0
100
AcDbBlockEnd
  0
BLOCK
  5
1C
330
1B
100
AcDbEntity
 67
     1
  8
0
100
AcDbBlockBegin
  2
*Paper_Space
 70
     0
 10
0.0
 20
0.0
 30
0.0
  3
*Paper_Space
  1

  0
ENDBLK
  5
1D
330
1B
100
AcDbEntity
 67
     1
  8
0
100
AcDbBlockEnd
  0
BLOCK
  5
24
330
23
100
AcDbEntity
  8
0
100
AcDbBlockBegin
  2
*Paper_Space0
 70
     0
 10
0.0
 20
0.0
 30
0.0
  3
*Paper_Space0
  1

  0
SPLINE
  5
A7
330
23
100
AcDbEntity
  8
0
  6
Continuous
 62
     7
370
    25
100
AcDbSpline
210
0.0
220
0.0
230
1.0
 70
     8
 71
     3
 72
    17
 73
    13
 74
     0
 42
0.000000001
 43
0.00000001
 40
0.0
 40
0.0
 40
0.0
 40
0.0
 40
0.0217071718593799
 40
0.0491373427884892
 40
0.0651769719258877
 40
0.0825662112756534
 40
0.1009878927982726
 40
0.1199728088720226
 40
0.3861679301810076
 40
0.6215664754371718
 40
0.8261844913807863
 40
1.0
 40
1.0
 40
1.0
 40
1.0
 10
199.941716157566
 20
114.4355109329009
 30
0.0
 10
199.9274263505326
 20
114.6728536677079
 30
0.0
 10
199.8950792925589
 20
115.2101134910565
 30
0.0
 10
199.5710265941517
 20
115.8673301039398
 30
0.0
 10
199.1317058742774
 20
116.3666311818681
 30
0.0
 10
198.6684751110327
 20
116.699449529178
 30
0.0
 10
198.1204649605195
 20
116.9383363138143
 30
0.0
 10
194.653480703707
 20
117.278425876575
 30
0.0
 10
198.468294332874
 20
116.8908246413769
 30
0.0
 10
196.6093030740964
 20
117.023519168094
 30
0.0
 10
196.2300507532995
 20
116.9953894462793
 30
0.0
 10
195.6308904148491
 20
116.9985475573425
 30
0.0
 10
195.3556945027201
 20
116.9999980860222
 30
0.0
  0
SPLINE
  5
A8
330
23
100
AcDbEntity
  8
0
  6
Continuous
 62
     7
370
    25
100
AcDbSpline
210
0.0
220
0.0
230
1.0
 70
     8
 71
     3
 72
    61
 73
    57
 74
     0
 42
0.000000001
 43
0.00000001
 40
0.0
 40
0.0
 40
0.0
 40
0.0
 40
0.0140157653121863
 40
0.0264100127386861
 40
0.0371835852389268
 40
0.0463353247382031
 40
0.0538640801004501
 40
0.0621914576738618
 40
0.0705990090275199
 40
0.079150504069051
 40
0.0989623207617721
 40
0.1188217600525233
 40
0.1386755487750805
 40
0.1625033343033752
 40
0.1863333139653101
 40
0.2101601012570712
 40
0.233991353153492
 40
0.2578190490985546
 40
0.2816499768493207
 40
0.3054788885057314
 40
0.3293064258708233
 40
0.3531364254617825
 40
0.3769596115461202
 40
0.4007884444390384
 40
0.4246128693067939
 40
0.4484339906149883
 40
0.4722616618751336
 40
0.4960820397327046
 40
0.5199009550778491
 40
0.5437269458052156
 40
0.5675511499755309
 40
0.5913725910960609
 40
0.6152018674530998
 40
0.6390254679493073
 40
0.6628534171899058
 40
0.6866831838536321
 40
0.7105100585550481
 40
0.7343414692892313
 40
0.7581688784577373
 40
0.7819999909013032
 40
0.8058289407234756
 40
0.8296563300062353
 40
0.8534863529037024
 40
0.8683785050543624
 40
0.8832703651397183
 40
0.898166271011332
 40
0.9125207955268089
 40
0.9185880161878937
 40
0.9244300445967544
 40
0.9303047835121302
 40
0.9377053289239593
 40
0.9468736218174718
 40
0.9575994619427635
 40
0.970029426778928
 40
0.9841621907349805
 40
1.0
 40
1.0
 40
1.0
 40
1.0
 10
197.5001955526025
 20
116.9991483726959
 30
0.0
 10
197.4562303825037
 20
116.9993213374185
 30
0.0
 10
197.3733864794768
 20
116.9996472561555
 30
0.0
 10
196.8496995100222
 20
116.9998804829484
 30
0.0
 10
196.1755981505428
 20
116.9999795728467
 30
0.0
 10
195.4258770776563
 20
117.0000010103317
 30
0.0
 10
194.6140410128778
 20
116.9999996606584
 30
0.0
 10
193.7082999266131
 20
116.9999999262381
 30
0.0
 10
192.6276086123847
 20
116.9999996116856
 30
0.0
 10
190.85909349325
 20
116.9999987852848
 30
0.0
 10
188.1090735853798
 20
116.9999982064095
 30
0.0
 10
183.986601063916
 20
117.0000000498259
 30
0.0
 10
178.8202118794478
 20
116.9999994955937
 30
0.0
 10
172.4606940286069
 20
116.9999992829642
 30
0.0
 10
164.7611137527801
 20
116.999999886849
 30
0.0
 10
156.1350354551747
 20
117.0000005204471
 30
0.0
 10
146.6336309736175
 20
117.0000003221719
 30
0.0
 10
136.3086355882172
 20
116.9999997718248
 30
0.0
 10
125.2185052779877
 20
117.0000007859946
 30
0.0
 10
113.4265584340246
 20
116.9999998298799
 30
0.0
 10
100.9979916423715
 20
116.9999996012841
 30
0.0
 10
88.00465456518675
 20
116.9999990388469
 30
0.0
 10
74.51888839077314
 20
117.0000003357945
 30
0.0
 10
60.61603851544544
 20
116.9999978565385
 30
0.0
 10
46.37609280557072
 20
116.999999373252
 30
0.0
 10
31.87687926748924
 20
116.99999970697
 30
0.0
 10
17.20061838480638
 20
117.0000003881279
 30
0.0
 10
2.429474776201063
 20
116.9999995443158
 30
0.0
 10
-12.3550603195275
 20
117.0000004407995
 30
0.0
 10
-27.07146248592618
 20
116.9999997518261
 30
0.0
 10
-41.63814739160399
 20
116.9999999917295
 30
0.0
 10
-55.97197579303624
 20
116.9999977912506
 30
0.0
 10
-69.99413215857524
 20
116.9999997153355
 30
0.0
 10
-83.62558014228618
 20
116.999999510585
 30
0.0
 10
-96.78867486969473
 20
116.9999992201394
 30
0.0
 10
-109.4110082546081
 20
116.9999998484806
 30
0.0
 10
-121.4194907729005
 20
117.0000005292408
 30
0.0
 10
-132.7469663805734
 20
117.0000003265179
 30
0.0
 10
-143.3302351191327
 20
116.9999997705753
 30
0.0
 10
-153.1080717246464
 20
117.0000007727302
 30
0.0
 10
-162.0274895580371
 20
116.9999998595073
 30
0.0
 10
-170.0363385108838
 20
116.999999624297
 30
0.0
 10
-176.2099123210505
 20
116.999999203925
 30
0.0
 10
-180.8960929080229
 20
116.9999998575989
 30
0.0
 10
-184.4048643644519
 20
116.9999997264458
 30
0.0
 10
-187.4715477309628
 20
116.9999985359941
 30
0.0
 10
-189.6075327439576
 20
116.999998505392
 30
0.0
 10
-191.0285602344855
 20
116.9999989355055
 30
0.0
 10
-191.9243873132945
 20
116.9999992462511
 30
0.0
 10
-192.8166512107835
 20
116.9999998612752
 30
0.0
 10
-193.7738384886349
 20
117.0000001037613
 30
0.0
 10
-194.7949038142178
 20
116.9999836692276
 30
0.0
 10
-195.8014363287344
 20
116.9999247879017
 30
0.0
 10
-196.6805878221912
 20
116.9997882202679
 30
0.0
 10
-197.3487431386341
 20
116.9995442651204
 30
0.0
 10
-197.4478557408693
 20
116.9992846379985
 30
0.0
 10
-197.5002313320327
 20
116.9991474392601
 30
0.0
  0
SPLINE
  5
A9
330
23
100
AcDbEntity
  8
0
  6
Continuous
 62
     7
370
    25
100
AcDbSpline
210
0.0
220
0.0
230
1.0
 70
     8
 71
     3
 72
    13
 73
     9
 74
     0
 42
0.000000001
 43
0.00000001
 40
0.0
 40
0.0
 40
0.0
 40
0.0
 40
0.1582434786333218
 40
0.3117922737375218
 40
0.4567354368651567
 40
0.5904293030092046
 40
0.8190658744975969
 40
1.0
 40
1.0
 40
1.0
 40
1.0
 10
-197.5001954615947
 20
116.9991483747132
 30
0.0
 10
-197.7069458092165
 20
116.9788812411134
 30
0.0
 10
-198.1143127448889
 20
116.9389482484757
 30
0.0
 10
-198.6700035261345
 20
116.6992975015612
 30
0.0
 10
-199.1313474465558
 20
116.366666828555
 30
0.0
 10
-199.5711954350203
 20
115.8673132962369
 30
0.0
 10
-199.8950402918336
 20
115.2101173130686
 30
0.0
 10
-199.9274143997333
 20
114.6728548506694
 30
0.0
 10
-199.9417161575124
 20
114.435510932968
 30
0.0
  0
SPLINE
  5
B2
330
23
100
AcDbEntity
  8
0
  6
Continuous
 62
     8
370
    25
100
AcDbSpline
210
0.0
220
0.0
230
1.0
 70
     8
 71
     3
 72
    89
 73
    85
 74
     0
 42
0.000000001
 43
0.00000001
 40
0.0
 40
0.0
 40
0.0
 40
0.0
 40
0.0083662731622842
 40
0.0181537702063071
 40
0.0293624437620768
 40
0.0419922397354379
 40
0.0560430973230356
 40
0.0634638460078278
 40
0.0712273372153129
 40
0.0793335690509874
 40
0.0877825395436392
 40
0.0965742466454041
 40
0.1057086882318121
 40
0.1151858621018252
 40
0.1250057659778682
 40
0.1458080655742534
 40
0.1656284766345223
 40
0.1844669482578077
 40
0.2023234322590742
 40
0.2191978831723577
 40
0.2350902582549527
 40
0.250000517492924
 40
0.2646029747114521
 40
0.2801486815995534
 40
0.2966376019800518
 40
0.3140696972438851
 40
0.3301906044528707
 40
0.3470419163943979
 40
0.3515765715504885
 40
0.3561613434860474
 40
0.3607962321277963
 40
0.3654812374011692
 40
0.3702163592303129
 40
0.3750015975380896
 40
0.3946343256692459
 40
0.4128463458994798
 40
0.4296375711294234
 40
0.4450079209498564
 40
0.4589573216439218
 40
0.4712744745809148
 40
0.4822208431986643
 40
0.4917963783989466
 40
0.5000010371068367
 40
0.5083668578263117
 40
0.5181540312214016
 40
0.5293625099149131
 40
0.5419922398036012
 40
0.556043160073135
 40
0.5634639866947444
 40
0.5712275868953264
 40
0.5793339587799612
 40
0.5877831003769959
 40
0.5965750096381006
 40
0.6057096844383152
 40
0.6151871225760867
 40
0.6250073217733005
 40
0.6458100650346684
 40
0.6656307965727388
 40
0.6844694654737451
 40
0.7023260235406931
 40
0.7192004252966009
 40
0.7350926279886875
 40
0.7500025915938859
 40
0.7646056372597877
 40
0.7801517813802079
 40
0.7966409877879392
 40
0.8140732178849492
 40
0.8301941186884902
 40
0.8470453071461566
 40
0.8515799105972789
 40
0.8561646227944038
 40
0.8607994436642658
 40
0.8654843731323116
 40
0.8702194111227023
 40
0.8750050546756493
 40
0.8946368962555825
 40
0.9128481854884083
 40
0.9296388352978958
 40
0.9450087652956893
 40
0.9589579017835239
 40
0.9712749467202566
 40
0.98222135747609
 40
0.99179708496361
 40
1.0
 40
1.0
 40
1.0
 40
1.0
 10
199.941716157566
 20
114.4355109329009
 30
0.0
 10
199.9282680662187
 20
114.435602556294
 30
0.0
 10
199.8990873838173
 20
114.4358013676395
 30
0.0
 10
199.6333556908614
 20
114.4371360479767
 30
0.0
 10
199.111552470761
 20
114.4391885709996
 30
0.0
 10
198.2231629301326
 20
114.4420782710768
 30
0.0
 10
197.128058762103
 20
114.4450641999567
 30
0.0
 10
195.985782560559
 20
114.4478269466822
 30
0.0
 10
194.9618064665106
 20
114.450127245086
 30
0.0
 10
193.7688587681806
 20
114.4526240763678
 30
0.0
 10
192.3917357461215
 20
114.4553176524687
 30
0.0
 10
190.8148476829921
 20
114.4582071604985
 30
0.0
 10
189.0223132494654
 20
114.4612959206559
 30
0.0
 10
186.9979664796818
 20
114.4645708925098
 30
0.0
 10
183.9050011426569
 20
114.4693521285084
 30
0.0
 10
179.5437062813755
 20
114.4751456955762
 30
0.0
 10
173.6902491924827
 20
114.4811382614283
 30
0.0
 10
167.503013720975
 20
114.4860655876622
 30
0.0
 10
161.0972398847931
 20
114.4899007437938
 30
0.0
 10
154.5783494389083
 20
114.4926509446203
 30
0.0
 10
148.0420969253913
 20
114.49431500818
 30
0.0
 10
141.4771893064305
 20
114.4949029709364
 30
0.0
 10
134.6531220882276
 20
114.4943314838931
 30
0.0
 10
127.2781186061181
 20
114.4927336974818
 30
0.0
 10
119.1234914095927
 20
114.4900930120979
 30
0.0
 10
110.5407279034904
 20
114.4865677355261
 30
0.0
 10
101.5895392539816
 20
114.4822934978721
 30
0.0
 10
94.72114975384397
 20
114.4786502945016
 30
0.0
 10
89.88178128936424
 20
114.4759458360941
 30
0.0
 10
87.3002136710541
 20
114.4744735261766
 30
0.0
 10
84.67203166334129
 20
114.4729458796366
 30
0.0
 10
81.9971892941574
 20
114.4713618634347
 30
0.0
 10
79.27566514809315
 20
114.4697253381739
 30
0.0
 10
73.65436346045998
 20
114.466265608569
 30
0.0
 10
65.30118029553402
 20
114.4612523471617
 30
0.0
 10
54.37588797348295
 20
114.4551881187084
 30
0.0
 10
44.14598141692284
 20
114.4499258544185
 30
0.0
 10
34.67502482419194
 20
114.4454791563191
 30
0.0
 10
26.05411509581965
 20
114.4418619876411
 30
0.0
 10
18.30800833780565
 20
114.4390617965488
 30
0.0
 10
11.44979130940106
 20
114.4370611665877
 30
0.0
 10
5.439685667761987
 20
114.4358380407821
 30
0.0
 10
-0.0343917579109335
 20
114.4353570734238
 30
0.0
 10
-5.552788609005399
 20
114.4358512409029
 30
0.0
 10
-11.69555196730832
 20
114.437119653949
 30
0.0
 10
-18.71724283451931
 20
114.4391940005414
 30
0.0
 10
-26.60196156713135
 20
114.4420767305326
 30
0.0
 10
-33.65951659127212
 20
114.4450646533956
 30
0.0
 10
-39.6731738610036
 20
114.4478271554192
 30
0.0
 10
-44.44112578648387
 20
114.450127552507
 30
0.0
 10
-49.39140849615852
 20
114.4526244049283
 30
0.0
 10
-54.5169902911917
 20
114.4553180272598
 30
0.0
 10
-59.80980371547982
 20
114.4582075773347
 30
0.0
 10
-65.26069966292354
 20
114.4612963835936
 30
0.0
 10
-70.85946790470771
 20
114.4645714036125
 30
0.0
 10
-78.66547968755116
 20
114.469352682941
 30
0.0
 10
-88.29283765847359
 20
114.475146275777
 30
0.0
 10
-99.28863022448662
 20
114.4811388411604
 30
0.0
 10
-109.382304895027
 20
114.4860661282091
 30
0.0
 10
-118.59537531265
 20
114.4899012088317
 30
0.0
 10
-126.958185319843
 20
114.4926512938745
 30
0.0
 10
-134.5075176990339
 20
114.4943152145812
 30
0.0
 10
-141.3873458841628
 20
114.4949029738911
 30
0.0
 10
-147.9053583541128
 20
114.4943312758587
 30
0.0
 10
-154.310187503509
 20
114.4927333193429
 30
0.0
 10
-160.7017291436549
 20
114.4900924697893
 30
0.0
 10
-166.7193928955928
 20
114.4865670521526
 30
0.0
 10
-172.3160891495681
 20
114.48229269157
 30
0.0
 10
-176.1307576416854
 20
114.4786494027072
 30
0.0
 10
-178.6096107053598
 20
114.4759448897411
 30
0.0
 10
-179.8856153557119
 20
114.4744725554484
 30
0.0
 10
-181.1376324548883
 20
114.4729448855614
 30
0.0
 10
-182.3641645484121
 20
114.4713608463868
 30
0.0
 10
-183.5637306252305
 20
114.469724243738
 30
0.0
 10
-185.9416151398845
 20
114.4662644553911
 30
0.0
 10
-189.1032318051367
 20
114.4612513380516
 30
0.0
 10
-192.5112547176163
 20
114.4551872298257
 30
0.0
 10
-195.095006845394
 20
114.4499253529147
 30
0.0
 10
-196.9842289782853
 20
114.4454781467479
 30
0.0
 10
-198.2941635545293
 20
114.4418632547418
 30
0.0
 10
-199.1473427999265
 20
114.4390564902568
 30
0.0
 10
-199.6460862399529
 20
114.4370767867708
 30
0.0
 10
-199.9007859224305
 20
114.435790205775
 30
0.0
 10
-199.928770655128
 20
114.4355992412943
 30
0.0
 10
-199.9416825737025
 20
114.4355111319008
 30
0.0
  0
LINE
  5
B5
330
23
100
AcDbEntity
  8
0
  6
Continuous
 62
     7
370
    25
100
AcDbLine
 10
-199.9441980532
 20
114.5447143427
 30
0.0
 11
-197.9418163756
 21
26.4399205253
 31
0.0
  0
LINE
  5
B6
330
23
100
AcDbEntity
  8
0
  6
Continuous
 62
     7
370
    25
100
AcDbLine
 10
197.9418163756
 20
26.4399205253
 30
0.0
 11
199.9441980532
 21
114.5447143427
 31
0.0
  0
LINE
  5
B7
330
23
100
AcDbEntity
  8
0
  6
Continuous
 62
     7
370
    25
100
AcDbLine
 10
-176.0615328605
 20
0.0
 30
0.0
 11
176.0615328605
 21
0.0
 31
0.0
  0
LINE
  5
B8
330
23
100
AcDbEntity
  8
0
  6
Continuous
 62
     8
370
    25
100
AcDbLine
 10
-197.9418163756
 20
26.4399205253
 30
0.0
 11
197.9418163756
 21
26.4399205253
 31
0.0
  0
LINE
  5
B9
330
23
100
AcDbEntity
  8
0
  6
Continuous
 62
     8
370
    25
100
AcDbLine
 10
-185.9708927518
 20
8.5745009591
 30
0.0
 11
185.9708927518
 21
8.5745009591
 31
0.0
  0
LINE
  5
BA
330
23
100
AcDbEntity
  8
0
  6
Continuous
 62
     8
370
    25
100
AcDbLine
 10
-180.7019716722
 20
3.1381923742
 30
0.0
 11
180.7019716722
 21
3.1381923742
 31
0.0
  0
ARC
  5
BB
330
23
100
AcDbEntity
  8
0
  6
Continuous
 62
     7
370
    25
100
AcDbCircle
 10
177.9469796647
 20
26.8943486323
 30
0.0
 40
19.99999999999997
100
AcDbArc
 50
293.6529459079
 51
358.6980473274
  0
ARC
  5
BC
330
23
100
AcDbEntity
  8
0
  6
Continuous
 62
     7
370
    25
100
AcDbCircle
 10
-177.9469796647
 20
26.8943486323
 30
0.0
 40
20.0
100
AcDbArc
 50
181.3019526726
 51
246.3470540921
  0
ARC
  5
BD
330
23
100
AcDbEntity
  8
0
  6
Continuous
 62
     7
370
    25
100
AcDbCircle
 10
189.9828492954
 20
-0.5854228775
 30
0.0
 40
10.00000000000014
100
AcDbArc
 50
113.6529459079
 51
158.138667429
  0
ARC
  5
BE
330
23
100
AcDbEntity
  8
0
  6
Continuous
 62
     7
370
    25
100
AcDbCircle
 10
-189.9828492954
 20
-0.5854228775
 30
0.0
 40
10.00000000000002
100
AcDbArc
 50
21.861332571
 51
66.3470540921
  0
ARC
  5
BF
330
23
100
AcDbEntity
  8
0
  6
Continuous
 62
     7
370
    25
100
AcDbCircle
 10
176.0615328605
 20
5.0
 30
0.0
 40
4.999999999999942
100
AcDbArc
 50
270.0
 51
338.138667429
  0
ARC
  5
C0
330
23
100
AcDbEntity
  8
0
  6
Continuous
 62
     7
370
    25
100
AcDbCircle
 10
-176.0615328605
 20
5.0
 30
0.0
 40
4.999999999999986
100
AcDbArc
 50
201.861332571
 51
270.0
  0
VIEWPORT
  5
FF
330
23
100
AcDbEntity
  8
0
100
AcDbViewport
 10
0.0
 20
0.0
 30
0.0
 40
205.6
 41
156.0
 68
     1
 69
     1
 12
-0.0001774741
 22
0.0022511804
 13
0.0
 23
0.0
 14
10.0
 24
10.0
 15
10.0
 25
10.0
 16
0.0
 26
0.0
 36
1.0
 17
0.0
 27
0.0
 37
0.0
 42
50.0
 43
0.0
 44
0.0
 45
407.8765085535
 50
0.0
 51
0.0
 72
   100
 90
   557152
  1

281
     0
 71
     1
 74
     0
110
0.0
120
0.0
130
0.0
111
1.0
121
0.0
131
0.0
112
0.0
122
1.0
132
0.0
 79
     0
146
0.0
  0
ENDBLK
  5
25
330
23
100
AcDbEntity
  8
0
100
AcDbBlockEnd
  0
BLOCK
  5
C3
330
C1
100
AcDbEntity
  8
0
100
AcDbBlockBegin
  2
*Paper_Space1
 70
     0
 10
0.0
 20
0.0
 30
0.0
  3
*Paper_Space1
  1

  0
SPLINE
  5
C5
330
C1
100
AcDbEntity
  8
0
  6
Continuous
 62
     7
370
    25
100
AcDbSpline
210
0.0
220
0.0
230
1.0
 70
    11
 71
     3
 72
    62
 73
    58
 74
     0
 42
0.000000001
 43
0.00000001
 40
0.0
 40
0.0
 40
0.0
 40
0.0
 40
0.0093092134368771
 40
0.0279366703890479
 40
0.0466931730542044
 40
0.0653205015589484
 40
0.0839620162929618
 40
0.1026918854843089
 40
0.1212653381254726
 40
0.1398624039260078
 40
0.1585650508535069
 40
0.1771135048134732
 40
0.1957110652364857
 40
0.214414887838154
 40
0.2329753479435065
 40
0.2516239842344673
 40
0.2703519895497922
 40
0.2889445383307225
 40
0.3076459777789469
 40
0.3263366684475678
 40
0.3449060777761224
 40
0.363591463098328
 40
0.3822261206346269
 40
0.4007927078934291
 40
0.4194758836275851
 40
0.4380853782585661
 40
0.4566945851684233
 40
0.475406543678981
 40
0.4941118218711351
 40
0.5127861317900858
 40
0.5314077615934806
 40
0.5500831963035593
 40
0.5688245494237648
 40
0.5873963433061187
 40
0.6060211678885725
 40
0.6247238339678
 40
0.6432587237672491
 40
0.6618816885229478
 40
0.6805517018561871
 40
0.6990915977218016
 40
0.7177548990138187
 40
0.7364253529494171
 40
0.7550196404532008
 40
0.7737437439157621
 40
0.7924199123949305
 40
0.8110524455005985
 40
0.8297850935497296
 40
0.8484069350490435
 40
0.8670339364045745
 40
0.8857411583633058
 40
0.9043206670482361
 40
0.9229190806241191
 40
0.9416242337116199
 40
0.9601982055699461
 40
0.9788080371366065
 40
0.9964499377110334
 40
1.0
 40
1.0
 40
1.0
 40
1.0
 10
2.687182458894639
 20
-22.79255526918027
 30
0.0
 10
2.241977828348743
 20
-22.83665694931381
 30
0.0
 10
0.905932081457916
 20
-22.96900476901397
 30
0.0
 10
-1.344089125930617
 20
-22.95711454781868
 30
0.0
 10
-4.022993448127401
 20
-22.65038413753841
 30
0.0
 10
-6.647644087370119
 20
-22.0231119498675
 30
0.0
 10
-9.17886432938917
 20
-21.09401874686274
 30
0.0
 10
-11.58506499873794
 20
-19.88198214696679
 30
0.0
 10
-13.82717050906517
 20
-18.39169609000121
 30
0.0
 10
-15.87886672413705
 20
-16.65136741612008
 30
0.0
 10
-17.7166664305282
 20
-14.68754045697979
 30
0.0
 10
-19.30535060536178
 20
-12.51718493544186
 30
0.0
 10
-20.63205775044802
 20
-10.17801825956754
 30
0.0
 10
-21.68104732805177
 20
-7.700637004895171
 30
0.0
 10
-22.42592145320138
 20
-5.11305429996472
 30
0.0
 10
-22.86900704819624
 20
-2.456348206738727
 30
0.0
 10
-23.00231103728575
 20
0.2358791663903405
 30
0.0
 10
-22.8127005643742
 20
2.927053844427592
 30
0.0
 10
-22.31697361392153
 20
5.57683559955471
 30
0.0
 10
-21.51608952335169
 20
8.150287732335427
 30
0.0
 10
-20.41361880798104
 20
10.60849611553572
 30
0.0
 10
-19.03881848598529
 20
12.92209480758831
 30
0.0
 10
-17.4015649873699
 20
15.05851519612252
 30
0.0
 10
-15.52161490706404
 20
16.98413567726637
 30
0.0
 10
-13.43496591538474
 20
18.68158617452324
 30
0.0
 10
-11.16024580376421
 20
20.12185647001752
 30
0.0
 10
-8.730108027605255
 20
21.28293577312115
 30
0.0
 10
-6.178816438332237
 20
22.16051599609771
 30
0.0
 10
-3.53803377902538
 20
22.72921898550816
 30
0.0
 10
-0.8535692358221888
 20
22.98655136397796
 30
0.0
 10
1.841272398634632
 20
22.92755353923787
 30
0.0
 10
4.513693131155655
 20
22.55403082487338
 30
0.0
 10
7.12362371156184
 20
21.87689231801493
 30
0.0
 10
9.631293235050443
 20
20.89258902150515
 30
0.0
 10
12.00648572394006
 20
19.6264286786546
 30
0.0
 10
14.21858809784446
 20
18.09513396112574
 30
0.0
 10
16.2303327038972
 20
16.30910833290999
 30
0.0
 10
18.02220779144546
 20
14.30521274102455
 30
0.0
 10
19.56970593634129
 20
12.10611374459314
 30
0.0
 10
20.84318130787106
 20
9.735885480779089
 30
0.0
 10
21.83715102985265
 20
7.235810868169858
 30
0.0
 10
22.53332247919039
 20
4.633763814335675
 30
0.0
 10
22.91497577846665
 20
1.964757446969527
 30
0.0
 10
22.99001873963118
 20
-0.7305081660070509
 30
0.0
 10
22.74822593751804
 20
-3.418278659215186
 30
0.0
 10
22.18934462068836
 20
-6.058402852562722
 30
0.0
 10
21.3336111848673
 20
-8.61502931480317
 30
0.0
 10
20.1809961925814
 20
-11.05240181135095
 30
0.0
 10
18.74909018554482
 20
-13.33493811933994
 30
0.0
 10
17.06664096385348
 20
-15.43722068049123
 30
0.0
 10
15.14631052785584
 20
-17.3231294268119
 30
0.0
 10
13.01833148128998
 20
-18.97019088559938
 30
0.0
 10
10.71577604125133
 20
-20.36271781225503
 30
0.0
 10
8.262550916346045
 20
-21.47061593848984
 30
0.0
 10
5.746399550814672
 20
-22.26805399208198
 30
0.0
 10
3.866812451776192
 20
-22.64532276645649
 30
0.0
 10
2.856439418536168
 20
-22.77142989434085
 30
0.0
 10
2.687182458894639
 20
-22.79255526918027
 30
0.0
  0
SPLINE
  5
C6
330
C1
100
AcDbEntity
  8
0
  6
Continuous
 62
     7
370
    25
100
AcDbSpline
210
0.0
220
0.0
230
1.0
 70
     8
 71
     3
 72
     9
 73
     5
 74
     0
 42
0.000000001
 43
0.00000001
 40
0.0
 40
0.0
 40
0.0
 40
0.0
 40
0.4940045321136287
 40
1.0
 40
1.0
 40
1.0
 40
1.0
 10
15.20694745003765
 20
199.3339650124288
 30
0.0
 10
15.04007371976359
 20
199.3518069187031
 30
0.0
 10
14.70227574540071
 20
199.3879238065338
 30
0.0
 10
14.36281886291033
 20
199.4014509672769
 30
0.0
 10
14.19105521882737
 20
199.4082956493064
 30
0.0
  0
CIRCLE
  5
C7
330
C1
100
AcDbEntity
  8
0
  6
Continuous
 62
     7
370
    25
100
AcDbCircle
 10
0.0
 20
0.0
 30
0.0
 40
164.4280904158202
  0
CIRCLE
  5
C8
330
C1
100
AcDbEntity
  8
0
  6
Continuous
 62
     7
370
    25
100
AcDbCircle
 10
0.0
 20
0.0
 30
0.0
 40
169.1421356237309
  0
CIRCLE
  5
C9
330
C1
100
AcDbEntity
  8
0
  6
Continuous
 62
     7
370
    25
100
AcDbCircle
 10
0.0
 20
0.0
 30
0.0
 40
176.0615328605301
  0
CIRCLE
  5
CA
330
C1
100
AcDbEntity
  8
0
  6
Continuous
 62
     7
370
    25
100
AcDbCircle
 10
0.0
 20
0.0
 30
0.0
 40
180.7019716721517
  0
CIRCLE
  5
CB
330
C1
100
AcDbEntity
  8
0
  6
Continuous
 62
     7
370
    25
100
AcDbCircle
 10
0.0
 20
0.0
 30
0.0
 40
185.9708927518216
  0
CIRCLE
  5
CC
330
C1
100
AcDbEntity
  8
0
  6
Continuous
 62
     7
370
    25
100
AcDbCircle
 10
0.0
 20
0.0
 30
0.0
 40
155.0
  0
CIRCLE
  5
CD
330
C1
100
AcDbEntity
  8
0
  6
Continuous
 62
     7
370
    25
100
AcDbCircle
 10
0.0
 20
0.0
 30
0.0
 40
197.9418163755743
  0
SPLINE
  5
CE
330
C1
100
AcDbEntity
  8
0
  6
Continuous
 62
     7
370
    25
100
AcDbSpline
210
0.0
220
0.0
230
1.0
 70
    11
 71
     3
 72
    71
 73
    67
 74
     0
 42
0.000000001
 43
0.00000001
 40
0.0
 40
0.0
 40
0.0
 40
0.0
 40
0.0157417045855122
 40
0.0314450728607464
 40
0.047011295380625
 40
0.0625777029881031
 40
0.0782749812086549
 40
0.0938894822510492
 40
0.1094372244548244
 40
0.1250672932448984
 40
0.140752941629146
 40
0.1563128808126856
 40
0.1718894816791698
 40
0.1875931488467008
 40
0.2031921016646403
 40
0.2187432122478198
 40
0.2343968020454371
 40
0.2500619318936137
 40
0.2656132450870737
 40
0.2812014882853834
 40
0.2969068211534187
 40
0.3124898848582187
 40
0.3280434846617259
 40
0.3437159474230724
 40
0.3593612847449927
 40
0.374910696331518
 40
0.3905133043714695
 40
0.4062154174721764
 40
0.4217893370514917
 40
0.4373515261178706
 40
0.453041747274999
 40
0.4686779848305042
 40
0.4842539243550304
 40
0.4999208284828962
 40
0.5156217675483405
 40
0.531294823865933
 40
0.5470020691914286
 40
0.5625741141176139
 40
0.5781340171569666
 40
0.5938222045696675
 40
0.6094486822664171
 40
0.6249967196136936
 40
0.6406153098469819
 40
0.6563092765035915
 40
0.6718743349858503
 40
0.6874449156323094
 40
0.7031449002170619
 40
0.7187528264539299
 40
0.7343015893771382
 40
0.749941663032846
 40
0.7656190507145553
 40
0.7811737822957705
 40
0.7967537488015888
 40
0.8124586882108716
 40
0.8280507741653927
 40
0.8436016735948103
 40
0.8592609068396664
 40
0.8749205030742567
 40
0.8904725090823495
 40
0.9060662307231502
 40
0.9217712557916331
 40
0.9373522357832088
 40
0.9529103998862534
 40
0.9685925208252624
 40
0.9842911298494811
 40
1.0
 40
1.0
 40
1.0
 40
1.0
 10
0.0000013938783672
 20
-32.24291281313293
 30
0.0
 10
-1.062829972657195
 20
-32.24291279503804
 30
0.0
 10
-3.185907272926469
 20
-32.13743844687365
 30
0.0
 10
-6.328773740860851
 20
-31.66658810033965
 30
0.0
 10
-9.398578431448241
 20
-30.89216370606998
 30
0.0
 10
-12.37762345145052
 20
-29.82163378859524
 30
0.0
 10
-15.24043466892898
 20
-28.4628413612047
 30
0.0
 10
-17.95501441717737
 20
-26.83048035556538
 30
0.0
 10
-20.49369967576243
 20
-24.94380752338983
 30
0.0
 10
-22.83978926031172
 20
-22.81516567755539
 30
0.0
 10
-24.96662483938312
 20
-20.46626565618059
 30
0.0
 10
-26.85137535734045
 20
-17.92362985941328
 30
0.0
 10
-28.47992344731772
 20
-15.20831625989222
 30
0.0
 10
-29.83573297995752
 20
-12.34400806865301
 30
0.0
 10
-30.90330778989761
 20
-9.362166499212043
 30
0.0
 10
-31.67341098476572
 20
-6.293540134142858
 30
0.0
 10
-32.13961232083953
 20
-3.159682537255115
 30
0.0
 10
-32.29482110646678
 20
0.0048941033889919
 30
0.0
 10
-32.1384957869581
 20
3.164906131059108
 30
0.0
 10
-31.67300118317166
 20
6.297112505354347
 30
0.0
 10
-30.90124626939437
 20
9.37053394219952
 30
0.0
 10
-29.83223353414811
 20
12.35100494490348
 30
0.0
 10
-28.47835909237478
 20
15.21085865783214
 30
0.0
 10
-26.84901701472245
 20
17.92824218676715
 30
0.0
 10
-24.96127079927025
 20
20.47252550387642
 30
0.0
 10
-22.83737797000941
 20
22.81681072958717
 30
0.0
 10
-20.49225114737566
 20
24.94554352754906
 30
0.0
 10
-17.94845954791923
 20
26.83532528350865
 30
0.0
 10
-15.23427112643837
 20
28.46548354798873
 30
0.0
 10
-12.37475022729715
 20
29.82278763803891
 30
0.0
 10
-9.391938763974684
 20
30.89486298064237
 30
0.0
 10
-6.317302624739632
 20
31.66869036684723
 30
0.0
 10
-3.183193689722444
 20
32.13702858582803
 30
0.0
 10
-0.0137797402990783
 20
32.2953243398111
 30
0.0
 10
3.162353761035801
 20
32.13953350938998
 30
0.0
 10
6.310266827160941
 20
31.67066936167134
 30
0.0
 10
9.388191084507252
 20
30.89584062013995
 30
0.0
 10
12.36787271330357
 20
29.82521288251798
 30
0.0
 10
15.22765899598449
 20
28.46944883624289
 30
0.0
 10
17.94422971219919
 20
26.83831105122259
 30
0.0
 10
20.48710860278011
 20
24.94920981211392
 30
0.0
 10
22.8300252910932
 20
22.82423619745802
 30
0.0
 10
24.95767620950173
 20
20.47752153889947
 30
0.0
 10
26.84584889905927
 20
17.93262989830042
 30
0.0
 10
28.47418033115066
 20
15.21803141635937
 30
0.0
 10
29.83015375187871
 20
12.35717772299944
 30
0.0
 10
30.90015636631838
 20
9.374342308773523
 30
0.0
 10
31.67150257798392
 20
6.302290940073746
 30
0.0
 10
32.13780803033466
 20
3.173521639129341
 30
0.0
 10
32.29515754574876
 20
0.009329091272201
 30
0.0
 10
32.13974471218301
 20
-3.15539378565768
 30
0.0
 10
31.67479189552148
 20
-6.285414830425005
 30
0.0
 10
30.90542105551884
 20
-9.356752746898641
 30
0.0
 10
29.83730688456624
 20
-12.34016174128894
 30
0.0
 10
28.48251050784247
 20
-15.20251049695063
 30
0.0
 10
26.85653186331274
 20
-17.91635069521838
 30
0.0
 10
24.97039412161958
 20
-20.46205246483731
 30
0.0
 10
22.84377790320882
 20
-22.81068294616426
 30
0.0
 10
20.50132485643806
 20
-24.93739957835676
 30
0.0
 10
17.96024347445757
 20
-26.82752253734747
 30
0.0
 10
15.24441978991633
 20
-28.46060690957289
 30
0.0
 10
12.3838700504156
 20
-29.81858618300959
 30
0.0
 10
9.405880380119271
 20
-30.89030991578364
 30
0.0
 10
6.329346586253481
 20
-31.66685147416206
 30
0.0
 10
3.181149147248969
 20
-32.13778439140634
 30
0.0
 10
1.060615880582157
 20
-32.24291283119008
 30
0.0
 10
0.0000013938783647
 20
-32.24291281313293
 30
0.0
  0
SPLINE
  5
CF
330
C1
100
AcDbEntity
  8
0
  6
Continuous
 62
     7
370
    25
100
AcDbSpline
210
0.0
220
0.0
230
1.0
 70
    11
 71
     3
 72
   114
 73
   110
 74
     0
 42
0.000000001
 43
0.00000001
 40
0.0
 40
0.0
 40
0.0
 40
0.0
 40
0.03125
 40
0.03125
 40
0.046875
 40
0.046875
 40
0.0625
 40
0.0625
 40
0.078125
 40
0.078125
 40
0.0859375
 40
0.0859375
 40
0.09375
 40
0.09375
 40
0.125
 40
0.125
 40
0.140625
 40
0.140625
 40
0.1562499999999999
 40
0.1562499999999999
 40
0.1875
 40
0.1875
 40
0.2031249999999999
 40
0.2031249999999999
 40
0.2187499999999999
 40
0.2187499999999999
 40
0.2499999999999999
 40
0.2499999999999999
 40
0.2812499999999998
 40
0.2812499999999998
 40
0.2968749999999998
 40
0.2968749999999998
 40
0.3124999999999998
 40
0.3124999999999998
 40
0.3437499999999997
 40
0.3437499999999997
 40
0.3593749999999997
 40
0.3593749999999997
 40
0.3749999999999997
 40
0.3749999999999997
 40
0.4062499999999997
 40
0.4062499999999997
 40
0.4140624999999997
 40
0.4140624999999997
 40
0.4218749999999997
 40
0.4218749999999997
 40
0.4374999999999997
 40
0.4374999999999997
 40
0.4531249999999997
 40
0.4531249999999997
 40
0.4687499999999997
 40
0.4687499999999997
 40
0.4999999999999997
 40
0.4999999999999997
 40
0.5312499999999998
 40
0.5312499999999998
 40
0.5468749999999998
 40
0.5468749999999998
 40
0.5546874999999998
 40
0.5546874999999998
 40
0.5624999999999998
 40
0.5624999999999998
 40
0.5937499999999998
 40
0.5937499999999998
 40
0.6015624999999998
 40
0.6015624999999998
 40
0.6093749999999998
 40
0.6093749999999998
 40
0.6249999999999997
 40
0.6249999999999997
 40
0.6562499999999994
 40
0.6562499999999994
 40
0.6640624999999994
 40
0.6640624999999994
 40
0.6718749999999994
 40
0.6718749999999994
 40
0.6874999999999994
 40
0.6874999999999994
 40
0.7031249999999994
 40
0.7031249999999994
 40
0.7187499999999994
 40
0.7187499999999994
 40
0.7499999999999994
 40
0.7499999999999994
 40
0.7656249999999994
 40
0.7656249999999994
 40
0.7812499999999994
 40
0.7812499999999994
 40
0.8124999999999994
 40
0.8124999999999994
 40
0.8281249999999994
 40
0.8281249999999994
 40
0.8437499999999994
 40
0.8437499999999994
 40
0.8593749999999994
 40
0.8593749999999994
 40
0.8749999999999994
 40
0.8749999999999994
 40
0.9062499999999994
 40
0.9062499999999994
 40
0.9218749999999996
 40
0.9218749999999996
 40
0.9374999999999997
 40
0.9374999999999997
 40
0.9687499999999998
 40
0.9687499999999998
 40
0.9843749999999999
 40
0.9843749999999999
 40
1.0
 40
1.0
 40
1.0
 40
1.0
 10
-0.0000009513851477
 20
-23.12646766953031
 30
0.0
 10
-1.527737373654045
 20
-23.1264673120657
 30
0.0
 10
-3.039097463875485
 20
-22.97761075374355
 30
0.0
 10
-5.281657470337577
 20
-22.53173313555908
 30
0.0
 10
-6.022556088548495
 20
-22.34585518282304
 30
0.0
 10
-7.469929270961265
 20
-21.90657529950818
 30
0.0
 10
-8.17955706490314
 20
-21.65256806846088
 30
0.0
 10
-9.571024351555337
 20
-21.07661887656665
 30
0.0
 10
-10.25286022500461
 20
-20.75466754087668
 30
0.0
 10
-11.25441368036742
 20
-20.2199074335538
 30
0.0
 10
-11.58472571283814
 20
-20.03300128865153
 30
0.0
 10
-12.23813029131433
 20
-19.6415372884529
 30
0.0
 10
-12.56134045788787
 20
-19.43682293774149
 30
0.0
 10
-14.14122531502455
 20
-18.38051191460695
 30
0.0
 10
-15.30519424874632
 20
-17.42313111969556
 30
0.0
 10
-16.90453491926829
 20
-15.82226493000495
 30
0.0
 10
-17.41303759032322
 20
-15.26097984982139
 30
0.0
 10
-18.3792389680761
 20
-14.08130547613033
 30
0.0
 10
-18.83212191851248
 20
-13.46836782331144
 30
0.0
 10
-20.08832193784698
 20
-11.58147761921118
 30
0.0
 10
-20.79660451716009
 20
-10.25206081244261
 30
0.0
 10
-21.66386941435608
 20
-8.149925968446718
 30
0.0
 10
-21.92105682101835
 20
-7.427390292889973
 30
0.0
 10
-22.3589065860577
 20
-5.974040880614593
 30
0.0
 10
-22.5408717327481
 20
-5.241060002039088
 30
0.0
 10
-22.97847978257301
 20
-3.023638587691499
 30
0.0
 10
-23.12694138650792
 20
-1.520039475119854
 30
0.0
 10
-23.12599169663607
 20
1.534511238376696
 30
0.0
 10
-22.97677464675593
 20
3.036731240921705
 30
0.0
 10
-22.53790279545394
 20
5.25384809668515
 30
0.0
 10
-22.35551467113977
 20
5.98680826541582
 30
0.0
 10
-21.91671534770907
 20
7.440265383991346
 30
0.0
 10
-21.65912048722909
 20
8.162567944304278
 30
0.0
 10
-20.79090204382163
 20
10.26359044959919
 30
0.0
 10
-20.08201550128761
 20
11.5924203682762
 30
0.0
 10
-18.82482331442658
 20
13.47858644989145
 30
0.0
 10
-18.37152472863736
 20
14.09137786880752
 30
0.0
 10
-17.40475809154587
 20
15.27042394503774
 30
0.0
 10
-16.89597452270366
 20
15.83140781823303
 30
0.0
 10
-15.29578069377128
 20
17.43139059747998
 30
0.0
 10
-14.13122599370853
 20
18.38820564714282
 30
0.0
 10
-12.55054028370667
 20
19.44378647793301
 30
0.0
 10
-12.22717854640368
 20
19.64834024851976
 30
0.0
 10
-11.57363433194708
 20
20.03939289128526
 30
0.0
 10
-11.24324354796946
 20
20.22610456672891
 30
0.0
 10
-10.24142080396229
 20
20.76029728683143
 30
0.0
 10
-9.559363459284455
 20
21.08189690236255
 30
0.0
 10
-8.167356022832067
 20
21.65715905643415
 30
0.0
 10
-7.457407035439765
 20
21.91082446202219
 30
0.0
 10
-6.009287425455877
 20
22.34942469889027
 30
0.0
 10
-5.267791463443928
 20
22.53495496166727
 30
0.0
 10
-3.025555286859217
 20
22.97936047778611
 30
0.0
 10
-1.513903756731002
 20
23.12735742069939
 30
0.0
 10
1.541181216912775
 20
23.12556994070736
 30
0.0
 10
3.044374832737787
 20
22.97586809452897
 30
0.0
 10
5.263880400536484
 20
22.53561126489009
 30
0.0
 10
5.997789256611067
 20
22.35262854072326
 30
0.0
 10
7.089530860914142
 20
22.022382352914
 30
0.0
 10
7.452896243521663
 20
21.90261544824384
 30
0.0
 10
8.170132311510118
 20
21.64636419036885
 30
0.0
 10
8.5242430426406
 20
21.50987105210517
 30
0.0
 10
10.27265906600574
 20
20.78630683007885
 30
0.0
 10
11.60117308294842
 20
20.07709341610689
 30
0.0
 10
13.17403034424023
 20
19.02758764719465
 30
0.0
 10
13.48417461736303
 20
18.80946676648015
 30
0.0
 10
14.09544370467277
 20
18.35647852386574
 30
0.0
 10
14.39722774675026
 20
18.12102425130198
 30
0.0
 10
15.27959402084431
 20
17.39665739746582
 30
0.0
 10
15.83971142417305
 20
16.88817384753127
 30
0.0
 10
17.43802015324441
 20
15.28813110977955
 30
0.0
 10
18.394955294553
 20
14.12269565232041
 30
0.0
 10
19.45134605082382
 20
12.53881725215609
 30
0.0
 10
19.65570428089039
 20
12.21529300875521
 30
0.0
 10
20.04575303613393
 20
11.56256833583423
 30
0.0
 10
20.23204347500225
 20
11.23251241359922
 30
0.0
 10
20.76516690138928
 20
10.23145555282405
 30
0.0
 10
21.08631188770458
 20
9.549590870644582
 30
0.0
 10
21.6609535178476
 20
8.157250446789146
 30
0.0
 10
21.91445625070743
 20
7.446777156642485
 30
0.0
 10
22.35279267576734
 20
5.996784932017881
 30
0.0
 10
22.53828961270643
 20
5.253100792041561
 30
0.0
 10
22.98013363138033
 20
3.017331600620196
 30
0.0
 10
23.12595521354366
 20
1.517262595470517
 30
0.0
 10
23.12672192565981
 20
-0.7468491274033366
 30
0.0
 10
23.09038885497085
 20
-1.503904481071449
 30
0.0
 10
22.94195134806518
 20
-3.022884108649767
 30
0.0
 10
22.83065731328897
 20
-3.775069773383606
 30
0.0
 10
22.39060132262129
 20
-5.997643783502753
 30
0.0
 10
21.95614245457143
 20
-7.439980131114426
 30
0.0
 10
21.0892653096214
 20
-9.543439991760021
 30
0.0
 10
20.76235077118428
 20
-10.23736410845855
 30
0.0
 10
20.04874429503437
 20
-11.57606906680839
 30
0.0
 10
19.66115955350038
 20
-12.22388152069883
 30
0.0
 10
18.82565555802889
 20
-13.47728702140527
 30
0.0
 10
18.37773332341412
 20
-14.08287799775639
 30
0.0
 10
17.42103587041326
 20
-15.25147841621767
 30
0.0
 10
16.91145305556932
 20
-15.815303392392
 30
0.0
 10
15.29300256541339
 20
-17.43540797910912
 30
0.0
 10
14.12530458520877
 20
-18.39159541236224
 30
0.0
 10
12.24596399792865
 20
-19.6474626100762
 30
0.0
 10
11.59804573825796
 20
-20.036108169075
 30
0.0
 10
10.25829192091599
 20
-20.75208729903756
 30
0.0
 10
9.565095828641645
 20
-21.07946314623603
 30
0.0
 10
7.464945378295529
 20
-21.94756720267459
 30
0.0
 10
6.02320685929689
 20
-22.38388299038197
 30
0.0
 10
3.798726537334205
 20
-22.82678176174621
 30
0.0
 10
3.044556063288403
 20
-22.93910653070452
 30
0.0
 10
1.525557188700092
 20
-23.08897951877916
 30
0.0
 10
0.7638672597493067
 20
-23.12646784826262
 30
0.0
 10
-0.0000009513851474
 20
-23.12646766953031
 30
0.0
  0
SPLINE
  5
D0
330
C1
100
AcDbEntity
  8
0
  6
Continuous
 62
     7
370
    25
100
AcDbSpline
210
0.0
220
0.0
230
1.0
 70
    11
 71
     3
 72
    63
 73
    59
 74
     0
 42
0.000000001
 43
0.00000001
 40
0.0
 40
0.0
 40
0.0
 40
0.0
 40
0.0145435464982137
 40
0.0353759929506745
 40
0.0624892264439714
 40
0.0803731546460507
 40
0.0967540986906158
 40
0.1116316839866568
 40
0.1250055713098649
 40
0.1431672756941527
 40
0.1639998659713616
 40
0.1875018531288658
 40
0.208436685185682
 40
0.2258350245249128
 40
0.2396947350354017
 40
0.2500141136500244
 40
0.2645571764119012
 40
0.2853897091840555
 40
0.3125035975448999
 40
0.3303878733674146
 40
0.3467689765050764
 40
0.3616465322709181
 40
0.3750202013575999
 40
0.4032441697233478
 40
0.4374586944897229
 40
0.4583925688082982
 40
0.475790445184703
 40
0.4896501881659293
 40
0.4999700951600562
 40
0.4999721719008851
 40
0.5102903164594788
 40
0.524149530115823
 40
0.5415481091515915
 40
0.5624839165321482
 40
0.5859859392966531
 40
0.6068183590879122
 40
0.6249796866781535
 40
0.6431418054715791
 40
0.6639742165989428
 40
0.6874754317154866
 40
0.7084094298142991
 40
0.7258073627228724
 40
0.739667094899793
 40
0.7499869236894644
 40
0.7645301194257546
 40
0.7853624795613992
 40
0.8124758905329114
 40
0.8303598069540801
 40
0.8467407038786467
 40
0.8616182066994629
 40
0.8749919761784781
 40
0.8931535607788201
 40
0.9139860647368033
 40
0.9374879990092224
 40
0.9584229591589627
 40
0.9758212980369493
 40
0.9896808793758634
 40
1.0
 40
1.0
 40
1.0
 40
1.0
 10
-0.0000001481973948
 20
-199.941716157566
 30
0.0
 10
6.087431139415905
 20
-199.9416652735473
 30
0.0
 10
20.89683192854413
 20
-199.2650455379221
 30
0.0
 10
46.79784439671192
 20
-195.1727477068703
 30
0.0
 10
73.19380431931506
 20
-186.7904427058506
 30
0.0
 10
96.37788708638533
 20
-175.621813511946
 30
0.0
 10
113.871693818296
 20
-164.7397833223537
 30
0.0
 10
128.7092328689893
 20
-153.3500767092916
 30
0.0
 10
143.0236072045658
 20
-140.1906057112089
 30
0.0
 10
157.6439130929445
 20
-123.7997569147118
 30
0.0
 10
172.5794418135678
 20
-102.2410360569147
 30
0.0
 10
184.9113473256892
 20
-77.7545950382786
 30
0.0
 10
193.2439139351792
 20
-53.17767198350207
 30
0.0
 10
197.730661634731
 20
-31.75759316058399
 30
0.0
 10
199.6138039518111
 20
-14.43815234058722
 30
0.0
 10
200.1390266853322
 20
1.767894587681782
 30
0.0
 10
199.2650081981055
 20
20.8971113942982
 30
0.0
 10
195.1726767580837
 20
46.79823246393306
 30
0.0
 10
186.7901751699039
 20
73.19459773889645
 30
0.0
 10
175.6211452722835
 20
96.37909261764366
 30
0.0
 10
164.7390244549705
 20
113.8728726315521
 30
0.0
 10
153.3487428220939
 20
128.7106630848575
 30
0.0
 10
137.3384223984547
 20
146.1265008955032
 30
0.0
 10
112.878361251731
 20
166.5991712303362
 30
0.0
 10
82.00615697120318
 20
183.4724133879892
 30
0.0
 10
53.17935242117028
 20
193.242927506745
 30
0.0
 10
31.7583003092471
 20
197.730617551081
 30
0.0
 10
14.43987422034805
 20
199.6137257996585
 30
0.0
 10
4.317769774781599
 20
199.9417443164693
 30
0.0
 10
-4.319639438841502
 20
199.9416879978126
 30
0.0
 10
-14.4407402975556
 20
199.6136542321321
 30
0.0
 10
-31.75874903475392
 20
197.7304258215382
 30
0.0
 10
-53.1793892869922
 20
193.2435042709633
 30
0.0
 10
-77.75666228729136
 20
184.9104757511411
 30
0.0
 10
-102.2431472206984
 20
172.5782596149916
 30
0.0
 10
-123.8019520919345
 20
157.6420251044288
 30
0.0
 10
-141.6896720262783
 20
141.6866434533184
 30
0.0
 10
-157.6446870031864
 20
123.7985957755017
 30
0.0
 10
-172.5804185988553
 20
102.2394481993179
 30
0.0
 10
-184.9116360451169
 20
77.7537342228189
 30
0.0
 10
-193.2439160895168
 20
53.17756442884116
 30
0.0
 10
-197.7305863815891
 20
31.75800232762391
 30
0.0
 10
-199.6137834197116
 20
14.43853831983832
 30
0.0
 10
-200.1390371207242
 20
-1.767761685160768
 30
0.0
 10
-199.2650021988933
 20
-20.89715104103703
 30
0.0
 10
-195.1727012548913
 20
-46.79805215236794
 30
0.0
 10
-186.7903572324934
 20
-73.19403702428772
 30
0.0
 10
-175.6216695848101
 20
-96.37814659957462
 30
0.0
 10
-164.7396461900002
 20
-113.8718875380391
 30
0.0
 10
-153.3499880729087
 20
-128.7093326965838
 30
0.0
 10
-140.1906027943812
 20
-143.0236031451085
 30
0.0
 10
-123.7998613882753
 20
-157.643824328733
 30
0.0
 10
-102.2412456502225
 20
-172.5793129142482
 30
0.0
 10
-77.7548274009941
 20
-184.9112519193971
 30
0.0
 10
-53.17788380737237
 20
-193.2438591016154
 30
0.0
 10
-31.75780938065743
 20
-197.7306243188435
 30
0.0
 10
-14.43853267026192
 20
-199.613770331027
 30
0.0
 10
-4.319231207536369
 20
-199.941752261437
 30
0.0
 10
-0.0000001481974086
 20
-199.941716157566
 30
0.0
  0
VIEWPORT
  5
101
330
C1
100
AcDbEntity
  8
0
100
AcDbViewport
 10
0.0
 20
0.0
 30
0.0
 40
205.6
 41
156.0
 68
     1
 69
     1
 12
-0.0001774741
 22
0.0022511804
 13
0.0
 23
0.0
 14
10.0
 24
10.0
 15
10.0
 25
10.0
 16
0.0
 26
0.0
 36
1.0
 17
0.0
 27
0.0
 37
0.0
 42
50.0
 43
0.0
 44
0.0
 45
407.8765085535
 50
0.0
 51
0.0
 72
   100
 90
   557152
  1

281
     0
 71
     1
 74
     0
110
0.0
120
0.0
130
0.0
111
1.0
121
0.0
131
0.0
112
0.0
122
1.0
132
0.0
 79
     0
146
0.0
  0
ENDBLK
  5
C4
330
C1
100
AcDbEntity
  8
0
100
AcDbBlockEnd
  0
BLOCK
  5
D3
330
D1
100
AcDbEntity
  8
0
100
AcDbBlockBegin
  2
*Paper_Space2
 70
     0
 10
0.0
 20
0.0
 30
0.0
  3
*Paper_Space2
  1

  0
SPLINE
  5
D5
330
D1
100
AcDbEntity
  8
0
  6
Continuous
 62
     7
370
    25
100
AcDbSpline
210
0.0
220
0.0
230
1.0
 70
     8
 71
     3
 72
    81
 73
    77
 74
     0
 42
0.000000001
 43
0.00000001
 40
0.0
 40
0.0
 40
0.0
 40
0.0
 40
0.0115885973390077
 40
0.0260646256474962
 40
0.0405372665531856
 40
0.054217703536662
 40
0.0670086836097834
 40
0.0744390648830382
 40
0.0814660700984525
 40
0.0892140683763055
 40
0.0982259465063562
 40
0.1082251522669724
 40
0.1170439228754716
 40
0.1242201337733886
 40
0.1299941576005486
 40
0.1382337391827806
 40
0.1482387614645007
 40
0.1595663932444695
 40
0.1697988445203332
 40
0.1768134874386926
 40
0.1832152433501
 40
0.1901104801181435
 40
0.1976083279649678
 40
0.2167424473162933
 40
0.2358822604195905
 40
0.254767541586893
 40
0.272946210233194
 40
0.2916733908375403
 40
0.3103681448521657
 40
0.3270936816480108
 40
0.343738106118762
 40
0.3614607626599024
 40
0.3803333083368882
 40
0.4020383930977132
 40
0.4230818200441251
 40
0.4440969130664015
 40
0.465110209921071
 40
0.4861294441415232
 40
0.50714805247922
 40
0.5323664896087276
 40
0.557587779729243
 40
0.5828015423535974
 40
0.6080178571048462
 40
0.6332417149261078
 40
0.6521844250354248
 40
0.6720036090592324
 40
0.686907691049201
 40
0.7024971927535407
 40
0.7224956075427925
 40
0.7413367230492972
 40
0.7593980604639688
 40
0.7711969509439445
 40
0.783131506671987
 40
0.795505970396331
 40
0.8083235998207212
 40
0.820374813492731
 40
0.8307892291253889
 40
0.842705048338622
 40
0.8565023401566434
 40
0.8715644989522227
 40
0.8875723798790052
 40
0.8953254648655024
 40
0.9020527871209989
 40
0.9077550177565674
 40
0.9130194510701349
 40
0.9193967700902077
 40
0.9268236689109569
 40
0.9350283932395685
 40
0.9425379545556638
 40
0.949202602453169
 40
0.956763771592814
 40
0.9648158524496321
 40
0.9738256945539465
 40
0.9838877928483424
 40
0.9955321715920772
 40
1.0
 40
1.0
 40
1.0
 40
1.0
 10
195.0232000271285
 20
94.34094382387023
 30
0.0
 10
195.0266773249601
 20
93.07836058940141
 30
0.0
 10
195.0344983289689
 20
90.23860713240077
 30
0.0
 10
194.6130830131952
 20
85.61134342049765
 30
0.0
 10
193.8065921259078
 20
80.73465349627921
 30
0.0
 10
192.6740500004872
 20
76.08750778786538
 30
0.0
 10
191.4638917322422
 20
72.26718361246093
 30
0.0
 10
190.3244497674202
 20
69.21916050400858
 30
0.0
 10
189.2996968304825
 20
66.74908960780557
 30
0.0
 10
188.0983777946203
 20
64.12154481096414
 30
0.0
 10
186.6156592014439
 20
61.18953433024424
 30
0.0
 10
184.9203310093809
 20
58.17003851422194
 30
0.0
 10
183.1946572324193
 20
55.37588810179906
 30
0.0
 10
181.6487143560323
 20
53.05561950453848
 30
0.0
 10
180.0636055753337
 20
50.81171181414501
 30
0.0
 10
178.1683799224059
 20
48.28712773364574
 30
0.0
 10
175.6812765357483
 20
45.21476911725809
 30
0.0
 10
172.8386466984174
 20
41.98462043249079
 30
0.0
 10
170.0964053786011
 20
39.10895479844011
 30
0.0
 10
167.7161493458271
 20
36.76253664215461
 30
0.0
 10
165.5977828315588
 20
34.76993942582192
 30
0.0
 10
163.3553223087794
 20
32.75458512693376
 30
0.0
 10
159.6129462042159
 20
29.55051787612047
 30
0.0
 10
154.1877929675457
 20
25.29479834118172
 30
0.0
 10
146.8751000956382
 20
20.21252782912464
 30
0.0
 10
139.1843027012393
 20
15.46066089046505
 30
0.0
 10
131.087864281381
 20
10.99969631881674
 30
0.0
 10
122.5889669497737
 20
6.821542988476925
 30
0.0
 10
113.9167643671024
 20
3.030583796612807
 30
0.0
 10
105.2419988286956
 20
-0.3475486108189263
 30
0.0
 10
96.44215674810903
 20
-3.405817559429578
 30
0.0
 10
86.9908480672216
 20
-6.309645146342163
 30
0.0
 10
76.34299174169128
 20
-9.149793772879361
 30
0.0
 10
64.77853145310687
 20
-11.73956754113298
 30
0.0
 10
52.52964753481977
 20
-13.95917800449656
 30
0.0
 10
40.19001806259237
 20
-15.69762515899276
 30
0.0
 10
27.68360969807073
 20
-16.96926137084823
 30
0.0
 10
15.05856905205284
 20
-17.77028428942665
 30
0.0
 10
1.523545069527885
 20
-18.11923332129067
 30
0.0
 10
-12.87169130892665
 20
-17.89563703852676
 30
0.0
 10
-28.03242448500197
 20
-16.975586841487
 30
0.0
 10
-43.02119001310795
 20
-15.37770695260513
 30
0.0
 10
-57.74583726817384
 20
-13.11114236606917
 30
0.0
 10
-70.92698068513978
 20
-10.43458605336663
 30
0.0
 10
-82.7523366774395
 20
-7.495825537961603
 30
0.0
 10
-92.39570931036143
 20
-4.694065683669021
 30
0.0
 10
-101.1758848410195
 20
-1.794534692718036
 30
0.0
 10
-109.7383302992137
 20
1.349720840484014
 30
0.0
 10
-118.6310608646038
 20
5.027310873842519
 30
0.0
 10
-127.5076707720616
 20
9.18168669743838
 30
0.0
 10
-134.7396165106045
 20
12.97692367434697
 30
0.0
 10
-140.6738750142298
 20
16.39181569061772
 30
0.0
 10
-145.6074497143143
 20
19.44662592519344
 30
0.0
 10
-150.4700907162235
 20
22.6922639068115
 30
0.0
 10
-155.1233056651301
 20
26.0521160747626
 30
0.0
 10
-159.3146210344992
 20
29.32746036223015
 30
0.0
 10
-163.2011456100198
 20
32.59598256300503
 30
0.0
 10
-167.0718505753913
 20
36.10522405892022
 30
0.0
 10
-171.1605680730449
 20
40.15813916361742
 30
0.0
 10
-175.3050457749268
 20
44.72107838716251
 30
0.0
 10
-178.5545149034177
 20
48.75717192142225
 30
0.0
 10
-180.8991591736355
 20
51.97373798353987
 30
0.0
 10
-182.3665564888568
 20
54.12025511445012
 30
0.0
 10
-183.5883105501666
 20
56.01311983675099
 30
0.0
 10
-184.7294647522819
 20
57.87675294802083
 30
0.0
 10
-185.9217465800366
 20
59.94135611283033
 30
0.0
 10
-187.2099009725652
 20
62.34172772264028
 30
0.0
 10
-188.4586889503419
 20
64.88505020094172
 30
0.0
 10
-189.5625150087461
 20
67.36181655275477
 30
0.0
 10
-190.5429375065026
 20
69.78163995674879
 30
0.0
 10
-191.453282431812
 20
72.27627115218345
 30
0.0
 10
-192.3425427381169
 20
75.04924454576744
 30
0.0
 10
-193.1848698038493
 20
78.11969482612967
 30
0.0
 10
-193.9442157763278
 20
81.61452397066165
 30
0.0
 10
-194.4611376683827
 20
84.5677118829034
 30
0.0
 10
-194.6157327506842
 20
86.37792680768408
 30
0.0
 10
-194.6586011357497
 20
86.87988967281196
 30
0.0
  0
SPLINE
  5
D7
330
D1
100
AcDbEntity
  8
0
  6
Continuous
 62
     7
370
    25
100
AcDbSpline
210
0.0
220
0.0
230
1.0
 70
     8
 71
     3
 72
    87
 73
    83
 74
     0
 42
0.000000001
 43
0.00000001
 40
0.0
 40
0.0
 40
0.0
 40
0.0
 40
0.0083832073916117
 40
0.0192043503961123
 40
0.0305012085729686
 40
0.0407495624532418
 40
0.0494964239016787
 40
0.0570256336899883
 40
0.0652733312034184
 40
0.0762652048443907
 40
0.0876256244571662
 40
0.0981725667166606
 40
0.10805360577619
 40
0.1180948614061539
 40
0.1284312743539203
 40
0.1473035628519045
 40
0.1663017171058667
 40
0.1818019967665215
 40
0.1995501336601993
 40
0.218918592240398
 40
0.2372758271691738
 40
0.2562362839992028
 40
0.2650169602541251
 40
0.27373203073278
 40
0.2812864829638379
 40
0.2875988051744461
 40
0.2931997762732206
 40
0.3022347990529282
 40
0.3133702648505179
 40
0.3248700434016402
 40
0.3395169706608833
 40
0.3534647434862203
 40
0.3673477740914358
 40
0.3812286821003107
 40
0.4064541466921297
 40
0.4316817846309366
 40
0.4569039692142071
 40
0.4821261781417698
 40
0.5073480646263215
 40
0.5325681371565109
 40
0.5577912195843258
 40
0.5830115495825877
 40
0.608239024915937
 40
0.6334648894445434
 40
0.6452398216759273
 40
0.657018492202616
 40
0.6688487586646522
 40
0.6809439605174188
 40
0.6933282409372041
 40
0.7050072300729227
 40
0.711654756558264
 40
0.7173139422256443
 40
0.7228601315874594
 40
0.7299054575877264
 40
0.7384847372307133
 40
0.7479588172728976
 40
0.7571254332816441
 40
0.7763759594215446
 40
0.7949165994123997
 40
0.8131667235985645
 40
0.8314102864118545
 40
0.8408666728664583
 40
0.8495717005406994
 40
0.857429875387781
 40
0.8655354809358509
 40
0.8752237680580054
 40
0.8864536822206919
 40
0.8945855295002657
 40
0.9014375837637666
 40
0.9070096890937789
 40
0.9121548935747122
 40
0.9185334280747361
 40
0.9260405903518559
 40
0.9346096933969442
 40
0.9426717280704845
 40
0.9498446970701525
 40
0.9576874712119948
 40
0.9650921419034277
 40
0.9732655548150264
 40
0.9822580435086821
 40
0.9906297709901292
 40
1.0
 40
1.0
 40
1.0
 40
1.0
 10
199.9164315381842
 20
92.32652847289133
 30
0.0
 10
199.9263330216889
 20
93.37708117152869
 30
0.0
 10
199.9490154569174
 20
95.78369968777835
 30
0.0
 10
199.707102033831
 20
99.52232812174655
 30
0.0
 10
199.2622715017201
 20
103.4011588918019
 30
0.0
 10
198.6330007224873
 20
107.0190665891809
 30
0.0
 10
197.9233921376217
 20
110.1787135789698
 30
0.0
 10
197.1402972122297
 20
113.0915923768432
 30
0.0
 10
196.1512554165859
 20
116.2617128254053
 30
0.0
 10
194.8339601401341
 20
119.8675857186733
 30
0.0
 10
193.1860746060871
 20
123.7174506102966
 30
0.0
 10
191.3755461834375
 20
127.4088410239011
 30
0.0
 10
189.4447718113496
 20
130.9197150062473
 30
0.0
 10
187.3458112530401
 20
134.3645378915751
 30
0.0
 10
184.384774248938
 20
138.7751718851097
 30
0.0
 10
180.3330862749175
 20
144.0829211885572
 30
0.0
 10
175.2696959734179
 20
149.7868335602835
 30
0.0
 10
169.8179787496184
 20
155.1985921202211
 30
0.0
 10
163.86103166887
 20
160.4689818281084
 30
0.0
 10
157.0435454770644
 20
165.8029716987194
 30
0.0
 10
149.5512967510248
 20
171.003943937282
 30
0.0
 10
143.0536988992804
 20
175.0207406752024
 30
0.0
 10
137.6891252264506
 20
178.0634714225397
 30
0.0
 10
133.9073296609421
 20
180.0952501557507
 30
0.0
 10
130.4205289403982
 20
181.8763925637241
 30
0.0
 10
127.3593414035484
 20
183.3740420210665
 30
0.0
 10
124.0159839743664
 20
184.9498310034573
 30
0.0
 10
119.8283788143362
 20
186.8343649649992
 30
0.0
 10
114.5603888990752
 20
189.0566175549981
 30
0.0
 10
108.2053176379117
 20
191.5446917671771
 30
0.0
 10
101.189666996381
 20
194.05761590773
 30
0.0
 10
93.5638805814497
 20
196.5266517957708
 30
0.0
 10
85.90406420866456
 20
198.7625895882489
 30
0.0
 10
75.97427751621422
 20
201.3585354592396
 30
0.0
 10
63.60273308370829
 20
204.08304443829
 30
0.0
 10
48.66782037679621
 20
206.6215246537588
 30
0.0
 10
33.43854187304779
 20
208.4780932006615
 30
0.0
 10
18.00790583114588
 20
209.6406146490938
 30
0.0
 10
2.468760724193331
 20
210.1039933132037
 30
0.0
 10
-13.08557694682452
 20
209.8635955514478
 30
0.0
 10
-28.56028158769874
 20
208.9223305644272
 30
0.0
 10
-43.86383128935429
 20
207.2852094741281
 30
0.0
 10
-58.90149136796187
 20
204.9612735223699
 30
0.0
 10
-70.9764341513484
 20
202.498341686389
 30
0.0
 10
-80.22807032275902
 20
200.2586579608715
 30
0.0
 10
-86.83338002951625
 20
198.4930078234707
 30
0.0
 10
-93.38275221449629
 20
196.5717955172993
 30
0.0
 10
-99.91551832808135
 20
194.4766925970777
 30
0.0
 10
-106.2816073821722
 20
192.2491071501965
 30
0.0
 10
-111.5639962509577
 20
190.2415847939764
 30
0.0
 10
-115.6107320940001
 20
188.6063610240912
 30
0.0
 10
-118.5826870492374
 20
187.3560961046411
 30
0.0
 10
-121.5828549327518
 20
186.047476234794
 30
0.0
 10
-125.0118613750472
 20
184.4905379692853
 30
0.0
 10
-128.9996161116122
 20
182.5885183033058
 30
0.0
 10
-133.2242714454913
 20
180.4567120377107
 30
0.0
 10
-138.9569424290467
 20
177.3918349779645
 30
0.0
 10
-145.7724895114939
 20
173.4121547628722
 30
0.0
 10
-153.4184129740272
 20
168.3923906531315
 30
0.0
 10
-160.4389934007114
 20
163.2206049656263
 30
0.0
 10
-165.8778366869029
 20
158.712493236859
 30
0.0
 10
-169.9194340132129
 20
155.0350728692513
 30
0.0
 10
-172.6814355003238
 20
152.3589288912624
 30
0.0
 10
-175.1889173367961
 20
149.7818371986434
 30
0.0
 10
-177.6847594642645
 20
147.0620033390417
 30
0.0
 10
-180.3646785964891
 20
143.9370151733016
 30
0.0
 10
-182.872857666549
 20
140.7578981671937
 30
0.0
 10
-184.9875374120251
 20
137.8493111161696
 30
0.0
 10
-186.5550777878306
 20
135.5447768239975
 30
0.0
 10
-187.8308481370082
 20
133.5577273801665
 30
0.0
 10
-189.018301610331
 20
131.6095403862516
 30
0.0
 10
-190.2720124884846
 20
129.4294363799423
 30
0.0
 10
-191.6554306624238
 20
126.8396451935374
 30
0.0
 10
-193.0224635999271
 20
124.0357614217148
 30
0.0
 10
-194.2469374569192
 20
121.2530968606448
 30
0.0
 10
-195.3234637786082
 20
118.5418380732728
 30
0.0
 10
-196.2627390613057
 20
115.8968934507721
 30
0.0
 10
-197.1299194223752
 20
113.1252819190215
 30
0.0
 10
-197.9196140155487
 20
110.2059845103562
 30
0.0
 10
-198.5964079052886
 20
107.1685689744457
 30
0.0
 10
-199.1782561709731
 20
103.9478047387984
 30
0.0
 10
-199.4322634380711
 20
101.7880768334498
 30
0.0
 10
-199.5664147231363
 20
100.6474390981455
 30
0.0
  0
SPLINE
  5
DB
330
D1
100
AcDbEntity
  8
0
  6
Continuous
 62
     7
370
    25
100
AcDbSpline
210
0.0
220
0.0
230
1.0
 70
     8
 71
     3
 72
    85
 73
    81
 74
     0
 42
0.000000001
 43
0.00000001
 40
0.0
 40
0.0
 40
0.0
 40
0.0
 40
0.00552734896941
 40
0.0176403315790961
 40
0.0297635692492099
 40
0.0419169162902072
 40
0.0541190022546506
 40
0.0663865762043175
 40
0.0787338866959062
 40
0.0911721259495147
 40
0.1037089819529994
 40
0.1163483526782736
 40
0.1290902759702543
 40
0.14193111252203
 40
0.154863987471886
 40
0.1678794546520928
 40
0.1809663080202104
 40
0.1941124401883064
 40
0.2073056463911279
 40
0.2205342931607514
 40
0.233787805833963
 40
0.2470569659068865
 40
0.2603340383772389
 40
0.273611643545887
 40
0.2868846967923552
 40
0.3001499280215389
 40
0.3134050641324996
 40
0.3266486571737345
 40
0.3398799268994599
 40
0.3530986233232005
 40
0.366304910705568
 40
0.3794992721499026
 40
0.3926824327803007
 40
0.405855298980722
 40
0.4190189111047737
 40
0.4321744072304754
 40
0.4453229958068649
 40
0.4584659353432544
 40
0.4716045195841262
 40
0.4847400668707791
 40
0.4978739126056487
 40
0.511007403903919
 40
0.5241417395609842
 40
0.5372779833197244
 40
0.5504174970020711
 40
0.5635616410681582
 40
0.5767117698181368
 40
0.5898692247262254
 40
0.6030353249816984
 40
0.616211354189304
 40
0.6293985419705042
 40
0.6425980389460928
 40
0.6558108832744844
 40
0.6690379565819283
 40
0.6822799267818935
 40
0.6955371749986081
 40
0.7088097036852332
 40
0.7220970232229332
 40
0.7353980150499081
 40
0.7487107710454934
 40
0.7620324119260097
 40
0.7753588325497892
 40
0.7886825581865177
 40
0.8019961286421652
 40
0.8152904422264331
 40
0.8285547997671812
 40
0.8417771201944892
 40
0.8549443646749887
 40
0.8680431822763652
 40
0.8810607496239583
 40
0.8939857296859973
 40
0.9068092353877967
 40
0.9195256680349246
 40
0.932133317198279
 40
0.9446346535733838
 40
0.9570363037076879
 40
0.9693487462889854
 40
0.9815858004098945
 40
0.9937639834339068
 40
1.0
 40
1.0
 40
1.0
 40
1.0
 10
-197.8761906445824
 20
19.72218663408567
 30
0.0
 10
-197.8633459588737
 20
18.9611009935739
 30
0.0
 10
-197.8223526153764
 20
16.53212407660727
 30
0.0
 10
-197.4165943546576
 20
12.44470082705329
 30
0.0
 10
-196.6741431552835
 20
7.473669517244833
 30
0.0
 10
-195.601569304339
 20
2.532281939257183
 30
0.0
 10
-194.222658006012
 20
-2.374231752651529
 30
0.0
 10
-192.532017830147
 20
-7.239996748700753
 30
0.0
 10
-190.5318784053379
 20
-12.05904511308619
 30
0.0
 10
-188.2224214406301
 20
-16.82496424651485
 30
0.0
 10
-185.6047025193087
 20
-21.53082889806254
 30
0.0
 10
-182.6802148020507
 20
-26.16912195078602
 30
0.0
 10
-179.4513650800775
 20
-30.73174506624403
 30
0.0
 10
-175.9216615336273
 20
-35.21010316546937
 30
0.0
 10
-172.095894243425
 20
-39.59526307069437
 30
0.0
 10
-167.9801992834913
 20
-43.87816515123213
 30
0.0
 10
-163.5820227704844
 20
-48.04985877756132
 30
0.0
 10
-158.9099904870655
 20
-52.10172830755444
 30
0.0
 10
-153.9737117796931
 20
-56.02568073176917
 30
0.0
 10
-148.7835517452425
 20
-59.81427633899863
 30
0.0
 10
-143.3504051398352
 20
-63.46079648769339
 30
0.0
 10
-137.6854974975297
 20
-66.95925388573126
 30
0.0
 10
-131.8003939105588
 20
-70.30426398802918
 30
0.0
 10
-125.7067805698491
 20
-73.49107938438138
 30
0.0
 10
-119.4163060751358
 20
-76.51556275078565
 30
0.0
 10
-112.9403534781244
 20
-79.37416912654996
 30
0.0
 10
-106.2901638104764
 20
-82.06377919536956
 30
0.0
 10
-99.47694748991583
 20
-84.58158775988304
 30
0.0
 10
-92.5119041987954
 20
-86.92505617181592
 30
0.0
 10
-85.4062445865941
 20
-89.0918766862032
 30
0.0
 10
-78.17121055745491
 20
-91.07994723257337
 30
0.0
 10
-70.81809225782388
 20
-92.88735474748391
 30
0.0
 10
-63.3582408229402
 20
-94.51236520696685
 30
0.0
 10
-55.80307658080111
 20
-95.95341866407058
 30
0.0
 10
-48.16409281854493
 20
-97.20912783787972
 30
0.0
 10
-40.45285545371379
 20
-98.27827905751907
 30
0.0
 10
-32.68099907604505
 20
-99.15983460556482
 30
0.0
 10
-24.86021987553133
 20
-99.8529357154476
 30
0.0
 10
-17.0022659794493
 20
-100.3569056527842
 30
0.0
 10
-9.118925704090966
 20
-100.671252452771
 30
0.0
 10
-1.222014203551405
 20
-100.7956709993171
 30
0.0
 10
6.676609750081219
 20
-100.730044481723
 30
0.0
 10
14.56503127073618
 20
-100.4744496019283
 30
0.0
 10
22.43135576410993
 20
-100.0291600690929
 30
0.0
 10
30.26375727009617
 20
-99.39464068228335
 30
0.0
 10
38.05052115994813
 20
-98.57153580742039
 30
0.0
 10
45.77999912615199
 20
-97.5606667371183
 30
0.0
 10
53.44062209109889
 20
-96.36302612957154
 30
0.0
 10
61.02091136572905
 20
-94.97977162998147
 30
0.0
 10
68.50948752428428
 20
-93.41221895634874
 30
0.0
 10
75.89507643475655
 20
-91.66183485303686
 30
0.0
 10
83.16651184270175
 20
-89.73023047282511
 30
0.0
 10
90.31273388091823
 20
-87.61915594907038
 30
0.0
 10
97.3227828826792
 20
-85.33049717164486
 30
0.0
 10
104.1857879386686
 20
-82.86627608783456
 30
0.0
 10
110.8909497953643
 20
-80.22865620951427
 30
0.0
 10
117.4275179977732
 20
-77.41995540419566
 30
0.0
 10
123.7847627022597
 20
-74.44266843876093
 30
0.0
 10
129.9519424036975
 20
-71.29950205592115
 30
0.0
 10
135.9182700350675
 20
-67.99342545188088
 30
0.0
 10
141.6728729048445
 20
-64.52774391164691
 30
0.0
 10
147.2044936534521
 20
-60.90637007991262
 30
0.0
 10
152.5017553458741
 20
-57.13382877628388
 30
0.0
 10
157.5532138611604
 20
-53.21538223013378
 30
0.0
 10
162.3476693273844
 20
-49.1569471209985
 30
0.0
 10
166.8740788235889
 20
-44.96534345724297
 30
0.0
 10
171.1217436770102
 20
-40.64836617429318
 30
0.0
 10
175.08054696009
 20
-36.21480090635253
 30
0.0
 10
178.7412230295405
 20
-31.67436605676048
 30
0.0
 10
182.0956267361958
 20
-27.0375725408604
 30
0.0
 10
185.1369693258089
 20
-22.31550725403933
 30
0.0
 10
187.85996096071
 20
-17.51956174349799
 30
0.0
 10
190.2609120855932
 20
-12.66114191664532
 30
0.0
 10
192.3374893427938
 20
-7.751391023366937
 30
0.0
 10
194.0892244226209
 20
-2.800980683759217
 30
0.0
 10
195.5147964920378
 20
2.180092221047987
 30
0.0
 10
196.6209017439523
 20
7.18239698225958
 30
0.0
 10
197.3881823577764
 20
12.19777044375278
 30
0.0
 10
197.8139985552679
 20
16.40637298579221
 30
0.0
 10
197.8617851561852
 20
18.94187644800938
 30
0.0
 10
197.8779682128259
 20
19.80053128752077
 30
0.0
  0
SPLINE
  5
DC
330
D1
100
AcDbEntity
  8
0
  6
Continuous
 62
     7
370
    25
100
AcDbSpline
210
0.0
220
0.0
230
1.0
 70
     8
 71
     3
 72
    41
 73
    37
 74
     0
 42
0.000000001
 43
0.00000001
 40
0.0
 40
0.0
 40
0.0
 40
0.0
 40
0.0123045017165796
 40
0.0427729000306748
 40
0.0732336418985261
 40
0.1036860675236612
 40
0.134129901142303
 40
0.1645651653100117
 40
0.1949921112510214
 40
0.2254111631968822
 40
0.255822874554707
 40
0.2862278938630453
 40
0.3166269387101107
 40
0.3470207760405379
 40
0.3774102075250946
 40
0.4077960588937125
 40
0.4381791723270656
 40
0.4685604011631546
 40
0.4989406063037543
 40
0.5293206538031973
 40
0.5597012769930103
 40
0.5900831940525113
 40
0.6204672780062057
 40
0.6508544014451056
 40
0.6812454341321034
 40
0.7116412394601087
 40
0.7420426692187841
 40
0.7724505560478316
 40
0.8028657028234123
 40
0.8332888680583541
 40
0.8637207461955185
 40
0.8941619414380052
 40
0.9246129334971194
 40
0.9550740333670373
 40
0.985545326987447
 40
1.0
 40
1.0
 40
1.0
 40
1.0
 10
-114.8113233200809
 20
-78.50718884077531
 30
0.0
 10
-114.0275735833794
 20
-78.8912193548237
 30
0.0
 10
-111.3031033115086
 20
-80.22618595196654
 30
0.0
 10
-106.4309004699619
 20
-82.35776668323277
 30
0.0
 10
-100.2122558256339
 20
-84.89919642778726
 30
0.0
 10
-93.80822589672785
 20
-87.27481775861676
 30
0.0
 10
-87.24577943164314
 20
-89.49238581076993
 30
0.0
 10
-80.53214526072662
 20
-91.54537489854641
 30
0.0
 10
-73.68011675246791
 20
-93.43141031734639
 30
0.0
 10
-66.70125992334161
 20
-95.14733386429955
 30
0.0
 10
-59.60771620154983
 20
-96.69052921960939
 30
0.0
 10
-52.41170128091427
 20
-98.05857161912554
 30
0.0
 10
-45.12561924072418
 20
-99.24932680527488
 30
0.0
 10
-37.76201022850729
 20
-100.2609297256908
 30
0.0
 10
-30.33354128081267
 20
-101.091795235152
 30
0.0
 10
-22.8529843527957
 20
-101.7406197930211
 30
0.0
 10
-15.33319674308231
 20
-102.2063849688617
 30
0.0
 10
-7.787100044350264
 20
-102.4883597308731
 30
0.0
 10
-0.2276588477143487
 20
-102.5861022327567
 30
0.0
 10
7.332129651893976
 20
-102.4994609684457
 30
0.0
 10
14.87925618872282
 20
-102.2285766262586
 30
0.0
 10
22.40073458549204
 20
-101.7738825264979
 30
0.0
 10
29.88363528296566
 20
-101.1361019561996
 30
0.0
 10
37.3151083170918
 20
-100.3162443331161
 30
0.0
 10
44.68239211957119
 20
-99.31560293555985
 30
0.0
 10
51.97283381712614
 20
-98.13575089122736
 30
0.0
 10
59.17391172606453
 20
-96.77853852668447
 30
0.0
 10
66.27324657750361
 20
-95.24608243893312
 30
0.0
 10
73.25865095233361
 20
-93.54078262226089
 30
0.0
 10
80.11803137775402
 20
-91.66523250085626
 30
0.0
 10
86.83983495458689
 20
-89.62252713090965
 30
0.0
 10
93.41145642891374
 20
-87.41508403320012
 30
0.0
 10
99.82525308719372
 20
-85.0490179885128
 30
0.0
 10
106.0561450364145
 20
-82.51778034063445
 30
0.0
 10
111.0777549230343
 20
-80.32862168359891
 30
0.0
 10
113.9440404482604
 20
-78.92978525962432
 30
0.0
 10
114.866251435199
 20
-78.47971763455142
 30
0.0
  0
SPLINE
  5
DD
330
D1
100
AcDbEntity
  8
0
  6
Continuous
 62
     7
370
    25
100
AcDbSpline
210
0.0
220
0.0
230
1.0
 70
     8
 71
     3
 72
    27
 73
    23
 74
     0
 42
0.000000001
 43
0.00000001
 40
0.0
 40
0.0
 40
0.0
 40
0.0
 40
0.0123584240884774
 40
0.0637422971125489
 40
0.1177106367252778
 40
0.1697998412207921
 40
0.2143731311829335
 40
0.2619724876553284
 40
0.3117385653357395
 40
0.3635131882074193
 40
0.4168544685450791
 40
0.471144951742187
 40
0.5256845293310783
 40
0.5795773958357249
 40
0.6328879195646331
 40
0.6862812649111224
 40
0.7408251362483366
 40
0.7958358502293413
 40
0.8507211072442851
 40
0.9048616423526453
 40
0.9578208795944809
 40
0.9999999999999999
 40
0.9999999999999999
 40
0.9999999999999999
 40
0.9999999999999999
 10
-21.84108471173251
 20
17.29241097018559
 30
0.0
 10
-21.82082423581055
 20
17.33120975218527
 30
0.0
 10
-21.71632472465822
 20
17.5313261644497
 30
0.0
 10
-21.32012284761769
 20
18.06298934280506
 30
0.0
 10
-20.58922385330678
 20
18.84435494583087
 30
0.0
 10
-19.59754663991862
 20
19.6761802848633
 30
0.0
 10
-18.40134138520078
 20
20.48943303667564
 30
0.0
 10
-16.97611993154296
 20
21.29424547476789
 30
0.0
 10
-15.25872880699603
 20
22.09618369177559
 30
0.0
 10
-13.27306689996191
 20
22.85621061236256
 30
0.0
 10
-11.05266369771506
 20
23.53844976168838
 30
0.0
 10
-8.64365931960535
 20
24.11121639022824
 30
0.0
 10
-6.106630033334876
 20
24.54785020989591
 30
0.0
 10
-3.498148623266356
 20
24.8308408139034
 30
0.0
 10
-0.8582404122884097
 20
24.95255911365158
 30
0.0
 10
1.802070018646195
 20
24.92015174831032
 30
0.0
 10
4.46551175416718
 20
24.73290886062698
 30
0.0
 10
7.092053271358543
 20
24.39142126348024
 30
0.0
 10
9.616629007189827
 20
23.90563359551926
 30
0.0
 10
11.97286903157966
 20
23.29145065666643
 30
0.0
 10
14.00208203856136
 20
22.62112668991837
 30
0.0
 10
15.15044881247129
 20
22.13385260806218
 30
0.0
 10
15.6595715430316
 20
21.91782205343264
 30
0.0
  0
SPLINE
  5
DE
330
D1
100
AcDbEntity
  8
0
  6
Continuous
 62
     7
370
    25
100
AcDbSpline
210
0.0
220
0.0
230
1.0
 70
     8
 71
     3
 72
    14
 73
    10
 74
     0
 42
0.000000001
 43
0.00000001
 40
0.0
 40
0.0
 40
0.0
 40
0.0
 40
0.0876268169731145
 40
0.2571035931569721
 40
0.4272095797005957
 40
0.5980286088430609
 40
0.7692529793173385
 40
0.9411726552763469
 40
1.0
 40
1.0
 40
1.0
 40
1.0
 10
15.6595715430316
 20
21.91782205343264
 30
0.0
 10
15.96274920125696
 20
21.77789464228566
 30
0.0
 10
16.85229498172932
 20
21.36733721900185
 30
0.0
 10
18.15774120997653
 20
20.64006768141122
 30
0.0
 10
19.47433037818647
 20
19.75355900915774
 30
0.0
 10
20.52819393480598
 20
18.87816142793693
 30
0.0
 10
21.29655641413712
 20
18.08086543611232
 30
0.0
 10
21.73084365622964
 20
17.51480370727567
 30
0.0
 10
21.84865102960816
 20
17.29783490645623
 30
0.0
 10
21.87868519838842
 20
17.24252022285892
 30
0.0
  0
SPLINE
  5
DF
330
D1
100
AcDbEntity
  8
0
  6
Continuous
 62
     7
370
    25
100
AcDbSpline
210
0.0
220
0.0
230
1.0
 70
     8
 71
     3
 72
    20
 73
    16
 74
     0
 42
0.000000001
 43
0.00000001
 40
0.0
 40
0.0
 40
0.0
 40
0.0
 40
0.0671399069513122
 40
0.1435333240852391
 40
0.2204759393373618
 40
0.2968815235955232
 40
0.3729882135577057
 40
0.4486144789277831
 40
0.5239491287425122
 40
0.6010694660577125
 40
0.6787411928071747
 40
0.758487543332583
 40
0.8425978182848928
 40
0.9275478809939285
 40
1.0
 40
1.0
 40
1.0
 40
1.0
 10
-9.011638269044623
 20
2.254102135498468
 30
0.0
 10
-9.725229981820561
 20
2.435507635849793
 30
0.0
 10
-11.25076368041034
 20
2.823320721317045
 30
0.0
 10
-13.41325056831074
 20
3.60670796402611
 30
0.0
 10
-15.49915900446671
 20
4.538709665507456
 30
0.0
 10
-17.36230776596516
 20
5.587937455186487
 30
0.0
 10
-18.97834071946027
 20
6.724808486355712
 30
0.0
 10
-20.324940060311
 20
7.923416574540932
 30
0.0
 10
-21.40109618943129
 20
9.175037316155432
 30
0.0
 10
-22.20806167286029
 20
10.46003401394688
 30
0.0
 10
-22.73083286456017
 20
11.75486199775457
 30
0.0
 10
-22.98473426940783
 20
13.09098323322627
 30
0.0
 10
-22.94868380766454
 20
14.46270111519861
 30
0.0
 10
-22.64154933897034
 20
15.8015346330082
 30
0.0
 10
-22.17896686002224
 20
16.69278932601333
 30
0.0
 10
-21.96604045424005
 20
17.10303326532037
 30
0.0
  0
SPLINE
  5
E0
330
D1
100
AcDbEntity
  8
0
  6
Continuous
 62
     7
370
    25
100
AcDbSpline
210
0.0
220
0.0
230
1.0
 70
     8
 71
     3
 72
    21
 73
    17
 74
     0
 42
0.000000001
 43
0.00000001
 40
0.0
 40
0.0
 40
0.0
 40
0.0
 40
0.0469708068005093
 40
0.1206908046990039
 40
0.1978323614038673
 40
0.2770321558332316
 40
0.3576814498890186
 40
0.4360247792693521
 40
0.5113542365842348
 40
0.5844907659533054
 40
0.6574389184984544
 40
0.72954488452774
 40
0.8017708245159304
 40
0.8746549967834981
 40
0.9472150276532368
 40
1.0
 40
1.0
 40
1.0
 40
1.0
 10
21.79363547022711
 20
17.3729169719944
 30
0.0
 10
21.96440111732838
 20
17.09465660119161
 30
0.0
 10
22.40318096309791
 20
16.37967062680405
 30
0.0
 10
22.79320898312257
 20
15.20402843392172
 30
0.0
 10
23.00622294577265
 20
13.85888737859534
 30
0.0
 10
22.91009883555276
 20
12.49497132121483
 30
0.0
 10
22.50554136435321
 20
11.09752810856438
 30
0.0
 10
21.79215527341746
 20
9.725715953915095
 30
0.0
 10
20.77660059332703
 20
8.404091128210576
 30
0.0
 10
19.4918546931527
 20
7.147862289214352
 30
0.0
 10
17.9580650543881
 20
5.976024707699937
 30
0.0
 10
16.1733037384026
 20
4.894970324917522
 30
0.0
 10
14.17274268933567
 20
3.918131029723985
 30
0.0
 10
11.97158682565743
 20
3.07119909202698
 30
0.0
 10
9.826636245440083
 20
2.414009933283584
 30
0.0
 10
8.380672234027973
 20
2.11369596353659
 30
0.0
 10
7.771751508046015
 20
1.987228500281907
 30
0.0
  0
SPLINE
  5
E1
330
D1
100
AcDbEntity
  8
0
  6
Continuous
 62
     7
370
    25
100
AcDbSpline
210
0.0
220
0.0
230
1.0
 70
     8
 71
     3
 72
     9
 73
     5
 74
     0
 42
0.000000001
 43
0.00000001
 40
0.0
 40
0.0
 40
0.0
 40
0.0
 40
0.1681711688454127
 40
0.9999999999999999
 40
0.9999999999999999
 40
0.9999999999999999
 40
0.9999999999999999
 10
-194.9493893139419
 20
94.89504852375526
 30
0.0
 10
-194.9865501487969
 20
94.43022265694078
 30
0.0
 10
-195.2075204560749
 20
91.66621816077335
 30
0.0
 10
-194.8611083376113
 20
88.90314002915976
 30
0.0
 10
-194.5729527500119
 20
86.60473197655082
 30
0.0
  0
SPLINE
  5
E4
330
D1
100
AcDbEntity
  8
0
  6
Continuous
 62
     7
370
    25
100
AcDbSpline
210
0.0
220
0.0
230
1.0
 70
     8
 71
     3
 72
    10
 73
     6
 74
     0
 42
0.000000001
 43
0.00000001
 40
0.0
 40
0.0
 40
0.0
 40
0.0
 40
0.2123316360869257
 40
0.8187970250698466
 40
0.9999999999999999
 40
0.9999999999999999
 40
0.9999999999999999
 40
0.9999999999999999
 10
-199.8678864349096
 20
91.63722911134056
 30
0.0
 10
-199.8975006985784
 20
92.2549654339268
 30
0.0
 10
-200.0116997479453
 20
94.63709120911801
 30
0.0
 10
-199.9029509724964
 20
97.55022976023339
 30
0.0
 10
-199.6079497066406
 20
99.83560306846965
 30
0.0
 10
-199.5400847149382
 20
100.3613528144935
 30
0.0
  0
SPLINE
  5
E5
330
D1
100
AcDbEntity
  8
0
  6
Continuous
 62
     7
370
    25
100
AcDbSpline
210
0.0
220
0.0
230
1.0
 70
    11
 71
     3
 72
   128
 73
   124
 74
     0
 42
0.000000001
 43
0.00000001
 40
0.0
 40
0.0
 40
0.0
 40
0.0
 40
0.0156249999999999
 40
0.0156249999999999
 40
0.0312499999999998
 40
0.0312499999999998
 40
0.0624999999999995
 40
0.0624999999999995
 40
0.0781249999999994
 40
0.0781249999999994
 40
0.0937499999999993
 40
0.0937499999999993
 40
0.124999999999999
 40
0.124999999999999
 40
0.1562499999999988
 40
0.1562499999999988
 40
0.1718749999999986
 40
0.1718749999999986
 40
0.1796874999999986
 40
0.1796874999999986
 40
0.1874999999999986
 40
0.1874999999999986
 40
0.2187499999999985
 40
0.2187499999999985
 40
0.2265624999999985
 40
0.2265624999999985
 40
0.2343749999999985
 40
0.2343749999999985
 40
0.2499999999999985
 40
0.2499999999999985
 40
0.2812499999999985
 40
0.2812499999999985
 40
0.2890624999999985
 40
0.2890624999999985
 40
0.2968749999999985
 40
0.2968749999999985
 40
0.3124999999999985
 40
0.3124999999999985
 40
0.3281249999999986
 40
0.3281249999999986
 40
0.3359374999999986
 40
0.3359374999999986
 40
0.3437499999999986
 40
0.3437499999999986
 40
0.3749999999999986
 40
0.3749999999999986
 40
0.3906249999999986
 40
0.3906249999999986
 40
0.3984374999999987
 40
0.3984374999999987
 40
0.4062499999999987
 40
0.4062499999999987
 40
0.4374999999999988
 40
0.4374999999999988
 40
0.4531249999999988
 40
0.4531249999999988
 40
0.4687499999999989
 40
0.4687499999999989
 40
0.499999999999999
 40
0.499999999999999
 40
0.5312499999999991
 40
0.5312499999999991
 40
0.5390624999999991
 40
0.5390624999999991
 40
0.5468749999999992
 40
0.5468749999999992
 40
0.5624999999999992
 40
0.5624999999999992
 40
0.5781249999999992
 40
0.5781249999999992
 40
0.5859374999999991
 40
0.5859374999999991
 40
0.5937499999999991
 40
0.5937499999999991
 40
0.624999999999999
 40
0.624999999999999
 40
0.640624999999999
 40
0.640624999999999
 40
0.656249999999999
 40
0.656249999999999
 40
0.687499999999999
 40
0.687499999999999
 40
0.703124999999999
 40
0.703124999999999
 40
0.718749999999999
 40
0.718749999999999
 40
0.734374999999999
 40
0.734374999999999
 40
0.7421874999999991
 40
0.7421874999999991
 40
0.7499999999999991
 40
0.7499999999999991
 40
0.7812499999999991
 40
0.7812499999999991
 40
0.7968749999999991
 40
0.7968749999999991
 40
0.8046874999999991
 40
0.8046874999999991
 40
0.8124999999999992
 40
0.8124999999999992
 40
0.8437499999999993
 40
0.8437499999999993
 40
0.8515624999999993
 40
0.8515624999999993
 40
0.8593749999999994
 40
0.8593749999999994
 40
0.8749999999999993
 40
0.8749999999999993
 40
0.9062499999999994
 40
0.9062499999999994
 40
0.9140624999999996
 40
0.9140624999999996
 40
0.9218749999999996
 40
0.9218749999999996
 40
0.9374999999999997
 40
0.9374999999999997
 40
0.9531249999999998
 40
0.9531249999999998
 40
0.9609374999999999
 40
0.9609374999999999
 40
0.9687499999999999
 40
0.9687499999999999
 40
1.0
 40
1.0
 40
1.0
 40
1.0
 10
-25.77696467149878
 20
3.753420524770301
 30
0.0
 10
-26.62886426774073
 20
4.245213556393263
 30
0.0
 10
-27.43719459568012
 20
4.758714414713913
 30
0.0
 10
-28.96654213717525
 20
5.829638191005279
 30
0.0
 10
-29.68153387346614
 20
6.383003444473269
 30
0.0
 10
-31.67202409862503
 20
8.088712378522573
 30
0.0
 10
-32.79893071681037
 20
9.289319847388503
 30
0.0
 10
-34.18250912588127
 20
11.19067265944099
 30
0.0
 10
-34.59337499709542
 20
11.84446394871869
 30
0.0
 10
-35.29314708661123
 20
13.15970034964285
 30
0.0
 10
-35.58438891810879
 20
13.82355456880994
 30
0.0
 10
-36.28534222746266
 20
15.83393225778236
 30
0.0
 10
-36.52391277425744
 20
17.20035076223116
 30
0.0
 10
-36.52118427111569
 20
19.98186294602129
 30
0.0
 10
-36.28035417146771
 20
21.3519065424382
 30
0.0
 10
-35.57538311238766
 20
23.37630099229329
 30
0.0
 10
-35.28264115482953
 20
24.04593485232497
 30
0.0
 10
-34.7554051559658
 20
25.04229304916085
 30
0.0
 10
-34.56434011510003
 20
25.37387546256555
 30
0.0
 10
-34.15477991852388
 20
26.03009010324666
 30
0.0
 10
-33.93679499627775
 20
26.35404367420772
 30
0.0
 10
-32.78223528108391
 20
27.95334529331128
 30
0.0
 10
-31.65365637802752
 20
29.16786800753594
 30
0.0
 10
-29.99085840314268
 20
30.60363307439465
 30
0.0
 10
-29.64554117339079
 20
30.88661492046167
 30
0.0
 10
-28.92916132832253
 20
31.44410017209092
 30
0.0
 10
-28.55698870953925
 20
31.71930281848741
 30
0.0
 10
-27.41134555879773
 20
32.5246034808006
 30
0.0
 10
-26.60812919879248
 20
33.03542138026128
 30
0.0
 10
-24.08378257571304
 20
34.49153865652664
 30
0.0
 10
-22.24905017376393
 20
35.36117700555018
 30
0.0
 10
-19.75966692614836
 20
36.32007242917015
 30
0.0
 10
-19.2505873857991
 20
36.50579158959521
 30
0.0
 10
-18.22250321791397
 20
36.86053685012236
 30
0.0
 10
-17.70274429793333
 20
37.02993752497397
 30
0.0
 10
-16.12653283217309
 20
37.51461573744688
 30
0.0
 10
-15.05320793940157
 20
37.80645857380889
 30
0.0
 10
-12.86194152218213
 20
38.32869430867895
 30
0.0
 10
-11.74399608138956
 20
38.55909245203068
 30
0.0
 10
-10.03295538512927
 20
38.85798316459434
 30
0.0
 10
-9.456906923880947
 20
38.9498075931553
 30
0.0
 10
-8.29320008146922
 20
39.1176053893803
 30
0.0
 10
-7.704460420719742
 20
39.19363693489601
 30
0.0
 10
-4.763696516433425
 20
39.52969202097677
 30
0.0
 10
-2.397806238678777
 20
39.66268408266465
 30
0.0
 10
1.170516896377101
 20
39.66374288328591
 30
0.0
 10
2.363228280585324
 20
39.63078943930967
 30
0.0
 10
4.157348529400647
 20
39.5297981984799
 30
0.0
 10
4.756033971803551
 20
39.48746315943765
 30
0.0
 10
5.941538914996179
 20
39.38651421152208
 30
0.0
 10
6.530083003985997
 20
39.32783494080009
 30
0.0
 10
9.452072528724798
 20
38.99394317829817
 30
0.0
 10
11.72403197118306
 20
38.59867829410683
 30
0.0
 10
15.03359543185131
 20
37.81172633862271
 30
0.0
 10
16.12556633575926
 20
37.51502828074383
 30
0.0
 10
18.23406077093282
 20
36.86644443936373
 30
0.0
 10
19.25419845613701
 20
36.51429714190552
 30
0.0
 10
22.21459359213317
 20
35.37539444489094
 30
0.0
 10
24.05600431120189
 20
34.50710418254644
 30
0.0
 10
27.46549273695501
 20
32.54132506673074
 30
0.0
 10
28.98879900127752
 20
31.46958364319732
 30
0.0
 10
30.66517173205878
 20
30.02120809778009
 30
0.0
 10
30.98884116796803
 20
29.72605235967698
 30
0.0
 10
31.60743219659736
 20
29.1301436507353
 30
0.0
 10
31.90316115916004
 20
28.82874720261266
 30
0.0
 10
32.75010372447778
 20
27.91443758065093
 30
0.0
 10
33.26126570157127
 20
27.29145705387604
 30
0.0
 10
34.17723230965998
 20
26.01927250252705
 30
0.0
 10
34.58204645069213
 20
25.37008221957064
 30
0.0
 10
35.10768456671323
 20
24.37647050190585
 30
0.0
 10
35.26927623479643
 20
24.04195547302159
 30
0.0
 10
35.56461446402898
 20
23.36619671892248
 30
0.0
 10
35.69801788798077
 20
23.02559587592543
 30
0.0
 10
36.28775162407032
 20
21.32471506083392
 30
0.0
 10
36.52217028129981
 20
19.95692789214559
 30
0.0
 10
36.52274562725427
 20
17.89568264300965
 30
0.0
 10
36.46407076223504
 20
17.20699233693554
 30
0.0
 10
36.22492306283577
 20
15.82614781418224
 30
0.0
 10
36.04596679277624
 20
15.14373105876164
 30
0.0
 10
35.33941070433634
 20
13.12843700625398
 30
0.0
 10
34.64286848358955
 20
11.8232115000899
 30
0.0
 10
33.25862957422744
 20
9.921103889006016
 30
0.0
 10
32.73758732110646
 20
9.294505434790226
 30
0.0
 10
31.60300978239631
 20
8.086022591953457
 30
0.0
 10
30.98751802537877
 20
7.50096385096706
 30
0.0
 10
29.66239137139896
 20
6.367811268534834
 30
0.0
 10
28.95274836907521
 20
5.819715981855614
 30
0.0
 10
27.81733928511017
 20
5.0250438179755
 30
0.0
 10
27.42700849249101
 20
4.764745868131158
 30
0.0
 10
26.62235032928255
 20
4.253388621093097
 30
0.0
 10
26.20699255056311
 20
4.001757591213316
 30
0.0
 10
24.08130618831765
 20
2.774190328577606
 30
0.0
 10
22.24298583520917
 20
1.897964089101679
 30
0.0
 10
19.28457726962284
 20
0.7406720778813867
 30
0.0
 10
18.26469906357745
 20
0.3812941961874178
 30
0.0
 10
16.68282168543784
 20
-0.1166730726542622
 30
0.0
 10
16.14532068768928
 20
-0.2761919137147378
 30
0.0
 10
15.06055577809996
 20
-0.5788533394017539
 30
0.0
 10
14.51389424977247
 20
-0.721898094651209
 30
0.0
 10
11.75952692277911
 20
-1.396181803411487
 30
0.0
 10
9.489241378356455
 20
-1.805685284056322
 30
0.0
 10
6.567541168340931
 20
-2.152854958505646
 30
0.0
 10
5.978967348820979
 20
-2.213974315775573
 30
0.0
 10
4.793218719136027
 20
-2.319290383530431
 30
0.0
 10
4.194333803221418
 20
-2.363540653929977
 30
0.0
 10
2.401399758082175
 20
-2.46928253614509
 30
0.0
 10
1.209182813871956
 20
-2.504259464750067
 30
0.0
 10
-2.358507824368719
 20
-2.505423791630802
 30
0.0
 10
-4.725105184887196
 20
-2.36878262548354
 30
0.0
 10
-7.668157982661238
 20
-2.022767612138821
 30
0.0
 10
-8.256998674156659
 20
-1.944527917896274
 30
0.0
 10
-9.420331721181018
 20
-1.772045856876348
 30
0.0
 10
-9.99630791441735
 20
-1.67768529266684
 30
0.0
 10
-11.70741128330952
 20
-1.370664903260682
 30
0.0
 10
-12.82583462627074
 20
-1.134224569103157
 30
0.0
 10
-15.0187626464274
 20
-0.5991896285131443
 30
0.0
 10
-16.09328615329889
 20
-0.3006300880941948
 30
0.0
 10
-17.67178787563576
 20
0.1939080639399501
 30
0.0
 10
-18.19239611835787
 20
0.3665535083326316
 30
0.0
 10
-19.22232243632216
 20
0.7276214410485635
 30
0.0
 10
-19.73121972873037
 20
0.9159520336298534
 30
0.0
 10
-22.22391520527404
 20
1.888375224780956
 30
0.0
 10
-24.07316547901485
 20
2.769834461524366
 30
0.0
 10
-25.77696467149879
 20
3.753420524770303
 30
0.0
  0
SPLINE
  5
E6
330
D1
100
AcDbEntity
  8
0
  6
Continuous
 62
     7
370
    25
100
AcDbSpline
210
0.0
220
0.0
230
1.0
 70
    11
 71
     3
 72
   128
 73
   124
 74
     0
 42
0.000000001
 43
0.00000001
 40
0.0
 40
0.0
 40
0.0
 40
0.0
 40
0.0312499999999998
 40
0.0312499999999998
 40
0.0390624999999998
 40
0.0390624999999998
 40
0.0468749999999998
 40
0.0468749999999998
 40
0.0624999999999997
 40
0.0624999999999997
 40
0.0781249999999996
 40
0.0781249999999996
 40
0.0859374999999996
 40
0.0859374999999996
 40
0.0937499999999995
 40
0.0937499999999995
 40
0.1249999999999995
 40
0.1249999999999995
 40
0.1406249999999995
 40
0.1406249999999995
 40
0.1484374999999995
 40
0.1484374999999995
 40
0.1562499999999995
 40
0.1562499999999995
 40
0.1874999999999994
 40
0.1874999999999994
 40
0.1953124999999994
 40
0.1953124999999994
 40
0.2031249999999994
 40
0.2031249999999994
 40
0.2187499999999993
 40
0.2187499999999993
 40
0.2499999999999992
 40
0.2499999999999992
 40
0.2578124999999992
 40
0.2578124999999992
 40
0.2656249999999991
 40
0.2656249999999991
 40
0.2812499999999991
 40
0.2812499999999991
 40
0.2968749999999991
 40
0.2968749999999991
 40
0.3124999999999991
 40
0.3124999999999991
 40
0.3437499999999989
 40
0.3437499999999989
 40
0.3593749999999988
 40
0.3593749999999988
 40
0.3749999999999988
 40
0.3749999999999988
 40
0.4062499999999986
 40
0.4062499999999986
 40
0.4140624999999986
 40
0.4140624999999986
 40
0.4218749999999985
 40
0.4218749999999985
 40
0.4374999999999984
 40
0.4374999999999984
 40
0.4531249999999983
 40
0.4531249999999983
 40
0.4609374999999983
 40
0.4609374999999983
 40
0.4687499999999983
 40
0.4687499999999983
 40
0.4999999999999982
 40
0.4999999999999982
 40
0.5312499999999981
 40
0.5312499999999981
 40
0.5468749999999982
 40
0.5468749999999982
 40
0.5624999999999981
 40
0.5624999999999981
 40
0.593749999999998
 40
0.593749999999998
 40
0.601562499999998
 40
0.601562499999998
 40
0.609374999999998
 40
0.609374999999998
 40
0.6249999999999979
 40
0.6249999999999979
 40
0.6562499999999978
 40
0.6562499999999978
 40
0.6640624999999978
 40
0.6640624999999978
 40
0.6718749999999978
 40
0.6718749999999978
 40
0.6874999999999978
 40
0.6874999999999978
 40
0.7031249999999978
 40
0.7031249999999978
 40
0.7109374999999979
 40
0.7109374999999979
 40
0.7187499999999979
 40
0.7187499999999979
 40
0.7499999999999981
 40
0.7499999999999981
 40
0.7656249999999981
 40
0.7656249999999981
 40
0.7734374999999982
 40
0.7734374999999982
 40
0.7812499999999982
 40
0.7812499999999982
 40
0.8124999999999984
 40
0.8124999999999984
 40
0.8203124999999986
 40
0.8203124999999986
 40
0.8281249999999986
 40
0.8281249999999986
 40
0.8437499999999987
 40
0.8437499999999987
 40
0.874999999999999
 40
0.874999999999999
 40
0.9062499999999992
 40
0.9062499999999992
 40
0.9218749999999994
 40
0.9218749999999994
 40
0.9374999999999996
 40
0.9374999999999996
 40
0.9687499999999998
 40
0.9687499999999998
 40
0.984375
 40
0.984375
 40
1.0
 40
1.0
 40
1.0
 40
1.0
 10
-20.43754663559015
 20
5.227839204161465
 30
0.0
 10
-19.08815559251284
 20
4.448849068819101
 30
0.0
 10
-17.62128938849339
 20
3.752035689962532
 30
0.0
 10
-15.64298691040132
 20
2.984517349246249
 30
0.0
 10
-15.23902615894022
 20
2.8359407625397
 30
0.0
 10
-14.42147391327405
 20
2.551234842662335
 30
0.0
 10
-14.00823527545506
 20
2.415184055410205
 30
0.0
 10
-12.75536976899881
 20
2.025688009465343
 30
0.0
 10
-11.90263327329811
 20
1.790844712056427
 30
0.0
 10
-10.16280012316614
 20
1.3704148624262
 30
0.0
 10
-9.27568469520604
 20
1.184859990133395
 30
0.0
 10
-7.918994556165593
 20
0.9441117299412577
 30
0.0
 10
-7.462395143113628
 20
0.8701660650058951
 30
0.0
 10
-6.540382561883286
 20
0.735048834548717
 30
0.0
 10
-6.073804393571665
 20
0.6737933987751854
 30
0.0
 10
-3.741801953135755
 20
0.4029401355363296
 30
0.0
 10
-1.866861664604931
 20
0.2961353768290362
 30
0.0
 10
0.9591722772163015
 20
0.2971244317892113
 30
0.0
 10
1.90347084515081
 20
0.3245086186112953
 30
0.0
 10
3.323448248877944
 20
0.4072458295558828
 30
0.0
 10
3.797713727256832
 20
0.4418639744124472
 30
0.0
 10
4.736979257980951
 20
0.5242909036214105
 30
0.0
 10
5.20330465448526
 20
0.572132969901322
 30
0.0
 10
7.518584704314264
 20
0.8440084368173673
 30
0.0
 10
9.319048572199275
 20
1.165000532149012
 30
0.0
 10
11.50442651053632
 20
1.695017845784574
 30
0.0
 10
11.93821122309792
 20
1.807515535088997
 30
0.0
 10
12.79907399321972
 20
2.045685261756677
 30
0.0
 10
13.22563401071799
 20
2.171270030989957
 30
0.0
 10
14.48097836880254
 20
2.563510498894139
 30
0.0
 10
15.29033345930374
 20
2.846838154264175
 30
0.0
 10
17.63758558444745
 20
3.760138776559424
 30
0.0
 10
19.0954858599347
 20
4.452743887756301
 30
0.0
 10
20.77898102031772
 20
5.425030607790552
 30
0.0
 10
21.10776742456932
 20
5.624402568716907
 30
0.0
 10
21.74422259462887
 20
6.029566950583251
 30
0.0
 10
22.05274501554679
 20
6.235828633157539
 30
0.0
 10
22.94957526354365
 20
6.865576791635471
 30
0.0
 10
23.50929099025907
 20
7.299977577861736
 30
0.0
 10
24.55311744794172
 20
8.19811127458079
 30
0.0
 10
25.03724094980695
 20
8.661844587076153
 30
0.0
 10
25.92852079596643
 20
9.619676421537223
 30
0.0
 10
26.3372451170336
 20
10.11630764008348
 30
0.0
 10
27.42152034607007
 20
11.62361699536412
 30
0.0
 10
27.96528435667748
 20
12.6576115854462
 30
0.0
 10
28.51608274002009
 20
14.25348885358813
 30
0.0
 10
28.65540040938856
 20
14.79375366226481
 30
0.0
 10
28.84148993574487
 20
15.88683606344452
 30
0.0
 10
28.88711202269846
 20
16.43217437095722
 30
0.0
 10
28.88651999365648
 20
18.06490324789607
 30
0.0
 10
28.70392664843205
 20
19.1490349877245
 30
0.0
 10
28.24395807580786
 20
20.49794462491051
 30
0.0
 10
28.13985237386688
 20
20.76808295696676
 30
0.0
 10
27.90930553091733
 20
21.30413492331064
 30
0.0
 10
27.78310209241128
 20
21.56956984357469
 30
0.0
 10
27.37230773291948
 20
22.35818575145339
 30
0.0
 10
27.05561154780603
 20
22.87370067181978
 30
0.0
 10
26.33791889247327
 20
23.88425225708178
 30
0.0
 10
25.93690067230136
 20
24.3792707337031
 30
0.0
 10
25.2713683684547
 20
25.10585800660742
 30
0.0
 10
25.03880945581982
 20
25.34538190656649
 30
0.0
 10
24.55197607293475
 20
25.81896247397498
 30
0.0
 10
24.29704178814294
 20
26.0535368256354
 30
0.0
 10
22.97585037393137
 20
27.20430763005933
 30
0.0
 10
21.77252254903875
 20
28.05507311072408
 30
0.0
 10
19.07183284737258
 20
29.61174096833693
 30
0.0
 10
17.61129878500103
 20
30.29651372659139
 30
0.0
 10
15.26228683575623
 20
31.1919406698578
 30
0.0
 10
14.45266218764231
 20
31.46825392405878
 30
0.0
 10
12.77935355661077
 20
31.97642855044969
 30
0.0
 10
11.91270473390405
 20
32.20839601402376
 30
0.0
 10
9.286825871178833
 20
32.82273691592942
 30
0.0
 10
7.485036499665318
 20
33.12993623254905
 30
0.0
 10
5.169515185240137
 20
33.38904245628712
 30
0.0
 10
4.703208872484327
 20
33.43453857145614
 30
0.0
 10
3.7641221409975
 20
33.51278187039493
 30
0.0
 10
3.290012366262767
 20
33.54556792700254
 30
0.0
 10
1.869183091203371
 20
33.62375066501942
 30
0.0
 10
0.9245432439448
 20
33.64923137671946
 30
0.0
 10
-1.901863911184527
 20
33.64827084373077
 30
0.0
 10
-3.776189303521657
 20
33.54517730893075
 30
0.0
 10
-6.106342339566861
 20
33.28415586687032
 30
0.0
 10
-6.57282298712533
 20
33.22508109751802
 30
0.0
 10
-7.495050325814805
 20
33.0946106108431
 30
0.0
 10
-7.951665605259074
 20
33.02317909937284
 30
0.0
 10
-9.308197767173358
 20
32.79047221535878
 30
0.0
 10
-10.1948554391065
 20
32.61087042142508
 30
0.0
 10
-11.93322382276942
 20
32.20300491156044
 30
0.0
 10
-12.78493511552979
 20
31.97473149123223
 30
0.0
 10
-14.03586872667708
 20
31.59483304793061
 30
0.0
 10
-14.44839387079313
 20
31.46193087383462
 30
0.0
 10
-15.26440674820804
 20
31.1833498330317
 30
0.0
 10
-15.66848246058698
 20
31.03736459989622
 30
0.0
 10
-17.64385191943347
 20
30.28302283802121
 30
0.0
 10
-19.09860953228232
 20
29.59696912160278
 30
0.0
 10
-21.09678101366763
 20
28.44423389120688
 30
0.0
 10
-21.73195833780377
 20
28.03924569780917
 30
0.0
 10
-22.63708200861317
 20
27.40006697473581
 30
0.0
 10
-22.93097313809514
 20
27.18150636840658
 30
0.0
 10
-23.49618642605256
 20
26.73871009342452
 30
0.0
 10
-23.76843498683811
 20
26.5139114652868
 30
0.0
 10
-25.0783687948888
 20
25.37318519616264
 30
0.0
 10
-25.9643679405151
 20
24.40787428034663
 30
0.0
 10
-26.86864500637381
 20
23.13753148070284
 30
0.0
 10
-27.03924537473005
 20
22.88024987595186
 30
0.0
 10
-27.3595859092793
 20
22.35920760281595
 30
0.0
 10
-27.50893994358874
 20
22.09596733215695
 30
0.0
 10
-27.92080267004727
 20
21.30507070806518
 30
0.0
 10
-28.14922377248731
 20
20.77371168625798
 30
0.0
 10
-28.69884062896566
 20
19.16796668897879
 30
0.0
 10
-28.88598348391887
 20
18.08211345874174
 30
0.0
 10
-28.88784023753213
 20
15.87980942809535
 30
0.0
 10
-28.70220675304779
 20
14.79789149485974
 30
0.0
 10
-28.15534379432135
 20
13.20577718803859
 30
0.0
 10
-27.92799065417503
 20
12.67999990030273
 30
0.0
 10
-27.38103927531148
 20
11.63823174710398
 30
0.0
 10
-27.0597443482196
 20
11.12055587064945
 30
0.0
 10
-25.97640981383728
 20
9.614959726939224
 30
0.0
 10
-25.09200200261265
 20
8.6636839103673
 30
0.0
 10
-23.52412835494131
 20
7.3118134120803
 30
0.0
 10
-22.96008662541788
 20
6.873141874816822
 30
0.0
 10
-21.75168185340552
 20
6.024240741959383
 30
0.0
 10
-21.11224215712881
 20
5.617334271832648
 30
0.0
 10
-20.43754663559015
 20
5.227839204161464
 30
0.0
  0
SPLINE
  5
E7
330
D1
100
AcDbEntity
  8
0
  6
Continuous
 62
     7
370
    25
100
AcDbSpline
210
0.0
220
0.0
230
1.0
 70
     8
 71
     3
 72
    12
 73
     8
 74
     0
 42
0.000000001
 43
0.00000001
 40
0.0
 40
0.0
 40
0.0
 40
0.0
 40
0.1628952655271265
 40
0.3924121257307771
 40
0.6285953020750662
 40
0.8590050487496786
 40
1.0
 40
1.0
 40
1.0
 40
1.0
 10
7.856222642578728
 20
1.993434907707051
 30
0.0
 10
6.961898070731189
 20
1.813013189244872
 30
0.0
 10
4.807484281009859
 20
1.378380114792792
 30
0.0
 10
1.156358954172156
 20
1.126641974729482
 30
0.0
 10
-2.88007339409198
 20
1.213963019789946
 30
0.0
 10
-6.374484575646138
 20
1.597921495750304
 30
0.0
 10
-8.359033142396823
 20
2.09128711117465
 30
0.0
 10
-9.112419758091873
 20
2.278581621136394
 30
0.0
  0
SPLINE
  5
E9
330
D1
100
AcDbEntity
  8
0
  6
Continuous
 62
     7
370
    25
100
AcDbSpline
210
0.0
220
0.0
230
1.0
 70
     8
 71
     3
 72
     9
 73
     5
 74
     0
 42
0.000000001
 43
0.00000001
 40
0.0
 40
0.0
 40
0.0
 40
0.0
 40
0.2852760488274381
 40
1.0
 40
1.0
 40
1.0
 40
1.0
 10
21.89479980146544
 20
17.24867777764043
 30
0.0
 10
21.88938734647936
 20
17.26248821430776
 30
0.0
 10
21.87041465315887
 20
17.31089899651009
 30
0.0
 10
21.83091701178292
 20
17.35534205078753
 30
0.0
 10
21.8026871014767
 20
17.38710656614288
 30
0.0
  0
SPLINE
  5
EA
330
D1
100
AcDbEntity
  8
0
  6
Continuous
 62
     8
370
    25
100
AcDbSpline
210
0.0
220
0.0
230
1.0
 70
     8
 71
     3
 72
    37
 73
    33
 74
     0
 42
0.000000001
 43
0.00000001
 40
0.0
 40
0.0
 40
0.0
 40
0.0
 40
0.0334987603565929
 40
0.0670026093472789
 40
0.1005015092511603
 40
0.134010306969125
 40
0.1675178501143255
 40
0.2010285449338443
 40
0.2345459072822738
 40
0.2680584449728722
 40
0.3015797127772391
 40
0.3350977088169822
 40
0.3686158677804836
 40
0.4021371731943424
 40
0.4356492789237829
 40
0.4691668569595304
 40
0.5026773903508637
 40
0.5361847659804369
 40
0.5696937404826861
 40
0.603192176044468
 40
0.6366961741600659
 40
0.6701947110190473
 40
0.7036915746789458
 40
0.7371949910907318
 40
0.7706974600448394
 40
0.8042041769785658
 40
0.8377111920351628
 40
0.8712224583899877
 40
0.904738707649719
 40
0.9382526979729733
 40
0.9717713931395673
 40
1.0
 40
1.0
 40
1.0
 40
1.0
 10
137.8351969236589
 20
173.1185570300213
 30
0.0
 10
134.1451953935506
 20
175.1542256507934
 30
0.0
 10
126.7646318031118
 20
179.2258721208774
 30
0.0
 10
114.6915495909884
 20
184.6748142160638
 30
0.0
 10
101.9716325255988
 20
189.597625575925
 30
0.0
 10
88.60584714567287
 20
193.9186754933684
 30
0.0
 10
74.69716643936418
 20
197.6262208167321
 30
0.0
 10
60.3222466982796
 20
200.6896211341914
 30
0.0
 10
45.57435117188118
 20
203.0945877347201
 30
0.0
 10
30.54145578399263
 20
204.8230320588848
 30
0.0
 10
15.31874981341312
 20
205.8637204496794
 30
0.0
 10
0.0001212022125857
 20
206.2129648403099
 30
0.0
 10
-15.31851143393029
 20
205.8637236607155
 30
0.0
 10
-30.54119023922405
 20
204.823056457735
 30
0.0
 10
-45.57404590843384
 20
203.0946166957241
 30
0.0
 10
-60.32195146158648
 20
200.6896981552336
 30
0.0
 10
-74.69663321953823
 20
197.6261967984303
 30
0.0
 10
-88.6062105443112
 20
193.9191860400571
 30
0.0
 10
-101.9685164142095
 20
189.596181810855
 30
0.0
 10
-114.7012992772164
 20
184.6808727634304
 30
0.0
 10
-126.7263231727951
 20
179.2040575241419
 30
0.0
 10
-137.9758545536258
 20
173.2010466523634
 30
0.0
 10
-148.3776651565482
 20
166.7052185835356
 30
0.0
 10
-157.8727269173599
 20
159.7587660105424
 30
0.0
 10
-166.3984963011478
 20
152.4018678440802
 30
0.0
 10
-173.9000287073094
 20
144.6805340061067
 30
0.0
 10
-180.334888675
 20
136.6431482366073
 30
0.0
 10
-185.6523083894966
 20
128.3378874028105
 30
0.0
 10
-189.8358080801739
 20
119.817974660454
 30
0.0
 10
-192.8115901450039
 20
111.1350123978067
 30
0.0
 10
-194.6177830574747
 20
102.8076432963315
 30
0.0
 10
-194.845352769471
 20
97.3775077713784
 30
0.0
 10
-194.9493893139419
 20
94.89504852375525
 30
0.0
  0
SPLINE
  5
EB
330
D1
100
AcDbEntity
  8
0
  6
Continuous
 62
     8
370
    25
100
AcDbSpline
210
0.0
220
0.0
230
1.0
 70
     8
 71
     3
 72
    17
 73
    13
 74
     0
 42
0.000000001
 43
0.00000001
 40
0.0
 40
0.0
 40
0.0
 40
0.0
 40
0.0857177149486092
 40
0.1873424292121286
 40
0.2889406346826717
 40
0.3905534247756253
 40
0.4921459594793616
 40
0.5937288969520041
 40
0.6953155959108169
 40
0.7968722459592471
 40
0.8984438574859481
 40
1.0
 40
1.0
 40
1.0
 40
1.0
 10
194.950234875156
 20
94.88165324174449
 30
0.0
 10
194.8460755207324
 20
97.36813974330121
 30
0.0
 10
194.618427519446
 20
102.8025405749623
 30
0.0
 10
192.8118810729313
 20
111.134052736952
 30
0.0
 10
189.836093953895
 20
119.8172619934935
 30
0.0
 10
185.6525440148115
 20
128.3370737237579
 30
0.0
 10
180.3356199579124
 20
136.6426568639869
 30
0.0
 10
173.8994946538307
 20
144.6796317615269
 30
0.0
 10
166.4016755680124
 20
152.4029696676726
 30
0.0
 10
157.8631957852154
 20
159.7523505198534
 30
0.0
 10
148.4162795686478
 20
166.7266445191599
 30
0.0
 10
141.3620454023549
 20
170.9880277003439
 30
0.0
 10
137.8351969236589
 20
173.1185570300213
 30
0.0
  0
SPLINE
  5
EC
330
D1
100
AcDbEntity
  8
0
  6
Continuous
 62
     8
370
    25
100
AcDbSpline
210
0.0
220
0.0
230
1.0
 70
     8
 71
     3
 72
    89
 73
    85
 74
     0
 42
0.000000001
 43
0.00000001
 40
0.0
 40
0.0
 40
0.0
 40
0.0
 40
0.0095860514401392
 40
0.0252923471837134
 40
0.0419515999184077
 40
0.0595637706363239
 40
0.075851208583121
 40
0.0928765964233761
 40
0.0974580950640843
 40
0.1020902281960838
 40
0.1067729957453395
 40
0.111506397636515
 40
0.1162904337929737
 40
0.1211251041367808
 40
0.1409606405006593
 40
0.1593607928953341
 40
0.1763254733216913
 40
0.1918546005398747
 40
0.2059481000715238
 40
0.2183924905479271
 40
0.2294519363528745
 40
0.2391263878809523
 40
0.2474158016122665
 40
0.2558680421764036
 40
0.2657563181450301
 40
0.277080581651541
 40
0.2898407780337991
 40
0.3040368458492546
 40
0.3115343304229536
 40
0.3193781294642533
 40
0.3275682410586589
 40
0.3361046632141502
 40
0.3449873938612379
 40
0.3542164308530108
 40
0.3637917719651735
 40
0.3737134148960784
 40
0.3947310527746604
 40
0.4147565346412456
 40
0.4337898090561229
 40
0.4518308273244175
 40
0.4688795434993658
 40
0.4849359143865455
 40
0.4999998995494471
 40
0.5147537962771105
 40
0.5304605337696614
 40
0.5471200754862813
 40
0.5647323824302155
 40
0.5810198139053989
 40
0.5980450769861914
 40
0.6026265233878132
 40
0.607258596164274
 40
0.6119412952415516
 40
0.6166746205443228
 40
0.6214585719959649
 40
0.6262936517711695
 40
0.6461282924256535
 40
0.6645277062716369
 40
0.6814918053333818
 40
0.6970205083921118
 40
0.7111137409882509
 40
0.7235580223487393
 40
0.7346175107270615
 40
0.744292156528725
 40
0.7525840021694509
 40
0.7610356431853349
 40
0.7709234378021816
 40
0.7822473381476851
 40
0.7950072895522731
 40
0.8092032305642294
 40
0.8167006961257512
 40
0.8245445046549363
 40
0.8327346542369325
 40
0.841271142879339
 40
0.850153968512264
 40
0.8593831289883702
 40
0.8689586220829145
 40
0.8788804454937788
 40
0.8998977798019865
 40
0.9199229913063093
 40
0.9389560285710102
 40
0.9569968429049356
 40
0.9740453883647877
 40
0.9901016217593567
 40
1.0
 40
1.0
 40
1.0
 40
1.0
 10
199.8693804101862
 20
91.63544762475654
 30
0.0
 10
199.8390022240503
 20
90.48863266462465
 30
0.0
 10
199.7588508045262
 20
87.46281517258846
 30
0.0
 10
199.0998888212875
 20
82.45399724251298
 30
0.0
 10
197.8690134668113
 20
76.513906829852
 30
0.0
 10
196.050755072412
 20
70.55109683894645
 30
0.0
 10
193.6799980346605
 20
64.60905069377024
 30
0.0
 10
191.5204857835369
 20
60.24517270273637
 30
0.0
 10
189.8514198386225
 20
57.2556064861162
 30
0.0
 10
188.9282755165297
 20
55.67970991643201
 30
0.0
 10
187.9552125957051
 20
54.09453109531307
 30
0.0
 10
186.9311352774769
 20
52.50066181446844
 30
0.0
 10
185.8549525187957
 20
50.89871824786472
 30
0.0
 10
183.5615833528381
 20
47.63055076542439
 30
0.0
 10
179.8907128050667
 20
42.92599920806138
 30
0.0
 10
174.5753444926904
 20
37.07004705069147
 30
0.0
 10
169.1688159497429
 20
31.83509399489312
 30
0.0
 10
163.8077096840791
 20
27.19419806554636
 30
0.0
 10
158.6383227345276
 20
23.13728743119972
 30
0.0
 10
153.7636070330929
 20
19.625130042943
 30
0.0
 10
149.2689476370628
 20
16.61910407164037
 30
0.0
 10
145.1926762121068
 20
14.06458774550854
 30
0.0
 10
141.3717836621993
 20
11.80086811922726
 30
0.0
 10
137.4184062157513
 20
9.578243894721936
 30
0.0
 10
132.8937945692154
 20
7.176280476518936
 30
0.0
 10
127.5574834506405
 20
4.525995719085866
 30
0.0
 10
121.3546904957439
 20
1.671997406501022
 30
0.0
 10
115.5896854473492
 20
-0.7593414293328854
 30
0.0
 10
110.529697600207
 20
-2.745615502960729
 30
0.0
 10
106.4341673445137
 20
-4.272032472511491
 30
0.0
 10
102.0902312106764
 20
-5.803743698453545
 30
0.0
 10
97.49209887410926
 20
-7.331665504720648
 30
0.0
 10
92.63445308545757
 20
-8.846142659656747
 30
0.0
 10
87.51253127758753
 20
-10.3369536695346
 30
0.0
 10
82.1221210064319
 20
-11.79334167819955
 30
0.0
 10
74.41530121471635
 20
-13.71327654397685
 30
0.0
 10
64.52372703883408
 20
-15.85811475694127
 30
0.0
 10
52.60938857262602
 20
-17.95227463538071
 30
0.0
 10
41.09694649273005
 20
-19.54281783472161
 30
0.0
 10
30.05268470823789
 20
-20.68559514137452
 30
0.0
 10
19.52969914896624
 20
-21.43602525438404
 30
0.0
 10
9.569695525907807
 20
-21.84821508451765
 30
0.0
 10
0.062785475778912
 20
-21.97626034149719
 30
0.0
 10
-9.371602186707461
 20
-21.85172934109675
 30
0.0
 10
-19.11560307382489
 20
-21.45689663152908
 30
0.0
 10
-29.40144387026883
 20
-20.73926993478214
 30
0.0
 10
-39.72560147800852
 20
-19.69500875887416
 30
0.0
 10
-50.01255390930537
 20
-18.32915593652146
 30
0.0
 10
-57.56662236947938
 20
-17.08558623304889
 30
0.0
 10
-62.74137401695617
 20
-16.12422978839845
 30
0.0
 10
-65.46907512277497
 20
-15.59250422580008
 30
0.0
 10
-68.21277207783334
 20
-15.03200600973688
 30
0.0
 10
-70.97143845736431
 20
-14.44210598626342
 30
0.0
 10
-73.7441094708342
 20
-13.8221489244301
 30
0.0
 10
-79.40032834693001
 20
-12.50103241801256
 30
0.0
 10
-87.54237581154081
 20
-10.38599327251913
 30
0.0
 10
-97.67726003558089
 20
-7.322530757313913
 30
0.0
 10
-106.737666928263
 20
-4.205786522683219
 30
0.0
 10
-114.7702785957455
 20
-1.114585773829752
 30
0.0
 10
-121.792553871647
 20
1.866636606206298
 30
0.0
 10
-127.8724253904682
 20
4.678444529783832
 30
0.0
 10
-133.0767626221708
 20
7.271537311758502
 30
0.0
 10
-137.5004630168647
 20
9.623941231524173
 30
0.0
 10
-141.4213631664126
 20
11.82948595049307
 30
0.0
 10
-145.2723376669602
 20
14.11226109759332
 30
0.0
 10
-149.4346701562161
 20
16.72518963308638
 30
0.0
 10
-154.028350859608
 20
19.80738699694472
 30
0.0
 10
-158.9761085754799
 20
23.39048232207453
 30
0.0
 10
-163.1919207421773
 20
26.72096147716386
 30
0.0
 10
-166.6364918931196
 20
29.64428070071719
 30
0.0
 10
-169.2838503678067
 20
32.01046750689851
 30
0.0
 10
-171.9406654058639
 20
34.52022529846391
 30
0.0
 10
-174.5912011514179
 20
37.17689738488151
 30
0.0
 10
-177.2187296026623
 20
39.98355302282562
 30
0.0
 10
-179.8055488130966
 20
42.94294463323047
 30
0.0
 10
-182.3330014312068
 20
46.05749370204951
 30
0.0
 10
-185.6655194526914
 20
50.51046453499718
 30
0.0
 10
-189.388897762135
 20
56.22544828104138
 30
0.0
 10
-193.0252548138798
 20
63.10825602837551
 30
0.0
 10
-195.7859612438546
 20
69.75820635148631
 30
0.0
 10
-197.7756495180832
 20
76.13694374651386
 30
0.0
 10
-199.0631030068262
 20
82.21406559569925
 30
0.0
 10
-199.7523155287327
 20
87.34798686695552
 30
0.0
 10
-199.8359793457961
 20
90.45304496804654
 30
0.0
 10
-199.8678864349095
 20
91.63722911134055
 30
0.0
  0
LWPOLYLINE
  5
ED
330
D1
100
AcDbEntity
  8
0
  6
Continuous
 62
     8
370
    25
100
AcDbPolyline
 90
       57
 70
   128
 43
0.0
 10
-139.9660006396
 20
-59.2113781071
 10
-133.9410921872
 20
-62.5458231119
 10
-127.6780413609
 20
-65.7306789842
 10
-121.1879836364
 20
-68.7602831663
 10
-114.4824580995
 20
-71.6292491326
 10
-107.57338693
 20
-74.3324759662
 10
-100.4730542041
 20
-76.8651574286
 10
-93.1940840544
 20
-79.2227905045
 10
-85.7494182242
 20
-81.4011834084
 10
-78.1522930577
 20
-83.3964630371
 10
-70.4162159661
 20
-85.2050818562
 10
-62.5549414122
 20
-86.8238242077
 10
-54.5824464554
 20
-88.2498120265
 10
-46.5129059006
 20
-89.4805099584
 10
-38.3606670965
 20
-90.5137298674
 10
-30.1402244262
 20
-91.3476347262
 10
-21.8661935367
 20
-91.9807418824
 10
-13.5532853532
 20
-92.4119256945
 10
-5.2162799228
 20
-92.6404195335
 10
3.1299998628
 20
-92.6658171458
 10
11.470714623
 20
-92.4880733751
 10
19.7910348711
 20
-92.1075042436
 10
28.0761673815
 20
-91.5247863891
 10
36.3113814908
 20
-90.7409558629
 10
44.482035289
 20
-89.7574062869
 10
52.5736016517
 20
-88.5758863764
 10
60.5716940693
 20
-87.1984968308
 10
68.4620922252
 20
-85.6276865983
 10
76.2307672796
 20
-83.8662485222
 10
83.8639068116
 20
-81.9173143751
 10
91.3479393777
 20
-79.7843492909
 10
98.6695586412
 20
-77.4711456036
 10
105.8157470302
 20
-74.9818161049
 10
112.7737988825
 20
-72.3207867319
 10
119.5313430358
 20
-69.4927886977
 10
126.0763648233
 20
-66.5028500796
 10
132.397227435
 20
-63.3562868792
 10
138.4826926079
 20
-60.0586935713
 10
144.3219406071
 20
-56.6159331563
 10
149.9045894625
 20
-53.0341267366
 10
155.2207134284
 20
-49.3196426333
 10
160.2608606302
 20
-45.4790850636
 10
165.0160698703
 20
-41.5192823987
 10
169.47788656
 20
-37.4472750233
 10
173.6383777522
 20
-33.2703028178
 10
177.4901462454
 20
-28.9957922864
 10
181.0263437357
 20
-24.6313433528
 10
184.240682993
 20
-20.184715848
 10
187.1274490394
 20
-15.6638157135
 10
189.6815093103
 20
-11.0766809445
 10
191.8983227797
 20
-6.4314672995
 10
193.7739480342
 20
-1.7364337987
 10
195.3050502804
 20
3.0000719597
 10
196.4889072745
 20
7.7696286412
 10
197.3234141619
 20
12.5637561481
 10
197.8070872199
 20
17.3739306967
 10
197.9162623649
 20
19.7531941499
  0
LWPOLYLINE
  5
EE
330
D1
100
AcDbEntity
  8
0
  6
Continuous
 62
     8
370
    25
100
AcDbPolyline
 90
       20
 70
   128
 43
0.0
 10
-197.9162623649
 20
19.7531941499
 10
-197.8730731904
 20
18.5779798696
 10
-197.4772673656
 20
13.7651290791
 10
-196.730354166
 20
8.9661893331
 10
-195.6336615759
 20
4.1896929712
 10
-194.1891394748
 20
-0.5558675703
 10
-192.3993561703
 20
-5.2620548579
 10
-190.2674938317
 20
-9.9205014624
 10
-187.7973428326
 20
-14.5229248356
 10
-184.9932950111
 20
-19.0611420369
 10
-181.8603358621
 20
-23.5270842816
 10
-178.4040356726
 20
-27.9128112874
 10
-174.6305396181
 20
-32.2105253918
 10
-170.546556837
 20
-36.4125854158
 10
-166.1593485016
 20
-40.5115202502
 10
-161.4767149082
 20
-44.5000421383
 10
-156.5069816085
 20
-48.3710596338
 10
-151.2589846069
 20
-52.1176902089
 10
-145.7420546505
 20
-55.7332724911
 10
-139.9660006396
 20
-59.2113781071
  0
SPLINE
  5
EF
330
D1
100
AcDbEntity
  8
0
  6
Continuous
 62
     8
370
    25
100
AcDbSpline
210
0.0
220
0.0
230
1.0
 70
     8
 71
     3
 72
    53
 73
    49
 74
     0
 42
0.000000001
 43
0.00000001
 40
0.0
 40
0.0
 40
0.0
 40
0.0
 40
0.0059658203504485
 40
0.0224880753537552
 40
0.0387610121132609
 40
0.0550642576927504
 40
0.0714591597379989
 40
0.0878845880265396
 40
0.104658981679329
 40
0.1214654579150876
 40
0.1383688526656829
 40
0.1553044923005439
 40
0.1867259584488305
 40
0.218562610140888
 40
0.2506088230818126
 40
0.283090436244782
 40
0.3139885271213373
 40
0.3453064012799288
 40
0.3768399023954218
 40
0.4088174959968249
 40
0.439978869324598
 40
0.4715902014943295
 40
0.503430060800731
 40
0.5195741435413578
 40
0.5357484641174367
 40
0.551868366664278
 40
0.5680182484394669
 40
0.5844024567912578
 40
0.6007867066814783
 40
0.6172972665627499
 40
0.6338078471428779
 40
0.6505607880305445
 40
0.6673467194128364
 40
0.6997328952024037
 40
0.7160319185064394
 40
0.7323602374801861
 40
0.7490218013529327
 40
0.7657138808284438
 40
0.782497699601609
 40
0.7993119994491374
 40
0.8186430769467611
 40
0.8380686257506966
 40
0.8575419205992207
 40
0.8771123606245109
 40
0.9080138318019577
 40
0.9393343371490404
 40
0.9708699310765584
 40
1.0
 40
1.0
 40
1.0
 40
1.0
 10
-186.8283428649359
 20
61.66369379870081
 30
0.0
 10
-186.5765787125884
 20
62.23179350778621
 30
0.0
 10
-185.6275573045033
 20
64.37323731867778
 30
0.0
 10
-183.6286071613929
 20
68.0108146191205
 30
0.0
 10
-180.8423245278418
 20
72.56774842157645
 30
0.0
 10
-177.7069817337246
 20
77.03770244238001
 30
0.0
 10
-174.2391276413271
 20
81.44048427036647
 30
0.0
 10
-170.4119623441066
 20
85.79326542161193
 30
0.0
 10
-166.231439463952
 20
90.07942489719994
 30
0.0
 10
-161.691429886077
 20
94.29228755055844
 30
0.0
 10
-156.8243455601098
 20
98.3942885074044
 30
0.0
 10
-150.1641387894711
 20
103.5078885884579
 30
0.0
 10
-141.3215121647403
 20
109.4744959787006
 30
0.0
 10
-129.8716134870625
 20
116.0155894682147
 30
0.0
 10
-117.4065598289085
 20
122.0274983281629
 30
0.0
 10
-104.2468247079235
 20
127.3437562004664
 30
0.0
 10
-90.47157736297713
 20
131.9625721579928
 30
0.0
 10
-76.22349773010865
 20
135.8739103048617
 30
0.0
 10
-61.27777076929067
 20
139.1276072639841
 30
0.0
 10
-45.92176926228977
 20
141.651719245053
 30
0.0
 10
-30.22793578878268
 20
143.4416665606236
 30
0.0
 10
-14.34265534202278
 20
144.4892158094207
 30
0.0
 10
-0.8902522074248909
 20
144.7388551819994
 30
0.0
 10
9.942468253860914
 20
144.5525167362014
 30
0.0
 10
18.1029501045895
 20
144.2158104734975
 30
0.0
 10
26.23048656000511
 20
143.6836828054999
 30
0.0
 10
34.34429844062902
 20
142.9538295492646
 30
0.0
 10
42.43702499564285
 20
142.0219741631891
 30
0.0
 10
50.50796116053041
 20
140.8841652271385
 30
0.0
 10
58.50237800165772
 20
139.5447525042452
 30
0.0
 10
66.44309362044109
 20
137.9969127279419
 30
0.0
 10
74.29779366894765
 20
136.2412444205056
 30
0.0
 10
84.44998818367058
 20
133.6674605526317
 30
0.0
 10
94.2293825341964
 20
130.7364213934062
 30
0.0
 10
103.5833307248846
 20
127.474366245791
 30
0.0
 10
110.4844496903301
 20
124.8251991493882
 30
0.0
 10
117.2341808965452
 20
121.9800011824808
 30
0.0
 10
123.8248726642838
 20
118.9356560024327
 30
0.0
 10
130.2026481821679
 20
115.7129553072511
 30
0.0
 10
136.657905456971
 20
112.147959981505
 30
0.0
 10
143.1328005907428
 20
108.2150926178487
 30
0.0
 10
149.5597414316947
 20
103.8924987185901
 30
0.0
 10
155.6352047866091
 20
99.36072981040853
 30
0.0
 10
162.4251451132236
 20
93.72415435082596
 30
0.0
 10
169.620509632858
 20
86.82933395935136
 30
0.0
 10
176.7131140658749
 20
78.5527358278178
 30
0.0
 10
182.6093897377549
 20
70.14234327309467
 30
0.0
 10
185.4551824207972
 20
64.40361066593265
 30
0.0
 10
186.8216578387367
 20
61.64802095465682
 30
0.0
  0
SPLINE
  5
F0
330
D1
100
AcDbEntity
  8
0
  6
Continuous
 62
     8
370
    25
100
AcDbSpline
210
0.0
220
0.0
230
1.0
 70
     8
 71
     3
 72
    44
 73
    40
 74
     0
 42
0.000000001
 43
0.00000001
 40
0.0
 40
0.0
 40
0.0
 40
0.0
 40
0.0085675412646164
 40
0.0392308326234649
 40
0.0699998646370251
 40
0.1007723142088293
 40
0.131440281848312
 40
0.1568012560579441
 40
0.1821904784021993
 40
0.2075528329302204
 40
0.2333067728836981
 40
0.2591496439255943
 40
0.2850195559605309
 40
0.3108564620997005
 40
0.3366053820463626
 40
0.3622524771866309
 40
0.3879945022407497
 40
0.413767073171489
 40
0.4395058502043598
 40
0.4651502111413958
 40
0.4960887566102987
 40
0.5271407608507959
 40
0.5581933679433132
 40
0.5891327384948836
 40
0.6197926965333824
 40
0.6505586198037098
 40
0.6813279369556625
 40
0.7119925389141163
 40
0.7431972913295294
 40
0.7745051785962043
 40
0.8058152836510555
 40
0.8370230702784989
 40
0.8629241386127564
 40
0.8889187352788291
 40
0.9149421283814588
 40
0.9409310840799534
 40
0.9668274042760499
 40
0.9984079111406049
 40
1.0
 40
1.0
 40
1.0
 40
1.0
 10
179.1519632649805
 20
49.62761431657327
 30
0.0
 10
178.8636359303806
 20
50.42434122691827
 30
0.0
 10
177.5433830065721
 20
54.0725594380685
 30
0.0
 10
173.9141814301208
 20
60.40387178095389
 30
0.0
 10
168.3128089621918
 20
68.54677323897569
 30
0.0
 10
161.4872750551954
 20
76.38338199827653
 30
0.0
 10
154.0662469941882
 20
83.43707217558902
 30
0.0
 10
146.261585545812
 20
89.7274504363661
 30
0.0
 10
138.313749869088
 20
95.31727004413418
 30
0.0
 10
129.7088711158388
 20
100.622552247608
 30
0.0
 10
120.457771305847
 20
105.613820345061
 30
0.0
 10
110.5855145556973
 20
110.2662598057065
 30
0.0
 10
100.1883789902939
 20
114.5332171650177
 30
0.0
 10
89.33080212246145
 20
118.3818031119197
 30
0.0
 10
78.07324461573221
 20
121.7815964843493
 30
0.0
 10
66.4393933331811
 20
124.7073333894591
 30
0.0
 10
54.47718137075955
 20
127.1595143568765
 30
0.0
 10
42.23517683677579
 20
129.1322287516083
 30
0.0
 10
29.80041723598539
 20
130.6090665479894
 30
0.0
 10
16.37268516463179
 20
131.6416944490422
 30
0.0
 10
1.964487471373788
 20
132.0776992718937
 30
0.0
 10
-13.34407841756395
 20
131.791397681463
 30
0.0
 10
-28.55692908556864
 20
130.7656005695907
 30
0.0
 10
-43.50165780769223
 20
129.0085287558527
 30
0.0
 10
-58.07997540349724
 20
126.5202139127854
 30
0.0
 10
-72.22258185457368
 20
123.3495403393445
 30
0.0
 10
-85.87022168041541
 20
119.5240018282808
 30
0.0
 10
-98.99344079829041
 20
115.0464593882261
 30
0.0
 10
-111.4956415800079
 20
109.9213999611462
 30
0.0
 10
-123.3191951194358
 20
104.1886457113056
 30
0.0
 10
-134.3110429540563
 20
97.92651154212457
 30
0.0
 10
-143.8220322325179
 20
91.56414122869944
 30
0.0
 10
-151.9492311180487
 20
85.2114913367381
 30
0.0
 10
-158.848436334539
 20
78.96720900622026
 30
0.0
 10
-164.9965023784104
 20
72.45785763267301
 30
0.0
 10
-170.3804071739025
 20
65.73149916012856
 30
0.0
 10
-175.1417619743039
 20
58.29634685568655
 30
0.0
 10
-178.1191160106139
 20
52.93162631451257
 30
0.0
 10
-179.164877521116
 20
49.83926821477499
 30
0.0
 10
-179.21506790309
 20
49.6908532724888
 30
0.0
  0
LWPOLYLINE
  5
F1
330
D1
100
AcDbEntity
  8
0
  6
Continuous
 62
     8
370
    25
100
AcDbPolyline
 90
       28
 70
   128
 43
0.0
 10
-97.7880557619
 20
-85.1600076767
 10
-96.6223442645
 20
-85.5894379388
 10
-89.7733357396
 20
-87.9704442691
 10
-82.7485916943
 20
-90.1742281836
 10
-75.5618633948
 20
-92.1964756719
 10
-68.2272191994
 20
-94.0332280896
 10
-60.7590170184
 20
-95.6808899074
 10
-53.1718762083
 20
-97.1362357501
 10
-45.4806489537
 20
-98.3964167098
 10
-37.7003911929
 20
-99.4589659231
 10
-29.8463331459
 20
-100.3218034
 10
-21.9338495003
 20
-100.9832400956
 10
-13.9784293142
 20
-101.4419812166
 10
-5.9956456963
 20
-101.6971287556
 10
1.9988746796
 20
-101.7481832495
 10
9.9894821644
 20
-101.5950447565
 10
17.9605347688
 20
-101.2380130525
 10
25.896428783
 20
-100.6777870438
 10
33.7816293217
 20
-99.9154633991
 10
41.6007007347
 20
-98.9525344029
 10
49.3383368223
 20
-97.7908850337
 10
56.9793907988
 20
-96.4327892748
 10
64.5089049419
 20
-94.8809056625
 10
71.9121398743
 20
-93.1382720816
 10
79.1746034159
 20
-91.2082998195
 10
86.2820789533
 20
-89.0947668873
 10
93.2206532693
 20
-86.801810625
 10
97.5232245047
 20
-85.2582044783
  0
SPLINE
  5
F2
330
D1
100
AcDbEntity
  8
0
  6
Continuous
 62
     8
370
    25
100
AcDbSpline
210
0.0
220
0.0
230
1.0
 70
     8
 71
     3
 72
    20
 73
    16
 74
     0
 42
0.000000001
 43
0.00000001
 40
0.0
 40
0.0
 40
0.0
 40
0.0
 40
0.0581009571833878
 40
0.1403045061081989
 40
0.2248857107166427
 40
0.3066942353272182
 40
0.3908634545360717
 40
0.4730698045564373
 40
0.5576741979711505
 40
0.6401352707296816
 40
0.7250003280032739
 40
0.8072571835851265
 40
0.8918845427864093
 40
0.9738631670681798
 40
1.0
 40
1.0
 40
1.0
 40
1.0
 10
17.0251561726528
 20
24.94404469837189
 30
0.0
 10
17.66877486831851
 20
24.5452911701726
 30
0.0
 10
19.22301093593359
 20
23.58236526421354
 30
0.0
 10
21.22857989751214
 20
21.79683500807569
 30
0.0
 10
22.87577787588589
 20
19.64840262000519
 30
0.0
 10
23.87829984893804
 20
17.35288566232075
 30
0.0
 10
24.20275769165107
 20
15.02145921207487
 30
0.0
 10
23.84058939096102
 20
12.67392250909246
 30
0.0
 10
22.80455899253109
 20
10.41624961109829
 30
0.0
 10
21.10474302474345
 20
8.27231710792773
 30
0.0
 10
18.81990625924578
 20
6.341288455244336
 30
0.0
 10
15.98408462391052
 20
4.627899624897839
 30
0.0
 10
12.71379573018382
 20
3.245437504543279
 30
0.0
 10
9.948942436307773
 20
2.351486130648901
 30
0.0
 10
8.263642639381509
 20
2.063141912220193
 30
0.0
 10
7.85622264257873
 20
1.993434907707051
 30
0.0
  0
LWPOLYLINE
  5
F3
330
D1
100
AcDbEntity
  8
0
  6
Continuous
 62
     8
370
    25
100
AcDbPolyline
 90
       23
 70
   128
 43
0.0
 10
-9.1124197581
 20
2.2785816211
 10
-10.6685337042
 20
2.6363157971
 10
-13.9924369081
 20
3.7983605205
 10
-17.0289384399
 20
5.2894022776
 10
-20.3690255115
 20
7.6933701507
 10
-22.2130307438
 20
9.7234361697
 10
-23.4737178916
 20
11.9670205623
 10
-24.0447389908
 20
14.2409674352
 10
-23.9412261927
 20
16.6119094441
 10
-23.1677345209
 20
18.8888402883
 10
-21.7015997192
 20
21.1256911454
 10
-19.6647626226
 20
23.1320818657
 10
-17.0013089965
 20
24.9577917932
 10
-13.9469514088
 20
26.441696789
 10
-10.4049151495
 20
27.6366023932
 10
-6.6795171333
 20
28.4459553899
 10
-2.6552808957
 20
28.8998950412
 10
1.3378266245
 20
28.9621709082
 10
5.4076709931
 20
28.6337097006
 10
9.2265838976
 20
27.9370519094
 10
12.8883792068
 20
26.8494444385
 10
17.0251561727
 20
24.9440446984
 10
17.0251561727
 20
24.9440446984
  0
SPLINE
  5
F4
330
D1
100
AcDbEntity
  8
0
  6
Continuous
 62
     8
370
    25
100
AcDbSpline
210
0.0
220
0.0
230
1.0
 70
     8
 71
     3
 72
    19
 73
    15
 74
     0
 42
0.000000001
 43
0.00000001
 40
0.0
 40
0.0
 40
0.0
 40
0.0
 40
0.1099401198384573
 40
0.1944819689419495
 40
0.2790214889958602
 40
0.3633125070172055
 40
0.4476030340446755
 40
0.5316917447005637
 40
0.6157821041606895
 40
0.6999109619522303
 40
0.7840422289761059
 40
0.8684704238676754
 40
0.9528961730689003
 40
1.0
 40
1.0
 40
1.0
 40
1.0
 10
16.35288144128548
 20
22.4153178901005
 30
0.0
 10
15.07723598437882
 20
23.06325799954589
 30
0.0
 10
12.82064357302257
 20
24.20945165866285
 30
0.0
 10
8.956750195228938
 20
25.323717842486
 30
0.0
 10
5.231960031258682
 20
26.0134542632787
 30
0.0
 10
1.348401434376187
 20
26.32304943267562
 30
0.0
 10
-2.563582987818202
 20
26.26895918497059
 30
0.0
 10
-6.398099914122828
 20
25.83719096602998
 30
0.0
 10
-10.05226045936884
 20
25.05327764733491
 30
0.0
 10
-13.41412541331918
 20
23.9197623485979
 30
0.0
 10
-16.41684475394946
 20
22.47581715363876
 30
0.0
 10
-18.92130655878842
 20
20.73483539226203
 30
0.0
 10
-20.70394979771549
 20
19.07714427544803
 30
0.0
 10
-21.37825218700916
 20
17.96334029456997
 30
0.0
 10
-21.61973569192491
 20
17.56446095888604
 30
0.0
  0
SPLINE
  5
F5
330
D1
100
AcDbEntity
  8
0
  6
Continuous
 62
     8
370
    25
100
AcDbSpline
210
0.0
220
0.0
230
1.0
 70
     8
 71
     3
 72
    10
 73
     6
 74
     0
 42
0.000000001
 43
0.00000001
 40
0.0
 40
0.0
 40
0.0
 40
0.0
 40
0.3595902964807334
 40
0.7369511754371245
 40
1.0
 40
1.0
 40
1.0
 40
1.0
 10
21.8026871014767
 20
17.38710656614288
 30
0.0
 10
21.3386500330511
 20
18.05425001820671
 30
0.0
 10
20.38764366171825
 20
19.42150646532267
 30
0.0
 10
18.46792727706503
 20
21.10089301058106
 30
0.0
 10
16.96869312904436
 20
22.03261308541206
 30
0.0
 10
16.35288144128548
 20
22.4153178901005
 30
0.0
  0
LINE
  5
F6
330
D1
100
AcDbEntity
  8
0
  6
Continuous
 62
     7
370
    25
100
AcDbLine
 10
195.0297026397
 20
94.8961345134
 30
0.0
 11
195.0232000271
 21
94.3409438239
 31
0.0
  0
LINE
  5
F7
330
D1
100
AcDbEntity
  8
0
  6
Continuous
 62
     7
370
    25
100
AcDbLine
 10
199.9172306262
 20
91.6372740399
 30
0.0
 11
199.9168373109
 21
91.9765287081
 31
0.0
  0
LINE
  5
F8
330
D1
100
AcDbEntity
  8
0
  6
Continuous
 62
     7
370
    25
100
AcDbLine
 10
-199.918385538
 20
91.6757802181
 30
0.0
 11
-197.9162623649
 21
19.7531941499
 31
0.0
  0
LINE
  5
F9
330
D1
100
AcDbEntity
  8
0
  6
Continuous
 62
     7
370
    25
100
AcDbLine
 10
197.9162623649
 20
19.7531941499
 30
0.0
 11
199.918385538
 21
91.6757802181
 31
0.0
  0
LINE
  5
FA
330
D1
100
AcDbEntity
  8
0
  6
Continuous
 62
     7
370
    25
100
AcDbLine
 10
194.9895043182
 20
94.3078448182
 30
0.0
 11
194.9502348752
 21
94.8816532417
 31
0.0
  0
LINE
  5
FB
330
D1
100
AcDbEntity
  8
0
  6
Continuous
 62
     7
370
    25
100
AcDbLine
 10
199.8822583522
 20
91.9594993479
 30
0.0
 11
199.8693804102
 21
91.6354476248
 31
0.0
  0
LINE
  5
FC
330
D1
100
AcDbEntity
  8
0
  6
Continuous
 62
     7
370
    25
100
AcDbLine
 10
-21.8118848682
 20
17.2719225955
 30
0.0
 11
-21.943506446
 21
17.0715347421
 31
0.0
  0
VIEWPORT
  5
103
330
D1
100
AcDbEntity
  8
0
100
AcDbViewport
 10
0.0
 20
0.0
 30
0.0
 40
205.6
 41
156.0
 68
     1
 69
     1
 12
-0.0001774741
 22
0.0022511804
 13
0.0
 23
0.0
 14
10.0
 24
10.0
 15
10.0
 25
10.0
 16
0.0
 26
0.0
 36
1.0
 17
0.0
 27
0.0
 37
0.0
 42
50.0
 43
0.0
 44
0.0
 45
407.8765085535
 50
0.0
 51
0.0
 72
   100
 90
   557152
  1

281
     0
 71
     1
 74
     0
110
0.0
120
0.0
130
0.0
111
1.0
121
0.0
131
0.0
112
0.0
122
1.0
132
0.0
 79
     0
146
0.0
  0
ENDBLK
  5
D4
330
D1
100
AcDbEntity
  8
0
100
AcDbBlockEnd
  0
ENDSEC
  0
SECTION
  2
ENTITIES
  0
SPLINE
  5
73
330
1F
100
AcDbEntity
  8
0
  6
Continuous
 62
     7
370
    25
100
AcDbSpline
210
0.0
220
0.0
230
1.0
 70
    11
 71
     3
 72
   101
 73
    97
 74
     0
 42
0.000000001
 43
0.00000001
 40
0.0
 40
0.0
 40
0.0
 40
0.0
 40
0.0071994030608982
 40
0.0136019706516688
 40
0.0192077840841708
 40
0.0240169290124929
 40
0.0280294017269527
 40
0.0312452095887568
 40
0.0376490536025188
 40
0.0442109634562537
 40
0.0543711301929013
 40
0.0645443100948662
 40
0.0747164449722379
 40
0.0869238274182337
 40
0.0991298783490443
 40
0.1113364265439556
 40
0.1235437096025427
 40
0.1357492412954197
 40
0.1479566064250856
 40
0.1601628501527642
 40
0.1723692685606234
 40
0.1845765186816501
 40
0.1967821737449058
 40
0.2089895533564617
 40
0.2211959694760957
 40
0.2334023191726298
 40
0.2456098259723465
 40
0.2578156035847609
 40
0.270022629560214
 40
0.2822298810501266
 40
0.2944355967796035
 40
0.3066430151291928
 40
0.3188490904149748
 40
0.3310557162034746
 40
0.3432629201769488
 40
0.3554685862038286
 40
0.3676758925762381
 40
0.3798820297155851
 40
0.3920885771141632
 40
0.4042957394277672
 40
0.4165014012382307
 40
0.4287087552671168
 40
0.440915011980507
 40
0.4531214745032432
 40
0.4653287513441875
 40
0.4775344197371231
 40
0.4897418931929827
 40
0.5019485920665981
 40
0.5141545742469783
 40
0.5263621902283129
 40
0.5385681720507407
 40
0.5507749354394047
 40
0.5629821322930268
 40
0.5751878237686244
 40
0.5873951814258693
 40
0.599601250813916
 40
0.611807865698724
 40
0.624014999630716
 40
0.6362206842465472
 40
0.6484280701845029
 40
0.6606341123107271
 40
0.672840680146025
 40
0.6850479499251352
 40
0.6972534927111957
 40
0.7094609916909117
 40
0.7216673102757298
 40
0.7338737197465313
 40
0.7460813779279298
 40
0.7582870627841083
 40
0.7704935783935936
 40
0.7827010497296809
 40
0.7949075957724518
 40
0.8071141512905945
 40
0.819320505579462
 40
0.8315271421354551
 40
0.8437341525549317
 40
0.855940309492136
 40
0.8681467908434567
 40
0.8803534454397685
 40
0.8925603732555392
 40
0.9047670468485628
 40
0.9169730090624214
 40
0.9291793492038559
 40
0.9368096573128636
 40
0.9444405105516945
 40
0.9520712783334693
 40
0.9594829646408206
 40
0.9626154146228947
 40
0.9656298957740719
 40
0.9685796111041947
 40
0.9720819885203437
 40
0.976313727930465
 40
0.9811799043841993
 40
0.9867496494511553
 40
0.993022956780481
 40
1.0
 40
1.0
 40
1.0
 40
1.0
 10
-4.909548770674339
 20
-199.8638844488125
 30
0.0
 10
-1.895353603244855
 20
-199.8989860088692
 30
0.0
 10
3.799423291308212
 20
-199.9653040613077
 30
0.0
 10
11.8362797732614
 20
-199.6169818481517
 30
0.0
 10
18.85621856209337
 20
-199.0688718355842
 30
0.0
 10
24.85958617144026
 20
-198.3977324687441
 30
0.0
 10
29.85084503103127
 20
-197.700412246536
 30
0.0
 10
35.48364338785113
 20
-196.7824597945043
 30
0.0
 10
42.13548599488071
 20
-195.4906858403506
 30
0.0
 10
51.55819496560171
 20
-193.2580629138914
 30
0.0
 10
62.37056804162265
 20
-190.0890451044097
 30
0.0
 10
74.37998904492073
 20
-185.7210511522804
 30
0.0
 10
86.87023304474414
 20
-180.2485485358696
 30
0.0
 10
99.70400733889808
 20
-173.5148490074258
 30
0.0
 10
112.7070619517409
 20
-165.366610842096
 30
0.0
 10
125.0454905315557
 20
-156.2431038785426
 30
0.0
 10
136.6504399531763
 20
-146.2036409572973
 30
0.0
 10
147.4511594568682
 20
-135.3029698842867
 30
0.0
 10
157.3839504962418
 20
-123.6067200619225
 30
0.0
 10
166.3938397021663
 20
-111.1850182611086
 30
0.0
 10
174.422191886221
 20
-98.10752505083964
 30
0.0
 10
181.4272677562519
 20
-84.45491622996244
 30
0.0
 10
187.3652105036186
 20
-70.30492047708283
 30
0.0
 10
192.1996109137504
 20
-55.74142840782458
 30
0.0
 10
195.9075865442016
 20
-40.85087553667696
 30
0.0
 10
198.4597207410675
 20
-25.71921463719728
 30
0.0
 10
199.847393161381
 20
-10.43711691252652
 30
0.0
 10
200.0605655277548
 20
4.9068228322182
 30
0.0
 10
199.0944856590692
 20
20.22157936327548
 30
0.0
 10
196.9620519588966
 20
35.41787933147794
 30
0.0
 10
193.6680194724898
 20
50.4056047763637
 30
0.0
 10
189.2366728230256
 20
65.09662075224976
 30
0.0
 10
183.6939353390634
 20
79.40594919198989
 30
0.0
 10
177.0680618005448
 20
93.24689871654925
 30
0.0
 10
169.4042965345564
 20
106.5410548491469
 30
0.0
 10
160.7423013868566
 20
119.207933072721
 30
0.0
 10
151.1355375943534
 20
131.1733887466436
 30
0.0
 10
140.6414857230357
 20
142.3694385553338
 30
0.0
 10
129.3180446227916
 20
152.7257766294403
 30
0.0
 10
117.2364307528373
 20
162.1862454498068
 30
0.0
 10
104.4643122386737
 20
170.6923071777293
 30
0.0
 10
91.07790355480614
 20
178.1935320802285
 30
0.0
 10
77.15699964606641
 20
184.6499702115813
 30
0.0
 10
62.78095141300279
 20
190.0170691885288
 30
0.0
 10
48.03705090512373
 20
194.26947914914
 30
0.0
 10
33.01002786991739
 20
197.3794582153216
 30
0.0
 10
17.78897210893939
 20
199.3265838438272
 30
0.0
 10
2.463498436820701
 20
200.1058807951967
 30
0.0
 10
-12.87664898257154
 20
199.7046017103262
 30
0.0
 10
-28.140731208816
 20
198.1313270795401
 30
0.0
 10
-43.2400341832829
 20
195.3939198983969
 30
0.0
 10
-58.08413503969236
 20
191.5046176346949
 30
0.0
 10
-72.58775634967743
 20
186.4931142364742
 30
0.0
 10
-86.6638625352136
 20
180.3821415412972
 30
0.0
 10
-100.2301522352481
 20
173.2115305718055
 30
0.0
 10
-113.2084866649636
 20
165.0237066404217
 30
0.0
 10
-125.5191341064747
 20
155.8628541392735
 30
0.0
 10
-137.0936509806953
 20
145.7882543559682
 30
0.0
 10
-147.8611055464108
 20
134.8547143098677
 30
0.0
 10
-157.7584554634026
 20
123.1284782226576
 30
0.0
 10
-166.7305414483007
 20
110.6794523099353
 30
0.0
 10
-174.7190906011463
 20
97.5776310465443
 30
0.0
 10
-181.6828585277287
 20
83.90387520248932
 30
0.0
 10
-187.5776423650127
 20
69.73583152048582
 30
0.0
 10
-192.3679122321765
 20
55.1578115430512
 30
0.0
 10
-196.0307223994633
 20
40.25604052337008
 30
0.0
 10
-198.5367616606945
 20
25.11663534141725
 30
0.0
 10
-199.8782649793627
 20
9.83036288270063
 30
0.0
 10
-200.044642677697
 20
-5.513965963129525
 30
0.0
 10
-199.032359237044
 20
-20.82557207005322
 30
0.0
 10
-196.8536814133963
 20
-36.01554776498516
 30
0.0
 10
-193.5141637164024
 20
-50.99327620699954
 30
0.0
 10
-189.0383775446577
 20
-65.67093005349034
 30
0.0
 10
-183.4520095879336
 20
-79.96302236818546
 30
0.0
 10
-176.7843758226113
 20
-93.7839404038506
 30
0.0
 10
-169.0801430508265
 20
-107.0548462122514
 30
0.0
 10
-160.3798257715869
 20
-119.6951536838767
 30
0.0
 10
-150.7369309709113
 20
-131.6316157460255
 30
0.0
 10
-140.2086764692371
 20
-142.7955597058915
 30
0.0
 10
-128.8539080985786
 20
-153.1177555629127
 30
0.0
 10
-116.7434488583815
 20
-162.541539158168
 30
0.0
 10
-103.9461873009901
 20
-171.0082887537308
 30
0.0
 10
-92.21224897172505
 20
-177.5370868630778
 30
0.0
 10
-81.83264579269536
 20
-182.4942335879305
 30
0.0
 10
-72.99333702344525
 20
-186.2060802465968
 30
0.0
 10
-64.07222933946582
 20
-189.4577110554906
 30
0.0
 10
-56.8059320412178
 20
-191.7241143487644
 30
0.0
 10
-51.33418472993824
 20
-193.2341995520542
 30
0.0
 10
-47.64420891013791
 20
-194.1763673303574
 30
0.0
 10
-43.7865201869913
 20
-195.0847345325296
 30
0.0
 10
-39.4127802276797
 20
-196.0214693298291
 30
0.0
 10
-34.22889004650392
 20
-196.9999956561215
 30
0.0
 10
-28.16414220470858
 20
-197.9671302286981
 30
0.0
 10
-21.2224502058489
 20
-198.8368484961302
 30
0.0
 10
-13.37283202187203
 20
-199.549094868534
 30
0.0
 10
-7.828792529847676
 20
-199.7553039499204
 30
0.0
 10
-4.909548770674339
 20
-199.8638844488125
 30
0.0
  0
SPLINE
  5
74
330
1F
100
AcDbEntity
  8
0
  6
Continuous
 62
     7
370
    25
100
AcDbSpline
210
0.0
220
0.0
230
1.0
 70
    11
 71
     3
 72
    62
 73
    58
 74
     0
 42
0.000000001
 43
0.00000001
 40
0.0
 40
0.0
 40
0.0
 40
0.0
 40
0.0093086082958409
 40
0.0279238446191695
 40
0.0466617888892938
 40
0.0652615774819115
 40
0.0838750946708776
 40
0.1025840359339721
 40
0.1211428487919355
 40
0.1397330304705891
 40
0.1584377542565815
 40
0.1769965633450164
 40
0.1956127774955083
 40
0.2143403228797847
 40
0.2329298781582579
 40
0.2516047202923009
 40
0.2703330790205615
 40
0.2889087441897606
 40
0.3075837798026664
 40
0.3262477957682356
 40
0.3447981605436461
 40
0.3634690581693833
 40
0.3820928394393655
 40
0.4006639893754629
 40
0.419357596110014
 40
0.4379907651552351
 40
0.4566392834098266
 40
0.4753715004400493
 40
0.4940984516774216
 40
0.512775432709984
 40
0.531355945871626
 40
0.5500019574997045
 40
0.5687233146446115
 40
0.5872744208780951
 40
0.6058803582706089
 40
0.6245687146582242
 40
0.643098102814592
 40
0.6617300502020818
 40
0.680412327517526
 40
0.6989730477859947
 40
0.7176627535931834
 40
0.7363598621648656
 40
0.7549736645659073
 40
0.7737020986308543
 40
0.7923585014108289
 40
0.8109639010724767
 40
0.8296703274231193
 40
0.8482708136430931
 40
0.8668844017722256
 40
0.8855841280659402
 40
0.9041635409264149
 40
0.9227688752406181
 40
0.9414913770822414
 40
0.9600892898404089
 40
0.9787266437977269
 40
0.996381482965769
 40
1.0
 40
1.0
 40
1.0
 40
1.0
 10
2.687182458894639
 20
22.79255526918027
 30
0.0
 10
3.130462243471216
 20
22.73231564043022
 30
0.0
 10
4.460207296001339
 20
22.55160956926763
 30
0.0
 10
6.644720104381958
 20
22.01885827554319
 30
0.0
 10
9.176762599087175
 20
21.10000236955901
 30
0.0
 10
11.58077087193334
 20
19.88186362125925
 30
0.0
 10
13.82384187470912
 20
18.39217610118508
 30
0.0
 10
15.88017375643803
 20
16.65608143570091
 30
0.0
 10
17.71301960807968
 20
14.68689850006849
 30
0.0
 10
19.30369567708704
 20
12.51829971934871
 30
0.0
 10
20.63520498839363
 20
10.18109168544358
 30
0.0
 10
21.67714334033387
 20
7.699846369739144
 30
0.0
 10
22.42577722272756
 20
5.114323260323707
 30
0.0
 10
22.87249890718882
 20
2.457878809328151
 30
0.0
 10
22.99816826184357
 20
-0.2356607051451316
 30
0.0
 10
22.81408918240165
 20
-2.925467056694595
 30
0.0
 10
22.32021596724464
 20
-5.575846836884913
 30
0.0
 10
21.5124060637754
 20
-8.14775081400193
 30
0.0
 10
20.41668686852809
 20
-10.60710124703365
 30
0.0
 10
19.04175693620416
 20
-12.92120225587226
 30
0.0
 10
17.40013259884044
 20
-15.05375564927959
 30
0.0
 10
15.52690592529054
 20
-16.98312590065775
 30
0.0
 10
13.43870126289294
 20
-18.67985642871252
 30
0.0
 10
11.16274032534987
 20
-20.11621693088156
 30
0.0
 10
8.73734261815796
 20
-21.28361129256933
 30
0.0
 10
6.187103797110529
 20
-22.15759990070263
 30
0.0
 10
3.550099689838548
 20
-22.72455036022633
 30
0.0
 10
0.8609286171850211
 20
-22.98703968928146
 30
0.0
 10
-1.841870768009988
 20
-22.9280493793958
 30
0.0
 10
-4.512267027081331
 20
-22.55748908726719
 30
0.0
 10
-7.116728819207863
 20
-21.87571455512216
 30
0.0
 10
-9.625787112553931
 20
-20.8947659415771
 30
0.0
 10
-12.00459419187235
 20
-19.63238607745865
 30
0.0
 10
-14.21282857986318
 20
-18.09431747930109
 30
0.0
 10
-16.22722886938719
 20
-16.31301816305481
 30
0.0
 10
-18.02194904284863
 20
-14.3111960963291
 30
0.0
 10
-19.56370825332194
 20
-12.10732696609026
 30
0.0
 10
-20.84205449447771
 20
-9.74169907998248
 30
0.0
 10
-21.83792610667199
 20
-7.241746444688283
 30
0.0
 10
-22.52805237096662
 20
-4.638143732054172
 30
0.0
 10
-22.91645617810918
 20
-1.972321305662582
 30
0.0
 10
-22.99172197331943
 20
0.7236964100049832
 30
0.0
 10
-22.74540755282803
 20
3.411026165095341
 30
0.0
 10
-22.19456088611312
 20
6.050680672812621
 30
0.0
 10
-21.33708151336991
 20
8.607298048600574
 30
0.0
 10
-20.1824903284081
 20
11.04257940085731
 30
0.0
 10
-18.75862337707739
 20
13.32774577858761
 30
0.0
 10
-17.07329004738287
 20
15.42852149398898
 30
0.0
 10
-15.15197020429063
 20
17.31476854926966
 30
0.0
 10
-13.02817415892088
 20
18.96833705472982
 30
0.0
 10
-10.72250549788238
 20
20.35682252999605
 30
0.0
 10
-8.269481416422618
 20
21.46580180975038
 30
0.0
 10
-5.704637466600393
 20
22.28728455062883
 30
0.0
 10
-3.058260522029911
 20
22.79739433309785
 30
0.0
 10
-0.4227724866853095
 20
22.99109612248765
 30
0.0
 10
1.498359021103852
 20
22.92324076140612
 30
0.0
 10
2.514363891988617
 20
22.81155294264795
 30
0.0
 10
2.687182458894639
 20
22.79255526918027
 30
0.0
  0
SPLINE
  5
75
330
1F
100
AcDbEntity
  8
0
  6
Continuous
 62
     7
370
    25
100
AcDbSpline
210
0.0
220
0.0
230
1.0
 70
     8
 71
     3
 72
    17
 73
    13
 74
     0
 42
0.000000001
 43
0.00000001
 40
0.0
 40
0.0
 40
0.0
 40
0.0
 40
0.0533221116786489
 40
0.1649915786668497
 40
0.2766449713899337
 40
0.3883274501473283
 40
0.4999990283986558
 40
0.6116711494614686
 40
0.7233537535220383
 40
0.8350057070843747
 40
0.9466758926758947
 40
1.0
 40
1.0
 40
1.0
 40
1.0
 10
-81.887339516867
 20
176.8078236393409
 30
0.0
 10
-84.11373443714527
 20
175.8138080929022
 30
0.0
 10
-91.00274166263468
 20
172.7380822999199
 30
0.0
 10
-101.9873641721893
 20
166.4191658098231
 30
0.0
 10
-114.7618130915085
 20
157.9593057201109
 30
0.0
 10
-126.7980814892423
 20
148.4607272320557
 30
0.0
 10
-138.0614818512237
 20
138.0616536512021
 30
0.0
 10
-148.4605640996046
 20
126.798253913048
 30
0.0
 10
-157.9591422543885
 20
114.7620306862092
 30
0.0
 10
-166.4190070098028
 20
101.9876164202813
 30
0.0
 10
-172.7379489007991
 20
91.00294250082736
 30
0.0
 10
-175.813746422633
 20
84.11383154414881
 30
0.0
 10
-176.8078060004715
 20
81.88735640049364
 30
0.0
  0
SPLINE
  5
76
330
1F
100
AcDbEntity
  8
0
  6
Continuous
 62
     7
370
    25
100
AcDbSpline
210
0.0
220
0.0
230
1.0
 70
     8
 71
     3
 72
    17
 73
    13
 74
     0
 42
0.000000001
 43
0.00000001
 40
0.0
 40
0.0
 40
0.0
 40
0.0
 40
0.0533154657194154
 40
0.1649809031571731
 40
0.2766388145400945
 40
0.3883124009582962
 40
0.4999868774348866
 40
0.6116638084882526
 40
0.7233399559746116
 40
0.8349934917998869
 40
0.9466513929505974
 40
1.0
 40
1.0
 40
1.0
 40
1.0
 10
-176.8079181271834
 20
-81.88723875531885
 30
0.0
 10
-175.8140521166552
 20
-84.11337559000064
 30
0.0
 10
-172.7386046865027
 20
-91.00199712938841
 30
0.0
 10
-166.4197731783256
 20
-101.9863917283545
 30
0.0
 10
-157.9602061119307
 20
-114.760615369045
 30
0.0
 10
-148.4618785474474
 20
-126.7970610205061
 30
0.0
 10
-138.0626800039157
 20
-138.0603284725051
 30
0.0
 10
-126.7994809452551
 20
-148.4597737469674
 30
0.0
 10
-114.7631727799649
 20
-157.9583210466377
 30
0.0
 10
-101.9894786878023
 20
-166.4179123936418
 30
0.0
 10
-91.00437584958782
 20
-172.7374577452787
 30
0.0
 10
-84.1147114451205
 20
-175.8134465537215
 30
0.0
 10
-81.88719931226312
 20
-176.8079510736946
 30
0.0
  0
SPLINE
  5
77
330
1F
100
AcDbEntity
  8
0
  6
Continuous
 62
     7
370
    25
100
AcDbSpline
210
0.0
220
0.0
230
1.0
 70
     8
 71
     3
 72
    17
 73
    13
 74
     0
 42
0.000000001
 43
0.00000001
 40
0.0
 40
0.0
 40
0.0
 40
0.0
 40
0.0533088750913115
 40
0.1649795596494452
 40
0.2766326255631109
 40
0.3883169770493676
 40
0.499989217206576
 40
0.6116611759522437
 40
0.7233453723292463
 40
0.8349990145832782
 40
0.9466694253581378
 40
1.0
 40
1.0
 40
1.0
 40
1.0
 10
81.88744031552048
 20
-176.8077708423274
 30
0.0
 10
84.11328781072316
 20
-175.8140177413987
 30
0.0
 10
91.0018094495002
 20
-172.7385645694707
 30
0.0
 10
101.9859777666056
 20
-166.4200029431974
 30
0.0
 10
114.7605970680281
 20
-157.960188618423
 30
0.0
 10
126.7969925974213
 20
-148.4616223713444
 30
0.0
 10
138.0605635568054
 20
-138.0625870635234
 30
0.0
 10
148.4597651872608
 20
-126.7991784082383
 30
0.0
 10
157.9585053196469
 20
-114.7629132153316
 30
0.0
 10
166.4185271165858
 20
-101.9884205956542
 30
0.0
 10
172.7377061438457
 20
-91.00344887379687
 30
0.0
 10
175.8136387284761
 20
-84.11406751159129
 30
0.0
 10
176.8078221988576
 20
-81.88732525277736
 30
0.0
  0
SPLINE
  5
78
330
1F
100
AcDbEntity
  8
0
  6
Continuous
 62
     7
370
    25
100
AcDbSpline
210
0.0
220
0.0
230
1.0
 70
     8
 71
     3
 72
    17
 73
    13
 74
     0
 42
0.000000001
 43
0.00000001
 40
0.0
 40
0.0
 40
0.0
 40
0.0
 40
0.0533201587755549
 40
0.1649900768316845
 40
0.2766439201958986
 40
0.3883268499652525
 40
0.4999988792700241
 40
0.6116708852857209
 40
0.7233537460221868
 40
0.8350074742995288
 40
0.9466772306893764
 40
1.0
 40
1.0
 40
1.0
 40
1.0
 10
176.8078175297408
 20
81.8873509895987
 30
0.0
 10
175.8138410161789
 20
84.11366581300999
 30
0.0
 10
172.7381513500663
 20
91.00261479968381
 30
0.0
 10
166.4192652896008
 20
101.9872015573295
 30
0.0
 10
157.959382057843
 20
114.7617110616908
 30
0.0
 10
148.4607703959607
 20
126.7980348679196
 30
0.0
 10
138.0616698363889
 20
138.061461181644
 30
0.0
 10
126.798261646509
 20
148.4605768031348
 30
0.0
 10
114.7619597081274
 20
157.9592005957723
 30
0.0
 10
101.9874780711996
 20
166.4190977657154
 30
0.0
 10
91.00280640994667
 20
172.7380495472986
 30
0.0
 10
84.11375970604708
 20
175.8137952167668
 30
0.0
 10
81.88733734780627
 20
176.8078237407555
 30
0.0
  0
SPLINE
  5
79
330
1F
100
AcDbEntity
  8
0
  6
Continuous
 62
     7
370
    25
100
AcDbSpline
210
0.0
220
0.0
230
1.0
 70
     8
 71
     3
 72
    12
 73
     8
 74
     0
 42
0.000000001
 43
0.00000001
 40
0.0
 40
0.0
 40
0.0
 40
0.0
 40
0.1617680117429406
 40
0.3510164269021723
 40
0.5677443295442487
 40
0.8119506737191046
 40
1.0
 40
1.0
 40
1.0
 40
1.0
 10
-0.0000001481973951
 20
199.941716157566
 30
0.0
 10
1.751597795051423
 20
199.9281769981866
 30
0.0
 10
5.552347058047943
 20
199.8987987095039
 30
0.0
 10
11.69560027801956
 20
199.634827971481
 30
0.0
 10
18.71608225792032
 20
199.1048187600344
 30
0.0
 10
25.70600216989348
 20
198.3503307962766
 30
0.0
 10
30.32572827794561
 20
197.5959901637821
 30
0.0
 10
32.33550268138029
 20
197.2678203850552
 30
0.0
  0
SPLINE
  5
7A
330
1F
100
AcDbEntity
  8
0
  6
Continuous
 62
     7
370
    25
100
AcDbSpline
210
0.0
220
0.0
230
1.0
 70
     8
 71
     3
 72
    14
 73
    10
 74
     0
 42
0.000000001
 43
0.00000001
 40
0.0
 40
0.0
 40
0.0
 40
0.0
 40
0.035117839998056
 40
0.2464099192461093
 40
0.4312445117240714
 40
0.589660637886559
 40
0.7511296626928565
 40
0.9400364739578639
 40
1.0
 40
1.0
 40
1.0
 40
1.0
 10
19.15374153022034
 20
-199.0033307457205
 30
0.0
 10
18.77521499048583
 20
-199.0458822398237
 30
0.0
 10
16.11922321839351
 20
-199.3444515774121
 30
0.0
 10
11.44800741190971
 20
-199.6350945059911
 30
0.0
 10
5.439125177901068
 20
-199.8960245663196
 30
0.0
 10
-0.0359424740882788
 20
-199.9656111241903
 30
0.0
 10
-5.553769205203241
 20
-199.8835207859875
 30
0.0
 10
-10.00380184449889
 20
-199.7328164724967
 30
0.0
 10
-12.694995515769
 20
-199.5219452614353
 30
0.0
 10
-13.34341936385692
 20
-199.4711373528157
 30
0.0
  0
SPLINE
  5
7B
330
1F
100
AcDbEntity
  8
0
  6
Continuous
 62
     7
370
    25
100
AcDbSpline
210
0.0
220
0.0
230
1.0
 70
     8
 71
     3
 72
    10
 73
     6
 74
     0
 42
0.000000001
 43
0.00000001
 40
0.0
 40
0.0
 40
0.0
 40
0.0
 40
0.1269648078789043
 40
0.5971405977472806
 40
0.9999999999999999
 40
0.9999999999999999
 40
0.9999999999999999
 40
0.9999999999999999
 10
-12.78136655874272
 20
199.5114462253705
 30
0.0
 10
-12.2415738166312
 20
199.5525386518562
 30
0.0
 10
-9.70282181070883
 20
199.7458044593228
 30
0.0
 10
-5.439632625637774
 20
199.893027078049
 30
0.0
 10
-1.717545702508372
 20
199.9263427454073
 30
0.0
 10
-0.0000001481974441
 20
199.941716157566
 30
0.0
  0
SPLINE
  5
7C
330
1F
100
AcDbEntity
  8
0
  6
Continuous
 62
     7
370
    25
100
AcDbSpline
210
0.0
220
0.0
230
1.0
 70
    11
 71
     3
 72
   202
 73
   198
 74
     0
 42
0.000000001
 43
0.00000001
 40
0.0
 40
0.0
 40
0.0
 40
0.0
 40
0.0156249999999998
 40
0.0156249999999998
 40
0.0234374999999997
 40
0.0234374999999997
 40
0.0312499999999996
 40
0.0312499999999996
 40
0.0468749999999994
 40
0.0468749999999994
 40
0.0624999999999992
 40
0.0624999999999992
 40
0.0664062499999992
 40
0.0664062499999992
 40
0.0703124999999992
 40
0.0703124999999992
 40
0.0781249999999991
 40
0.0781249999999991
 40
0.093749999999999
 40
0.093749999999999
 40
0.109374999999999
 40
0.109374999999999
 40
0.1171874999999989
 40
0.1171874999999989
 40
0.1210937499999989
 40
0.1210937499999989
 40
0.1249999999999989
 40
0.1249999999999989
 40
0.1406249999999989
 40
0.1406249999999989
 40
0.1562499999999988
 40
0.1562499999999988
 40
0.1718749999999988
 40
0.1718749999999988
 40
0.1757812499999988
 40
0.1757812499999988
 40
0.1796874999999989
 40
0.1796874999999989
 40
0.1874999999999988
 40
0.1874999999999988
 40
0.2031249999999988
 40
0.2031249999999988
 40
0.2187499999999988
 40
0.2187499999999988
 40
0.2265624999999988
 40
0.2265624999999988
 40
0.2304687499999987
 40
0.2304687499999987
 40
0.2343749999999987
 40
0.2343749999999987
 40
0.2499999999999987
 40
0.2499999999999987
 40
0.2656249999999986
 40
0.2656249999999986
 40
0.2812499999999986
 40
0.2812499999999986
 40
0.2851562499999985
 40
0.2851562499999985
 40
0.2890624999999984
 40
0.2890624999999984
 40
0.2968749999999983
 40
0.2968749999999983
 40
0.3124999999999982
 40
0.3124999999999982
 40
0.3281249999999981
 40
0.3281249999999981
 40
0.3359374999999981
 40
0.3359374999999981
 40
0.3398437499999981
 40
0.3398437499999981
 40
0.343749999999998
 40
0.343749999999998
 40
0.3593749999999978
 40
0.3593749999999978
 40
0.3749999999999976
 40
0.3749999999999976
 40
0.3828124999999976
 40
0.3828124999999976
 40
0.3867187499999975
 40
0.3867187499999975
 40
0.3906249999999974
 40
0.3906249999999974
 40
0.4062499999999974
 40
0.4062499999999974
 40
0.4218749999999973
 40
0.4218749999999973
 40
0.4374999999999973
 40
0.4374999999999973
 40
0.4414062499999973
 40
0.4414062499999973
 40
0.4453124999999973
 40
0.4453124999999973
 40
0.4531249999999974
 40
0.4531249999999974
 40
0.4687499999999974
 40
0.4687499999999974
 40
0.4843749999999976
 40
0.4843749999999976
 40
0.4999999999999977
 40
0.4999999999999977
 40
0.5156249999999978
 40
0.5156249999999978
 40
0.531249999999998
 40
0.531249999999998
 40
0.535156249999998
 40
0.535156249999998
 40
0.5390624999999981
 40
0.5390624999999981
 40
0.5468749999999981
 40
0.5468749999999981
 40
0.5624999999999983
 40
0.5624999999999983
 40
0.5781249999999984
 40
0.5781249999999984
 40
0.5820312499999986
 40
0.5820312499999986
 40
0.5859374999999986
 40
0.5859374999999986
 40
0.5937499999999986
 40
0.5937499999999986
 40
0.6093749999999988
 40
0.6093749999999988
 40
0.6249999999999989
 40
0.6249999999999989
 40
0.6328124999999989
 40
0.6328124999999989
 40
0.636718749999999
 40
0.636718749999999
 40
0.6406249999999991
 40
0.6406249999999991
 40
0.6562499999999992
 40
0.6562499999999992
 40
0.6718749999999993
 40
0.6718749999999993
 40
0.6874999999999996
 40
0.6874999999999996
 40
0.6914062499999996
 40
0.6914062499999996
 40
0.6953124999999997
 40
0.6953124999999997
 40
0.7031249999999997
 40
0.7031249999999997
 40
0.7187499999999999
 40
0.7187499999999999
 40
0.7343749999999999
 40
0.7343749999999999
 40
0.7421874999999999
 40
0.7421874999999999
 40
0.74609375
 40
0.74609375
 40
0.75
 40
0.75
 40
0.7656250000000002
 40
0.7656250000000002
 40
0.7812500000000003
 40
0.7812500000000003
 40
0.7968750000000006
 40
0.7968750000000006
 40
0.8046875000000006
 40
0.8046875000000006
 40
0.8125000000000006
 40
0.8125000000000006
 40
0.8281250000000007
 40
0.8281250000000007
 40
0.8437500000000007
 40
0.8437500000000007
 40
0.8515625000000007
 40
0.8515625000000007
 40
0.8554687500000008
 40
0.8554687500000008
 40
0.8593750000000008
 40
0.8593750000000008
 40
0.8750000000000009
 40
0.8750000000000009
 40
0.8906250000000009
 40
0.8906250000000009
 40
0.906250000000001
 40
0.906250000000001
 40
0.9101562500000009
 40
0.9101562500000009
 40
0.9140625000000009
 40
0.9140625000000009
 40
0.9218750000000008
 40
0.9218750000000008
 40
0.9375000000000006
 40
0.9375000000000006
 40
0.9531250000000004
 40
0.9531250000000004
 40
0.9609375000000003
 40
0.9609375000000003
 40
0.9648437500000003
 40
0.9648437500000003
 40
0.9687500000000002
 40
0.9687500000000002
 40
0.9843750000000001
 40
0.9843750000000001
 40
1.0
 40
1.0
 40
1.0
 40
1.0
 10
-0.0000000000000031
 20
-192.7691513818756
 30
0.0
 10
-6.376681319837373
 20
-192.7691513818756
 30
0.0
 10
-12.73851737353364
 20
-192.4661656768808
 30
0.0
 10
-22.25882772917499
 20
-191.5534108137884
 30
0.0
 10
-25.41509390265133
 20
-191.1738115302288
 30
0.0
 10
-31.68472537398919
 20
-190.2666842929127
 30
0.0
 10
-34.7995648342137
 20
-189.7390138854581
 30
0.0
 10
-44.08437970446838
 20
-187.9344869335756
 30
0.0
 10
-50.19482426503928
 20
-186.4367524421717
 30
0.0
 10
-62.25691944581274
 20
-182.8519525634293
 30
0.0
 10
-68.20858555672535
 20
-180.7649450964265
 30
0.0
 10
-75.5453278165332
 20
-177.7744189013414
 30
0.0
 10
-77.00751796464574
 20
-177.1571646993094
 30
0.0
 10
-79.92147802649576
 20
-175.8839712720101
 30
0.0
 10
-81.37515728359514
 20
-175.2271287608679
 30
0.0
 10
-85.70535716441515
 20
-173.2049335389702
 30
0.0
 10
-88.54692579243682
 20
-171.7901688469598
 30
0.0
 10
-96.9384215599761
 20
-167.3496223563581
 30
0.0
 10
-102.3555424555717
 20
-164.128182849923
 30
0.0
 10
-112.8384861199927
 20
-157.1677167692736
 30
0.0
 10
-117.904311569035
 20
-153.4286933352564
 30
0.0
 10
-125.2371706445214
 20
-147.4284056619269
 30
0.0
 10
-127.6370412355726
 20
-145.3628666368959
 30
0.0
 10
-131.1689449234098
 20
-142.1645084263831
 30
0.0
 10
-132.3349220273905
 20
-141.081703634421
 30
0.0
 10
-134.6439255649749
 20
-138.882277577767
 30
0.0
 10
-135.7832393536208
 20
-137.7691611285203
 30
0.0
 10
-141.3950112224536
 20
-132.1464050061118
 30
0.0
 10
-145.6239084229618
 20
-127.456411656522
 30
0.0
 10
-153.5788299844152
 20
-117.7062180314181
 30
0.0
 10
-157.3047940203791
 20
-112.645973342866
 30
0.0
 10
-164.25230949014
 20
-102.1541306420592
 30
0.0
 10
-167.473938646805
 20
-96.72258941697139
 30
0.0
 10
-171.1791789433163
 20
-89.69624022823967
 30
0.0
 10
-171.9044725579589
 20
-88.27831528764045
 30
0.0
 10
-173.3208041741053
 20
-85.42171080060345
 30
0.0
 10
-174.0095660099536
 20
-83.98767274536903
 30
0.0
 10
-176.0183773771016
 20
-79.668568349226
 30
0.0
 10
-177.2809963572647
 20
-76.76652469360931
 30
0.0
 10
-180.8432863178421
 20
-67.99370524076805
 30
0.0
 10
-182.9182054796086
 20
-62.05648122109177
 30
0.0
 10
-186.4849033902294
 20
-50.00958581426455
 30
0.0
 10
-187.9766507818108
 20
-43.89990528974634
 30
0.0
 10
-189.7735219657532
 20
-34.60501205224514
 30
0.0
 10
-190.2988763897736
 20
-31.48494267801356
 30
0.0
 10
-190.9756847579356
 20
-26.77193441402964
 30
0.0
 10
-191.1827399248445
 20
-25.1954445443891
 30
0.0
 10
-191.5594891875171
 20
-22.03141118206072
 30
0.0
 10
-191.7287691114729
 20
-20.44702544637451
 30
0.0
 10
-192.4782683359624
 20
-12.53687725766823
 30
0.0
 10
-192.7715354206917
 20
-6.223244195439452
 30
0.0
 10
-192.7667382529623
 20
6.37604913307888
 30
0.0
 10
-192.4686095215166
 20
12.66170641723382
 30
0.0
 10
-191.2757686571785
 20
25.20481056810219
 30
0.0
 10
-190.3811281163742
 20
31.46226077276665
 30
0.0
 10
-188.8725273865217
 20
39.26562414267926
 30
0.0
 10
-188.5508381557982
 20
40.82711959874077
 30
0.0
 10
-187.8696815589884
 20
43.93978678249964
 30
0.0
 10
-187.510721734153
 20
45.48887353232601
 30
0.0
 10
-186.3792217596034
 20
50.11460102703504
 30
0.0
 10
-185.5521028061609
 20
53.16972546256506
 30
0.0
 10
-182.8550268565867
 20
62.25006595806666
 30
0.0
 10
-180.769987098767
 20
68.19050009684412
 30
0.0
 10
-176.0243284835295
 20
79.84453076361429
 30
0.0
 10
-173.3636578880936
 20
85.55810788920178
 30
0.0
 10
-168.9322507350124
 20
93.95494249245218
 30
0.0
 10
-167.3815507745304
 20
96.72490082808464
 30
0.0
 10
-164.9424716969909
 20
100.835304862509
 30
0.0
 10
-164.1112252703113
 20
102.1968259062823
 30
0.0
 10
-162.4202690263891
 20
104.8898517450466
 30
0.0
 10
-161.5594903902228
 20
106.2231777555806
 30
0.0
 10
-157.1796652220299
 20
112.8243654128378
 30
0.0
 10
-153.4335336417234
 20
117.8965129847768
 30
0.0
 10
-145.4689115971716
 20
127.6337107437287
 30
0.0
 10
-141.2504079582837
 20
132.2987495709384
 30
0.0
 10
-134.5638419240163
 20
138.9870726838288
 30
0.0
 10
-132.2750409917437
 20
141.1648505443916
 30
0.0
 10
-128.7509131464644
 20
144.3531536576744
 30
0.0
 10
-127.5610403190123
 20
145.4028528714513
 30
0.0
 10
-125.1506860699391
 20
147.4758716587226
 30
0.0
 10
-123.928777053138
 20
148.5003506757977
 30
0.0
 10
-117.7587062373604
 20
153.5422825182661
 30
0.0
 10
-112.6628993277249
 20
157.2929831965904
 30
0.0
 10
-102.1623638489568
 20
164.2474588930471
 30
0.0
 10
-96.75763956481794
 20
167.4512427081808
 30
0.0
 10
-85.64395279988624
 20
173.3202303661975
 30
0.0
 10
-79.93499071620808
 20
175.9854348050787
 30
0.0
 10
-72.60450738414033
 20
178.9730540609928
 30
0.0
 10
-71.12867064382152
 20
179.5533376379354
 30
0.0
 10
-68.15739330180219
 20
180.6792063938559
 30
0.0
 10
-66.66085890956218
 20
181.2251736614855
 30
0.0
 10
-62.14872638253137
 20
182.808086789439
 30
0.0
 10
-59.12718957800168
 20
183.7844080007867
 30
0.0
 10
-50.02332308931311
 20
186.4829380159132
 30
0.0
 10
-43.90185378529535
 20
187.9753966185407
 30
0.0
 10
-31.55722727259421
 20
190.3635877186584
 30
0.0
 10
-25.33407692709856
 20
191.2593631784236
 30
0.0
 10
-12.78716571024372
 20
192.4607081148435
 30
0.0
 10
-6.463414852576704
 20
192.7663354195109
 30
0.0
 10
6.287367110878424
 20
192.7719287314135
 30
0.0
 10
12.63418295707941
 20
192.4717768389561
 30
0.0
 10
25.26655645136575
 20
191.269345318432
 30
0.0
 10
31.55286497612866
 20
190.367082016435
 30
0.0
 10
39.3722337755847
 20
188.8510131841467
 30
0.0
 10
40.93368152324729
 20
188.5283691568897
 30
0.0
 10
44.039271934993
 20
187.8470021557374
 30
0.0
 10
45.58508905359699
 20
187.4879653320141
 30
0.0
 10
50.20178591651312
 20
186.3562646973343
 30
0.0
 10
53.25192688105314
 20
185.5290520345409
 30
0.0
 10
62.3202335622948
 20
182.8314017765675
 30
0.0
 10
68.25652638777296
 20
180.7455918533748
 30
0.0
 10
79.90923841998173
 20
175.9954592178864
 30
0.0
 10
85.6256491636426
 20
173.3311116075179
 30
0.0
 10
92.63047313915229
 20
169.6304357376501
 30
0.0
 10
94.02438296167456
 20
168.8717345845458
 30
0.0
 10
96.79792604565954
 20
167.3167603239875
 30
0.0
 10
98.17941827754606
 20
166.5193690999191
 30
0.0
 10
102.2873203789658
 20
164.0789379943614
 30
0.0
 10
104.973824878676
 20
162.3899840223441
 30
0.0
 10
112.8794282061315
 20
157.1399528165412
 30
0.0
 10
117.945102162833
 20
153.3962833395974
 30
0.0
 10
127.6757248680119
 20
145.4320288490642
 30
0.0
 10
132.3406722615572
 20
141.2114422248773
 30
0.0
 10
139.032531040564
 20
134.5169005020907
 30
0.0
 10
141.2121038630183
 20
132.2246338640086
 30
0.0
 10
144.4038801813003
 20
128.6938996629733
 30
0.0
 10
145.4548672679231
 20
127.5015898625554
 30
0.0
 10
147.5306978189358
 20
125.08585586344
 30
0.0
 10
148.5551799889796
 20
123.8627382680085
 30
0.0
 10
153.5825823706403
 20
117.7050143407322
 30
0.0
 10
157.3256636044096
 20
112.6165765903534
 30
0.0
 10
164.2704263927968
 20
102.1246397278027
 30
0.0
 10
167.4721381316088
 20
96.72115752482632
 30
0.0
 10
173.3403672803173
 20
85.60271315459923
 30
0.0
 10
176.0068978189148
 20
79.88775869625496
 30
0.0
 10
178.9969929491167
 20
72.5443795130749
 30
0.0
 10
179.5778132531221
 20
71.06569292122323
 30
0.0
 10
180.7048036426484
 20
68.08815047087259
 30
0.0
 10
181.2510281107824
 20
66.58892847309617
 30
0.0
 10
182.8285099277007
 20
62.0868490658743
 30
0.0
 10
183.8019476249098
 20
59.07105907130801
 30
0.0
 10
186.4934923108206
 20
49.98155501083895
 30
0.0
 10
187.9835045796382
 20
43.86583098793971
 30
0.0
 10
190.3687160672955
 20
31.52479846765923
 30
0.0
 10
191.2639763531626
 20
25.29950073854148
 30
0.0
 10
192.1639243811679
 20
15.87992240837714
 30
0.0
 10
192.3899186992894
 20
12.72642733797647
 30
0.0
 10
192.6167830386554
 20
7.975516916478456
 30
0.0
 10
192.6737057319008
 20
6.388433463347329
 30
0.0
 10
192.7498269249265
 20
3.207312457997806
 30
0.0
 10
192.7689760680203
 20
1.612258250033816
 30
0.0
 10
192.769846624011
 20
-6.339185188950014
 30
0.0
 10
192.4690280902054
 20
-12.65536147038162
 30
0.0
 10
191.2764496309986
 20
-25.19959168208331
 30
0.0
 10
190.3846529409566
 20
-31.42763998988048
 30
0.0
 10
188.000159825671
 20
-43.79415918700707
 30
0.0
 10
186.5073966022713
 20
-49.93262052422643
 30
0.0
 10
183.8022942397689
 20
-59.07087397410437
 30
0.0
 10
182.8203641721968
 20
-62.11115269006659
 30
0.0
 10
180.7192709404486
 20
-68.10548232201435
 30
0.0
 10
179.5984460145425
 20
-71.0662181871524
 30
0.0
 10
176.0271238527147
 20
-79.84017727988032
 30
0.0
 10
173.368325401935
 20
-85.54543621870704
 30
0.0
 10
167.500864982612
 20
-96.67099292763707
 30
0.0
 10
164.2922391372982
 20
-102.09130935354
 30
0.0
 10
159.0560926973662
 20
-110.00248472513
 30
0.0
 10
157.2399890461998
 20
-112.6028965542657
 30
0.0
 10
154.4078701678893
 20
-116.4475718647266
 30
0.0
 10
153.4450864005002
 20
-117.7206614634957
 30
0.0
 10
151.4942488743467
 20
-120.2338982205234
 30
0.0
 10
150.5049736339289
 20
-121.4757572539988
 30
0.0
 10
145.490065221015
 20
-127.6120546508658
 30
0.0
 10
141.2594976418649
 20
-132.2882049907882
 30
0.0
 10
132.3693738842933
 20
-141.1835628026438
 30
0.0
 10
127.7097903612262
 20
-145.4027411503847
 30
0.0
 10
117.9616317712742
 20
-153.3841530224028
 30
0.0
 10
112.8731041753362
 20
-157.1464371054039
 30
0.0
 10
106.2338985018511
 20
-161.5525979634759
 30
0.0
 10
104.895223218386
 20
-162.4168208178608
 30
0.0
 10
102.2043558536677
 20
-164.1065722904058
 30
0.0
 10
100.8509442157362
 20
-164.9329135231427
 30
0.0
 10
96.76708938647279
 20
-167.3570648348909
 30
0.0
 10
94.01304528722743
 20
-168.9000466571028
 30
0.0
 10
85.65828226553913
 20
-173.3138130182391
 30
0.0
 10
79.9652061413921
 20
-175.9700533566405
 30
0.0
 10
68.33517214358224
 20
-180.7160938173818
 30
0.0
 10
62.39822572156022
 20
-182.8059228615838
 30
0.0
 10
53.30875345011795
 20
-185.5132681471478
 30
0.0
 10
50.24818646210901
 20
-186.344326931
 30
0.0
 10
45.61044086745687
 20
-187.4820281385228
 30
0.0
 10
44.05656218763171
 20
-187.8430729057908
 30
0.0
 10
40.94799935441179
 20
-188.5253622150376
 30
0.0
 10
39.3914645120183
 20
-188.8470777840118
 30
0.0
 10
31.59760525804946
 20
-190.3592267698208
 30
0.0
 10
25.32683466501445
 20
-191.2613161376265
 30
0.0
 10
12.71576193497729
 20
-192.4662774975728
 30
0.0
 10
6.376681319837394
 20
-192.7691513818756
 30
0.0
 10
-0.0000000000000129
 20
-192.7691513818756
 30
0.0
  0
SPLINE
  5
7D
330
1F
100
AcDbEntity
  8
0
  6
Continuous
 62
     7
370
    25
100
AcDbSpline
210
0.0
220
0.0
230
1.0
 70
    11
 71
     3
 72
   202
 73
   198
 74
     0
 42
0.000000001
 43
0.00000001
 40
0.0
 40
0.0
 40
0.0
 40
0.0
 40
0.0156249999999998
 40
0.0156249999999998
 40
0.0312499999999996
 40
0.0312499999999996
 40
0.0351562499999995
 40
0.0351562499999995
 40
0.0390624999999994
 40
0.0390624999999994
 40
0.0468749999999993
 40
0.0468749999999993
 40
0.062499999999999
 40
0.062499999999999
 40
0.0781249999999988
 40
0.0781249999999988
 40
0.0859374999999986
 40
0.0859374999999986
 40
0.0898437499999986
 40
0.0898437499999986
 40
0.0937499999999986
 40
0.0937499999999986
 40
0.1093749999999985
 40
0.1093749999999985
 40
0.1249999999999983
 40
0.1249999999999983
 40
0.1406249999999982
 40
0.1406249999999982
 40
0.1445312499999982
 40
0.1445312499999982
 40
0.1484374999999981
 40
0.1484374999999981
 40
0.156249999999998
 40
0.156249999999998
 40
0.1718749999999979
 40
0.1718749999999979
 40
0.1874999999999978
 40
0.1874999999999978
 40
0.1953124999999977
 40
0.1953124999999977
 40
0.2031249999999977
 40
0.2031249999999977
 40
0.2187499999999975
 40
0.2187499999999975
 40
0.2343749999999974
 40
0.2343749999999974
 40
0.2499999999999972
 40
0.2499999999999972
 40
0.2539062499999972
 40
0.2539062499999972
 40
0.2578124999999971
 40
0.2578124999999971
 40
0.2656249999999971
 40
0.2656249999999971
 40
0.2812499999999969
 40
0.2812499999999969
 40
0.2968749999999968
 40
0.2968749999999968
 40
0.3046874999999968
 40
0.3046874999999968
 40
0.3085937499999967
 40
0.3085937499999967
 40
0.3124999999999967
 40
0.3124999999999967
 40
0.3281249999999967
 40
0.3281249999999967
 40
0.3437499999999968
 40
0.3437499999999968
 40
0.3593749999999968
 40
0.3593749999999968
 40
0.3632812499999968
 40
0.3632812499999968
 40
0.3671874999999968
 40
0.3671874999999968
 40
0.3749999999999969
 40
0.3749999999999969
 40
0.3906249999999969
 40
0.3906249999999969
 40
0.4062499999999969
 40
0.4062499999999969
 40
0.4140624999999969
 40
0.4140624999999969
 40
0.4179687499999969
 40
0.4179687499999969
 40
0.4218749999999969
 40
0.4218749999999969
 40
0.4374999999999969
 40
0.4374999999999969
 40
0.4531249999999969
 40
0.4531249999999969
 40
0.4609374999999969
 40
0.4609374999999969
 40
0.4648437499999969
 40
0.4648437499999969
 40
0.4687499999999969
 40
0.4687499999999969
 40
0.4843749999999969
 40
0.4843749999999969
 40
0.4999999999999969
 40
0.4999999999999969
 40
0.5156249999999969
 40
0.5156249999999969
 40
0.5312499999999969
 40
0.5312499999999969
 40
0.5468749999999969
 40
0.5468749999999969
 40
0.5546874999999969
 40
0.5546874999999969
 40
0.558593749999997
 40
0.558593749999997
 40
0.562499999999997
 40
0.562499999999997
 40
0.5781249999999971
 40
0.5781249999999971
 40
0.5937499999999972
 40
0.5937499999999972
 40
0.6093749999999973
 40
0.6093749999999973
 40
0.6132812499999974
 40
0.6132812499999974
 40
0.6171874999999974
 40
0.6171874999999974
 40
0.6249999999999976
 40
0.6249999999999976
 40
0.6406249999999977
 40
0.6406249999999977
 40
0.6562499999999978
 40
0.6562499999999978
 40
0.6601562499999979
 40
0.6601562499999979
 40
0.6640624999999979
 40
0.6640624999999979
 40
0.671874999999998
 40
0.671874999999998
 40
0.6874999999999981
 40
0.6874999999999981
 40
0.7031249999999982
 40
0.7031249999999982
 40
0.7109374999999983
 40
0.7109374999999983
 40
0.7148437499999984
 40
0.7148437499999984
 40
0.7187499999999984
 40
0.7187499999999984
 40
0.7343749999999986
 40
0.7343749999999986
 40
0.7499999999999987
 40
0.7499999999999987
 40
0.7656249999999989
 40
0.7656249999999989
 40
0.7695312499999989
 40
0.7695312499999989
 40
0.773437499999999
 40
0.773437499999999
 40
0.781249999999999
 40
0.781249999999999
 40
0.7968749999999991
 40
0.7968749999999991
 40
0.8124999999999992
 40
0.8124999999999992
 40
0.8203124999999992
 40
0.8203124999999992
 40
0.8242187499999992
 40
0.8242187499999992
 40
0.8281249999999993
 40
0.8281249999999993
 40
0.8437499999999996
 40
0.8437499999999996
 40
0.8593749999999998
 40
0.8593749999999998
 40
0.875
 40
0.875
 40
0.87890625
 40
0.87890625
 40
0.8828125000000001
 40
0.8828125000000001
 40
0.8906250000000001
 40
0.8906250000000001
 40
0.9062500000000001
 40
0.9062500000000001
 40
0.9218750000000001
 40
0.9218750000000001
 40
0.9296875000000001
 40
0.9296875000000001
 40
0.9335937500000001
 40
0.9335937500000001
 40
0.9375000000000002
 40
0.9375000000000002
 40
0.9531250000000001
 40
0.9531250000000001
 40
0.96875
 40
0.96875
 40
0.9765625
 40
0.9765625
 40
0.984375
 40
0.984375
 40
1.0
 40
1.0
 40
1.0
 40
1.0
 10
0.0000000000000027
 20
-183.3606940567469
 30
0.0
 10
6.066719150212603
 20
-183.3606940567468
 30
0.0
 10
12.10051455657718
 20
-183.0749116543616
 30
0.0
 10
24.10283672818713
 20
-181.9368056135498
 30
0.0
 10
30.07136582377113
 20
-181.0845022129823
 30
0.0
 10
37.49007232151369
 20
-179.654948154698
 30
0.0
 10
38.97170922693959
 20
-179.3507708743124
 30
0.0
 10
41.93074174820416
 20
-178.7056012458789
 30
0.0
 10
43.40988883377347
 20
-178.3641670726475
 30
0.0
 10
47.82503833211773
 20
-177.2880472982944
 30
0.0
 10
50.73895187745719
 20
-176.5017839299252
 30
0.0
 10
59.39351425158878
 20
-173.9396620696446
 30
0.0
 10
65.04724631345516
 20
-171.9610817277737
 30
0.0
 10
76.1235871292694
 20
-167.4648559709759
 30
0.0
 10
81.5461695559797
 20
-164.9471491387458
 30
0.0
 10
89.50436668143628
 20
-160.7608457395456
 30
0.0
 10
92.12775346039226
 20
-159.2969663981682
 30
0.0
 10
96.01789432293522
 20
-156.9963321017296
 30
0.0
 10
97.30711344451397
 20
-156.2119740250573
 30
0.0
 10
99.87035097568189
 20
-154.6078041108992
 30
0.0
 10
101.1455069788436
 20
-153.7872367198855
 30
0.0
 10
107.4699824102776
 20
-149.6027011919686
 30
0.0
 10
112.3163492558493
 20
-146.0278811424267
 30
0.0
 10
121.5981580998037
 20
-138.4403762128759
 30
0.0
 10
126.0335529668282
 20
-134.427641111477
 30
0.0
 10
134.4929021059907
 20
-125.9637565048852
 30
0.0
 10
138.5168812929577
 20
-121.5126335478906
 30
0.0
 10
143.2849420024189
 20
-115.6696457022162
 30
0.0
 10
144.2254194146935
 20
-114.4870522986389
 30
0.0
 10
146.0798238318742
 20
-112.093574456167
 30
0.0
 10
146.9949207378831
 20
-110.8810458708087
 30
0.0
 10
149.6862874171443
 20
-107.2192455909525
 30
0.0
 10
151.4115521457366
 20
-104.7424213147679
 30
0.0
 10
156.3842453013878
 20
-97.20705835179513
 30
0.0
 10
159.4293223460122
 20
-92.04401667823089
 30
0.0
 10
164.9948140664982
 20
-81.44697477588176
 30
0.0
 10
167.5151913570575
 20
-76.01295523929133
 30
0.0
 10
170.8988960992887
 20
-67.65696927345245
 30
0.0
 10
171.9605295692614
 20
-64.83741683567487
 30
0.0
 10
173.9501860435109
 20
-59.12930957650916
 30
0.0
 10
174.8797463163621
 20
-56.23449849489718
 30
0.0
 10
177.4400555061533
 20
-47.53400828299971
 30
0.0
 10
178.8522501950183
 20
-41.69003868548874
 30
0.0
 10
181.1072495210584
 20
-29.91777085300389
 30
0.0
 10
181.9501345507074
 20
-23.98948452349432
 30
0.0
 10
183.0770716516566
 20
-12.05014666807448
 30
0.0
 10
183.3611363927924
 20
-6.039097019997917
 30
0.0
 10
183.3605828285021
 20
1.527385878654513
 30
0.0
 10
183.3425699770837
 20
3.045155425154431
 30
0.0
 10
183.2708379173363
 20
6.072310552791278
 30
0.0
 10
183.2171650126409
 20
7.582628049025867
 30
0.0
 10
183.0031573592326
 20
12.10387937105516
 30
0.0
 10
182.7898742563234
 20
15.10511946053083
 30
0.0
 10
181.9401381119986
 20
24.07041386378977
 30
0.0
 10
181.0944264586396
 20
29.99615732694657
 30
0.0
 10
178.8396015944634
 20
41.74449739686399
 30
0.0
 10
177.4304103059937
 20
47.56707971045347
 30
0.0
 10
174.8834825491853
 20
56.22165440017217
 30
0.0
 10
173.9621541326311
 20
59.09326644204115
 30
0.0
 10
172.4687303801353
 20
63.38028387330857
 30
0.0
 10
171.9515517325153
 20
64.80792152838085
 30
0.0
 10
170.8842504531652
 20
67.64359939205097
 30
0.0
 10
170.3341180778569
 20
69.05187462487655
 30
0.0
 10
167.5015902201025
 20
76.04574720891328
 30
0.0
 10
164.9742628201883
 20
81.4892202929432
 30
0.0
 10
159.4088763543922
 20
92.07980941429435
 30
0.0
 10
156.3708066582751
 20
97.22691928368329
 30
0.0
 10
149.7765620489297
 20
107.2205036543279
 30
0.0
 10
146.2203230972437
 20
112.0669410020996
 30
0.0
 10
141.4406990290465
 20
117.9309924159113
 30
0.0
 10
140.4665457507701
 20
119.0957523804388
 30
0.0
 10
138.4924146814306
 20
121.3960940290317
 30
0.0
 10
137.4928203967847
 20
122.5313386255242
 30
0.0
 10
134.4568304420334
 20
125.892745432771
 30
0.0
 10
132.3832573427975
 20
128.0746160107233
 30
0.0
 10
126.0157205952593
 20
134.4453155774875
 30
0.0
 10
121.5753904818463
 20
138.4597696809977
 30
0.0
 10
112.3109760844074
 20
146.0314892577283
 30
0.0
 10
107.4868946795272
 20
149.5887581615635
 30
0.0
 10
99.95715241117422
 20
154.5748548512974
 30
0.0
 10
97.39819062921822
 20
156.1784537317298
 30
0.0
 10
93.48513619992092
 20
158.4949627696124
 30
0.0
 10
92.16918936392682
 20
159.2517335472627
 30
0.0
 10
89.52727148773111
 20
160.7272686534037
 30
0.0
 10
88.19952535313003
 20
161.4470967117308
 30
0.0
 10
81.52728082343758
 20
164.9576552956264
 30
0.0
 10
76.0825591558793
 20
167.4834820035252
 30
0.0
 10
64.98477102591482
 20
171.9844523619628
 30
0.0
 10
59.33172525021907
 20
173.9596507037365
 30
0.0
 10
50.69733865623471
 20
176.5132442801302
 30
0.0
 10
47.79334770274787
 20
177.2960852718723
 30
0.0
 10
43.39820662614103
 20
178.3668559856203
 30
0.0
 10
41.92663005269209
 20
178.706521120636
 30
0.0
 10
38.97031103215514
 20
179.3510522992234
 30
0.0
 10
37.48398157607102
 20
179.6562132498915
 30
0.0
 10
30.04121067425299
 20
181.0899455700751
 30
0.0
 10
24.05801558468084
 20
181.9428022863159
 30
0.0
 10
12.03554566964171
 20
183.0793096684922
 30
0.0
 10
5.995670140926764
 20
183.3629230035772
 30
0.0
 10
-6.138012372965242
 20
183.3584388075847
 30
0.0
 10
-12.15646517339727
 20
183.0704298089464
 30
0.0
 10
-24.09887586355229
 20
181.9363539987997
 30
0.0
 10
-30.02282827421674
 20
181.0902548388544
 30
0.0
 10
-41.7750179927316
 20
178.8327919861748
 30
0.0
 10
-47.603244777284
 20
177.4213661393466
 30
0.0
 10
-56.27170990573843
 20
174.8679430399352
 30
0.0
 10
-59.14885787192584
 20
173.9439231709803
 30
0.0
 10
-63.44553392827242
 20
172.4454138401627
 30
0.0
 10
-64.87086846361069
 20
171.9284133557636
 30
0.0
 10
-67.70069031608978
 20
170.8621846078586
 30
0.0
 10
-69.1063063287095
 20
170.3125646224993
 30
0.0
 10
-76.088170628226
 20
167.4823961985527
 30
0.0
 10
-81.52615223993793
 20
164.9563181454378
 30
0.0
 10
-92.11265338092933
 20
159.3901439013461
 30
0.0
 10
-97.26117366609861
 20
156.3500490519249
 30
0.0
 10
-107.263425073199
 20
149.746381082881
 30
0.0
 10
-112.1171313304921
 20
146.1827637993283
 30
0.0
 10
-117.9932677656414
 20
141.3890759554648
 30
0.0
 10
-119.1569625891448
 20
140.4148539718694
 30
0.0
 10
-121.4521948722607
 20
138.4433872865058
 30
0.0
 10
-122.5851283299461
 20
137.44501098617
 30
0.0
 10
-125.9402799349128
 20
134.4122970279072
 30
0.0
 10
-128.1188838233184
 20
132.3404040280254
 30
0.0
 10
-134.482111420124
 20
125.9761164363261
 30
0.0
 10
-138.4946941222656
 20
121.5355808739728
 30
0.0
 10
-146.06700737421
 20
112.2645680497914
 30
0.0
 10
-149.6267522791097
 20
107.4341031484964
 30
0.0
 10
-153.7865573129557
 20
101.1464156089271
 30
0.0
 10
-154.6039835205211
 20
99.8763624807683
 30
0.0
 10
-156.2095666312635
 20
97.31105301968944
 30
0.0
 10
-156.9987499078889
 20
96.01404110032608
 30
0.0
 10
-159.3139786299899
 20
92.09851405923568
 30
0.0
 10
-160.7854468058106
 20
89.45990695197885
 30
0.0
 10
-164.9892448018656
 20
81.4614551986531
 30
0.0
 10
-167.5116069591147
 20
76.01923077751354
 30
0.0
 10
-172.0083417233508
 20
64.91978066301021
 30
0.0
 10
-173.9827954937103
 20
59.26258680867492
 30
0.0
 10
-176.5357909940343
 20
50.6164500313533
 30
0.0
 10
-177.3185200733292
 20
47.70761920341485
 30
0.0
 10
-178.3890583235727
 20
43.30374340447451
 30
0.0
 10
-178.728635119005
 20
41.82900926504969
 30
0.0
 10
-179.3729337036203
 20
38.86586575313889
 30
0.0
 10
-179.6771573132355
 20
37.37952996856465
 30
0.0
 10
-181.1037708487256
 20
29.95159381016436
 30
0.0
 10
-181.9493862479207
 20
23.99536538606073
 30
0.0
 10
-183.0766710360053
 20
12.05643593908227
 30
0.0
 10
-183.3582522740107
 20
6.073730778698582
 30
0.0
 10
-183.3631043110498
 20
-5.917887636637214
 30
0.0
 10
-183.0864435486737
 20
-11.92679767924616
 30
0.0
 10
-182.3786964087661
 20
-19.45492443723353
 30
0.0
 10
-182.2188383283603
 20
-20.96271461362646
 30
0.0
 10
-181.862976210189
 20
-23.97410150260562
 30
0.0
 10
-181.6673728672943
 20
-25.47459647690646
 30
0.0
 10
-181.0278939911855
 20
-29.96058836188737
 30
0.0
 10
-180.5313892893189
 20
-32.93060390653772
 30
0.0
 10
-178.8326342183541
 20
-41.77910036898732
 30
0.0
 10
-177.4216710932173
 20
-47.5961864953536
 30
0.0
 10
-174.0461562310192
 20
-59.06751570832672
 30
0.0
 10
-172.0816462505582
 20
-64.72177107676224
 30
0.0
 10
-168.7067986324509
 20
-73.07722994904442
 30
0.0
 10
-167.5102953118425
 20
-75.84133465145065
 30
0.0
 10
-165.6060845584126
 20
-79.95529437738548
 30
0.0
 10
-164.9530947167605
 20
-81.3212450363363
 30
0.0
 10
-163.6101171842646
 20
-84.04226313255222
 30
0.0
 10
-162.9222176316405
 20
-85.39304641357367
 30
0.0
 10
-159.4076829514504
 20
-92.08633504032466
 30
0.0
 10
-156.3503231132021
 20
-97.26037982164421
 30
0.0
 10
-149.752986246583
 20
-107.2537988988785
 30
0.0
 10
-146.2129051133174
 20
-112.0730966929707
 30
0.0
 10
-138.6504328293016
 20
-121.3572476870062
 30
0.0
 10
-134.6280983580719
 20
-125.822142540952
 30
0.0
 10
-129.28748577018
 20
-131.1734652217746
 30
0.0
 10
-128.2030720075461
 20
-132.2327766102832
 30
0.0
 10
-126.0051061265164
 20
-134.3256731325554
 30
0.0
 10
-124.8951576227112
 20
-135.3558579433661
 30
0.0
 10
-121.53286624004
 20
-138.3982906528721
 30
0.0
 10
-119.248104412052
 20
-140.362456757555
 30
0.0
 10
-112.2667047736179
 20
-146.0664271916879
 30
0.0
 10
-107.4433419628535
 20
-149.6182808066618
 30
0.0
 10
-97.46233635402727
 20
-156.2262048064635
 30
0.0
 10
-92.30470876351204
 20
-159.2822977533958
 30
0.0
 10
-84.31623015444995
 20
-163.4926315339289
 30
0.0
 10
-81.61130133010317
 20
-164.8336321875993
 30
0.0
 10
-77.48967949664376
 20
-166.7498734157494
 30
0.0
 10
-76.10423523144999
 20
-167.3730480780644
 30
0.0
 10
-73.3271447104258
 20
-168.5807450216965
 30
0.0
 10
-71.93369283049157
 20
-169.1661362165921
 30
0.0
 10
-64.94216433132387
 20
-172.0017989265326
 30
0.0
 10
-59.27153962272909
 20
-173.9791657340928
 30
0.0
 10
-47.78141863487055
 20
-177.3738887546555
 30
0.0
 10
-41.96190394279188
 20
-178.7911756997861
 30
0.0
 10
-33.12117400521649
 20
-180.4978351158855
 30
0.0
 10
-30.15564845588579
 20
-180.9966954298223
 30
0.0
 10
-24.18728298189808
 20
-181.8540507095632
 30
0.0
 10
-21.18300050608387
 20
-182.2126831462696
 30
0.0
 10
-12.12255712290821
 20
-183.0747766257599
 30
0.0
 10
-6.066719150212683
 20
-183.3606940567469
 30
0.0
 10
0.0000000000000036
 20
-183.3606940567469
 30
0.0
  0
SPLINE
  5
7E
330
1F
100
AcDbEntity
  8
0
  6
Continuous
 62
     7
370
    25
100
AcDbSpline
210
0.0
220
0.0
230
1.0
 70
    11
 71
     3
 72
   128
 73
   124
 74
     0
 42
0.000000001
 43
0.00000001
 40
0.0
 40
0.0
 40
0.0
 40
0.0
 40
0.0156249999999999
 40
0.0156249999999999
 40
0.0312499999999998
 40
0.0312499999999998
 40
0.0624999999999995
 40
0.0624999999999995
 40
0.0781249999999994
 40
0.0781249999999994
 40
0.0937499999999993
 40
0.0937499999999993
 40
0.124999999999999
 40
0.124999999999999
 40
0.1562499999999988
 40
0.1562499999999988
 40
0.1718749999999986
 40
0.1718749999999986
 40
0.1796874999999986
 40
0.1796874999999986
 40
0.1874999999999986
 40
0.1874999999999986
 40
0.2187499999999985
 40
0.2187499999999985
 40
0.2265624999999985
 40
0.2265624999999985
 40
0.2343749999999985
 40
0.2343749999999985
 40
0.2499999999999985
 40
0.2499999999999985
 40
0.2812499999999985
 40
0.2812499999999985
 40
0.2890624999999985
 40
0.2890624999999985
 40
0.2968749999999985
 40
0.2968749999999985
 40
0.3124999999999985
 40
0.3124999999999985
 40
0.3281249999999986
 40
0.3281249999999986
 40
0.3359374999999986
 40
0.3359374999999986
 40
0.3437499999999986
 40
0.3437499999999986
 40
0.3749999999999986
 40
0.3749999999999986
 40
0.3906249999999986
 40
0.3906249999999986
 40
0.3984374999999987
 40
0.3984374999999987
 40
0.4062499999999987
 40
0.4062499999999987
 40
0.4374999999999988
 40
0.4374999999999988
 40
0.4531249999999988
 40
0.4531249999999988
 40
0.4687499999999989
 40
0.4687499999999989
 40
0.499999999999999
 40
0.499999999999999
 40
0.5312499999999991
 40
0.5312499999999991
 40
0.5390624999999991
 40
0.5390624999999991
 40
0.5468749999999992
 40
0.5468749999999992
 40
0.5624999999999992
 40
0.5624999999999992
 40
0.5781249999999992
 40
0.5781249999999992
 40
0.5859374999999991
 40
0.5859374999999991
 40
0.5937499999999991
 40
0.5937499999999991
 40
0.624999999999999
 40
0.624999999999999
 40
0.640624999999999
 40
0.640624999999999
 40
0.656249999999999
 40
0.656249999999999
 40
0.687499999999999
 40
0.687499999999999
 40
0.703124999999999
 40
0.703124999999999
 40
0.718749999999999
 40
0.718749999999999
 40
0.734374999999999
 40
0.734374999999999
 40
0.7421874999999991
 40
0.7421874999999991
 40
0.7499999999999991
 40
0.7499999999999991
 40
0.7812499999999991
 40
0.7812499999999991
 40
0.7968749999999991
 40
0.7968749999999991
 40
0.8046874999999991
 40
0.8046874999999991
 40
0.8124999999999992
 40
0.8124999999999992
 40
0.8437499999999993
 40
0.8437499999999993
 40
0.8515624999999993
 40
0.8515624999999993
 40
0.8593749999999994
 40
0.8593749999999994
 40
0.8749999999999993
 40
0.8749999999999993
 40
0.9062499999999994
 40
0.9062499999999994
 40
0.9140624999999996
 40
0.9140624999999996
 40
0.9218749999999996
 40
0.9218749999999996
 40
0.9374999999999997
 40
0.9374999999999997
 40
0.9531249999999998
 40
0.9531249999999998
 40
0.9609374999999999
 40
0.9609374999999999
 40
0.9687499999999999
 40
0.9687499999999999
 40
1.0
 40
1.0
 40
1.0
 40
1.0
 10
-0.0000069262395802
 20
-36.45412610900606
 30
0.0
 10
-1.204777303927122
 20
-36.45412369410406
 30
0.0
 10
-2.406475253714034
 20
-36.39557745696652
 30
0.0
 10
-4.803714447215267
 20
-36.16116229822965
 30
0.0
 10
-5.990009405318616
 20
-35.98601835057357
 30
0.0
 10
-9.497111429035431
 20
-35.29389459904754
 30
0.0
 10
-11.77354963251399
 20
-34.6111430185347
 30
0.0
 10
-15.09372339530847
 20
-33.24764460645489
 30
0.0
 10
-16.18926812621341
 20
-32.73315196293721
 30
0.0
 10
-18.30263533398807
 20
-31.60941193472599
 30
0.0
 10
-19.32508317630161
 20
-30.99884224044668
 30
0.0
 10
-22.29156522162563
 20
-29.02365787180122
 30
0.0
 10
-24.13719338891804
 20
-27.51541940736876
 30
0.0
 10
-27.54223998636404
 20
-24.10651412377472
 30
0.0
 10
-29.04681704516344
 20
-22.26135187182551
 30
0.0
 10
-31.01955497852413
 20
-19.29163430563328
 30
0.0
 10
-31.62939619060734
 20
-18.26779344689572
 30
0.0
 10
-32.47131489486647
 20
-16.68025044247218
 30
0.0
 10
-32.74036038689844
 20
-16.14099817835248
 30
0.0
 10
-33.2504129330123
 20
-15.05174004763243
 30
0.0
 10
-33.49095349531984
 20
-14.50292225189158
 30
0.0
 10
-34.62275193465587
 20
-11.73832980475881
 30
0.0
 10
-35.30338239493356
 20
-9.461647753570622
 30
0.0
 10
-35.87765443475138
 20
-6.53582426618416
 30
0.0
 10
-35.97851420389814
 20
-5.94661218740117
 30
0.0
 10
-36.15199223041384
 20
-4.760020068179197
 30
0.0
 10
-36.22468288859723
 20
-4.160997844968582
 30
0.0
 10
-36.39796854201781
 20
-2.367528110129509
 30
0.0
 10
-36.45458675602697
 20
-1.174990426280968
 30
0.0
 10
-36.45319631947326
 20
2.393584367654981
 30
0.0
 10
-36.22557798789392
 20
4.760669482237431
 30
0.0
 10
-35.64847481495973
 20
7.704085860025566
 30
0.0
 10
-35.51786013322003
 20
8.29341836857443
 30
0.0
 10
-35.22934124361403
 20
9.458830052452655
 30
0.0
 10
-35.07136255228965
 20
10.03590147492928
 30
0.0
 10
-34.55678730429049
 20
11.75042585897623
 30
0.0
 10
-34.1597012382793
 20
12.87125041315518
 30
0.0
 10
-33.25846399592282
 20
15.06893185680312
 30
0.0
 10
-32.75430350148549
 20
16.14578496672781
 30
0.0
 10
-31.91618217551869
 20
17.72744059918461
 30
0.0
 10
-31.62312689404742
 20
18.24904086419487
 30
0.0
 10
-31.00915742009865
 20
19.28080138941113
 30
0.0
 10
-30.68755367699964
 20
19.79180125925097
 30
0.0
 10
-29.02681443260733
 20
22.28993021203762
 30
0.0
 10
-27.51996580171689
 20
24.12895569903445
 30
0.0
 10
-24.9981026270779
 20
26.65346349692117
 30
0.0
 10
-24.11358262936858
 20
27.4556921147559
 30
0.0
 10
-22.71897106417036
 20
28.5983497379605
 30
0.0
 10
-22.24283923692317
 20
28.96888698295484
 30
0.0
 10
-21.27870973333005
 20
29.68131464828507
 30
0.0
 10
-20.78940886708005
 20
30.024340814739
 30
0.0
 10
-18.30725800663944
 20
31.67450716929612
 30
0.0
 10
-16.2086841770417
 20
32.78896919638447
 30
0.0
 10
-12.89165090552447
 20
34.15236545647872
 30
0.0
 10
-11.75161393580403
 20
34.55660854878171
 30
0.0
 10
-9.457824829799518
 20
35.24468086918785
 30
0.0
 10
-8.301165924402369
 20
35.53071451369436
 30
0.0
 10
-4.802554888360262
 20
36.21873442896138
 30
0.0
 10
-2.432303601075488
 20
36.45263115448277
 30
0.0
 10
2.386465422936336
 20
36.45560690292513
 30
0.0
 10
4.771759277372535
 20
36.22459342714172
 30
0.0
 10
7.722550666094629
 20
35.6445510898829
 30
0.0
 10
8.311073258206184
 20
35.51376620375985
 30
0.0
 10
9.47447505821553
 20
35.22518422600044
 30
0.0
 10
10.05071089139615
 20
35.06717230246249
 30
0.0
 10
11.7632069025193
 20
34.55243395376275
 30
0.0
 10
12.88333322967203
 20
34.15519982718508
 30
0.0
 10
15.08074396859061
 20
33.25316148810646
 30
0.0
 10
16.15803224744966
 20
32.74836685773548
 30
0.0
 10
17.74110301368598
 20
31.90866064407644
 30
0.0
 10
18.26330671542479
 20
31.61498207090738
 30
0.0
 10
19.2964982381124
 20
30.9994618774877
 30
0.0
 10
19.8064618645019
 20
30.67815918251783
 30
0.0
 10
22.29978747247237
 20
29.01884302231417
 30
0.0
 10
24.13774113814108
 20
27.51240740097271
 30
0.0
 10
26.66291286521451
 20
24.98804933595112
 30
0.0
 10
27.46577404714245
 20
24.10220936414259
 30
0.0
 10
28.99108743512495
 20
22.23869005625932
 30
0.0
 10
29.70266533572217
 20
21.27402977147221
 30
0.0
 10
31.67996983126171
 20
18.2975040730837
 30
0.0
 10
32.79408045968647
 20
16.19833398931335
 30
0.0
 10
34.15805534534447
 20
12.87674966447092
 30
0.0
 10
34.56159857623484
 20
11.73634141264743
 30
0.0
 10
35.24799132335265
 20
9.445413722721842
 30
0.0
 10
35.53336327853093
 20
8.289604977240522
 30
0.0
 10
35.99117414573968
 20
5.957782024111447
 30
0.0
 10
36.16360334661978
 20
4.781766064901943
 30
0.0
 10
36.33714382859672
 20
3.002514657540032
 30
0.0
 10
36.38076238368689
 20
2.406885001716014
 30
0.0
 10
36.43921394485747
 20
1.210474953061808
 30
0.0
 10
36.45401727132573
 20
0.6082670226913522
 30
0.0
 10
36.45455946820145
 20
-2.39844965702342
 30
0.0
 10
36.22335717800021
 20
-4.767024942174693
 30
0.0
 10
35.53874059770804
 20
-8.26622987837543
 30
0.0
 10
35.2538058626324
 20
-9.423620734257929
 30
0.0
 10
34.73887837284648
 20
-11.14580568664823
 30
0.0
 10
34.55202254082545
 20
-11.71909105543229
 30
0.0
 10
34.15133595671691
 20
-12.85249371845138
 30
0.0
 10
33.93781456358342
 20
-13.41206847270623
 30
0.0
 10
32.80535232078212
 20
-16.17486985949627
 30
0.0
 10
31.69369199378482
 20
-18.27387813988108
 30
0.0
 10
30.04592877570736
 20
-20.75802298399589
 30
0.0
 10
29.70333857261737
 20
-21.24780185892875
 30
0.0
 10
28.9916724263072
 20
-22.21303750628435
 30
0.0
 10
28.62144821886083
 20
-22.68976446922509
 30
0.0
 10
27.48087667820882
 20
-24.08478457164944
 30
0.0
 10
26.67989662688807
 20
-24.9698538921218
 30
0.0
 10
24.15855820346948
 20
-27.49399195565469
 30
0.0
 10
22.32091003609682
 20
-29.00321787220363
 30
0.0
 10
19.82307265260243
 20
-30.66748567010137
 30
0.0
 10
19.3124286479911
 20
-30.98958815748003
 30
0.0
 10
18.28191043160032
 20
-31.60427131374791
 30
0.0
 10
17.76084773638577
 20
-31.89776196261221
 30
0.0
 10
16.18049902764338
 20
-32.73727884477942
 30
0.0
 10
15.10417630075274
 20
-33.24264557797918
 30
0.0
 10
12.90673409168008
 20
-34.14647191632007
 30
0.0
 10
11.78563375069875
 20
-34.5449772918451
 30
0.0
 10
10.07003112506141
 20
-35.06171321016584
 30
0.0
 10
9.492492918195897
 20
-35.22042624084116
 30
0.0
 10
8.325899056212075
 20
-35.51036814596743
 30
0.0
 10
7.737251772848755
 20
-35.64141031538275
 30
0.0
 10
4.792207203503279
 20
-36.2215694958314
 30
0.0
 10
2.40953382913553
 20
-36.45413093881007
 30
0.0
 10
-0.0000069262395855
 20
-36.45412610900606
 30
0.0
  0
SPLINE
  5
7F
330
1F
100
AcDbEntity
  8
0
  6
Continuous
 62
     7
370
    25
100
AcDbSpline
210
0.0
220
0.0
230
1.0
 70
    11
 71
     3
 72
   128
 73
   124
 74
     0
 42
0.000000001
 43
0.00000001
 40
0.0
 40
0.0
 40
0.0
 40
0.0
 40
0.0312499999999998
 40
0.0312499999999998
 40
0.0390624999999998
 40
0.0390624999999998
 40
0.0468749999999998
 40
0.0468749999999998
 40
0.0624999999999997
 40
0.0624999999999997
 40
0.0781249999999996
 40
0.0781249999999996
 40
0.0859374999999996
 40
0.0859374999999996
 40
0.0937499999999995
 40
0.0937499999999995
 40
0.1249999999999995
 40
0.1249999999999995
 40
0.1406249999999995
 40
0.1406249999999995
 40
0.1484374999999995
 40
0.1484374999999995
 40
0.1562499999999995
 40
0.1562499999999995
 40
0.1874999999999994
 40
0.1874999999999994
 40
0.1953124999999994
 40
0.1953124999999994
 40
0.2031249999999994
 40
0.2031249999999994
 40
0.2187499999999993
 40
0.2187499999999993
 40
0.2499999999999992
 40
0.2499999999999992
 40
0.2578124999999992
 40
0.2578124999999992
 40
0.2656249999999991
 40
0.2656249999999991
 40
0.2812499999999991
 40
0.2812499999999991
 40
0.2968749999999991
 40
0.2968749999999991
 40
0.3124999999999991
 40
0.3124999999999991
 40
0.3437499999999989
 40
0.3437499999999989
 40
0.3593749999999988
 40
0.3593749999999988
 40
0.3749999999999988
 40
0.3749999999999988
 40
0.4062499999999986
 40
0.4062499999999986
 40
0.4140624999999986
 40
0.4140624999999986
 40
0.4218749999999985
 40
0.4218749999999985
 40
0.4374999999999984
 40
0.4374999999999984
 40
0.4531249999999983
 40
0.4531249999999983
 40
0.4609374999999983
 40
0.4609374999999983
 40
0.4687499999999983
 40
0.4687499999999983
 40
0.4999999999999982
 40
0.4999999999999982
 40
0.5312499999999981
 40
0.5312499999999981
 40
0.5468749999999982
 40
0.5468749999999982
 40
0.5624999999999981
 40
0.5624999999999981
 40
0.593749999999998
 40
0.593749999999998
 40
0.601562499999998
 40
0.601562499999998
 40
0.609374999999998
 40
0.609374999999998
 40
0.6249999999999979
 40
0.6249999999999979
 40
0.6562499999999978
 40
0.6562499999999978
 40
0.6640624999999978
 40
0.6640624999999978
 40
0.6718749999999978
 40
0.6718749999999978
 40
0.6874999999999978
 40
0.6874999999999978
 40
0.7031249999999978
 40
0.7031249999999978
 40
0.7109374999999979
 40
0.7109374999999979
 40
0.7187499999999979
 40
0.7187499999999979
 40
0.7499999999999981
 40
0.7499999999999981
 40
0.7656249999999981
 40
0.7656249999999981
 40
0.7734374999999982
 40
0.7734374999999982
 40
0.7812499999999982
 40
0.7812499999999982
 40
0.8124999999999984
 40
0.8124999999999984
 40
0.8203124999999986
 40
0.8203124999999986
 40
0.8281249999999986
 40
0.8281249999999986
 40
0.8437499999999987
 40
0.8437499999999987
 40
0.874999999999999
 40
0.874999999999999
 40
0.9062499999999992
 40
0.9062499999999992
 40
0.9218749999999994
 40
0.9218749999999994
 40
0.9374999999999996
 40
0.9374999999999996
 40
0.9687499999999998
 40
0.9687499999999998
 40
0.984375
 40
0.984375
 40
1.0
 40
1.0
 40
1.0
 40
1.0
 10
0.0000081592062986
 20
-28.90306379289046
 30
0.0
 10
1.908339906906804
 20
-28.90306842652625
 30
0.0
 10
3.794570670474188
 20
-28.71483711018259
 30
0.0
 10
6.12513966103313
 20
-28.24766390574742
 30
0.0
 10
6.590938389102428
 20
-28.14217586043399
 30
0.0
 10
7.513927776712444
 20
-27.90897177427434
 30
0.0
 10
7.970774250233538
 20
-27.78141056169523
 30
0.0
 10
9.3276176885613
 20
-27.36643460896313
 30
0.0
 10
10.21396032027526
 20
-27.04682572332664
 30
0.0
 10
11.95086257145032
 20
-26.32323233731876
 30
0.0
 10
12.80140268575357
 20
-25.91920178201043
 30
0.0
 10
14.05012125851332
 20
-25.24927076020134
 30
0.0
 10
14.4618108656015
 20
-25.01523128477984
 30
0.0
 10
15.27601268409602
 20
-24.52551040621978
 30
0.0
 10
15.67944171815332
 20
-24.26909826674359
 30
0.0
 10
17.65331608350925
 20
-22.9450231533479
 30
0.0
 10
19.10684872672817
 20
-21.74698981188681
 30
0.0
 10
21.10397268199304
 20
-19.74749823890138
 30
0.0
 10
21.73892725719065
 20
-19.04701297239653
 30
0.0
 10
22.64390115312683
 20
-17.94383556571846
 30
0.0
 10
22.93778013190975
 20
-17.5670018728126
 30
0.0
 10
23.50313250128389
 20
-16.80403218996712
 30
0.0
 10
23.77551188967019
 20
-16.41692787813802
 30
0.0
 10
25.0865150094732
 20
-14.45363055078099
 30
0.0
 10
25.97417035870363
 20
-12.79504547948572
 30
0.0
 10
26.88072587278234
 20
-10.61100987425723
 30
0.0
 10
27.05179039316864
 20
-10.16861017098881
 30
0.0
 10
27.37303668186644
 20
-9.272412654838284
 30
0.0
 10
27.52295431370549
 20
-8.819083324765188
 30
0.0
 10
27.93632091539796
 20
-7.45712490980593
 30
0.0
 10
28.16544349730327
 20
-6.541646545948743
 30
0.0
 10
28.71649625419216
 20
-3.773183513150326
 30
0.0
 10
28.90348832863725
 20
-1.898393245413874
 30
0.0
 10
28.90295707918345
 20
0.4829596920430435
 30
0.0
 10
28.89095670002266
 20
0.9599342632203266
 30
0.0
 10
28.84366747366428
 20
1.90730702291941
 30
0.0
 10
28.80841100207451
 20
2.378880086467472
 30
0.0
 10
28.66825863017104
 20
3.78734195823453
 30
0.0
 10
28.52915313780563
 20
4.718005022394403
 30
0.0
 10
28.16048154411651
 20
6.562870149302183
 30
0.0
 10
27.93093070606837
 20
7.477075009551686
 30
0.0
 10
27.37973700923708
 20
9.288728752691517
 30
0.0
 10
27.05609051436504
 20
10.19039872568848
 30
0.0
 10
25.96390183120579
 20
12.8159841430963
 30
0.0
 10
25.074208271886
 20
14.47467614094747
 30
0.0
 10
23.50072226298451
 20
16.82710869370523
 30
0.0
 10
22.9352931105642
 20
17.58956278362464
 30
0.0
 10
21.72501650180835
 20
19.06300972436918
 30
0.0
 10
21.08853411064269
 20
19.76401148964835
 30
0.0
 10
19.08823385206182
 20
21.76347449272875
 30
0.0
 10
17.63427610615166
 20
22.95920625342343
 30
0.0
 10
15.66366837590836
 20
24.2793201899962
 30
0.0
 10
15.26068499789332
 20
24.53507587240594
 30
0.0
 10
14.44434344704224
 20
25.02537495119546
 30
0.0
 10
14.03173088552058
 20
25.25950889836374
 30
0.0
 10
12.78081388201404
 20
25.92947494733061
 30
0.0
 10
11.92946215207037
 20
26.33295063713501
 30
0.0
 10
10.19249845400474
 20
27.05494364841349
 30
0.0
 10
9.306877596000128
 20
27.37343910069227
 30
0.0
 10
7.952432693707363
 20
27.78667919268766
 30
0.0
 10
7.496596213409086
 20
27.91362770468696
 30
0.0
 10
6.576097142682799
 20
28.14564040272121
 30
0.0
 10
6.110333195461461
 20
28.25087282687608
 30
0.0
 10
3.774991006388102
 20
28.71776819948054
 30
0.0
 10
1.886500469308658
 20
28.90449620661592
 30
0.0
 10
-1.929970282564301
 20
28.90161495463123
 30
0.0
 10
-3.805995762732636
 20
28.71213335548585
 30
0.0
 10
-6.573797885017074
 20
28.15793092097183
 30
0.0
 10
-7.488618888215639
 20
27.92776976637613
 30
0.0
 10
-9.302464816057151
 20
27.37519993417688
 30
0.0
 10
-10.20378032325406
 20
27.05088892248727
 30
0.0
 10
-12.82561095824897
 20
25.95916605666735
 30
0.0
 10
-14.48364988873238
 20
25.06909002141664
 30
0.0
 10
-16.44516927133709
 20
23.75596775719729
 30
0.0
 10
-16.83185526607306
 20
23.4831970402138
 30
0.0
 10
-17.59386910850345
 20
22.91714169073089
 30
0.0
 10
-17.97019096716111
 20
22.62297107590504
 30
0.0
 10
-19.07284952815052
 20
21.71627360628872
 30
0.0
 10
-19.77278122200788
 20
21.08028281659497
 30
0.0
 10
-21.77014660852646
 20
19.08050487154129
 30
0.0
 10
-22.96611177902092
 20
17.62577365189232
 30
0.0
 10
-24.28716464791703
 20
15.65149249480846
 30
0.0
 10
-24.54312921814954
 20
15.24775380667919
 30
0.0
 10
-25.03215857078332
 20
14.43255674934706
 30
0.0
 10
-25.26578628855668
 20
14.02043294614357
 30
0.0
 10
-25.93444712977395
 20
12.77066760618636
 30
0.0
 10
-26.33738986042907
 20
11.91968703201148
 30
0.0
 10
-27.05869215216163
 20
10.18256517916734
 30
0.0
 10
-27.37705302163869
 20
9.296424387196359
 30
0.0
 10
-27.79012913865859
 20
7.940413225703422
 30
0.0
 10
-27.9170434676491
 20
7.483928901065095
 30
0.0
 10
-28.14899681813699
 20
6.561865773241735
 30
0.0
 10
-28.25408091731551
 20
6.095500519748395
 30
0.0
 10
-28.71851184364431
 20
3.766337166678889
 30
0.0
 10
-28.90243557444312
 20
1.892922951421333
 30
0.0
 10
-28.90337548943411
 20
-0.9319783425099136
 30
0.0
 10
-28.85753720394914
 20
-1.876093014300063
 30
0.0
 10
-28.7175761495673
 20
-3.296092239565477
 30
0.0
 10
-28.65887974247397
 20
-3.770413467833348
 30
0.0
 10
-28.51892081370052
 20
-4.709704694069665
 30
0.0
 10
-28.43761710757302
 20
-5.176026007196652
 30
0.0
 10
-27.97500325681823
 20
-7.491166015107764
 30
0.0
 10
-27.4278567428412
 20
-9.291304537080476
 30
0.0
 10
-26.52173423924976
 20
-11.47626793135224
 30
0.0
 10
-26.3292975437767
 20
-11.90996998150055
 30
0.0
 10
-25.92161675077724
 20
-12.77068070303739
 30
0.0
 10
-25.70673272081902
 20
-13.19678323391116
 30
0.0
 10
-25.03475788769541
 20
-14.45121992062838
 30
0.0
 10
-24.54871008526558
 20
-15.26030394406112
 30
0.0
 10
-22.9786943597003
 20
-17.60759528216694
 30
0.0
 10
-21.78416824309283
 20
-19.06678136235046
 30
0.0
 10
-19.0879579785739
 20
-21.76561747301124
 30
0.0
 10
-17.62832111582463
 20
-22.96272894437218
 30
0.0
 10
-15.28333365245296
 20
-24.53433539475343
 30
0.0
 10
-14.47527580536308
 20
-25.02086734760026
 30
0.0
 10
-12.80513048753905
 20
-25.9175066074768
 30
0.0
 10
-11.93975822553128
 20
-26.32849922606956
 30
0.0
 10
-9.316986806561705
 20
-27.41920425392851
 30
0.0
 10
-7.517660645670506
 20
-27.96778889351713
 30
0.0
 10
-4.743073414816354
 20
-28.52506794774709
 30
0.0
 10
-3.804077770648234
 20
-28.6663881282788
 30
0.0
 10
-1.905836699467021
 20
-28.85568678204375
 30
0.0
 10
-0.9541577146439593
 20
-28.90306147607256
 30
0.0
 10
0.0000081592062997
 20
-28.90306379289046
 30
0.0
  0
SPLINE
  5
80
330
1F
100
AcDbEntity
  8
0
  6
Continuous
 62
     7
370
    25
100
AcDbSpline
210
0.0
220
0.0
230
1.0
 70
    11
 71
     3
 72
   120
 73
   116
 74
     0
 42
0.000000001
 43
0.00000001
 40
0.0
 40
0.0
 40
0.0
 40
0.0
 40
0.015625
 40
0.015625
 40
0.03125
 40
0.03125
 40
0.0625
 40
0.0625
 40
0.0781250000000001
 40
0.0781250000000001
 40
0.0937500000000001
 40
0.0937500000000001
 40
0.1250000000000001
 40
0.1250000000000001
 40
0.1406250000000002
 40
0.1406250000000002
 40
0.1562500000000002
 40
0.1562500000000002
 40
0.1718750000000002
 40
0.1718750000000002
 40
0.1875000000000003
 40
0.1875000000000003
 40
0.2187500000000003
 40
0.2187500000000003
 40
0.2343750000000003
 40
0.2343750000000003
 40
0.2500000000000003
 40
0.2500000000000003
 40
0.2812500000000003
 40
0.2812500000000003
 40
0.2968750000000003
 40
0.2968750000000003
 40
0.3125000000000003
 40
0.3125000000000003
 40
0.3281250000000003
 40
0.3281250000000003
 40
0.3359375000000003
 40
0.3359375000000003
 40
0.3437500000000003
 40
0.3437500000000003
 40
0.3750000000000002
 40
0.3750000000000002
 40
0.3906250000000002
 40
0.3906250000000002
 40
0.3984375000000002
 40
0.3984375000000002
 40
0.4062500000000002
 40
0.4062500000000002
 40
0.4375000000000003
 40
0.4375000000000003
 40
0.4453125000000003
 40
0.4453125000000003
 40
0.4531250000000003
 40
0.4531250000000003
 40
0.4687500000000004
 40
0.4687500000000004
 40
0.5000000000000006
 40
0.5000000000000006
 40
0.5312500000000007
 40
0.5312500000000007
 40
0.5390625000000007
 40
0.5390625000000007
 40
0.5468750000000007
 40
0.5468750000000007
 40
0.5625000000000007
 40
0.5625000000000007
 40
0.5781250000000007
 40
0.5781250000000007
 40
0.5859375000000007
 40
0.5859375000000007
 40
0.5937500000000007
 40
0.5937500000000007
 40
0.6250000000000007
 40
0.6250000000000007
 40
0.6406250000000007
 40
0.6406250000000007
 40
0.6484375000000007
 40
0.6484375000000007
 40
0.6562500000000007
 40
0.6562500000000007
 40
0.6875000000000007
 40
0.6875000000000007
 40
0.7031250000000007
 40
0.7031250000000007
 40
0.7187500000000007
 40
0.7187500000000007
 40
0.7500000000000008
 40
0.7500000000000008
 40
0.7812500000000008
 40
0.7812500000000008
 40
0.7968750000000008
 40
0.7968750000000008
 40
0.8125000000000008
 40
0.8125000000000008
 40
0.8437500000000008
 40
0.8437500000000008
 40
0.8593750000000008
 40
0.8593750000000008
 40
0.8750000000000008
 40
0.8750000000000008
 40
0.9062500000000007
 40
0.9062500000000007
 40
0.9140625000000007
 40
0.9140625000000007
 40
0.9218750000000007
 40
0.9218750000000007
 40
0.9375000000000006
 40
0.9375000000000006
 40
0.9531250000000004
 40
0.9531250000000004
 40
0.9609375000000003
 40
0.9609375000000003
 40
0.9687500000000002
 40
0.9687500000000002
 40
1.0
 40
1.0
 40
1.0
 40
1.0
 10
0.0000003378866809
 20
24.07720642299889
 30
0.0
 10
0.7952021138751407
 20
24.07720654200874
 30
0.0
 10
1.588113563025741
 20
24.03810245340591
 30
0.0
 10
3.169363665623926
 20
23.88181271029407
 30
0.0
 10
3.954471841379168
 20
23.76468203341842
 30
0.0
 10
6.269989658534476
 20
23.30296321912113
 30
0.0
 10
7.770556914570611
 20
22.84822799993096
 30
0.0
 10
9.956222541179184
 20
21.94394164565782
 30
0.0
 10
10.67764836165615
 20
21.60297601178716
 30
0.0
 10
12.07235765046636
 20
20.85713845515565
 30
0.0
 10
12.7468364563348
 20
20.45233006999137
 30
0.0
 10
14.70320243553383
 20
19.14440478922702
 30
0.0
 10
15.91872324655013
 20
18.14877021166719
 30
0.0
 10
17.60350965357875
 20
16.46224628277826
 30
0.0
 10
18.13402038048898
 20
15.87533692810464
 30
0.0
 10
19.13010949739121
 20
14.65889884618337
 30
0.0
 10
19.59652247570396
 20
14.0285269183987
 30
0.0
 10
20.46660228108987
 20
12.72383898338137
 30
0.0
 10
20.87027170453052
 20
12.04952478865967
 30
0.0
 10
21.61357404657632
 20
10.65604800915583
 30
0.0
 10
21.95411100514902
 20
9.933784635360494
 30
0.0
 10
22.85719695919984
 20
7.744489532929892
 30
0.0
 10
23.31001116712309
 20
6.243218183993253
 30
0.0
 10
23.76875792146303
 20
3.929637163728433
 30
0.0
 10
23.88480932172631
 20
3.146569394939374
 30
0.0
 10
24.03958434470405
 20
1.565376721784099
 30
0.0
 10
24.07747436536663
 20
0.7773249345772197
 30
0.0
 10
24.07666632583444
 20
-1.579454806044547
 30
0.0
 10
23.92457576462043
 20
-3.140877005778695
 30
0.0
 10
23.46400536557436
 20
-5.468037584870007
 30
0.0
 10
23.2706496246993
 20
-6.242198982322366
 30
0.0
 10
22.81381872414646
 20
-7.751561348000807
 30
0.0
 10
22.54965640277969
 20
-8.491095706958891
 30
0.0
 10
21.95096134597832
 20
-9.940348293968832
 30
0.0
 10
21.61642324441295
 20
-10.65006432530453
 30
0.0
 10
21.06115573698222
 20
-11.69198801259977
 30
0.0
 10
20.86714096775154
 20
-12.03551425998445
 30
0.0
 10
20.4609492455305
 20
-12.71487182238137
 30
0.0
 10
20.24814613877541
 20
-13.05159743673374
 30
0.0
 10
19.14805595467533
 20
-14.70026637275172
 30
0.0
 10
18.15168576922521
 20
-15.91344104631531
 30
0.0
 10
16.48775941558465
 20
-17.57917905962112
 30
0.0
 10
15.90468436753992
 20
-18.10856849926902
 30
0.0
 10
14.98620446623768
 20
-18.86276016530632
 30
0.0
 10
14.6720895819319
 20
-19.10790669974037
 30
0.0
 10
14.0358550863814
 20
-19.57956220291364
 30
0.0
 10
13.71304347267574
 20
-19.80668624065719
 30
0.0
 10
12.07593799385079
 20
-20.89957549104704
 30
0.0
 10
10.69313665799736
 20
-21.63832360792288
 30
0.0
 10
8.87318425620768
 20
-22.39221224148791
 30
0.0
 10
8.50458062173021
 20
-22.53443736793371
 30
0.0
 10
7.757978022921244
 20
-22.80146942328973
 30
0.0
 10
7.379775656949988
 20
-22.92626950628557
 30
0.0
 10
6.243460636359989
 20
-23.27041786403099
 30
0.0
 10
5.479569555144217
 20
-23.46114102266023
 30
0.0
 10
3.169328467502492
 20
-23.9200900551052
 30
0.0
 10
1.604600287947136
 20
-24.07625565925475
 30
0.0
 10
-1.575776436953075
 20
-24.07814861042277
 30
0.0
 10
-3.149347744969029
 20
-23.92378439378552
 30
0.0
 10
-5.094325446253166
 20
-23.53774115207372
 30
0.0
 10
-5.482967636025462
 20
-23.45057707499145
 30
0.0
 10
-6.251543987478939
 20
-23.2581764299615
 30
0.0
 10
-6.632081630266946
 20
-23.15285876753195
 30
0.0
 10
-7.762638906763684
 20
-22.81002967928118
 30
0.0
 10
-8.50162608393681
 20
-22.545698291632
 30
0.0
 10
-9.950528766110672
 20
-21.94635803998241
 30
0.0
 10
-10.66044353484435
 20
-21.61134728213304
 30
0.0
 10
-11.70316118563384
 20
-21.05496817814273
 30
0.0
 10
-12.04703482331003
 20
-20.8605155301006
 30
0.0
 10
-12.72724290360094
 20
-20.45328034102789
 30
0.0
 10
-13.06382345480228
 20
-20.24025859023987
 30
0.0
 10
-14.70918077017283
 20
-19.14100204424026
 30
0.0
 10
-15.92144186166498
 20
-18.14475018442831
 30
0.0
 10
-17.58733590692506
 20
-16.47907738650634
 30
0.0
 10
-18.11703619749925
 20
-15.89510013246176
 30
0.0
 10
-18.87196152685112
 20
-14.97462491939994
 30
0.0
 10
-19.11653186815644
 20
-14.66082702967846
 30
0.0
 10
-19.58709527634874
 20
-14.02531554903767
 30
0.0
 10
-19.81376271743324
 20
-13.70279535782505
 30
0.0
 10
-20.90474027148404
 20
-12.06676533085278
 30
0.0
 10
-21.64314932225849
 20
-10.68362025111909
 30
0.0
 10
-22.54775384877391
 20
-8.496613958641351
 30
0.0
 10
-22.81617722602673
 20
-7.744761278946545
 30
0.0
 10
-23.27344515583386
 20
-6.231959078010792
 30
0.0
 10
-23.46354809447667
 20
-5.469053688230089
 30
0.0
 10
-23.92104411723201
 20
-3.161292085307405
 30
0.0
 10
-24.07670194720222
 20
-1.597572501577517
 30
0.0
 10
-24.07770847047794
 20
1.582262807117891
 30
0.0
 10
-23.92285520784883
 20
3.147433278458881
 30
0.0
 10
-23.46669308864877
 20
5.455519270140949
 30
0.0
 10
-23.27703912320711
 20
6.218448739280723
 30
0.0
 10
-22.82077456830802
 20
7.731143087849546
 30
0.0
 10
-22.5527847968614
 20
8.483234694723244
 30
0.0
 10
-21.64919216566165
 20
10.67141113867276
 30
0.0
 10
-20.91142234297956
 20
12.05517402158383
 30
0.0
 10
-19.60330269900074
 20
14.01917686865835
 30
0.0
 10
-19.13177816456382
 20
14.65712935719055
 30
0.0
 10
-18.12580851110566
 20
15.8850953093898
 30
0.0
 10
-17.59640501484474
 20
16.46939177431258
 30
0.0
 10
-15.93141219029151
 20
18.13600108614108
 30
0.0
 10
-14.71976913668223
 20
19.13285258145256
 30
0.0
 10
-13.07525653871065
 20
20.23288337049679
 30
0.0
 10
-12.73883385763395
 20
20.44607626800935
 30
0.0
 10
-12.05877386233376
 20
20.8537461131539
 30
0.0
 10
-11.71498368999568
 20
21.04840476484744
 30
0.0
 10
-10.6725505676065
 20
21.6053844337464
 30
0.0
 10
-9.962869084092436
 20
21.94076771665903
 30
0.0
 10
-8.514534345077246
 20
22.54083611382004
 30
0.0
 10
-7.775884169570674
 20
22.8055290614638
 30
0.0
 10
-6.645914659815437
 20
23.14889994748411
 30
0.0
 10
-6.265588559925047
 20
23.25440289779703
 30
0.0
 10
-5.497469327537056
 20
23.44718911522436
 30
0.0
 10
-5.108917300077792
 20
23.53459211967836
 30
0.0
 10
-3.163657600098994
 20
23.92193221255744
 30
0.0
 10
-1.590403214090227
 20
24.0772061849792
 30
0.0
 10
0.000000337886681
 20
24.07720642299889
 30
0.0
  0
SPLINE
  5
81
330
1F
100
AcDbEntity
  8
0
  6
Continuous
 62
     8
370
    25
100
AcDbSpline
210
0.0
220
0.0
230
1.0
 70
     8
 71
     3
 72
    13
 73
     9
 74
     0
 42
0.000000001
 43
0.00000001
 40
0.0
 40
0.0
 40
0.0
 40
0.0
 40
0.1810508710326905
 40
0.3621292446244342
 40
0.5431808698688585
 40
0.7242859898647903
 40
0.9053843292667748
 40
1.0
 40
1.0
 40
1.0
 40
1.0
 10
-0.0000128955613334
 20
194.9284177573658
 30
0.0
 10
-5.103189429495567
 20
194.8132545475633
 30
0.0
 10
-15.31031769614205
 20
194.582910634074
 30
0.0
 10
-30.52584225583615
 20
192.7228613727076
 30
0.0
 10
-45.56313999394226
 20
189.7777772299308
 30
0.0
 10
-60.29594078322024
 20
185.5849652051696
 30
0.0
 10
-72.45428430305958
 20
181.2788944079917
 30
0.0
 10
-79.47728465973276
 20
177.9501392071333
 30
0.0
 10
-81.887339516867
 20
176.8078236393409
 30
0.0
  0
SPLINE
  5
82
330
1F
100
AcDbEntity
  8
0
  6
Continuous
 62
     8
370
    25
100
AcDbSpline
210
0.0
220
0.0
230
1.0
 70
     8
 71
     3
 72
    19
 73
    15
 74
     0
 42
0.000000001
 43
0.00000001
 40
0.0
 40
0.0
 40
0.0
 40
0.0
 40
0.0473057981791106
 40
0.1378545491254635
 40
0.2284076207898975
 40
0.3189322125188638
 40
0.4094718362308087
 40
0.4999967017005477
 40
0.5905170455960311
 40
0.6810550973390406
 40
0.7715905887171234
 40
0.8621375596348987
 40
0.952685336185853
 40
1.0
 40
1.0
 40
1.0
 40
1.0
 10
-176.8078060004715
 20
81.88735640049363
 30
0.0
 10
-177.9500483662653
 20
79.47740976490016
 30
0.0
 10
-181.2786742935209
 20
72.4545474593473
 30
0.0
 10
-185.5858590014657
 20
60.29630505939495
 30
0.0
 10
-189.7738215821859
 20
45.56358914061051
 30
0.0
 10
-192.7371011314048
 20
30.52631801289586
 30
0.0
 10
-194.5293882959487
 20
15.3108774986226
 30
0.0
 10
-195.1278494194612
 20
0.0008781935108257
 30
0.0
 10
-194.5296490251271
 20
-15.30904588812802
 30
0.0
 10
-192.7373855862561
 20
-30.52476481036022
 30
0.0
 10
-189.7741931131455
 20
-45.56223318372911
 30
0.0
 10
-185.5864611587058
 20
-60.29524757595325
 30
0.0
 10
-181.2790272003325
 20
-72.45350204109077
 30
0.0
 10
-177.9503327016529
 20
-79.47682153271874
 30
0.0
 10
-176.8079181271835
 20
-81.88723875531886
 30
0.0
  0
SPLINE
  5
83
330
1F
100
AcDbEntity
  8
0
  6
Continuous
 62
     8
370
    25
100
AcDbSpline
210
0.0
220
0.0
230
1.0
 70
     8
 71
     3
 72
    19
 73
    15
 74
     0
 42
0.000000001
 43
0.00000001
 40
0.0
 40
0.0
 40
0.0
 40
0.0
 40
0.0472936292030317
 40
0.1378504339015044
 40
0.2283942907817521
 40
0.3189195807222431
 40
0.4094497185694455
 40
0.4999841774668711
 40
0.5905209678614209
 40
0.6810529199344781
 40
0.7715768420813094
 40
0.8621302135049794
 40
0.952680228976758
 40
1.0
 40
1.0
 40
1.0
 40
1.0
 10
-81.88719931226312
 20
-176.8079510736946
 30
0.0
 10
-79.47786581289678
 20
-177.9498848225074
 30
0.0
 10
-72.45519333252422
 20
-181.2783682866299
 30
0.0
 10
-60.29778999147593
 20
-185.5856863784553
 30
0.0
 10
-45.5650425330892
 20
-189.7734932712888
 30
0.0
 10
-30.52880718857383
 20
-192.7367333563385
 30
0.0
 10
-15.31336236174817
 20
-194.52949971735
 30
0.0
 10
-0.0024120285418223
 20
-195.1278019787576
 30
0.0
 10
15.30865157566897
 20
-194.5298189938258
 30
0.0
 10
30.52429958173961
 20
-192.7374442231668
 30
0.0
 10
45.56115184494642
 20
-189.7743936683113
 30
0.0
 10
60.29399288146823
 20
-185.5866506032019
 30
0.0
 10
72.45309500188009
 20
-181.2792544241785
 30
0.0
 10
79.47676950892472
 20
-177.9503275937064
 30
0.0
 10
81.8874403155205
 20
-176.8077708423274
 30
0.0
  0
SPLINE
  5
84
330
1F
100
AcDbEntity
  8
0
  6
Continuous
 62
     8
370
    25
100
AcDbSpline
210
0.0
220
0.0
230
1.0
 70
     8
 71
     3
 72
    19
 73
    15
 74
     0
 42
0.000000001
 43
0.00000001
 40
0.0
 40
0.0
 40
0.0
 40
0.0
 40
0.0473018025729135
 40
0.1378514883856272
 40
0.2284045544190851
 40
0.318930825529375
 40
0.4094704309387386
 40
0.4999962468174589
 40
0.5905220433047952
 40
0.6810615917709688
 40
0.7715877650275917
 40
0.8621406864613576
 40
0.9526902174398917
 40
1.0
 40
1.0
 40
1.0
 40
1.0
 10
176.8078221988576
 20
-81.88732525277736
 30
0.0
 10
177.9499731468615
 20
-79.47758318191433
 30
0.0
 10
181.2785399155526
 20
-72.45487975360659
 30
0.0
 10
185.5857259636376
 20
-60.2968132209424
 30
0.0
 10
189.7737434986947
 20
-45.56395125593669
 30
0.0
 10
192.7370692646916
 20
-30.5265856950362
 30
0.0
 10
194.5294031571681
 20
-15.31099486172728
 30
0.0
 10
195.1278855385731
 20
-0.0006240776817762
 30
0.0
 10
194.5295005408243
 20
15.30974722354601
 30
0.0
 10
192.7372653917195
 20
30.52533994326362
 30
0.0
 10
189.7740386810879
 20
45.56270726134093
 30
0.0
 10
185.5861320285024
 20
60.29557860005936
 30
0.0
 10
181.2788585235804
 20
72.45407225029719
 30
0.0
 10
177.9501462535526
 20
79.4771952163738
 30
0.0
 10
176.8078175297408
 20
81.88735098959872
 30
0.0
  0
SPLINE
  5
85
330
1F
100
AcDbEntity
  8
0
  6
Continuous
 62
     8
370
    25
100
AcDbSpline
210
0.0
220
0.0
230
1.0
 70
     8
 71
     3
 72
    13
 73
     9
 74
     0
 42
0.000000001
 43
0.00000001
 40
0.0
 40
0.0
 40
0.0
 40
0.0
 40
0.0946149824876485
 40
0.2757136098183234
 40
0.4568189429994011
 40
0.6378707059987291
 40
0.8189491418158067
 40
1.0
 40
1.0
 40
1.0
 40
1.0
 10
81.88733734780628
 20
176.8078237407555
 30
0.0
 10
79.47729972057763
 20
177.9501321091306
 30
0.0
 10
72.45430868331837
 20
181.2788857112517
 30
0.0
 10
60.29596688940952
 20
185.5849569812904
 30
0.0
 10
45.56314510458684
 20
189.7777766460778
 30
0.0
 10
30.52583154086203
 20
192.7228633488578
 30
0.0
 10
15.31029728676209
 20
194.5829124494728
 30
0.0
 10
5.103164726859215
 20
194.8132551685828
 30
0.0
 10
-0.0000128955613334
 20
194.9284177573657
 30
0.0
  0
SPLINE
  5
88
330
1B
100
AcDbEntity
 67
     1
  8
0
  6
Continuous
 62
     7
370
    25
100
AcDbSpline
210
0.0
220
0.0
230
1.0
 70
     8
 71
     3
 72
    13
 73
     9
 74
     0
 42
0.000000001
 43
0.00000001
 40
0.0
 40
0.0
 40
0.0
 40
0.0
 40
0.1809340990002269
 40
0.4095706645379585
 40
0.5432645344823033
 40
0.6882077049612443
 40
0.8417565100091073
 40
1.0
 40
1.0
 40
1.0
 40
1.0
 10
199.9417161575618
 20
114.435510932895
 30
0.0
 10
199.9274143972671
 20
114.6728548562725
 30
0.0
 10
199.895040281496
 20
115.2101173676447
 30
0.0
 10
199.5711954246807
 20
115.8673133101575
 30
0.0
 10
199.1313474473313
 20
116.3666668328348
 30
0.0
 10
198.6700035297103
 20
116.6992975034186
 30
0.0
 10
198.1143127526184
 20
116.9389482488783
 30
0.0
 10
197.7069458208073
 20
116.9788812411986
 30
0.0
 10
197.5001954744312
 20
116.9991483747073
 30
0.0
  0
SPLINE
  5
89
330
1B
100
AcDbEntity
 67
     1
  8
0
  6
Continuous
 62
     7
370
    25
100
AcDbSpline
210
0.0
220
0.0
230
1.0
 70
     8
 71
     3
 72
    13
 73
     9
 74
     0
 42
0.000000001
 43
0.00000001
 40
0.0
 40
0.0
 40
0.0
 40
0.0
 40
0.1582434899898044
 40
0.3117922950367661
 40
0.4567354655150236
 40
0.5904293354590197
 40
0.8190659009973092
 40
1.0
 40
1.0
 40
1.0
 40
1.0
 10
-197.5001954744332
 20
116.9991483747159
 30
0.0
 10
-197.7069458208102
 20
116.9788812412069
 30
0.0
 10
-198.1143127526233
 20
116.9389482488862
 30
0.0
 10
-198.6700035297173
 20
116.6992975034243
 30
0.0
 10
-199.131347447339
 20
116.3666668328374
 30
0.0
 10
-199.5711954246888
 20
115.8673133101563
 30
0.0
 10
-199.8950402815014
 20
115.2101173676369
 30
0.0
 10
-199.9274143972688
 20
114.6728548562694
 30
0.0
 10
-199.9417161575621
 20
114.4355109328925
 30
0.0
  0
SPLINE
  5
8A
330
1B
100
AcDbEntity
 67
     1
  8
0
  6
Continuous
 62
     7
370
    25
100
AcDbSpline
210
0.0
220
0.0
230
1.0
 70
     8
 71
     3
 72
    61
 73
    57
 74
     0
 42
0.000000001
 43
0.00000001
 40
0.0
 40
0.0
 40
0.0
 40
0.0
 40
0.0140157816230503
 40
0.0264100562662797
 40
0.0371836670600062
 40
0.0463354557084719
 40
0.0538642707982654
 40
0.0621916677631712
 40
0.0705992199536008
 40
0.0791507149714673
 40
0.0989625387784245
 40
0.1188219813047144
 40
0.1386757946570382
 40
0.1625036621028461
 40
0.1863335765318969
 40
0.2101603836260689
 40
0.2339918083988383
 40
0.2578192772517329
 40
0.2816503534472852
 40
0.3054794127315463
 40
0.3293067101016503
 40
0.3531368143475922
 40
0.3769600728313121
 40
0.4007890271258725
 40
0.4246138154237351
 40
0.4484347730925662
 40
0.4722604371711533
 40
0.4960818542847987
 40
0.5199037405944547
 40
0.5437276110187662
 40
0.5675520933806425
 40
0.5913723042525763
 40
0.6152008738253563
 40
0.6390280856130872
 40
0.6628544657735664
 40
0.6866835310241318
 40
0.7105106270985542
 40
0.7343410530711941
 40
0.7581708776380617
 40
0.7820010461443833
 40
0.8058288047718293
 40
0.8296577005770704
 40
0.8534868686677267
 40
0.8683791231292305
 40
0.8832720296704096
 40
0.8981672972688686
 40
0.9125206070519644
 40
0.918587488486655
 40
0.9244294342883277
 40
0.9303044387009989
 40
0.9377059794187186
 40
0.9468758717270706
 40
0.9576031443729774
 40
0.9700338745175197
 40
0.9841658622610557
 40
1.0
 40
1.0
 40
1.0
 40
1.0
 10
197.5001871270453
 20
116.999148592299
 30
0.0
 10
197.4562137674347
 20
116.999321521129
 30
0.0
 10
197.3733543927123
 20
116.9996473723912
 30
0.0
 10
196.8496469935754
 20
116.9998805388079
 30
0.0
 10
196.1755273159703
 20
116.9999795963358
 30
0.0
 10
195.425789051074
 20
117.0000010197147
 30
0.0
 10
194.613936426476
 20
116.99999966297
 30
0.0
 10
193.7081802476144
 20
116.9999999256014
 30
0.0
 10
192.6274765722966
 20
116.9999996118334
 30
0.0
 10
190.8589459668016
 20
116.999998785145
 30
0.0
 10
188.1089091865229
 20
116.9999982064257
 30
0.0
 10
183.9864213891571
 20
117.0000000498769
 30
0.0
 10
178.8200124825181
 20
116.9999994953453
 30
0.0
 10
172.4604821822199
 20
116.9999992836195
 30
0.0
 10
164.7609161553133
 20
116.9999998838524
 30
0.0
 10
156.1348160387686
 20
117.000000531737
 30
0.0
 10
146.6334427739472
 20
117.0000003599982
 30
0.0
 10
136.3084712658999
 20
116.9999997453391
 30
0.0
 10
125.2183416453527
 20
117.0000007620675
 30
0.0
 10
113.4264466343953
 20
116.9999998335504
 30
0.0
 10
100.9979147367263
 20
116.9999996001621
 30
0.0
 10
88.00463908318973
 20
116.999999038342
 30
0.0
 10
74.51887657009705
 20
117.0000003360226
 30
0.0
 10
60.61596848919291
 20
116.999997856661
 30
0.0
 10
46.37601296908971
 20
116.999999373309
 30
0.0
 10
31.87723264765925
 20
116.9999997051767
 30
0.0
 10
17.20128904259037
 20
117.0000004297944
 30
0.0
 10
2.42977818950788
 20
116.9999995658228
 30
0.0
 10
-12.35509070390618
 20
117.0000003876456
 30
0.0
 10
-27.07167371486771
 20
116.9999997439302
 30
0.0
 10
-41.63762224671978
 20
116.9999999927379
 30
0.0
 10
-55.97116346114061
 20
116.9999977980895
 30
0.0
 10
-69.99353562590476
 20
116.9999997152028
 30
0.0
 10
-83.62522188285502
 20
116.9999995121948
 30
0.0
 10
-96.78860138795139
 20
116.9999992271247
 30
0.0
 10
-109.4103544597453
 20
116.9999998416917
 30
0.0
 10
-121.4187398468881
 20
117.0000005499102
 30
0.0
 10
-132.7464311141705
 20
117.0000003889097
 30
0.0
 10
-143.3296901231952
 20
116.9999997251729
 30
0.0
 10
-153.1077777728684
 20
117.0000007349893
 30
0.0
 10
-162.0268955401727
 20
116.9999998649581
 30
0.0
 10
-170.0358266232325
 20
116.9999996242786
 30
0.0
 10
-176.2095473426726
 20
116.9999992070865
 30
0.0
 10
-180.8956792964882
 20
116.9999998574763
 30
0.0
 10
-184.404532019994
 20
116.9999997266924
 30
0.0
 10
-187.4713186585587
 20
116.9999985397322
 30
0.0
 10
-189.6072175760229
 20
116.999998509201
 30
0.0
 10
-191.0281561165325
 20
116.9999989381074
 30
0.0
 10
-191.9239672187179
 20
116.9999992478508
 30
0.0
 10
-192.8162740759764
 20
116.9999998614962
 30
0.0
 10
-193.7735972667705
 20
117.0000001046654
 30
0.0
 10
-194.7948212561317
 20
116.9999836788312
 30
0.0
 10
-195.8014209936626
 20
116.9999248321438
 30
0.0
 10
-196.6805526994975
 20
116.9997883647795
 30
0.0
 10
-197.3486483420308
 20
116.9995446288255
 30
0.0
 10
-197.447807822361
 20
116.9992852260372
 30
0.0
 10
-197.5002038143149
 20
116.9991481572833
 30
0.0
  0
SPLINE
  5
95
330
1B
100
AcDbEntity
 67
     1
  8
0
  6
Continuous
 62
     8
370
    25
100
AcDbSpline
210
0.0
220
0.0
230
1.0
 70
     8
 71
     3
 72
    52
 73
    48
 74
     0
 42
0.000000001
 43
0.00000001
 40
0.0
 40
0.0
 40
0.0
 40
0.0
 40
0.0000010377067402
 40
0.0206396163731458
 40
0.0483601363469016
 40
0.0831591904973989
 40
0.1250325052295385
 40
0.1720397634606595
 40
0.2137073460557344
 40
0.250032274165276
 40
0.306483289776204
 40
0.3749160716826314
 40
0.4167861039417817
 40
0.4515837545837559
 40
0.479304752469587
 40
0.4999456922297017
 40
0.4999498459379055
 40
0.5482731111955519
 40
0.6248083058682778
 40
0.648996233050443
 40
0.6718469555646958
 40
0.6933603668544788
 40
0.7135363669654536
 40
0.7323748625535428
 40
0.7498757668958065
 40
0.7766256996267391
 40
0.8063825684355629
 40
0.839145695111527
 40
0.8749143307492809
 40
0.8848373191844371
 40
0.8944104617911335
 40
0.9036337561654736
 40
0.9125071999853345
 40
0.9210307910104034
 40
0.9292045270822151
 40
0.9370284061242017
 40
0.944502426141754
 40
0.9516265852222943
 40
0.9584008815353734
 40
0.9648253133327886
 40
0.9708998789487387
 40
0.976624576800026
 40
0.9819994053863227
 40
0.9870243632905318
 40
0.9916994491792802
 40
0.9960246618036142
 40
1.0
 40
1.0
 40
1.0
 40
1.0
 10
199.941716157566
 20
114.4355109329016
 30
0.0
 10
199.9417161573301
 20
114.4355109328992
 30
0.0
 10
199.9417114658282
 20
114.4355108867612
 30
0.0
 10
199.613764069552
 20
114.4375299379122
 30
0.0
 10
197.7305856652534
 20
114.4439201274334
 30
0.0
 10
193.2437698321935
 20
114.4541878344154
 30
0.0
 10
184.9107979631832
 20
114.4687845357963
 30
0.0
 10
172.5789397380932
 20
114.4832044048061
 30
0.0
 10
157.6416796412072
 20
114.4922973188279
 30
0.0
 10
138.880887402874
 20
114.4964200618867
 30
0.0
 10
112.8792601699338
 20
114.4890197205552
 30
0.0
 10
82.00600438347115
 20
114.4713819982519
 30
0.0
 10
53.17937880658749
 20
114.4541752419142
 30
0.0
 10
31.75829517371164
 20
114.4439223151977
 30
0.0
 10
14.43987519888926
 20
114.437529421043
 30
0.0
 10
4.317769746282831
 20
114.4355109599504
 30
0.0
 10
-10.11226272155396
 20
114.4355108696549
 30
0.0
 10
-36.2584717158152
 20
114.4451599843902
 30
0.0
 10
-66.63903032949096
 20
114.4619462132101
 30
0.0
 10
-90.14372588833399
 20
114.4762638139112
 30
0.0
 10
-102.7120606082274
 20
114.4829112424635
 30
0.0
 10
-114.0583502831221
 20
114.4881492904283
 30
0.0
 10
-124.2257990433156
 20
114.4918926234633
 30
0.0
 10
-133.2683311394399
 20
114.4941641408875
 30
0.0
 10
-142.8593514580235
 20
114.495117247443
 30
0.0
 10
-153.3519514592806
 20
114.4934162344419
 30
0.0
 10
-164.7411138066342
 20
114.48826479444
 30
0.0
 10
-175.6221666221035
 20
114.4798424835135
 30
0.0
 10
-182.7619947964743
 20
114.4711298496919
 30
0.0
 10
-187.0199973243766
 20
114.4645355390277
 30
0.0
 10
-189.0610308041462
 20
114.4612318747277
 30
0.0
 10
-190.8658620555374
 20
114.4581166807719
 30
0.0
 10
-192.4512047797797
 20
114.4552051529864
 30
0.0
 10
-193.8333974021403
 20
114.4524934249963
 30
0.0
 10
-195.0284878377028
 20
114.4499824510536
 30
0.0
 10
-196.0521285276845
 20
114.4476719640697
 30
0.0
 10
-196.9195291951987
 20
114.4455620000019
 30
0.0
 10
-197.6454045797562
 20
114.4436525108841
 30
0.0
 10
-198.2439306469443
 20
114.4419434672248
 30
0.0
 10
-198.7287108565978
 20
114.4404348064093
 30
0.0
 10
-199.1127318707971
 20
114.4391265246128
 30
0.0
 10
-199.4083803330779
 20
114.4380183688816
 30
0.0
 10
-199.6272726414628
 20
114.4371108666762
 30
0.0
 10
-199.7807394284204
 20
114.4364018113618
 30
0.0
 10
-199.8781171043987
 20
114.4358980756213
 30
0.0
 10
-199.9324041071218
 20
114.4355760379105
 30
0.0
 10
-199.9387006081613
 20
114.4355320160514
 30
0.0
 10
-199.9417161575659
 20
114.435510932899
 30
0.0
  0
LINE
  5
99
330
1B
100
AcDbEntity
 67
     1
  8
0
  6
Continuous
 62
     7
370
    25
100
AcDbLine
 10
-199.9441980532
 20
114.5447143427
 30
0.0
 11
-197.9418163756
 21
26.4399205253
 31
0.0
  0
LINE
  5
9A
330
1B
100
AcDbEntity
 67
     1
  8
0
  6
Continuous
 62
     7
370
    25
100
AcDbLine
 10
197.9418163756
 20
26.4399205253
 30
0.0
 11
199.9441980532
 21
114.5447143427
 31
0.0
  0
LINE
  5
9B
330
1B
100
AcDbEntity
 67
     1
  8
0
  6
Continuous
 62
     7
370
    25
100
AcDbLine
 10
176.0615328605
 20
0.0
 30
0.0
 11
-176.0615328605
 21
0.0
 31
0.0
  0
LINE
  5
9C
330
1B
100
AcDbEntity
 67
     1
  8
0
  6
Continuous
 62
     8
370
    25
100
AcDbLine
 10
-197.9418163756
 20
26.4399205253
 30
0.0
 11
197.9418163756
 21
26.4399205253
 31
0.0
  0
LINE
  5
9D
330
1B
100
AcDbEntity
 67
     1
  8
0
  6
Continuous
 62
     8
370
    25
100
AcDbLine
 10
-185.9708927518
 20
8.5745009591
 30
0.0
 11
185.9708927518
 21
8.5745009591
 31
0.0
  0
LINE
  5
9E
330
1B
100
AcDbEntity
 67
     1
  8
0
  6
Continuous
 62
     8
370
    25
100
AcDbLine
 10
-180.7019716722
 20
3.1381923742
 30
0.0
 11
180.7019716722
 21
3.1381923742
 31
0.0
  0
ARC
  5
9F
330
1B
100
AcDbEntity
 67
     1
  8
0
  6
Continuous
 62
     7
370
    25
100
AcDbCircle
 10
177.9469796647
 20
26.8943486323
 30
0.0
 40
19.99999999999997
100
AcDbArc
 50
293.6529459079
 51
358.6980473274
  0
ARC
  5
A0
330
1B
100
AcDbEntity
 67
     1
  8
0
  6
Continuous
 62
     7
370
    25
100
AcDbCircle
 10
-177.9469796647
 20
26.8943486323
 30
0.0
 40
20.0
100
AcDbArc
 50
181.3019526726
 51
246.3470540921
  0
ARC
  5
A1
330
1B
100
AcDbEntity
 67
     1
  8
0
  6
Continuous
 62
     7
370
    25
100
AcDbCircle
 10
189.9828492954
 20
-0.5854228775
 30
0.0
 40
10.00000000000014
100
AcDbArc
 50
113.6529459079
 51
158.138667429
  0
ARC
  5
A2
330
1B
100
AcDbEntity
 67
     1
  8
0
  6
Continuous
 62
     7
370
    25
100
AcDbCircle
 10
-189.9828492954
 20
-0.5854228775
 30
0.0
 40
10.00000000000002
100
AcDbArc
 50
21.861332571
 51
66.3470540921
  0
ARC
  5
A3
330
1B
100
AcDbEntity
 67
     1
  8
0
  6
Continuous
 62
     7
370
    25
100
AcDbCircle
 10
176.0615328605
 20
5.0
 30
0.0
 40
4.999999999999942
100
AcDbArc
 50
270.0
 51
338.138667429
  0
ARC
  5
A4
330
1B
100
AcDbEntity
 67
     1
  8
0
  6
Continuous
 62
     7
370
    25
100
AcDbCircle
 10
-176.0615328605
 20
5.0
 30
0.0
 40
4.999999999999986
100
AcDbArc
 50
201.861332571
 51
270.0
  0
VIEWPORT
  5
FD
330
1B
100
AcDbEntity
 67
     1
  8
0
100
AcDbViewport
 10
0.0
 20
0.0
 30
0.0
 40
205.6
 41
156.0
 68
     1
 69
     1
 12
-0.0001774741
 22
0.0022511804
 13
0.0
 23
0.0
 14
10.0
 24
10.0
 15
10.0
 25
10.0
 16
0.0
 26
0.0
 36
1.0
 17
0.0
 27
0.0
 37
0.0
 42
50.0
 43
0.0
 44
0.0
 45
407.8765085535
 50
0.0
 51
0.0
 72
   100
 90
   557152
  1

281
     0
 71
     1
 74
     0
110
0.0
120
0.0
130
0.0
111
1.0
121
0.0
131
0.0
112
0.0
122
1.0
132
0.0
 79
     0
146
0.0
  0
ENDSEC
  0
SECTION
  2
OBJECTS
  0
DICTIONARY
  5
C
330
0
100
AcDbDictionary
281
     1
  3
ACAD_GROUP
350
D
  3
ACAD_LAYOUT
350
1A
  3
ACAD_MLINESTYLE
350
17
  3
ACAD_PLOTSETTINGS
350
19
  3
ACAD_PLOTSTYLENAME
350
E
  3
ACAD_SCALELIST
350
47
  0
DICTIONARY
  5
D
102
{ACAD_REACTORS
330
C
102
}
330
C
100
AcDbDictionary
281
     1
  0
DICTIONARY
  5
1A
102
{ACAD_REACTORS
330
C
102
}
330
C
100
AcDbDictionary
281
     1
  3
_Bottom
350
C2
  3
_Front
350
1E
  3
_Isometric
350
D2
  3
_Right
350
26
  3
Model
350
22
  0
DICTIONARY
  5
17
102
{ACAD_REACTORS
330
C
102
}
330
C
100
AcDbDictionary
281
     1
  3
Standard
350
18
  0
DICTIONARY
  5
19
102
{ACAD_REACTORS
330
C
102
}
330
C
100
AcDbDictionary
281
     1
  0
ACDBDICTIONARYWDFLT
  5
E
102
{ACAD_REACTORS
330
C
102
}
330
C
100
AcDbDictionary
281
     1
  3
Normal
350
F
100
AcDbDictionaryWithDefault
340
F
  0
DICTIONARY
  5
47
102
{ACAD_REACTORS
330
C
102
}
330
C
100
AcDbDictionary
281
     1
  3
A0
350
48
  3
A1
350
49
  3
A2
350
4A
  3
A3
350
4B
  3
A4
350
4C
  3
A5
350
4D
  3
A6
350
4E
  3
A7
350
4F
  3
A8
350
50
  3
A9
350
51
  3
B0
350
52
  3
B1
350
53
  3
B2
350
54
  3
B3
350
55
  3
B4
350
56
  3
B5
350
57
  3
B6
350
58
  3
B7
350
59
  3
B8
350
5A
  3
B9
350
5B
  3
C0
350
5C
  3
C1
350
5D
  3
C2
350
5E
  3
C3
350
5F
  3
C4
350
60
  3
C5
350
61
  3
C6
350
62
  3
C7
350
63
  3
C8
350
64
  3
C9
350
65
  3
D0
350
66
  3
D1
350
67
  3
D2
350
68
  0
LAYOUT
  5
C2
102
{ACAD_REACTORS
330
1A
102
}
330
1A
100
AcDbPlotSettings
  1

  2
none_device
  4
ISO_A4_(210.00_x_297.00_MM)
  6

 40
7.5
 41
20.0
 42
7.5
 43
20.0
 44
210.0
 45
297.0
 46
0.0
 47
0.0
 48
0.0
 49
0.0
140
0.0
141
0.0
142
1.0
143
1.5559859771
 70
   688
 72
     1
 73
     1
 74
     1
  7

 75
     0
147
0.6426793138
148
199.9441980532
149
0.0
100
AcDbLayout
  1
_Bottom
 70
     1
 71
     3
 10
0.0
 20
0.0
 11
0.0
 21
0.0
 12
0.0
 22
0.0
 32
0.0
 14
0.0
 24
0.0
 34
0.0
 15
0.0
 25
0.0
 35
0.0
146
0.0
 13
0.0
 23
0.0
 33
0.0
 16
1.0
 26
0.0
 36
0.0
 17
0.0
 27
1.0
 37
0.0
 76
     0
330
C1
331
101
  0
LAYOUT
  5
1E
102
{ACAD_REACTORS
330
1A
102
}
330
1A
100
AcDbPlotSettings
  1

  2
none_device
  4
ISO_A4_(210.00_x_297.00_MM)
  6

 40
7.5
 41
20.0
 42
7.5
 43
20.0
 44
210.0
 45
297.0
 46
0.0
 47
0.0
 48
0.0
 49
0.0
140
0.0
141
0.0
142
1.0
143
1.5559859771
 70
   688
 72
     1
 73
     1
 74
     1
  7

 75
     0
147
0.6426793138
148
199.9441980532
149
0.0
100
AcDbLayout
  1
_Front
 70
     1
 71
     1
 10
-231.0639175946
 20
-11.669894828
 11
231.0639175946
 21
315.0871603563
 12
0.0
 22
0.0
 32
0.0
 14
-199.9441980532
 24
0.0
 34
0.0
 15
199.9441980532
 25
117.0000004502
 35
0.0
146
0.0
 13
0.0
 23
0.0
 33
0.0
 16
1.0
 26
0.0
 36
0.0
 17
0.0
 27
1.0
 37
0.0
 76
     0
330
1B
331
FD
  0
LAYOUT
  5
D2
102
{ACAD_REACTORS
330
1A
102
}
330
1A
100
AcDbPlotSettings
  1

  2
none_device
  4
ISO_A4_(210.00_x_297.00_MM)
  6

 40
7.5
 41
20.0
 42
7.5
 43
20.0
 44
210.0
 45
297.0
 46
0.0
 47
0.0
 48
0.0
 49
0.0
140
0.0
141
0.0
142
1.0
143
1.5559859771
 70
   688
 72
     1
 73
     1
 74
     1
  7

 75
     0
147
0.6426793138
148
199.9441980532
149
0.0
100
AcDbLayout
  1
_Isometric
 70
     1
 71
     4
 10
0.0
 20
0.0
 11
0.0
 21
0.0
 12
0.0
 22
0.0
 32
0.0
 14
0.0
 24
0.0
 34
0.0
 15
0.0
 25
0.0
 35
0.0
146
0.0
 13
0.0
 23
0.0
 33
0.0
 16
1.0
 26
0.0
 36
0.0
 17
0.0
 27
1.0
 37
0.0
 76
     0
330
D1
331
103
  0
LAYOUT
  5
26
102
{ACAD_REACTORS
330
1A
102
}
330
1A
100
AcDbPlotSettings
  1

  2
none_device
  4
ISO_A4_(210.00_x_297.00_MM)
  6

 40
7.5
 41
20.0
 42
7.5
 43
20.0
 44
210.0
 45
297.0
 46
0.0
 47
0.0
 48
0.0
 49
0.0
140
0.0
141
0.0
142
1.0
143
1.5559859771
 70
   688
 72
     1
 73
     1
 74
     1
  7

 75
     0
147
0.6426793138
148
199.9441980532
149
0.0
100
AcDbLayout
  1
_Right
 70
     1
 71
     2
 10
0.0
 20
0.0
 11
0.0
 21
0.0
 12
0.0
 22
0.0
 32
0.0
 14
0.0
 24
0.0
 34
0.0
 15
0.0
 25
0.0
 35
0.0
146
0.0
 13
0.0
 23
0.0
 33
0.0
 16
1.0
 26
0.0
 36
0.0
 17
0.0
 27
1.0
 37
0.0
 76
     0
330
23
331
FF
  0
LAYOUT
  5
22
102
{ACAD_REACTORS
330
1A
102
}
330
1A
100
AcDbPlotSettings
  1

  2
none_device
  4
ANSI_A_(11.00_x_8.50_Inches)
  6

 40
6.35
 41
19.05
 42
6.35000508
 43
19.05000254
 44
279.4
 45
215.9
 46
133.3500923224
 47
88.8987954419
 48
0.0
 49
0.0
140
0.0
141
0.0
142
0.0210438695
143
1.0
 70
  1696
 72
     0
 73
     0
 74
     0
  7

 75
     0
147
0.0179189148
148
-1300.4909072572
149
0.0
100
AcDbLayout
  1
Model
 70
     1
 71
     0
 10
0.0
 20
0.0
 11
420.0
 21
297.0
 12
0.0
 22
0.0
 32
0.0
 14
-199.8638964971
 24
-199.9372137968
 34
0.0
 15
199.8635415489
 25
199.9417161576
 35
0.0
146
0.0
 13
0.0
 23
0.0
 33
0.0
 16
1.0
 26
0.0
 36
0.0
 17
0.0
 27
1.0
 37
0.0
 76
     0
330
1F
331
29
  0
MLINESTYLE
  5
18
102
{ACAD_REACTORS
330
17
102
}
330
17
100
AcDbMlineStyle
  2
Standard
 70
     0
  3

 62
   256
 51
90.0
 52
90.0
 71
     2
 49
0.5
 62
   256
  6
BYLAYER
 49
-0.5
 62
   256
  6
BYLAYER
  0
ACDBPLACEHOLDER
  5
F
102
{ACAD_REACTORS
330
E
102
}
330
E
  0
SCALE
  5
48
102
{ACAD_REACTORS
330
47
102
}
330
47
100
AcDbScale
 70
     0
300
1:1
140
1.0
141
1.0
290
     1
  0
SCALE
  5
49
102
{ACAD_REACTORS
330
47
102
}
330
47
100
AcDbScale
 70
     0
300
1:2
140
1.0
141
2.0
290
     0
  0
SCALE
  5
4A
102
{ACAD_REACTORS
330
47
102
}
330
47
100
AcDbScale
 70
     0
300
1:4
140
1.0
141
4.0
290
     0
  0
SCALE
  5
4B
102
{ACAD_REACTORS
330
47
102
}
330
47
100
AcDbScale
 70
     0
300
1:5
140
1.0
141
5.0
290
     0
  0
SCALE
  5
4C
102
{ACAD_REACTORS
330
47
102
}
330
47
100
AcDbScale
 70
     0
300
1:8
140
1.0
141
8.0
290
     0
  0
SCALE
  5
4D
102
{ACAD_REACTORS
330
47
102
}
330
47
100
AcDbScale
 70
     0
300
1:10
140
1.0
141
10.0
290
     0
  0
SCALE
  5
4E
102
{ACAD_REACTORS
330
47
102
}
330
47
100
AcDbScale
 70
     0
300
1:16
140
1.0
141
16.0
290
     0
  0
SCALE
  5
4F
102
{ACAD_REACTORS
330
47
102
}
330
47
100
AcDbScale
 70
     0
300
1:20
140
1.0
141
20.0
290
     0
  0
SCALE
  5
50
102
{ACAD_REACTORS
330
47
102
}
330
47
100
AcDbScale
 70
     0
300
1:30
140
1.0
141
30.0
290
     0
  0
SCALE
  5
51
102
{ACAD_REACTORS
330
47
102
}
330
47
100
AcDbScale
 70
     0
300
1:40
140
1.0
141
40.0
290
     0
  0
SCALE
  5
52
102
{ACAD_REACTORS
330
47
102
}
330
47
100
AcDbScale
 70
     0
300
1:50
140
1.0
141
50.0
290
     0
  0
SCALE
  5
53
102
{ACAD_REACTORS
330
47
102
}
330
47
100
AcDbScale
 70
     0
300
1:100
140
1.0
141
100.0
290
     0
  0
SCALE
  5
54
102
{ACAD_REACTORS
330
47
102
}
330
47
100
AcDbScale
 70
     0
300
2:1
140
2.0
141
1.0
290
     0
  0
SCALE
  5
55
102
{ACAD_REACTORS
330
47
102
}
330
47
100
AcDbScale
 70
     0
300
4:1
140
4.0
141
1.0
290
     0
  0
SCALE
  5
56
102
{ACAD_REACTORS
330
47
102
}
330
47
100
AcDbScale
 70
     0
300
8:1
140
8.0
141
1.0
290
     0
  0
SCALE
  5
57
102
{ACAD_REACTORS
330
47
102
}
330
47
100
AcDbScale
 70
     0
300
10:1
140
10.0
141
1.0
290
     0
  0
SCALE
  5
58
102
{ACAD_REACTORS
330
47
102
}
330
47
100
AcDbScale
 70
     0
300
100:1
140
100.0
141
1.0
290
     0
  0
SCALE
  5
59
102
{ACAD_REACTORS
330
47
102
}
330
47
100
AcDbScale
 70
     0
300
1/128" = 1'-0"
140
0.0078125
141
12.0
290
     0
  0
SCALE
  5
5A
102
{ACAD_REACTORS
330
47
102
}
330
47
100
AcDbScale
 70
     0
300
1/64" = 1'-0"
140
0.015625
141
12.0
290
     0
  0
SCALE
  5
5B
102
{ACAD_REACTORS
330
47
102
}
330
47
100
AcDbScale
 70
     0
300
1/32" = 1'-0"
140
0.03125
141
12.0
290
     0
  0
SCALE
  5
5C
102
{ACAD_REACTORS
330
47
102
}
330
47
100
AcDbScale
 70
     0
300
1/16" = 1'-0"
140
0.0625
141
12.0
290
     0
  0
SCALE
  5
5D
102
{ACAD_REACTORS
330
47
102
}
330
47
100
AcDbScale
 70
     0
300
3/32" = 1'-0"
140
0.09375
141
12.0
290
     0
  0
SCALE
  5
5E
102
{ACAD_REACTORS
330
47
102
}
330
47
100
AcDbScale
 70
     0
300
1/8" = 1'-0"
140
0.125
141
12.0
290
     0
  0
SCALE
  5
5F
102
{ACAD_REACTORS
330
47
102
}
330
47
100
AcDbScale
 70
     0
300
3/16" = 1'-0"
140
0.1875
141
12.0
290
     0
  0
SCALE
  5
60
102
{ACAD_REACTORS
330
47
102
}
330
47
100
AcDbScale
 70
     0
300
1/4" = 1'-0"
140
0.25
141
12.0
290
     0
  0
SCALE
  5
61
102
{ACAD_REACTORS
330
47
102
}
330
47
100
AcDbScale
 70
     0
300
3/8" = 1'-0"
140
0.375
141
12.0
290
     0
  0
SCALE
  5
62
102
{ACAD_REACTORS
330
47
102
}
330
47
100
AcDbScale
 70
     0
300
1/2" = 1'-0"
140
0.5
141
12.0
290
     0
  0
SCALE
  5
63
102
{ACAD_REACTORS
330
47
102
}
330
47
100
AcDbScale
 70
     0
300
3/4" = 1'-0"
140
0.75
141
12.0
290
     0
  0
SCALE
  5
64
102
{ACAD_REACTORS
330
47
102
}
330
47
100
AcDbScale
 70
     0
300
1" = 1'-0"
140
1.0
141
12.0
290
     0
  0
SCALE
  5
65
102
{ACAD_REACTORS
330
47
102
}
330
47
100
AcDbScale
 70
     0
300
1-1/2" = 1'-0"
140
1.5
141
12.0
290
     0
  0
SCALE
  5
66
102
{ACAD_REACTORS
330
47
102
}
330
47
100
AcDbScale
 70
     0
300
3" = 1'-0"
140
3.0
141
12.0
290
     0
  0
SCALE
  5
67
102
{ACAD_REACTORS
330
47
102
}
330
47
100
AcDbScale
 70
     0
300
6" = 1'-0"
140
6.0
141
12.0
290
     0
  0
SCALE
  5
68
102
{ACAD_REACTORS
330
47
102
}
330
47
100
AcDbScale
 70
     0
300
1'-0" = 1'-0"
140
12.0
141
12.0
290
     0
  0
ENDSEC
  0
EOF
