  0
SECTION
  2
HEADER
  9
$ACADVER
  1
AC1015
  9
$ACADMAINTVER
 70
     6
  9
$DWGCODEPAGE
  3
ANSI_1252
  9
$INSBASE
 10
0.0
 20
0.0
 30
0.0
  9
$EXTMIN
 10
-592.45
 20
-0.0001861003
 30
0.0
  9
$EXTMAX
 10
592.45
 20
400.0
 30
0.0
  9
$LIMMIN
 10
0.0
 20
0.0
  9
$LIMMAX
 10
420.0
 20
297.0
  9
$ORTHOMODE
 70
     0
  9
$REGENMODE
 70
     1
  9
$FILLMODE
 70
     1
  9
$QTEXTMODE
 70
     0
  9
$MIRRTEXT
 70
     1
  9
$LTSCALE
 40
1.0
  9
$ATTMODE
 70
     1
  9
$TEXTSIZE
 40
3.5
  9
$TRACEWID
 40
1.0
  9
$TEXTSTYLE
  7
Standard
  9
$CLAYER
  8
0
  9
$CELTYPE
  6
ByLayer
  9
$CECOLOR
 62
   256
  9
$CELTSCALE
 40
1.0
  9
$DISPSILH
 70
     0
  9
$DIMSCALE
 40
1.0
  9
$DIMASZ
 40
3.302
  9
$DIMEXO
 40
1.0
  9
$DIMDLI
 40
3.75
  9
$DIMRND
 40
0.0
  9
$DIMDLE
 40
0.0
  9
$DIMEXE
 40
1.0
  9
$DIMTP
 40
0.0
  9
$DIMTM
 40
0.0
  9
$DIMTXT
 40
3.5
  9
$DIMCEN
 40
2.5
  9
$DIMTSZ
 40
0.0
  9
$DIMTOL
 70
     0
  9
$DIMLIM
 70
     0
  9
$DIMTIH
 70
     1
  9
$DIMTOH
 70
     1
  9
$DIMSE1
 70
     0
  9
$DIMSE2
 70
     0
  9
$DIMTAD
 70
     1
  9
$DIMZIN
 70
     1
  9
$DIMBLK
  1

  9
$DIMASO
 70
     1
  9
$DIMSHO
 70
     1
  9
$DIMPOST
  1

  9
$DIMAPOST
  1

  9
$DIMALT
 70
     0
  9
$DIMALTD
 70
     3
  9
$DIMALTF
 40
0.0393700787
  9
$DIMLFAC
 40
1.0
  9
$DIMTOFL
 70
     1
  9
$DIMTVP
 40
0.0
  9
$DIMTIX
 70
     0
  9
$DIMSOXD
 70
     0
  9
$DIMSAH
 70
     0
  9
$DIMBLK1
  1

  9
$DIMBLK2
  1

  9
$DIMSTYLE
  2
ISO-25
  9
$DIMCLRD
 70
     0
  9
$DIMCLRE
 70
     0
  9
$DIMCLRT
 70
     0
  9
$DIMTFAC
 40
1.0
  9
$DIMGAP
 40
1.524
  9
$DIMJUST
 70
     0
  9
$DIMSD1
 70
     0
  9
$DIMSD2
 70
     0
  9
$DIMTOLJ
 70
     0
  9
$DIMTZIN
 70
     1
  9
$DIMALTZ
 70
     0
  9
$DIMALTTZ
 70
     0
  9
$DIMUPT
 70
     0
  9
$DIMDEC
 70
     2
  9
$DIMTDEC
 70
     2
  9
$DIMALTU
 70
     2
  9
$DIMALTTD
 70
     3
  9
$DIMTXSTY
  7
Standard
  9
$DIMAUNIT
 70
     0
  9
$DIMADEC
 70
     2
  9
$DIMALTRND
 40
0.0
  9
$DIMAZIN
 70
     0
  9
$DIMDSEP
 70
    44
  9
$DIMATFIT
 70
     3
  9
$DIMFRAC
 70
     0
  9
$DIMLDRBLK
  1

  9
$DIMLUNIT
 70
     2
  9
$DIMLWD
 70
    -2
  9
$DIMLWE
 70
    -2
  9
$DIMTMOVE
 70
     0
  9
$LUNITS
 70
     2
  9
$LUPREC
 70
     2
  9
$SKETCHINC
 40
1.0
  9
$FILLETRAD
 40
10.0
  9
$AUNITS
 70
     0
  9
$AUPREC
 70
     2
  9
$MENU
  1
.
  9
$ELEVATION
 40
0.0
  9
$PELEVATION
 40
0.0
  9
$THICKNESS
 40
0.0
  9
$LIMCHECK
 70
     0
  9
$CHAMFERA
 40
0.0
  9
$CHAMFERB
 40
0.0
  9
$CHAMFERC
 40
0.0
  9
$CHAMFERD
 40
0.0
  9
$SKPOLY
 70
     0
  9
$TDCREATE
 40
2458934.613064051
  9
$TDUCREATE
 40
2458934.613064051
  9
$TDUPDATE
 40
2458934.613085544
  9
$TDUUPDATE
 40
2458934.613085544
  9
$TDINDWG
 40
0.0000000116
  9
$TDUSRTIMER
 40
0.0000000116
  9
$USRTIMER
 70
     1
  9
$ANGBASE
 50
0.0
  9
$ANGDIR
 70
     0
  9
$PDMODE
 70
     0
  9
$PDSIZE
 40
-1.0
  9
$PLINEWID
 40
0.0
  9
$SPLFRAME
 70
     0
  9
$SPLINETYPE
 70
     6
  9
$SPLINESEGS
 70
     8
  9
$HANDSEED
  5
289
  9
$SURFTAB1
 70
     6
  9
$SURFTAB2
 70
     6
  9
$SURFTYPE
 70
     6
  9
$SURFU
 70
     6
  9
$SURFV
 70
     6
  9
$UCSBASE
  2

  9
$UCSNAME
  2

  9
$UCSORG
 10
0.0
 20
0.0
 30
0.0
  9
$UCSXDIR
 10
1.0
 20
0.0
 30
0.0
  9
$UCSYDIR
 10
0.0
 20
1.0
 30
0.0
  9
$UCSORTHOREF
  2

  9
$UCSORTHOVIEW
 70
     0
  9
$UCSORGTOP
 10
0.0
 20
0.0
 30
0.0
  9
$UCSORGBOTTOM
 10
0.0
 20
0.0
 30
0.0
  9
$UCSORGLEFT
 10
0.0
 20
0.0
 30
0.0
  9
$UCSORGRIGHT
 10
0.0
 20
0.0
 30
0.0
  9
$UCSORGFRONT
 10
0.0
 20
0.0
 30
0.0
  9
$UCSORGBACK
 10
0.0
 20
0.0
 30
0.0
  9
$PUCSBASE
  2

  9
$PUCSNAME
  2

  9
$PUCSORG
 10
0.0
 20
0.0
 30
0.0
  9
$PUCSXDIR
 10
1.0
 20
0.0
 30
0.0
  9
$PUCSYDIR
 10
0.0
 20
1.0
 30
0.0
  9
$PUCSORTHOREF
  2

  9
$PUCSORTHOVIEW
 70
     0
  9
$PUCSORGTOP
 10
0.0
 20
0.0
 30
0.0
  9
$PUCSORGBOTTOM
 10
0.0
 20
0.0
 30
0.0
  9
$PUCSORGLEFT
 10
0.0
 20
0.0
 30
0.0
  9
$PUCSORGRIGHT
 10
0.0
 20
0.0
 30
0.0
  9
$PUCSORGFRONT
 10
0.0
 20
0.0
 30
0.0
  9
$PUCSORGBACK
 10
0.0
 20
0.0
 30
0.0
  9
$USERI1
 70
     0
  9
$USERI2
 70
     0
  9
$USERI3
 70
     0
  9
$USERI4
 70
     0
  9
$USERI5
 70
     0
  9
$USERR1
 40
0.0
  9
$USERR2
 40
0.0
  9
$USERR3
 40
0.0
  9
$USERR4
 40
0.0
  9
$USERR5
 40
0.0
  9
$WORLDVIEW
 70
     1
  9
$SHADEDGE
 70
     3
  9
$SHADEDIF
 70
    70
  9
$TILEMODE
 70
     1
  9
$MAXACTVP
 70
    64
  9
$PINSBASE
 10
0.0
 20
0.0
 30
0.0
  9
$PLIMCHECK
 70
     0
  9
$PEXTMIN
 10
-592.45
 20
0.0
 30
0.0
  9
$PEXTMAX
 10
592.45
 20
400.0
 30
0.0
  9
$PLIMMIN
 10
-684.6601167315
 20
-34.5787937743
  9
$PLIMMAX
 10
684.6601167315
 20
933.6274319066
  9
$UNITMODE
 70
     0
  9
$VISRETAIN
 70
     1
  9
$PLINEGEN
 70
     0
  9
$PSLTSCALE
 70
     1
  9
$TREEDEPTH
 70
  3020
  9
$CMLSTYLE
  2
Standard
  9
$CMLJUST
 70
     0
  9
$CMLSCALE
 40
20.0
  9
$PROXYGRAPHICS
 70
     1
  9
$MEASUREMENT
 70
     1
  9
$CELWEIGHT
370
    -1
  9
$ENDCAPS
280
     0
  9
$JOINSTYLE
280
     0
  9
$LWDISPLAY
290
     1
  9
$INSUNITS
 70
     4
  9
$HYPERLINKBASE
  1

  9
$STYLESHEET
  1

  9
$XEDIT
290
     1
  9
$CEPSNTYPE
380
     0
  9
$PSTYLEMODE
290
     1
  9
$FINGERPRINTGUID
  2
{85f310a0-9928-43a4-83bf-30486db5cd72}
  9
$VERSIONGUID
  2
{FAEB1C32-E019-11D5-929B-00C0DF256EC4}
  9
$EXTNAMES
290
     1
  9
$PSVPSCALE
 40
0.0
  9
$OLESTARTUP
290
     0
  0
ENDSEC
  0
SECTION
  2
CLASSES
  0
CLASS
  1
ACDBDICTIONARYWDFLT
  2
AcDbDictionaryWithDefault
  3
ObjectDBX Classes
 90
        0
280
     0
281
     0
  0
CLASS
  1
VISUALSTYLE
  2
AcDbVisualStyle
  3
ObjectDBX Classes
 90
     4095
280
     0
281
     0
  0
CLASS
  1
MATERIAL
  2
AcDbMaterial
  3
ObjectDBX Classes
 90
     1153
280
     0
281
     0
  0
CLASS
  1
SCALE
  2
AcDbScale
  3
ObjectDBX Classes
 90
     1153
280
     0
281
     0
  0
CLASS
  1
TABLESTYLE
  2
AcDbTableStyle
  3
ObjectDBX Classes
 90
     4095
280
     0
281
     0
  0
CLASS
  1
MLEADERSTYLE
  2
AcDbMLeaderStyle
  3
ACDB_MLEADERSTYLE_CLASS
 90
     4095
280
     0
281
     0
  0
CLASS
  1
SUN
  2
AcDbSun
  3
SCENEOE
 90
     1153
280
     0
281
     0
  0
CLASS
  1
ACDBPLACEHOLDER
  2
AcDbPlaceHolder
  3
ObjectDBX Classes
 90
        0
280
     0
281
     0
  0
CLASS
  1
LAYOUT
  2
AcDbLayout
  3
ObjectDBX Classes
 90
        0
280
     0
281
     0
  0
ENDSEC
  0
SECTION
  2
TABLES
  0
TABLE
  2
VPORT
  5
8
330
0
100
AcDbSymbolTable
 70
     1
  0
VPORT
  5
29
330
8
100
AcDbSymbolTableRecord
100
AcDbViewportTableRecord
  2
*Active
 70
     0
 10
0.0
 20
0.0
 11
1.0
 21
1.0
 12
0.0
 22
199.9999069499
 13
0.0
 23
0.0
 14
10.0
 24
10.0
 15
10.0
 25
10.0
 16
0.0
 26
0.0
 36
1.0
 17
0.0
 27
0.0
 37
0.0
 40
408.0001898223
 41
2.9622486218
 42
50.0
 43
0.0
 44
0.0
 50
0.0
 51
0.0
 71
     0
 72
   100
 73
     1
 74
     3
 75
     0
 76
     0
 77
     0
 78
     0
281
     0
 65
     1
110
0.0
120
0.0
130
0.0
111
1.0
121
0.0
131
0.0
112
0.0
122
1.0
132
0.0
 79
     0
146
0.0
  0
ENDTAB
  0
TABLE
  2
LTYPE
  5
5
330
0
100
AcDbSymbolTable
 70
     6
  0
LTYPE
  5
14
330
5
100
AcDbSymbolTableRecord
100
AcDbLinetypeTableRecord
  2
ByBlock
 70
     0
  3

 72
    65
 73
     0
 40
0.0
  0
LTYPE
  5
15
330
5
100
AcDbSymbolTableRecord
100
AcDbLinetypeTableRecord
  2
ByLayer
 70
     0
  3

 72
    65
 73
     0
 40
0.0
  0
LTYPE
  5
16
330
5
100
AcDbSymbolTableRecord
100
AcDbLinetypeTableRecord
  2
Continuous
 70
     0
  3
Solid line
 72
    65
 73
     0
 40
0.0
  0
LTYPE
  5
6E
330
5
100
AcDbSymbolTableRecord
100
AcDbLinetypeTableRecord
  2
HIDDEN
 70
     0
  3
Hidden __ __ __ __ __ __ __ __ __ __ __ __ __ __
 72
    65
 73
     2
 40
1.905
 49
1.27
 74
     0
 49
-0.635
 74
     0
  0
LTYPE
  5
6F
330
5
100
AcDbSymbolTableRecord
100
AcDbLinetypeTableRecord
  2
PHANTOM
 70
     0
  3
Phantom ______  __  __  ______  __  __  ______
 72
    65
 73
     6
 40
12.7
 49
6.35
 74
     0
 49
-1.27
 74
     0
 49
1.27
 74
     0
 49
-1.27
 74
     0
 49
1.27
 74
     0
 49
-1.27
 74
     0
  0
LTYPE
  5
70
330
5
100
AcDbSymbolTableRecord
100
AcDbLinetypeTableRecord
  2
CENTER
 70
     0
  3
Center ____ _ ____ _ ____ _ ____ _ ____ _ ____
 72
    65
 73
     4
 40
10.16
 49
6.35
 74
     0
 49
-1.27
 74
     0
 49
1.27
 74
     0
 49
-1.27
 74
     0
  0
LTYPE
  5
71
330
5
100
AcDbSymbolTableRecord
100
AcDbLinetypeTableRecord
  2
CENTERX2
 70
     0
  3
Center (2x) ________  __  ________  __  _____
 72
    65
 73
     4
 40
20.32
 49
12.7
 74
     0
 49
-2.54
 74
     0
 49
2.54
 74
     0
 49
-2.54
 74
     0
  0
LTYPE
  5
72
330
5
100
AcDbSymbolTableRecord
100
AcDbLinetypeTableRecord
  2
DOT2
 70
     0
  3
Dot (.5x) ........................................
 72
    65
 73
     2
 40
0.635
 49
0.0
 74
     0
 49
-0.635
 74
     0
  0
ENDTAB
  0
TABLE
  2
LAYER
  5
2
330
0
100
AcDbSymbolTable
 70
     1
  0
LAYER
  5
10
330
2
100
AcDbSymbolTableRecord
100
AcDbLayerTableRecord
  2
0
 70
     0
 62
     7
  6
Continuous
370
    -3
390
F
  0
ENDTAB
  0
TABLE
  2
STYLE
  5
3
330
0
100
AcDbSymbolTable
 70
     1
  0
STYLE
  5
11
330
3
100
AcDbSymbolTableRecord
100
AcDbTextStyleTableRecord
  2
Standard
 70
     0
 40
0.0
 41
1.0
 50
0.0
 71
     0
 42
3.5
  3
txt
  4

  0
ENDTAB
  0
TABLE
  2
VIEW
  5
6
330
0
100
AcDbSymbolTable
 70
     0
  0
ENDTAB
  0
TABLE
  2
UCS
  5
7
330
0
100
AcDbSymbolTable
 70
     0
  0
ENDTAB
  0
TABLE
  2
APPID
  5
9
330
0
100
AcDbSymbolTable
 70
     1
  0
APPID
  5
12
330
9
100
AcDbSymbolTableRecord
100
AcDbRegAppTableRecord
  2
ACAD
 70
     0
  0
ENDTAB
  0
TABLE
  2
DIMSTYLE
  5
A
330
0
100
AcDbSymbolTable
 70
     1
100
AcDbDimStyleTable
  0
DIMSTYLE
105
27
330
A
100
AcDbSymbolTableRecord
100
AcDbDimStyleTableRecord
  2
ISO-25
 70
     0
 41
2.5
 42
0.625
 43
3.75
 44
1.25
 73
     0
 74
     0
 77
     1
 78
     8
140
2.5
141
2.5
143
0.0393700787
147
0.625
171
     3
172
     1
178
     0
271
     2
272
     2
274
     3
278
    44
283
     0
284
     8
340
11
  0
ENDTAB
  0
TABLE
  2
BLOCK_RECORD
  5
1
330
0
100
AcDbSymbolTable
 70
     3
  0
BLOCK_RECORD
  5
1F
330
1
100
AcDbSymbolTableRecord
100
AcDbBlockTableRecord
  2
*Model_Space
340
22
  0
BLOCK_RECORD
  5
1B
330
1
100
AcDbSymbolTableRecord
100
AcDbBlockTableRecord
  2
*Paper_Space
340
1E
  0
BLOCK_RECORD
  5
23
330
1
100
AcDbSymbolTableRecord
100
AcDbBlockTableRecord
  2
*Paper_Space0
340
26
  0
BLOCK_RECORD
  5
12D
330
1
100
AcDbSymbolTableRecord
100
AcDbBlockTableRecord
  2
*Paper_Space1
340
12E
  0
BLOCK_RECORD
  5
1CF
330
1
100
AcDbSymbolTableRecord
100
AcDbBlockTableRecord
  2
*Paper_Space2
340
1D0
  0
ENDTAB
  0
ENDSEC
  0
SECTION
  2
BLOCKS
  0
BLOCK
  5
20
330
1F
100
AcDbEntity
  8
0
100
AcDbBlockBegin
  2
*Model_Space
 70
     0
 10
0.0
 20
0.0
 30
0.0
  3
*Model_Space
  1

  0
ENDBLK
  5
21
330
1F
100
AcDbEntity
  8
0
100
AcDbBlockEnd
  0
BLOCK
  5
1C
330
1B
100
AcDbEntity
 67
     1
  8
0
100
AcDbBlockBegin
  2
*Paper_Space
 70
     0
 10
0.0
 20
0.0
 30
0.0
  3
*Paper_Space
  1

  0
ENDBLK
  5
1D
330
1B
100
AcDbEntity
 67
     1
  8
0
100
AcDbBlockEnd
  0
BLOCK
  5
24
330
23
100
AcDbEntity
  8
0
100
AcDbBlockBegin
  2
*Paper_Space0
 70
     0
 10
0.0
 20
0.0
 30
0.0
  3
*Paper_Space0
  1

  0
SPLINE
  5
11E
330
23
100
AcDbEntity
  8
0
  6
Continuous
 62
     7
370
    25
100
AcDbSpline
210
0.0
220
0.0
230
1.0
 70
     8
 71
     3
 72
    10
 73
     6
 74
     0
 42
0.000000001
 43
0.00000001
 40
0.0
 40
0.0
 40
0.0
 40
0.0
 40
0.5
 40
0.5
 40
1.0
 40
1.0
 40
1.0
 40
1.0
 10
232.8483642846881
 20
361.9694269027136
 30
0.0
 10
232.7479337031786
 20
361.7508009637391
 30
0.0
 10
232.6642901204972
 20
361.5271873665276
 30
0.0
 10
232.5407099097094
 20
361.0674845839486
 30
0.0
 10
232.5000000000053
 20
360.8287167632822
 30
0.0
 10
232.5000000000053
 20
360.5857864376205
 30
0.0
  0
SPLINE
  5
122
330
23
100
AcDbEntity
  8
0
  6
Continuous
 62
     7
370
    25
100
AcDbSpline
210
0.0
220
0.0
230
1.0
 70
     8
 71
     3
 72
    14
 73
    10
 74
     0
 42
0.000000001
 43
0.00000001
 40
0.0
 40
0.0
 40
0.0
 40
0.0
 40
0.25
 40
0.25
 40
0.5
 40
0.5
 40
0.75
 40
0.75
 40
1.0
 40
1.0
 40
1.0
 40
1.0
 10
232.500000000005
 20
1.99999999999359
 30
0.0
 10
232.500000000005
 20
1.821767880187175
 30
0.0
 10
232.5335918197717
 20
1.650283166923783
 30
0.0
 10
232.6534606266937
 20
1.317941549166035
 30
0.0
 10
232.7378814644166
 20
1.161879885829387
 30
0.0
 10
232.9357703009508
 20
0.8716705173072437
 30
0.0
 10
233.0492806891115
 20
0.7376650399789075
 30
0.0
 10
233.2895258345826
 20
0.4970487081692732
 30
0.0
 10
233.41877161717
 20
0.3882347655441432
 30
0.0
 10
233.5485835071414
 20
0.2969226005305747
 30
0.0
  0
SPLINE
  5
124
330
23
100
AcDbEntity
  8
0
  6
Continuous
 62
     7
370
    25
100
AcDbSpline
210
0.0
220
0.0
230
1.0
 70
     8
 71
     3
 72
    10
 73
     6
 74
     0
 42
0.000000001
 43
0.00000001
 40
0.0
 40
0.0
 40
0.0
 40
0.0
 40
0.5
 40
0.5
 40
1.0
 40
1.0
 40
1.0
 40
1.0
 10
232.500000000005
 20
361.9999999999936
 30
0.0
 10
232.500000000005
 20
361.9999999999936
 30
0.0
 10
232.5398048823427
 20
362.0005592458853
 30
0.0
 10
232.6632856194725
 20
361.994281708142
 30
0.0
 10
232.7480830371492
 20
361.9871652635626
 30
0.0
 10
232.8483642846881
 20
361.9694269027136
 30
0.0
  0
LINE
  5
125
330
23
100
AcDbEntity
  8
0
  6
Continuous
 62
     7
370
    25
100
AcDbLine
 10
230.5
 20
0.0
 30
0.0
 11
230.5
 21
400.0
 31
0.0
  0
LINE
  5
126
330
23
100
AcDbEntity
  8
0
  6
Continuous
 62
     7
370
    25
100
AcDbLine
 10
-212.5
 20
0.0
 30
0.0
 11
-212.5
 21
400.0
 31
0.0
  0
LINE
  5
127
330
23
100
AcDbEntity
  8
0
  6
Continuous
 62
     7
370
    25
100
AcDbLine
 10
232.5
 20
0.0
 30
0.0
 11
-212.5
 21
0.0
 31
0.0
  0
LINE
  5
128
330
23
100
AcDbEntity
  8
0
  6
Continuous
 62
     7
370
    25
100
AcDbLine
 10
-212.5
 20
400.0
 30
0.0
 11
232.5
 21
400.0
 31
0.0
  0
LINE
  5
129
330
23
100
AcDbEntity
  8
0
  6
Continuous
 62
     7
370
    25
100
AcDbLine
 10
232.5
 20
0.0
 30
0.0
 11
232.5
 21
400.0
 31
0.0
  0
LINE
  5
12A
330
23
100
AcDbEntity
  8
0
  6
Continuous
 62
     7
370
    25
100
AcDbLine
 10
234.5
 20
360.0
 30
0.0
 11
234.5
 21
2.0
 31
0.0
  0
ARC
  5
12B
330
23
100
AcDbEntity
  8
0
  6
Continuous
 62
     7
370
    25
100
AcDbCircle
 10
232.5
 20
360.0
 30
0.0
 40
2.000000000000064
100
AcDbArc
 50
0.0
 51
79.9689326305
  0
ARC
  5
12C
330
23
100
AcDbEntity
  8
0
  6
Continuous
 62
     7
370
    25
100
AcDbCircle
 10
232.5
 20
2.0
 30
0.0
 40
2.000000000000526
100
AcDbArc
 50
270.0
 51
0.0
  0
VIEWPORT
  5
283
330
23
100
AcDbEntity
  8
0
100
AcDbViewport
 10
0.0
 20
0.0
 30
0.0
 40
205.6
 41
156.0
 68
     1
 69
     1
 12
0.0
 22
199.9999069499
 13
0.0
 23
0.0
 14
10.0
 24
10.0
 15
10.0
 25
10.0
 16
0.0
 26
0.0
 36
1.0
 17
0.0
 27
0.0
 37
0.0
 42
50.0
 43
0.0
 44
0.0
 45
917.0296108949
 50
0.0
 51
0.0
 72
   100
 90
   557152
  1

281
     0
 71
     1
 74
     0
110
0.0
120
0.0
130
0.0
111
1.0
121
0.0
131
0.0
112
0.0
122
1.0
132
0.0
 79
     0
146
0.0
  0
ENDBLK
  5
25
330
23
100
AcDbEntity
  8
0
100
AcDbBlockEnd
  0
BLOCK
  5
12F
330
12D
100
AcDbEntity
  8
0
100
AcDbBlockBegin
  2
*Paper_Space1
 70
     0
 10
0.0
 20
0.0
 30
0.0
  3
*Paper_Space1
  1

  0
SPLINE
  5
168
330
12D
100
AcDbEntity
  8
0
  6
Continuous
 62
     7
370
    25
100
AcDbSpline
210
0.0
220
0.0
230
1.0
 70
     8
 71
     3
 72
    10
 73
     6
 74
     0
 42
0.000000001
 43
0.00000001
 40
0.0
 40
0.0
 40
0.0
 40
0.0
 40
0.5
 40
0.5
 40
1.0
 40
1.0
 40
1.0
 40
1.0
 10
589.96942690272
 20
-232.8483642846809
 30
0.0
 10
589.7508009637453
 20
-232.7479337031714
 30
0.0
 10
589.5271873665341
 20
-232.6642901204901
 30
0.0
 10
589.0674845839552
 20
-232.5407099097024
 30
0.0
 10
588.8287167632886
 20
-232.4999999999979
 30
0.0
 10
588.5857864376269
 20
-232.4999999999978
 30
0.0
  0
SPLINE
  5
16C
330
12D
100
AcDbEntity
  8
0
  6
Continuous
 62
     7
370
    25
100
AcDbSpline
210
0.0
220
0.0
230
1.0
 70
     8
 71
     3
 72
    10
 73
     6
 74
     0
 42
0.000000001
 43
0.00000001
 40
0.0
 40
0.0
 40
0.0
 40
0.0
 40
0.5
 40
0.5
 40
1.0
 40
1.0
 40
1.0
 40
1.0
 10
590.0000000000001
 20
-232.4999999999978
 30
0.0
 10
590.0000000000001
 20
-232.4999999999978
 30
0.0
 10
590.0005592458917
 20
-232.5398048823356
 30
0.0
 10
589.9942817081486
 20
-232.6632856194653
 30
0.0
 10
589.9871652635688
 20
-232.7480830371421
 30
0.0
 10
589.96942690272
 20
-232.8483642846809
 30
0.0
  0
SPLINE
  5
16F
330
12D
100
AcDbEntity
  8
0
  6
Continuous
 62
     7
370
    25
100
AcDbSpline
210
0.0
220
0.0
230
1.0
 70
     8
 71
     3
 72
    14
 73
    10
 74
     0
 42
0.000000001
 43
0.00000001
 40
0.0
 40
0.0
 40
0.0
 40
0.0
 40
0.25
 40
0.25
 40
0.5
 40
0.5
 40
0.75
 40
0.75
 40
1.0
 40
1.0
 40
1.0
 40
1.0
 10
-1.296922600536932
 20
-233.5485835071414
 30
0.0
 10
-1.38835441566682
 20
-233.4186015192675
 30
0.0
 10
-1.494695986573815
 20
-233.29213708935
 30
0.0
 10
-1.73545221764101
 20
-233.0512328575736
 30
0.0
 10
-1.870256318504051
 20
-232.9369897520471
 30
0.0
 10
-2.158329565616291
 20
-232.7400515932292
 30
0.0
 10
-2.315700975348005
 20
-232.6546282003
 30
0.0
 10
-2.646247852301225
 20
-232.5346945910576
 30
0.0
 10
-2.821842042300469
 20
-232.500000000005
 30
0.0
 10
-2.999999999999947
 20
-232.500000000005
 30
0.0
  0
SPLINE
  5
171
330
12D
100
AcDbEntity
  8
0
  6
Continuous
 62
     7
370
    25
100
AcDbSpline
210
0.0
220
0.0
230
1.0
 70
     8
 71
     3
 72
    10
 73
     6
 74
     0
 42
0.000000001
 43
0.00000001
 40
0.0
 40
0.0
 40
0.0
 40
0.0
 40
0.5
 40
0.5
 40
1.0
 40
1.0
 40
1.0
 40
1.0
 10
-589.9694269027199
 20
-232.8483642846881
 30
0.0
 10
-589.9871916786756
 20
-232.7479337031786
 30
0.0
 10
-589.9942007993443
 20
-232.6642901204972
 30
0.0
 10
-590.000542620153
 20
-232.5407099097094
 30
0.0
 10
-589.9999999999999
 20
-232.5000000000053
 30
0.0
 10
-589.9999999999999
 20
-232.5000000000053
 30
0.0
  0
SPLINE
  5
174
330
12D
100
AcDbEntity
  8
0
  6
Continuous
 62
     7
370
    25
100
AcDbSpline
210
0.0
220
0.0
230
1.0
 70
     8
 71
     3
 72
    10
 73
     6
 74
     0
 42
0.000000001
 43
0.00000001
 40
0.0
 40
0.0
 40
0.0
 40
0.0
 40
0.5
 40
0.5
 40
1.0
 40
1.0
 40
1.0
 40
1.0
 10
-588.5857864376268
 20
-232.500000000005
 30
0.0
 10
-588.8283045682358
 20
-232.500000000005
 30
0.0
 10
-589.0631684540206
 20
-232.5398048823427
 30
0.0
 10
-589.5243857539351
 20
-232.6632856194725
 30
0.0
 10
-589.7511260467932
 20
-232.7480830371492
 30
0.0
 10
-589.9694269027199
 20
-232.8483642846881
 30
0.0
  0
LINE
  5
192
330
12D
100
AcDbEntity
  8
0
  6
Continuous
 62
     7
370
    25
100
AcDbLine
 10
573.45
 20
-215.5
 30
0.0
 11
-573.45
 21
-215.5
 31
0.0
  0
LINE
  5
193
330
12D
100
AcDbEntity
  8
0
  6
Continuous
 62
     7
370
    25
100
AcDbLine
 10
-573.45
 20
212.5
 30
0.0
 11
-573.45
 21
-215.5
 31
0.0
  0
LINE
  5
194
330
12D
100
AcDbEntity
  8
0
  6
Continuous
 62
     7
370
    25
100
AcDbLine
 10
573.45
 20
-196.5
 30
0.0
 11
-573.45
 21
-196.5
 31
0.0
  0
LINE
  5
195
330
12D
100
AcDbEntity
  8
0
  6
Continuous
 62
     7
370
    25
100
AcDbLine
 10
573.45
 20
-215.5
 30
0.0
 11
573.45
 21
212.5
 31
0.0
  0
LINE
  5
196
330
12D
100
AcDbEntity
  8
0
  6
Continuous
 62
     7
370
    25
100
AcDbLine
 10
538.0
 20
164.5
 30
0.0
 11
538.0
 21
-196.5
 31
0.0
  0
LINE
  5
197
330
12D
100
AcDbEntity
  8
0
  6
Continuous
 62
     7
370
    25
100
AcDbLine
 10
554.0
 20
-196.5
 30
0.0
 11
554.0
 21
164.5
 31
0.0
  0
LINE
  5
198
330
12D
100
AcDbEntity
  8
0
  6
Continuous
 62
     7
370
    25
100
AcDbLine
 10
554.0
 20
164.5
 30
0.0
 11
28.5
 21
164.5
 31
0.0
  0
LINE
  5
199
330
12D
100
AcDbEntity
  8
0
  6
Continuous
 62
     7
370
    25
100
AcDbLine
 10
44.5
 20
164.5
 30
0.0
 11
44.5
 21
-196.5
 31
0.0
  0
LINE
  5
19A
330
12D
100
AcDbEntity
  8
0
  6
Continuous
 62
     7
370
    25
100
AcDbLine
 10
28.5
 20
-196.5
 30
0.0
 11
28.5
 21
164.5
 31
0.0
  0
LINE
  5
19B
330
12D
100
AcDbEntity
  8
0
  6
Continuous
 62
     7
370
    25
100
AcDbLine
 10
44.5
 20
148.5
 30
0.0
 11
538.0
 21
148.5
 31
0.0
  0
LINE
  5
19C
330
12D
100
AcDbEntity
  8
0
  6
Continuous
 62
     7
370
    25
100
AcDbLine
 10
-538.0
 20
164.5
 30
0.0
 11
-538.0
 21
-196.5
 31
0.0
  0
LINE
  5
19D
330
12D
100
AcDbEntity
  8
0
  6
Continuous
 62
     7
370
    25
100
AcDbLine
 10
-554.0
 20
-196.5
 30
0.0
 11
-554.0
 21
164.5
 31
0.0
  0
LINE
  5
19E
330
12D
100
AcDbEntity
  8
0
  6
Continuous
 62
     7
370
    25
100
AcDbLine
 10
-44.5
 20
164.5
 30
0.0
 11
-44.5
 21
-196.5
 31
0.0
  0
LINE
  5
19F
330
12D
100
AcDbEntity
  8
0
  6
Continuous
 62
     7
370
    25
100
AcDbLine
 10
-28.5
 20
164.5
 30
0.0
 11
-554.0
 21
164.5
 31
0.0
  0
LINE
  5
1A0
330
12D
100
AcDbEntity
  8
0
  6
Continuous
 62
     7
370
    25
100
AcDbLine
 10
-28.5
 20
-196.5
 30
0.0
 11
-28.5
 21
164.5
 31
0.0
  0
LINE
  5
1A1
330
12D
100
AcDbEntity
  8
0
  6
Continuous
 62
     7
370
    25
100
AcDbLine
 10
-538.0
 20
148.5
 30
0.0
 11
-44.5
 21
148.5
 31
0.0
  0
LINE
  5
1A2
330
12D
100
AcDbEntity
  8
0
  6
Continuous
 62
     7
370
    25
100
AcDbLine
 10
9.5
 20
46.8
 30
0.0
 11
28.5
 21
46.8
 31
0.0
  0
LINE
  5
1A3
330
12D
100
AcDbEntity
  8
0
  6
Continuous
 62
     7
370
    25
100
AcDbLine
 10
9.5
 20
-183.2
 30
0.0
 11
28.5
 21
-183.2
 31
0.0
  0
LINE
  5
1A4
330
12D
100
AcDbEntity
  8
0
  6
Continuous
 62
     7
370
    25
100
AcDbLine
 10
10.88
 20
-183.2
 30
0.0
 11
10.88
 21
46.8
 31
0.0
  0
LINE
  5
1A5
330
12D
100
AcDbEntity
  8
0
  6
Continuous
 62
     7
370
    25
100
AcDbLine
 10
11.3
 20
46.8
 30
0.0
 11
11.3
 21
-183.2
 31
0.0
  0
LINE
  5
1A6
330
12D
100
AcDbEntity
  8
0
  6
Continuous
 62
     7
370
    25
100
AcDbLine
 10
573.0
 20
-183.2
 30
0.0
 11
554.0
 21
-183.2
 31
0.0
  0
LINE
  5
1A7
330
12D
100
AcDbEntity
  8
0
  6
Continuous
 62
     7
370
    25
100
AcDbLine
 10
573.0
 20
-183.2
 30
0.0
 11
573.0
 21
46.8
 31
0.0
  0
LINE
  5
1A8
330
12D
100
AcDbEntity
  8
0
  6
Continuous
 62
     7
370
    25
100
AcDbLine
 10
571.62
 20
-183.2
 30
0.0
 11
571.62
 21
46.8
 31
0.0
  0
LINE
  5
1A9
330
12D
100
AcDbEntity
  8
0
  6
Continuous
 62
     7
370
    25
100
AcDbLine
 10
573.0
 20
46.8
 30
0.0
 11
554.0
 21
46.8
 31
0.0
  0
LINE
  5
1AA
330
12D
100
AcDbEntity
  8
0
  6
Continuous
 62
     7
370
    25
100
AcDbLine
 10
571.2
 20
46.8
 30
0.0
 11
571.2
 21
-183.2
 31
0.0
  0
LINE
  5
1AB
330
12D
100
AcDbEntity
  8
0
  6
Continuous
 62
     7
370
    25
100
AcDbLine
 10
-592.45
 20
212.5
 30
0.0
 11
-592.45
 21
-230.5
 31
0.0
  0
LINE
  5
1AC
330
12D
100
AcDbEntity
  8
0
  6
Continuous
 62
     7
370
    25
100
AcDbLine
 10
-590.45
 20
-232.5
 30
0.0
 11
-573.45
 21
-215.5
 31
0.0
  0
LINE
  5
1AD
330
12D
100
AcDbEntity
  8
0
  6
Continuous
 62
     7
370
    25
100
AcDbLine
 10
592.45
 20
-230.5
 30
0.0
 11
592.45
 21
212.5
 31
0.0
  0
LINE
  5
1AE
330
12D
100
AcDbEntity
  8
0
  6
Continuous
 62
     7
370
    25
100
AcDbLine
 10
573.45
 20
-215.5
 30
0.0
 11
590.45
 21
-232.5
 31
0.0
  0
LINE
  5
1AF
330
12D
100
AcDbEntity
  8
0
  6
Continuous
 62
     7
370
    25
100
AcDbLine
 10
592.45
 20
212.5
 30
0.0
 11
-592.45
 21
212.5
 31
0.0
  0
LINE
  5
1B0
330
12D
100
AcDbEntity
  8
0
  6
Continuous
 62
     7
370
    25
100
AcDbLine
 10
588.5857864376
 20
-232.5
 30
0.0
 11
571.5857864376
 21
-215.5
 31
0.0
  0
LINE
  5
1B1
330
12D
100
AcDbEntity
  8
0
  6
Continuous
 62
     7
370
    25
100
AcDbLine
 10
588.5857864376
 20
-232.5
 30
0.0
 11
1.0
 21
-232.5
 31
0.0
  0
LINE
  5
1B2
330
12D
100
AcDbEntity
  8
0
  6
Continuous
 62
     7
370
    25
100
AcDbLine
 10
1.0
 20
-232.5
 30
0.0
 11
1.0
 21
-215.5
 31
0.0
  0
LINE
  5
1B3
330
12D
100
AcDbEntity
  8
0
  6
Continuous
 62
     7
370
    25
100
AcDbLine
 10
588.0
 20
-234.5
 30
0.0
 11
3.0
 21
-234.5
 31
0.0
  0
LINE
  5
1B4
330
12D
100
AcDbEntity
  8
0
  6
Continuous
 62
     7
370
    25
100
AcDbLine
 10
573.0
 20
-215.5
 30
0.0
 11
590.0
 21
-232.5
 31
0.0
  0
LINE
  5
1B5
330
12D
100
AcDbEntity
  8
0
  6
Continuous
 62
     7
370
    25
100
AcDbLine
 10
-1.0
 20
-215.5
 30
0.0
 11
-1.0
 21
-232.5
 31
0.0
  0
LINE
  5
1B6
330
12D
100
AcDbEntity
  8
0
  6
Continuous
 62
     7
370
    25
100
AcDbLine
 10
-3.0
 20
-232.5
 30
0.0
 11
-3.0
 21
-215.5
 31
0.0
  0
LINE
  5
1B7
330
12D
100
AcDbEntity
  8
0
  6
Continuous
 62
     7
370
    25
100
AcDbLine
 10
-590.0
 20
-232.5
 30
0.0
 11
-573.0
 21
-215.5
 31
0.0
  0
LINE
  5
1B8
330
12D
100
AcDbEntity
  8
0
  6
Continuous
 62
     7
370
    25
100
AcDbLine
 10
-571.5857864376
 20
-215.5
 30
0.0
 11
-588.5857864376
 21
-232.5
 31
0.0
  0
LINE
  5
1B9
330
12D
100
AcDbEntity
  8
0
  6
Continuous
 62
     7
370
    25
100
AcDbLine
 10
-3.0
 20
-234.5
 30
0.0
 11
-588.0
 21
-234.5
 31
0.0
  0
LINE
  5
1BA
330
12D
100
AcDbEntity
  8
0
  6
Continuous
 62
     7
370
    25
100
AcDbLine
 10
-3.0
 20
-232.5
 30
0.0
 11
-588.5857864376
 21
-232.5
 31
0.0
  0
LINE
  5
1BB
330
12D
100
AcDbEntity
  8
0
  6
Continuous
 62
     7
370
    25
100
AcDbLine
 10
-573.45
 20
46.8
 30
0.0
 11
-554.0
 21
46.8
 31
0.0
  0
LINE
  5
1BC
330
12D
100
AcDbEntity
  8
0
  6
Continuous
 62
     7
370
    25
100
AcDbLine
 10
-572.07
 20
-183.2
 30
0.0
 11
-572.07
 21
46.8
 31
0.0
  0
LINE
  5
1BD
330
12D
100
AcDbEntity
  8
0
  6
Continuous
 62
     7
370
    25
100
AcDbLine
 10
-573.45
 20
-183.2
 30
0.0
 11
-554.0
 21
-183.2
 31
0.0
  0
LINE
  5
1BE
330
12D
100
AcDbEntity
  8
0
  6
Continuous
 62
     7
370
    25
100
AcDbLine
 10
-571.65
 20
46.8
 30
0.0
 11
-571.65
 21
-183.2
 31
0.0
  0
LINE
  5
1BF
330
12D
100
AcDbEntity
  8
0
  6
Continuous
 62
     7
370
    25
100
AcDbLine
 10
-11.33
 20
-183.2
 30
0.0
 11
-11.33
 21
46.8
 31
0.0
  0
LINE
  5
1C0
330
12D
100
AcDbEntity
  8
0
  6
Continuous
 62
     7
370
    25
100
AcDbLine
 10
-9.95
 20
46.8
 30
0.0
 11
-28.5
 21
46.8
 31
0.0
  0
LINE
  5
1C1
330
12D
100
AcDbEntity
  8
0
  6
Continuous
 62
     7
370
    25
100
AcDbLine
 10
-9.95
 20
-183.2
 30
0.0
 11
-9.95
 21
46.8
 31
0.0
  0
LINE
  5
1C2
330
12D
100
AcDbEntity
  8
0
  6
Continuous
 62
     7
370
    25
100
AcDbLine
 10
-9.95
 20
-183.2
 30
0.0
 11
-28.5
 21
-183.2
 31
0.0
  0
LINE
  5
1C3
330
12D
100
AcDbEntity
  8
0
  6
Continuous
 62
     7
370
    25
100
AcDbLine
 10
-11.75
 20
46.8
 30
0.0
 11
-11.75
 21
-183.2
 31
0.0
  0
LINE
  5
1C4
330
12D
100
AcDbEntity
  8
0
  6
Continuous
 62
     7
370
    25
100
AcDbLine
 10
573.45
 20
196.5
 30
0.0
 11
9.5
 21
196.5
 31
0.0
  0
LINE
  5
1C5
330
12D
100
AcDbEntity
  8
0
  6
Continuous
 62
     7
370
    25
100
AcDbLine
 10
-9.5
 20
196.5
 30
0.0
 11
-573.45
 21
196.5
 31
0.0
  0
LINE
  5
1C6
330
12D
100
AcDbEntity
  8
0
  6
Continuous
 62
     7
370
    25
100
AcDbLine
 10
9.5
 20
-188.5
 30
0.0
 11
9.5
 21
212.5
 31
0.0
  0
LINE
  5
1C7
330
12D
100
AcDbEntity
  8
0
  6
Continuous
 62
     7
370
    25
100
AcDbLine
 10
9.5
 20
-188.5
 30
0.0
 11
-9.5
 21
-188.5
 31
0.0
  0
LINE
  5
1C8
330
12D
100
AcDbEntity
  8
0
  6
Continuous
 62
     7
370
    25
100
AcDbLine
 10
-9.5
 20
-188.5
 30
0.0
 11
-9.5
 21
212.5
 31
0.0
  0
ARC
  5
1C9
330
12D
100
AcDbEntity
  8
0
  6
Continuous
 62
     7
370
    25
100
AcDbCircle
 10
-590.45
 20
-230.5
 30
0.0
 40
2.000000000000114
100
AcDbArc
 50
180.0
 51
270.0
  0
ARC
  5
1CA
330
12D
100
AcDbEntity
  8
0
  6
Continuous
 62
     7
370
    25
100
AcDbCircle
 10
590.45
 20
-230.5
 30
0.0
 40
2.000000000000227
100
AcDbArc
 50
270.0
 51
360.0
  0
ARC
  5
1CB
330
12D
100
AcDbEntity
  8
0
  6
Continuous
 62
     7
370
    25
100
AcDbCircle
 10
588.0
 20
-232.5
 30
0.0
 40
2.0
100
AcDbArc
 50
270.0
 51
349.9689326305
  0
ARC
  5
1CC
330
12D
100
AcDbEntity
  8
0
  6
Continuous
 62
     7
370
    25
100
AcDbCircle
 10
3.0
 20
-232.5
 30
0.0
 40
1.999999999999972
100
AcDbArc
 50
180.0
 51
270.0
  0
ARC
  5
1CD
330
12D
100
AcDbEntity
  8
0
  6
Continuous
 62
     7
370
    25
100
AcDbCircle
 10
-3.0
 20
-232.5
 30
0.0
 40
2.000000000000199
100
AcDbArc
 50
270.0
 51
0.0
  0
ARC
  5
1CE
330
12D
100
AcDbEntity
  8
0
  6
Continuous
 62
     7
370
    25
100
AcDbCircle
 10
-588.0
 20
-232.5
 30
0.0
 40
2.000000000000003
100
AcDbArc
 50
190.0310673695
 51
270.0
  0
VIEWPORT
  5
285
330
12D
100
AcDbEntity
  8
0
100
AcDbViewport
 10
0.0
 20
0.0
 30
0.0
 40
205.6
 41
156.0
 68
     1
 69
     1
 12
0.0
 22
199.9999069499
 13
0.0
 23
0.0
 14
10.0
 24
10.0
 15
10.0
 25
10.0
 16
0.0
 26
0.0
 36
1.0
 17
0.0
 27
0.0
 37
0.0
 42
50.0
 43
0.0
 44
0.0
 45
917.0296108949
 50
0.0
 51
0.0
 72
   100
 90
   557152
  1

281
     0
 71
     1
 74
     0
110
0.0
120
0.0
130
0.0
111
1.0
121
0.0
131
0.0
112
0.0
122
1.0
132
0.0
 79
     0
146
0.0
  0
ENDBLK
  5
130
330
12D
100
AcDbEntity
  8
0
100
AcDbBlockEnd
  0
BLOCK
  5
1D1
330
1CF
100
AcDbEntity
  8
0
100
AcDbBlockBegin
  2
*Paper_Space2
 70
     0
 10
0.0
 20
0.0
 30
0.0
  3
*Paper_Space2
  1

  0
LWPOLYLINE
  5
20E
330
1CF
100
AcDbEntity
  8
0
  6
Continuous
 62
     7
370
    25
100
AcDbPolyline
 90
        8
 70
   128
 43
0.0
 10
252.5227250818
 20
-40.3147499178
 10
252.1753926988
 20
-40.5152749686
 10
251.7964031687
 20
-40.734085089
 10
251.400773699
 20
-40.9625100739
 10
251.0041808433
 20
-41.1914987357
 10
250.6223393291
 20
-41.4119775513
 10
250.2703793716
 20
-41.6152101948
 10
249.9622471494
 20
-41.7931437082
  0
SPLINE
  5
20F
330
1CF
100
AcDbEntity
  8
0
  6
Continuous
 62
     7
370
    25
100
AcDbSpline
210
0.0
220
0.0
230
1.0
 70
     8
 71
     3
 72
    10
 73
     6
 74
     0
 42
0.000000001
 43
0.00000001
 40
0.0
 40
0.0
 40
0.0
 40
0.0
 40
0.5
 40
0.5
 40
1.0
 40
1.0
 40
1.0
 40
1.0
 10
252.7906742741913
 20
-41.31482517484692
 30
0.0
 10
252.7906742741913
 20
-41.11679922358255
 30
0.0
 10
252.7629234185283
 20
-40.94150007645791
 30
0.0
 10
252.6711704624506
 20
-40.61274014928512
 30
0.0
 10
252.606177547164
 20
-40.45930713475282
 30
0.0
 10
252.5227250817601
 20
-40.31474991775269
 30
0.0
  0
SPLINE
  5
211
330
1CF
100
AcDbEntity
  8
0
  6
Continuous
 62
     7
370
    25
100
AcDbSpline
210
0.0
220
0.0
230
1.0
 70
     8
 71
     3
 72
    14
 73
    10
 74
     0
 42
0.000000001
 43
0.00000001
 40
0.0
 40
0.0
 40
0.0
 40
0.0
 40
0.2499999999999999
 40
0.2499999999999999
 40
0.4999999999999998
 40
0.4999999999999998
 40
0.7499999999999999
 40
0.7499999999999999
 40
1.0
 40
1.0
 40
1.0
 40
1.0
 10
251.8392577813277
 20
-335.8122175965226
 30
0.0
 10
251.9877585510612
 20
-335.7171691082756
 30
0.0
 10
252.1180402444931
 20
-335.6023003099162
 30
0.0
 10
252.3491220590347
 20
-335.3424375445607
 30
0.0
 10
252.4493128828398
 20
-335.1969344279712
 30
0.0
 10
252.6124848296178
 20
-334.8951261143374
 30
0.0
 10
252.6777414677691
 20
-334.7345574400774
 30
0.0
 10
252.7665657606388
 20
-334.4180148261463
 30
0.0
 10
252.7906742741911
 20
-334.2602276067408
 30
0.0
 10
252.7906742741912
 20
-334.114754363317
 30
0.0
  0
LWPOLYLINE
  5
214
330
1CF
100
AcDbEntity
  8
0
  6
Continuous
 62
     7
370
    25
100
AcDbPolyline
 90
        9
 70
   128
 43
0.0
 10
-163.6952198447
 20
197.0062289999
 10
-163.9439455069
 20
197.4997877942
 10
-164.1287653473
 20
198.0057535066
 10
-164.2425768431
 20
198.5046821587
 10
-164.2810062823
 20
198.9774002021
 10
-164.2425768431
 20
199.4057413476
 10
-164.1287653473
 20
199.7732446851
 10
-163.9439455069
 20
200.0657872675
 10
-163.6952198447
 20
200.2721268473
  0
SPLINE
  5
216
330
1CF
100
AcDbEntity
  8
0
  6
Continuous
 62
     7
370
    25
100
AcDbSpline
210
0.0
220
0.0
230
1.0
 70
     8
 71
     3
 72
    10
 73
     6
 74
     0
 42
0.000000001
 43
0.00000001
 40
0.0
 40
0.0
 40
0.0
 40
0.0
 40
0.5
 40
0.5
 40
1.0
 40
1.0
 40
1.0
 40
1.0
 10
252.5227250817601
 20
-40.31474991775269
 30
0.0
 10
252.4391483429918
 20
-40.17000408744414
 30
0.0
 10
252.3401745965548
 20
-40.0388572273227
 30
0.0
 10
252.1025000467314
 20
-39.79558038817441
 30
0.0
 10
251.9624519548225
 20
-39.68193951660052
 30
0.0
 10
251.7906742741913
 20
-39.58277437236141
 30
0.0
  0
LWPOLYLINE
  5
219
330
1CF
100
AcDbEntity
  8
0
  6
Continuous
 62
     7
370
    25
100
AcDbPolyline
 90
        5
 70
   128
 43
0.0
 10
-163.6952198447
 20
-95.3153816552
 10
-163.9439455069
 20
-95.4590197007
 10
-164.1287653473
 20
-95.5657637107
 10
-164.2425768431
 20
-95.6315115729
 10
-164.2810062757
 20
-95.6537366452
  0
LWPOLYLINE
  5
21A
330
1CF
100
AcDbEntity
  8
0
  6
Continuous
 62
     7
370
    25
100
AcDbPolyline
 90
        6
 70
   128
 43
0.0
 10
-166.0608498999
 20
200.5392545071
 10
-166.4641910134
 20
200.3063778023
 10
-166.8699926431
 20
200.0720726778
 10
-167.2614611558
 20
199.8460355817
 10
-167.6223960774
 20
199.6376207989
 10
-167.9378605318
 20
199.4554533354
  0
SPLINE
  5
221
330
1CF
100
AcDbEntity
  8
0
  6
Continuous
 62
     7
370
    25
100
AcDbSpline
210
0.0
220
0.0
230
1.0
 70
     8
 71
     3
 72
    10
 73
     6
 74
     0
 42
0.000000001
 43
0.00000001
 40
0.0
 40
0.0
 40
0.0
 40
0.0
 40
0.5
 40
0.5
 40
1.0
 40
1.0
 40
1.0
 40
1.0
 10
-580.5953275259385
 20
440.9434361788583
 30
0.0
 10
-580.7668137406528
 20
441.042433063405
 30
0.0
 10
-580.9610338891722
 20
441.1225135868486
 30
0.0
 10
-581.3744778361128
 20
441.2552531558414
 30
0.0
 10
-581.5947682638273
 20
441.3073839457635
 30
0.0
 10
-581.8200398295526
 20
441.3410759330154
 30
0.0
  0
SPLINE
  5
223
330
1CF
100
AcDbEntity
  8
0
  6
Continuous
 62
     7
370
    25
100
AcDbSpline
210
0.0
220
0.0
230
1.0
 70
     8
 71
     3
 72
    14
 73
    10
 74
     0
 42
0.000000001
 43
0.00000001
 40
0.0
 40
0.0
 40
0.0
 40
0.0
 40
0.25
 40
0.25
 40
0.5
 40
0.5
 40
0.75
 40
0.75
 40
1.0
 40
1.0
 40
1.0
 40
1.0
 10
-166.0608498999264
 20
200.5392545071022
 30
0.0
 10
-166.0335908113632
 20
200.6949841293983
 30
0.0
 10
-166.0193618013
 20
200.8371976058259
 30
0.0
 10
-166.019257148995
 20
201.1039499736246
 30
0.0
 10
-166.0337959682254
 20
201.2280245605741
 30
0.0
 10
-166.0982382071623
 20
201.4536250810737
 30
0.0
 10
-166.1491131377363
 20
201.558339174798
 30
0.0
 10
-166.2980392075424
 20
201.7468674646457
 30
0.0
 10
-166.3976702694241
 20
201.8322182700526
 30
0.0
 10
-166.5236469694358
 20
201.9049430709784
 30
0.0
  0
LWPOLYLINE
  5
227
330
1CF
100
AcDbEntity
  8
0
  6
Continuous
 62
     7
370
    25
100
AcDbPolyline
 90
        5
 70
   128
 43
0.0
 10
-581.5953275259
 20
145.9332153884
 10
-581.8522663796
 20
145.7848340351
 10
-582.0400465138
 20
145.6763793834
 10
-582.1508968639
 20
145.6123397043
 10
-582.181113957
 20
145.5948603984
  0
LINE
  5
233
330
1CF
100
AcDbEntity
  8
0
  6
Continuous
 62
     7
370
    25
100
AcDbLine
 10
-582.4993120151
 20
473.5493746796
 30
0.0
 11
-582.4993120151
 21
146.9330499253
 31
0.0
  0
LINE
  5
234
330
1CF
100
AcDbEntity
  8
0
  6
Continuous
 62
     7
370
    25
100
AcDbLine
 10
-164.2810062757
 20
-95.6537366452
 30
0.0
 11
251.3766232399
 21
-335.6077785992
 31
0.0
  0
LINE
  5
235
330
1CF
100
AcDbEntity
  8
0
  6
Continuous
 62
     7
370
    25
100
AcDbLine
 10
-164.2810062823
 20
198.9774002021
 30
0.0
 11
-164.2810062823
 21
-95.6537366338
 31
0.0
  0
LINE
  5
236
330
1CF
100
AcDbEntity
  8
0
  6
Continuous
 62
     7
370
    25
100
AcDbLine
 10
-582.181113957
 20
145.5948603984
 30
0.0
 11
-167.5235657021
 21
-93.7818469327
 31
0.0
  0
LINE
  5
237
330
1CF
100
AcDbEntity
  8
0
  6
Continuous
 62
     7
370
    25
100
AcDbLine
 10
-165.5237282368
 20
-93.7818469327
 30
0.0
 11
-164.2810062823
 21
-93.0644388188
 31
0.0
  0
LINE
  5
238
330
1CF
100
AcDbEntity
  8
0
  6
Continuous
 62
     7
370
    25
100
AcDbLine
 10
-582.1811139636
 20
440.2259972457
 30
0.0
 11
-582.1811139636
 21
145.5948604099
 31
0.0
  0
LINE
  5
239
330
1CF
100
AcDbEntity
  8
0
  6
Continuous
 62
     7
370
    25
100
AcDbLine
 10
253.1088723257
 20
4.563734843
 30
0.0
 11
555.7505746736
 21
179.2750707731
 31
0.0
  0
LINE
  5
23A
330
1CF
100
AcDbEntity
  8
0
  6
Continuous
 62
     7
370
    25
100
AcDbLine
 10
253.1088723257
 20
4.563734843
 30
0.0
 11
-557.8718950171
 21
472.7329665678
 31
0.0
  0
LINE
  5
23B
330
1CF
100
AcDbEntity
  8
0
  6
Continuous
 62
     7
370
    25
100
AcDbLine
 10
-255.2301926693
 20
647.4443024978
 30
0.0
 11
-557.8718950171
 21
472.7329665678
 31
0.0
  0
LINE
  5
23C
330
1CF
100
AcDbEntity
  8
0
  6
Continuous
 62
     7
370
    25
100
AcDbLine
 10
266.5439011683
 20
12.3196119054
 30
0.0
 11
-544.4368661746
 21
480.4888436301
 31
0.0
  0
LINE
  5
23D
330
1CF
100
AcDbEntity
  8
0
  6
Continuous
 62
     7
370
    25
100
AcDbLine
 10
252.7906742742
 20
-52.4104301638
 30
0.0
 11
253.1088723257
 21
-52.594121989
 31
0.0
  0
LINE
  5
23E
330
1CF
100
AcDbEntity
  8
0
  6
Continuous
 62
     7
370
    25
100
AcDbLine
 10
-557.8718950171
 20
472.7329665678
 30
0.0
 11
-557.8718950171
 21
427.8254778151
 31
0.0
  0
LINE
  5
23F
330
1CF
100
AcDbEntity
  8
0
  6
Continuous
 62
     7
370
    25
100
AcDbLine
 10
253.1088723257
 20
-175.5290454356
 30
0.0
 11
252.7906742742
 21
-175.7127372608
 31
0.0
  0
LINE
  5
240
330
1CF
100
AcDbEntity
  8
0
  6
Continuous
 62
     7
370
    25
100
AcDbLine
 10
252.7906742742
 20
-188.7752670499
 30
0.0
 11
253.1088723257
 21
-188.5915752248
 31
0.0
  0
LINE
  5
241
330
1CF
100
AcDbEntity
  8
0
  6
Continuous
 62
     7
370
    25
100
AcDbLine
 10
252.7906742742
 20
-265.5301033672
 30
0.0
 11
253.1088723257
 21
-265.346411542
 31
0.0
  0
LINE
  5
242
330
1CF
100
AcDbEntity
  8
0
  6
Continuous
 62
     7
370
    25
100
AcDbLine
 10
136.471608769
 20
96.3449153992
 30
0.0
 11
128.7318221583
 21
91.8768316947
 31
0.0
  0
LINE
  5
243
330
1CF
100
AcDbEntity
  8
0
  6
Continuous
 62
     7
370
    25
100
AcDbLine
 10
147.785317268
 20
166.5663636209
 30
0.0
 11
73.5685283676
 21
123.7219233583
 31
0.0
  0
LINE
  5
244
330
1CF
100
AcDbEntity
  8
0
  6
Continuous
 62
     7
370
    25
100
AcDbLine
 10
62.2548198687
 20
130.2531882529
 30
0.0
 11
136.471608769
 21
173.0976285155
 31
0.0
  0
LINE
  5
245
330
1CF
100
AcDbEntity
  8
0
  6
Continuous
 62
     7
370
    25
100
AcDbLine
 10
340.7606900686
 20
55.164052168
 30
0.0
 11
136.471608769
 21
173.0976285155
 31
0.0
  0
LINE
  5
246
330
1CF
100
AcDbEntity
  8
0
  6
Continuous
 62
     7
370
    25
100
AcDbLine
 10
136.471608769
 20
160.0350987263
 30
0.0
 11
329.4469815696
 21
48.6327872734
 31
0.0
  0
LINE
  5
247
330
1CF
100
AcDbEntity
  8
0
  6
Continuous
 62
     7
370
    25
100
AcDbLine
 10
136.471608769
 20
160.0350987263
 30
0.0
 11
136.471608769
 21
96.3449153992
 31
0.0
  0
LINE
  5
248
330
1CF
100
AcDbEntity
  8
0
  6
Continuous
 62
     7
370
    25
100
AcDbLine
 10
136.471608769
 20
96.3449153992
 30
0.0
 11
274.2836877789
 21
16.7876956099
 31
0.0
  0
LINE
  5
249
330
1CF
100
AcDbEntity
  8
0
  6
Continuous
 62
     7
370
    25
100
AcDbLine
 10
-275.4180912722
 20
334.1237779676
 30
0.0
 11
-283.1578778828
 21
329.6556942631
 31
0.0
  0
LINE
  5
24A
330
1CF
100
AcDbEntity
  8
0
  6
Continuous
 62
     7
370
    25
100
AcDbLine
 10
-264.1043827732
 20
404.3452261893
 30
0.0
 11
-338.3211716735
 21
361.5007859267
 31
0.0
  0
LINE
  5
24B
330
1CF
100
AcDbEntity
  8
0
  6
Continuous
 62
     7
370
    25
100
AcDbLine
 10
-349.6348801725
 20
368.0320508212
 30
0.0
 11
-275.4180912722
 21
410.8764910838
 31
0.0
  0
LINE
  5
24C
330
1CF
100
AcDbEntity
  8
0
  6
Continuous
 62
     7
370
    25
100
AcDbLine
 10
-51.6449999966
 20
281.6950351951
 30
0.0
 11
-275.4180912722
 21
410.8764910838
 31
0.0
  0
LINE
  5
24D
330
1CF
100
AcDbEntity
  8
0
  6
Continuous
 62
     7
370
    25
100
AcDbLine
 10
-275.4180912722
 20
397.8139612947
 30
0.0
 11
-275.4180912722
 21
334.1237779676
 31
0.0
  0
LINE
  5
24E
330
1CF
100
AcDbEntity
  8
0
  6
Continuous
 62
     7
370
    25
100
AcDbLine
 10
-275.4180912722
 20
397.8139612947
 30
0.0
 11
-62.9587084956
 21
275.1637703005
 31
0.0
  0
LINE
  5
24F
330
1CF
100
AcDbEntity
  8
0
  6
Continuous
 62
     7
370
    25
100
AcDbLine
 10
-275.4180912722
 20
334.1237779676
 30
0.0
 11
-118.1220022863
 21
243.318678637
 31
0.0
  0
LINE
  5
250
330
1CF
100
AcDbEntity
  8
0
  6
Continuous
 62
     7
370
    25
100
AcDbLine
 10
253.0028063085
 20
-268.3077819233
 30
0.0
 11
252.7906742742
 21
-268.1853207065
 31
0.0
  0
LINE
  5
251
330
1CF
100
AcDbEntity
  8
0
  6
Continuous
 62
     7
370
    25
100
AcDbLine
 10
253.0028063085
 20
-269.5325931411
 30
0.0
 11
253.0028063085
 21
-268.3077819233
 31
0.0
  0
LINE
  5
252
330
1CF
100
AcDbEntity
  8
0
  6
Continuous
 62
     7
370
    25
100
AcDbLine
 10
252.7906742742
 20
-269.4101319243
 30
0.0
 11
253.0028063085
 21
-269.5325931411
 31
0.0
  0
LINE
  5
253
330
1CF
100
AcDbEntity
  8
0
  6
Continuous
 62
     7
370
    25
100
AcDbLine
 10
253.0028063085
 20
-268.3077819233
 30
0.0
 11
253.1088723257
 21
-268.2465513149
 31
0.0
  0
LINE
  5
254
330
1CF
100
AcDbEntity
  8
0
  6
Continuous
 62
     7
370
    25
100
AcDbLine
 10
253.0028063085
 20
-269.5325931411
 30
0.0
 11
253.1088723257
 21
-269.4713625327
 31
0.0
  0
LINE
  5
255
330
1CF
100
AcDbEntity
  8
0
  6
Continuous
 62
     7
370
    25
100
AcDbLine
 10
-581.9135255775
 20
441.2254440133
 30
0.0
 11
-581.9135255775
 21
472.7329665678
 31
0.0
  0
LINE
  5
256
330
1CF
100
AcDbEntity
  8
0
  6
Continuous
 62
     7
370
    25
100
AcDbLine
 10
-581.9135255775
 20
472.7329665678
 30
0.0
 11
-557.8718950171
 21
472.7329665678
 31
0.0
  0
LINE
  5
257
330
1CF
100
AcDbEntity
  8
0
  6
Continuous
 62
     7
370
    25
100
AcDbLine
 10
-255.2301926693
 20
647.4443024978
 30
0.0
 11
-268.6652215118
 21
655.2001795601
 31
0.0
  0
LINE
  5
258
330
1CF
100
AcDbEntity
  8
0
  6
Continuous
 62
     7
370
    25
100
AcDbLine
 10
-268.6652215118
 20
655.2001795601
 30
0.0
 11
-581.9135255775
 21
474.3657827914
 31
0.0
  0
LINE
  5
259
330
1CF
100
AcDbEntity
  8
0
  6
Continuous
 62
     7
370
    25
100
AcDbLine
 10
-255.2301926693
 20
399.2222652876
 30
0.0
 11
-255.2301926693
 21
647.4443024978
 31
0.0
  0
LINE
  5
25A
330
1CF
100
AcDbEntity
  8
0
  6
Continuous
 62
     7
370
    25
100
AcDbLine
 10
555.7505746736
 20
179.2750707731
 30
0.0
 11
569.1856035161
 21
171.5191937108
 31
0.0
  0
LINE
  5
25B
330
1CF
100
AcDbEntity
  8
0
  6
Continuous
 62
     7
370
    25
100
AcDbLine
 10
255.9372994505
 20
-9.3152030579
 30
0.0
 11
569.1856035161
 21
171.5191937108
 31
0.0
  0
LINE
  5
25C
330
1CF
100
AcDbEntity
  8
0
  6
Continuous
 62
     7
370
    25
100
AcDbLine
 10
253.1088723257
 20
4.563734843
 30
0.0
 11
253.1088723257
 21
-335.9315278122
 31
0.0
  0
LINE
  5
25D
330
1CF
100
AcDbEntity
  8
0
  6
Continuous
 62
     7
370
    25
100
AcDbLine
 10
255.9372994505
 20
-9.3152030579
 30
0.0
 11
255.9372994505
 21
-335.9315278122
 31
0.0
  0
LINE
  5
25E
330
1CF
100
AcDbEntity
  8
0
  6
Continuous
 62
     7
370
    25
100
AcDbLine
 10
569.1856035161
 20
171.5191937108
 30
0.0
 11
569.1856035161
 21
-155.0971310435
 31
0.0
  0
LINE
  5
25F
330
1CF
100
AcDbEntity
  8
0
  6
Continuous
 62
     7
370
    25
100
AcDbLine
 10
569.1856035161
 20
-155.0971310435
 30
0.0
 11
255.9372994505
 21
-335.9315278122
 31
0.0
  0
LINE
  5
260
330
1CF
100
AcDbEntity
  8
0
  6
Continuous
 62
     7
370
    25
100
AcDbLine
 10
249.9622471494
 20
-334.1147543633
 30
0.0
 11
249.9622471494
 21
-41.7931437082
 31
0.0
  0
LINE
  5
261
330
1CF
100
AcDbEntity
  8
0
  6
Continuous
 62
     7
370
    25
100
AcDbLine
 10
252.7906742742
 20
-334.1147543633
 30
0.0
 11
252.7906742742
 21
-41.3148251748
 31
0.0
  0
LINE
  5
262
330
1CF
100
AcDbEntity
  8
0
  6
Continuous
 62
     7
370
    25
100
AcDbLine
 10
249.9622471494
 20
-41.7931437082
 30
0.0
 11
-163.6952198447
 21
197.0062289999
 31
0.0
  0
LINE
  5
263
330
1CF
100
AcDbEntity
  8
0
  6
Continuous
 62
     7
370
    25
100
AcDbLine
 10
251.7906742742
 20
-39.5827743724
 30
0.0
 11
-163.6952198447
 21
200.2721268473
 31
0.0
  0
LINE
  5
264
330
1CF
100
AcDbEntity
  8
0
  6
Continuous
 62
     7
370
    25
100
AcDbLine
 10
-163.6952198447
 20
-95.3153816552
 30
0.0
 11
249.9622471494
 21
-334.1147543633
 31
0.0
  0
LINE
  5
265
330
1CF
100
AcDbEntity
  8
0
  6
Continuous
 62
     7
370
    25
100
AcDbLine
 10
-163.6952198447
 20
197.0062289999
 30
0.0
 11
-163.6952198447
 21
-95.3153816552
 31
0.0
  0
LINE
  5
266
330
1CF
100
AcDbEntity
  8
0
  6
Continuous
 62
     7
370
    25
100
AcDbLine
 10
-165.1094334071
 20
198.7790087784
 30
0.0
 11
-165.1094334071
 21
-92.8661573197
 31
0.0
  0
LINE
  5
267
330
1CF
100
AcDbEntity
  8
0
  6
Continuous
 62
     7
370
    25
100
AcDbLine
 10
-167.9378605318
 20
-92.8661573197
 30
0.0
 11
-167.9378605318
 21
199.4554533354
 31
0.0
  0
LINE
  5
268
330
1CF
100
AcDbEntity
  8
0
  6
Continuous
 62
     7
370
    25
100
AcDbLine
 10
-167.9378605318
 20
199.4554533354
 30
0.0
 11
-581.5953275259
 21
438.2548260435
 31
0.0
  0
LINE
  5
269
330
1CF
100
AcDbEntity
  8
0
  6
Continuous
 62
     7
370
    25
100
AcDbLine
 10
-166.5236469694
 20
201.904943071
 30
0.0
 11
-580.5953275259
 21
440.9434361789
 31
0.0
  0
LINE
  5
26A
330
1CF
100
AcDbEntity
  8
0
  6
Continuous
 62
     7
370
    25
100
AcDbLine
 10
-166.5236469694
 20
201.904943071
 30
0.0
 11
-163.695679357
 21
200.2718614041
 31
0.0
  0
LINE
  5
26B
330
1CF
100
AcDbEntity
  8
0
  6
Continuous
 62
     7
370
    25
100
AcDbLine
 10
-581.5953275259
 20
145.9332153884
 30
0.0
 11
-167.9378605318
 21
-92.8661573197
 31
0.0
  0
LINE
  5
26C
330
1CF
100
AcDbEntity
  8
0
  6
Continuous
 62
     7
370
    25
100
AcDbLine
 10
-581.5953275259
 20
438.2548260435
 30
0.0
 11
-581.5953275259
 21
145.9332153884
 31
0.0
  0
LINE
  5
26D
330
1CF
100
AcDbEntity
  8
0
  6
Continuous
 62
     7
370
    25
100
AcDbLine
 10
-112.4267600544
 20
231.0947178702
 30
0.0
 11
156.9777054234
 21
386.6186053715
 31
0.0
  0
LINE
  5
26E
330
1CF
100
AcDbEntity
  8
0
  6
Continuous
 62
     7
370
    25
100
AcDbLine
 10
156.9777054234
 20
386.6186053715
 30
0.0
 11
156.9777054234
 21
161.2597108941
 31
0.0
  0
LINE
  5
26F
330
1CF
100
AcDbEntity
  8
0
  6
Continuous
 62
     7
370
    25
100
AcDbLine
 10
-125.861788897
 20
238.8505949325
 30
0.0
 11
143.5426765809
 21
394.3744824338
 31
0.0
  0
LINE
  5
270
330
1CF
100
AcDbEntity
  8
0
  6
Continuous
 62
     7
370
    25
100
AcDbLine
 10
156.9777054234
 20
386.6186053715
 30
0.0
 11
143.5426765809
 21
394.3744824338
 31
0.0
  0
LINE
  5
271
330
1CF
100
AcDbEntity
  8
0
  6
Continuous
 62
     7
370
    25
100
AcDbLine
 10
252.7906742742
 20
-303.9053983248
 30
0.0
 11
253.1088723257
 21
-304.08909015
 31
0.0
  0
LINE
  5
272
330
1CF
100
AcDbEntity
  8
0
  6
Continuous
 62
     7
370
    25
100
AcDbLine
 10
252.7906742742
 20
-319.4196737506
 30
0.0
 11
253.1088723257
 21
-319.6033655758
 31
0.0
  0
LINE
  5
273
330
1CF
100
AcDbEntity
  8
0
  6
Continuous
 62
     8
370
    25
100
AcDbLine
 10
253.1088723257
 20
-267.5934248254
 30
0.0
 11
252.7906742742
 21
-267.7771166506
 31
0.0
  0
LINE
  5
274
330
1CF
100
AcDbEntity
  8
0
  6
Continuous
 62
     8
370
    25
100
AcDbLine
 10
-164.2810062823
 20
198.3006125111
 30
0.0
 11
-165.1094334071
 21
198.7790087784
 31
0.0
  0
LINE
  5
275
330
1CF
100
AcDbEntity
  8
0
  6
Continuous
 62
     8
370
    25
100
AcDbLine
 10
-165.1094334071
 20
-92.8661573197
 30
0.0
 11
-164.2810062823
 21
-92.3879165202
 31
0.0
  0
ARC
  5
276
330
1CF
100
AcDbEntity
  8
0
  6
Continuous
 62
     7
370
    25
100
AcDbCircle
 10
-166.5236469694
 20
-92.0497492079
 30
0.0
 40
1.999999999999919
100
AcDbArc
 50
240.0026882663
 51
299.9973117337
  0
ARC
  5
277
330
1CF
100
AcDbEntity
  8
0
  6
Continuous
 62
     7
370
    25
100
AcDbCircle
 10
-581.6036715239
 20
473.5493746796
 30
0.0
 40
0.8732306336684768
100
AcDbArc
 50
110.7834207995
 51
249.2165792005
  0
ARC
  5
278
330
1CF
100
AcDbEntity
  8
0
  6
Continuous
 62
     7
370
    25
100
AcDbCircle
 10
-581.6453389107
 20
146.9744888659
 30
0.0
 40
0.8549779230059925
100
AcDbArc
 50
182.7780915785
 51
231.1963344027
  0
ARC
  5
279
330
1CF
100
AcDbEntity
  8
0
  6
Continuous
 62
     7
370
    25
100
AcDbCircle
 10
254.5230858881
 20
-6.585780888
 30
0.0
 40
3.074043815823547
100
AcDbArc
 50
242.6096722366
 51
297.3903277634
  0
ARC
  5
27A
330
1CF
100
AcDbEntity
  8
0
  6
Continuous
 62
     7
370
    25
100
AcDbCircle
 10
254.5230858881
 20
-333.2021056423
 30
0.0
 40
3.074043815822924
100
AcDbArc
 50
242.6096722366
 51
297.3903277634
  0
ARC
  5
27B
330
1CF
100
AcDbEntity
  8
0
  6
Continuous
 62
     7
370
    25
100
AcDbCircle
 10
253.1937655811
 20
-332.4279317994
 30
0.0
 40
3.645282120316208
100
AcDbArc
 50
207.5641401249
 51
248.1870107686
  0
ARC
  5
27C
330
1CF
100
AcDbEntity
  8
0
  6
Continuous
 62
     7
370
    25
100
AcDbCircle
 10
-178.6233751815
 20
192.611939189
 30
0.0
 40
14.85460768926852
100
AcDbArc
 50
24.5295228436
 51
32.2531060075
  0
ARC
  5
27D
330
1CF
100
AcDbEntity
  8
0
  6
Continuous
 62
     7
370
    25
100
AcDbCircle
 10
-166.5236469694
 20
-90.1367351498
 30
0.0
 40
3.074043815823657
100
AcDbArc
 50
242.6096722366
 51
297.3903277634
  0
ARC
  5
27E
330
1CF
100
AcDbEntity
  8
0
  6
Continuous
 62
     7
370
    25
100
AcDbCircle
 10
-579.4841105581
 20
439.9598511117
 30
0.0
 40
2.713733142393802
100
AcDbArc
 50
149.4043596989
 51
218.9244452587
  0
ARC
  5
27F
330
1CF
100
AcDbEntity
  8
0
  6
Continuous
 62
     8
370
    25
100
AcDbCircle
 10
-166.9578567271
 20
-92.9743307944
 30
0.0
 40
0.9859558599623318
100
AcDbArc
 50
173.7011524801
 51
234.9866671265
  0
ARC
  5
280
330
1CF
100
AcDbEntity
  8
0
  6
Continuous
 62
     8
370
    25
100
AcDbCircle
 10
-166.0894372119
 20
-92.9743307944
 30
0.0
 40
0.9859558600907387
100
AcDbArc
 50
305.0133328779
 51
6.2988475154
  0
VIEWPORT
  5
287
330
1CF
100
AcDbEntity
  8
0
100
AcDbViewport
 10
0.0
 20
0.0
 30
0.0
 40
205.6
 41
156.0
 68
     1
 69
     1
 12
0.0
 22
199.9999069499
 13
0.0
 23
0.0
 14
10.0
 24
10.0
 15
10.0
 25
10.0
 16
0.0
 26
0.0
 36
1.0
 17
0.0
 27
0.0
 37
0.0
 42
50.0
 43
0.0
 44
0.0
 45
917.0296108949
 50
0.0
 51
0.0
 72
   100
 90
   557152
  1

281
     0
 71
     1
 74
     0
110
0.0
120
0.0
130
0.0
111
1.0
121
0.0
131
0.0
112
0.0
122
1.0
132
0.0
 79
     0
146
0.0
  0
ENDBLK
  5
1D2
330
1CF
100
AcDbEntity
  8
0
100
AcDbBlockEnd
  0
ENDSEC
  0
SECTION
  2
ENTITIES
  0
SPLINE
  5
87
330
1F
100
AcDbEntity
  8
0
  6
Continuous
 62
     7
370
    25
100
AcDbSpline
210
0.0
220
0.0
230
1.0
 70
     8
 71
     3
 72
    10
 73
     6
 74
     0
 42
0.000000001
 43
0.00000001
 40
0.0
 40
0.0
 40
0.0
 40
0.0
 40
0.5
 40
0.5
 40
1.0
 40
1.0
 40
1.0
 40
1.0
 10
590.0000000000001
 20
360.585786437627
 30
0.0
 10
590.0000000000001
 20
360.8283045682358
 30
0.0
 10
590.0005592458917
 20
361.0631684540205
 30
0.0
 10
589.9942817081486
 20
361.5243857539352
 30
0.0
 10
589.9871652635688
 20
361.7511260467934
 30
0.0
 10
589.96942690272
 20
361.96942690272
 30
0.0
  0
SPLINE
  5
89
330
1F
100
AcDbEntity
  8
0
  6
Continuous
 62
     7
370
    25
100
AcDbSpline
210
0.0
220
0.0
230
1.0
 70
     8
 71
     3
 72
    14
 73
    10
 74
     0
 42
0.000000001
 43
0.00000001
 40
0.0
 40
0.0
 40
0.0
 40
0.0
 40
0.2499999999999999
 40
0.2499999999999999
 40
0.4999999999999998
 40
0.4999999999999998
 40
0.7499999999999999
 40
0.7499999999999999
 40
1.0
 40
1.0
 40
1.0
 40
1.0
 10
589.7030773994632
 20
0.296922600537014
 30
0.0
 10
589.7831072141694
 20
0.3883544156668972
 30
0.0
 10
589.8408889220321
 20
0.4946959865739231
 30
0.0
 10
589.9267837263982
 20
0.7354522176411249
 30
0.0
 10
589.9542318427223
 20
0.8702563185041534
 30
0.0
 10
589.9880536640367
 20
1.158329565616373
 30
0.0
 10
589.994917093816
 20
1.315700975348111
 30
0.0
 10
590.000600004218
 20
1.64624785230133
 30
0.0
 10
590.0000000000001
 20
1.821842042300598
 30
0.0
 10
590.0000000000001
 20
2.000000000000057
 30
0.0
  0
SPLINE
  5
8E
330
1F
100
AcDbEntity
  8
0
  6
Continuous
 62
     7
370
    25
100
AcDbSpline
210
0.0
220
0.0
230
1.0
 70
     8
 71
     3
 72
    10
 73
     6
 74
     0
 42
0.000000001
 43
0.00000001
 40
0.0
 40
0.0
 40
0.0
 40
0.0
 40
0.5
 40
0.5
 40
1.0
 40
1.0
 40
1.0
 40
1.0
 10
589.96942690272
 20
361.96942690272
 30
0.0
 10
589.7508009637453
 20
361.9871916786757
 30
0.0
 10
589.5271873665341
 20
361.9942007993445
 30
0.0
 10
589.0674845839552
 20
362.0005426201531
 30
0.0
 10
588.8287167632886
 20
361.9999999999999
 30
0.0
 10
588.5857864376269
 20
362.0
 30
0.0
  0
SPLINE
  5
9C
330
1F
100
AcDbEntity
  8
0
  6
Continuous
 62
     7
370
    25
100
AcDbSpline
210
0.0
220
0.0
230
1.0
 70
     8
 71
     3
 72
    10
 73
     6
 74
     0
 42
0.000000001
 43
0.00000001
 40
0.0
 40
0.0
 40
0.0
 40
0.0
 40
0.5
 40
0.5
 40
1.0
 40
1.0
 40
1.0
 40
1.0
 10
-588.5857864376268
 20
361.9999999999936
 30
0.0
 10
-588.8283045682358
 20
361.9999999999936
 30
0.0
 10
-589.0631684540206
 20
362.0005592458853
 30
0.0
 10
-589.5243857539351
 20
361.994281708142
 30
0.0
 10
-589.7511260467932
 20
361.9871652635626
 30
0.0
 10
-589.9694269027199
 20
361.9694269027136
 30
0.0
  0
SPLINE
  5
9E
330
1F
100
AcDbEntity
  8
0
  6
Continuous
 62
     7
370
    25
100
AcDbSpline
210
0.0
220
0.0
230
1.0
 70
     8
 71
     3
 72
    14
 73
    10
 74
     0
 42
0.000000001
 43
0.00000001
 40
0.0
 40
0.0
 40
0.0
 40
0.0
 40
0.25
 40
0.25
 40
0.5
 40
0.5
 40
0.75
 40
0.75
 40
1.0
 40
1.0
 40
1.0
 40
1.0
 10
-1.296922600536932
 20
361.7030773994566
 30
0.0
 10
-1.38835441566682
 20
361.7831072141627
 30
0.0
 10
-1.494695986573815
 20
361.8408889220257
 30
0.0
 10
-1.73545221764101
 20
361.9267837263918
 30
0.0
 10
-1.870256318504051
 20
361.9542318427157
 30
0.0
 10
-2.158329565616291
 20
361.9880536640301
 30
0.0
 10
-2.315700975348005
 20
361.9949170938091
 30
0.0
 10
-2.646247852301225
 20
362.0006000042113
 30
0.0
 10
-2.821842042300469
 20
361.9999999999936
 30
0.0
 10
-2.999999999999947
 20
361.9999999999936
 30
0.0
  0
SPLINE
  5
A0
330
1F
100
AcDbEntity
  8
0
  6
Continuous
 62
     7
370
    25
100
AcDbSpline
210
0.0
220
0.0
230
1.0
 70
     8
 71
     3
 72
    10
 73
     6
 74
     0
 42
0.000000001
 43
0.00000001
 40
0.0
 40
0.0
 40
0.0
 40
0.0
 40
0.5
 40
0.5
 40
1.0
 40
1.0
 40
1.0
 40
1.0
 10
-589.9694269027199
 20
361.9694269027136
 30
0.0
 10
-589.9871916786756
 20
361.7508009637391
 30
0.0
 10
-589.9942007993443
 20
361.5271873665276
 30
0.0
 10
-590.000542620153
 20
361.0674845839486
 30
0.0
 10
-589.9999999999999
 20
360.8287167632822
 30
0.0
 10
-589.9999999999999
 20
360.5857864376205
 30
0.0
  0
SPLINE
  5
A2
330
1F
100
AcDbEntity
  8
0
  6
Continuous
 62
     7
370
    25
100
AcDbSpline
210
0.0
220
0.0
230
1.0
 70
     8
 71
     3
 72
    14
 73
    10
 74
     0
 42
0.000000001
 43
0.00000001
 40
0.0
 40
0.0
 40
0.0
 40
0.0
 40
0.25
 40
0.25
 40
0.5
 40
0.5
 40
0.75
 40
0.75
 40
1.0
 40
1.0
 40
1.0
 40
1.0
 10
-589.9999999999999
 20
1.99999999999359
 30
0.0
 10
-589.9999999999998
 20
1.821767880187175
 30
0.0
 10
-590.0006178032829
 20
1.650283166923783
 30
0.0
 10
-589.9950062258608
 20
1.317941549166035
 30
0.0
 10
-589.9883380460125
 20
1.161879885829387
 30
0.0
 10
-589.9545280814422
 20
0.8716705173072437
 30
0.0
 10
-589.9273143351008
 20
0.7376650399789075
 30
0.0
 10
-589.8419822958556
 20
0.4970487081692732
 30
0.0
 10
-589.7830024850152
 20
0.3882347655441432
 30
0.0
 10
-589.7030773994629
 20
0.2969226005305747
 30
0.0
  0
LINE
  5
AB
330
1F
100
AcDbEntity
  8
0
  6
Continuous
 62
     7
370
    25
100
AcDbLine
 10
-1.0
 20
330.0
 30
0.0
 11
1.0
 21
330.0
 31
0.0
  0
LINE
  5
AC
330
1F
100
AcDbEntity
  8
0
  6
Continuous
 62
     7
370
    25
100
AcDbLine
 10
-573.45
 20
400.0
 30
0.0
 11
-573.45
 21
362.0
 31
0.0
  0
LINE
  5
AD
330
1F
100
AcDbEntity
  8
0
  6
Continuous
 62
     7
370
    25
100
AcDbLine
 10
592.45
 20
400.0
 30
0.0
 11
-592.45
 21
400.0
 31
0.0
  0
LINE
  5
AE
330
1F
100
AcDbEntity
  8
0
  6
Continuous
 62
     7
370
    25
100
AcDbLine
 10
573.45
 20
362.0
 30
0.0
 11
573.45
 21
400.0
 31
0.0
  0
LINE
  5
AF
330
1F
100
AcDbEntity
  8
0
  6
Continuous
 62
     7
370
    25
100
AcDbLine
 10
-590.45
 20
0.0
 30
0.0
 11
-590.45
 21
400.0
 31
0.0
  0
LINE
  5
B0
330
1F
100
AcDbEntity
  8
0
  6
Continuous
 62
     7
370
    25
100
AcDbLine
 10
-592.45
 20
0.0
 30
0.0
 11
-592.45
 21
400.0
 31
0.0
  0
LINE
  5
B1
330
1F
100
AcDbEntity
  8
0
  6
Continuous
 62
     7
370
    25
100
AcDbLine
 10
590.45
 20
400.0
 30
0.0
 11
590.45
 21
0.0
 31
0.0
  0
LINE
  5
B2
330
1F
100
AcDbEntity
  8
0
  6
Continuous
 62
     7
370
    25
100
AcDbLine
 10
592.45
 20
0.0
 30
0.0
 11
-592.45
 21
0.0
 31
0.0
  0
LINE
  5
B3
330
1F
100
AcDbEntity
  8
0
  6
Continuous
 62
     7
370
    25
100
AcDbLine
 10
592.45
 20
400.0
 30
0.0
 11
592.45
 21
0.0
 31
0.0
  0
LINE
  5
B4
330
1F
100
AcDbEntity
  8
0
  6
Continuous
 62
     7
370
    25
100
AcDbLine
 10
588.0
 20
2.0
 30
0.0
 11
588.0
 21
360.0
 31
0.0
  0
LINE
  5
B5
330
1F
100
AcDbEntity
  8
0
  6
Continuous
 62
     7
370
    25
100
AcDbLine
 10
589.9694269027
 20
361.9694269027
 30
0.0
 11
588.0
 21
360.0
 31
0.0
  0
LINE
  5
B6
330
1F
100
AcDbEntity
  8
0
  6
Continuous
 62
     7
370
    25
100
AcDbLine
 10
590.0
 20
2.0
 30
0.0
 11
590.0
 21
360.5857864376
 31
0.0
  0
LINE
  5
B7
330
1F
100
AcDbEntity
  8
0
  6
Continuous
 62
     7
370
    25
100
AcDbLine
 10
589.7030773995
 20
0.2969226005
 30
0.0
 11
588.0
 21
2.0
 31
0.0
  0
LINE
  5
B8
330
1F
100
AcDbEntity
  8
0
  6
Continuous
 62
     7
370
    25
100
AcDbLine
 10
588.0
 20
360.0
 30
0.0
 11
3.0
 21
360.0
 31
0.0
  0
LINE
  5
B9
330
1F
100
AcDbEntity
  8
0
  6
Continuous
 62
     7
370
    25
100
AcDbLine
 10
3.0
 20
360.0
 30
0.0
 11
1.0
 21
362.0
 31
0.0
  0
LINE
  5
BA
330
1F
100
AcDbEntity
  8
0
  6
Continuous
 62
     7
370
    25
100
AcDbLine
 10
588.5857864376
 20
362.0
 30
0.0
 11
1.0
 21
362.0
 31
0.0
  0
LINE
  5
BB
330
1F
100
AcDbEntity
  8
0
  6
Continuous
 62
     7
370
    25
100
AcDbLine
 10
3.0
 20
360.0
 30
0.0
 11
3.0
 21
2.0
 31
0.0
  0
LINE
  5
BC
330
1F
100
AcDbEntity
  8
0
  6
Continuous
 62
     7
370
    25
100
AcDbLine
 10
3.0
 20
2.0
 30
0.0
 11
1.0
 21
0.0
 31
0.0
  0
LINE
  5
BD
330
1F
100
AcDbEntity
  8
0
  6
Continuous
 62
     7
370
    25
100
AcDbLine
 10
1.0
 20
0.0
 30
0.0
 11
1.0
 21
362.0
 31
0.0
  0
LINE
  5
BE
330
1F
100
AcDbEntity
  8
0
  6
Continuous
 62
     7
370
    25
100
AcDbLine
 10
3.0
 20
2.0
 30
0.0
 11
588.0
 21
2.0
 31
0.0
  0
LINE
  5
BF
330
1F
100
AcDbEntity
  8
0
  6
Continuous
 62
     7
370
    25
100
AcDbLine
 10
-588.0
 20
2.0
 30
0.0
 11
-589.7030773995
 21
0.2969226005
 31
0.0
  0
LINE
  5
C0
330
1F
100
AcDbEntity
  8
0
  6
Continuous
 62
     7
370
    25
100
AcDbLine
 10
-588.0
 20
2.0
 30
0.0
 11
-1.0
 21
2.0
 31
0.0
  0
LINE
  5
C1
330
1F
100
AcDbEntity
  8
0
  6
Continuous
 62
     7
370
    25
100
AcDbLine
 10
-3.0
 20
0.0
 30
0.0
 11
-3.0
 21
360.0
 31
0.0
  0
LINE
  5
C2
330
1F
100
AcDbEntity
  8
0
  6
Continuous
 62
     7
370
    25
100
AcDbLine
 10
-3.0
 20
360.0
 30
0.0
 11
-588.0
 21
360.0
 31
0.0
  0
LINE
  5
C3
330
1F
100
AcDbEntity
  8
0
  6
Continuous
 62
     7
370
    25
100
AcDbLine
 10
-588.0
 20
360.0
 30
0.0
 11
-589.9694269027
 21
361.9694269027
 31
0.0
  0
LINE
  5
C4
330
1F
100
AcDbEntity
  8
0
  6
Continuous
 62
     7
370
    25
100
AcDbLine
 10
-3.0
 20
362.0
 30
0.0
 11
-588.5857864376
 21
362.0
 31
0.0
  0
LINE
  5
C5
330
1F
100
AcDbEntity
  8
0
  6
Continuous
 62
     7
370
    25
100
AcDbLine
 10
-1.2969226005
 20
361.7030773995
 30
0.0
 11
-3.0
 21
360.0
 31
0.0
  0
LINE
  5
C6
330
1F
100
AcDbEntity
  8
0
  6
Continuous
 62
     7
370
    25
100
AcDbLine
 10
-588.0
 20
360.0
 30
0.0
 11
-588.0
 21
2.0
 31
0.0
  0
LINE
  5
C7
330
1F
100
AcDbEntity
  8
0
  6
Continuous
 62
     7
370
    25
100
AcDbLine
 10
-590.0
 20
360.5857864376
 30
0.0
 11
-590.0
 21
2.0
 31
0.0
  0
LINE
  5
C8
330
1F
100
AcDbEntity
  8
0
  6
Continuous
 62
     7
370
    25
100
AcDbLine
 10
-1.0
 20
359.1715728752
 30
0.0
 11
-1.0
 21
2.0
 31
0.0
  0
LINE
  5
C9
330
1F
100
AcDbEntity
  8
0
  6
Continuous
 62
     7
370
    25
100
AcDbLine
 10
-1.0
 20
19.0
 30
0.0
 11
1.0
 21
19.0
 31
0.0
  0
ARC
  5
CA
330
1F
100
AcDbEntity
  8
0
  6
Continuous
 62
     7
370
    25
100
AcDbCircle
 10
587.2338175115
 20
10.4093339801
 30
0.0
 40
10.40952008043573
100
AcDbArc
 50
269.657392831
 51
283.7220304885
  0
ARC
  5
CB
330
1F
100
AcDbEntity
  8
0
  6
Continuous
 62
     7
370
    25
100
AcDbCircle
 10
-587.2338175115
 20
10.4093339801
 30
0.0
 40
10.40952008043614
100
AcDbArc
 50
256.2779695115
 51
270.342607169
  0
ARC
  5
CC
330
1F
100
AcDbEntity
  8
0
  6
Continuous
 62
     7
370
    25
100
AcDbCircle
 10
-11.4093339801
 20
359.2338175115
 30
0.0
 40
10.40952008043439
100
AcDbArc
 50
359.657392831
 51
13.7220304885
  0
ARC
  5
CD
330
1F
100
AcDbEntity
  8
0
  6
Continuous
 62
     7
370
    25
100
AcDbCircle
 10
-3.0
 20
2.0
 30
0.0
 40
1.999999999999989
100
AcDbArc
 50
270.0
 51
0.0
  0
LINE
  5
FD
330
1B
100
AcDbEntity
 67
     1
  8
0
  6
Continuous
 62
     7
370
    25
100
AcDbLine
 10
573.45
 20
330.0
 30
0.0
 11
9.5
 21
330.0
 31
0.0
  0
LINE
  5
FE
330
1B
100
AcDbEntity
 67
     1
  8
0
  6
Continuous
 62
     7
370
    25
100
AcDbLine
 10
-9.5
 20
330.0
 30
0.0
 11
-573.45
 21
330.0
 31
0.0
  0
LINE
  5
FF
330
1B
100
AcDbEntity
 67
     1
  8
0
  6
Continuous
 62
     7
370
    25
100
AcDbLine
 10
-592.45
 20
400.0
 30
0.0
 11
592.45
 21
400.0
 31
0.0
  0
LINE
  5
100
330
1B
100
AcDbEntity
 67
     1
  8
0
  6
Continuous
 62
     7
370
    25
100
AcDbLine
 10
-554.0
 20
144.0
 30
0.0
 11
-554.0
 21
89.0
 31
0.0
  0
LINE
  5
101
330
1B
100
AcDbEntity
 67
     1
  8
0
  6
Continuous
 62
     7
370
    25
100
AcDbLine
 10
-538.0
 20
144.0
 30
0.0
 11
-538.0
 21
89.0
 31
0.0
  0
LINE
  5
102
330
1B
100
AcDbEntity
 67
     1
  8
0
  6
Continuous
 62
     7
370
    25
100
AcDbLine
 10
-44.5
 20
144.0
 30
0.0
 11
-44.5
 21
89.0
 31
0.0
  0
LINE
  5
103
330
1B
100
AcDbEntity
 67
     1
  8
0
  6
Continuous
 62
     7
370
    25
100
AcDbLine
 10
-28.5
 20
144.0
 30
0.0
 11
-28.5
 21
89.0
 31
0.0
  0
LINE
  5
104
330
1B
100
AcDbEntity
 67
     1
  8
0
  6
Continuous
 62
     7
370
    25
100
AcDbLine
 10
-554.0
 20
144.0
 30
0.0
 11
-28.5
 21
144.0
 31
0.0
  0
LINE
  5
105
330
1B
100
AcDbEntity
 67
     1
  8
0
  6
Continuous
 62
     7
370
    25
100
AcDbLine
 10
28.5
 20
144.0
 30
0.0
 11
28.5
 21
89.0
 31
0.0
  0
LINE
  5
106
330
1B
100
AcDbEntity
 67
     1
  8
0
  6
Continuous
 62
     7
370
    25
100
AcDbLine
 10
44.5
 20
144.0
 30
0.0
 11
44.5
 21
89.0
 31
0.0
  0
LINE
  5
107
330
1B
100
AcDbEntity
 67
     1
  8
0
  6
Continuous
 62
     7
370
    25
100
AcDbLine
 10
538.0
 20
144.0
 30
0.0
 11
538.0
 21
89.0
 31
0.0
  0
LINE
  5
108
330
1B
100
AcDbEntity
 67
     1
  8
0
  6
Continuous
 62
     7
370
    25
100
AcDbLine
 10
28.5
 20
144.0
 30
0.0
 11
554.0
 21
144.0
 31
0.0
  0
LINE
  5
109
330
1B
100
AcDbEntity
 67
     1
  8
0
  6
Continuous
 62
     7
370
    25
100
AcDbLine
 10
554.0
 20
144.0
 30
0.0
 11
554.0
 21
89.0
 31
0.0
  0
LINE
  5
10A
330
1B
100
AcDbEntity
 67
     1
  8
0
  6
Continuous
 62
     7
370
    25
100
AcDbLine
 10
573.45
 20
0.0
 30
0.0
 11
573.45
 21
400.0
 31
0.0
  0
LINE
  5
10B
330
1B
100
AcDbEntity
 67
     1
  8
0
  6
Continuous
 62
     7
370
    25
100
AcDbLine
 10
592.45
 20
0.0
 30
0.0
 11
592.45
 21
400.0
 31
0.0
  0
LINE
  5
10C
330
1B
100
AcDbEntity
 67
     1
  8
0
  6
Continuous
 62
     7
370
    25
100
AcDbLine
 10
-592.45
 20
0.0
 30
0.0
 11
592.45
 21
0.0
 31
0.0
  0
LINE
  5
10D
330
1B
100
AcDbEntity
 67
     1
  8
0
  6
Continuous
 62
     7
370
    25
100
AcDbLine
 10
-592.45
 20
400.0
 30
0.0
 11
-592.45
 21
0.0
 31
0.0
  0
LINE
  5
10E
330
1B
100
AcDbEntity
 67
     1
  8
0
  6
Continuous
 62
     7
370
    25
100
AcDbLine
 10
-573.45
 20
400.0
 30
0.0
 11
-573.45
 21
0.0
 31
0.0
  0
LINE
  5
10F
330
1B
100
AcDbEntity
 67
     1
  8
0
  6
Continuous
 62
     7
370
    25
100
AcDbLine
 10
-573.0
 20
330.0
 30
0.0
 11
-573.0
 21
89.0
 31
0.0
  0
LINE
  5
110
330
1B
100
AcDbEntity
 67
     1
  8
0
  6
Continuous
 62
     7
370
    25
100
AcDbLine
 10
573.0
 20
89.0
 30
0.0
 11
573.0
 21
330.0
 31
0.0
  0
LINE
  5
111
330
1B
100
AcDbEntity
 67
     1
  8
0
  6
Continuous
 62
     7
370
    25
100
AcDbLine
 10
-573.45
 20
89.0
 30
0.0
 11
-9.5
 21
89.0
 31
0.0
  0
LINE
  5
112
330
1B
100
AcDbEntity
 67
     1
  8
0
  6
Continuous
 62
     7
370
    25
100
AcDbLine
 10
-9.5
 20
372.0
 30
0.0
 11
-9.5
 21
19.0
 31
0.0
  0
LINE
  5
113
330
1B
100
AcDbEntity
 67
     1
  8
0
  6
Continuous
 62
     7
370
    25
100
AcDbLine
 10
9.5
 20
89.0
 30
0.0
 11
573.45
 21
89.0
 31
0.0
  0
LINE
  5
114
330
1B
100
AcDbEntity
 67
     1
  8
0
  6
Continuous
 62
     7
370
    25
100
AcDbLine
 10
-573.45
 20
19.0
 30
0.0
 11
573.45
 21
19.0
 31
0.0
  0
LINE
  5
115
330
1B
100
AcDbEntity
 67
     1
  8
0
  6
Continuous
 62
     7
370
    25
100
AcDbLine
 10
9.5
 20
372.0
 30
0.0
 11
9.5
 21
19.0
 31
0.0
  0
LINE
  5
116
330
1B
100
AcDbEntity
 67
     1
  8
0
  6
Continuous
 62
     7
370
    25
100
AcDbLine
 10
-9.5
 20
372.0
 30
0.0
 11
9.5
 21
372.0
 31
0.0
  0
VIEWPORT
  5
281
330
1B
100
AcDbEntity
 67
     1
  8
0
100
AcDbViewport
 10
0.0
 20
0.0
 30
0.0
 40
205.6
 41
156.0
 68
     1
 69
     1
 12
0.0
 22
199.9999069499
 13
0.0
 23
0.0
 14
10.0
 24
10.0
 15
10.0
 25
10.0
 16
0.0
 26
0.0
 36
1.0
 17
0.0
 27
0.0
 37
0.0
 42
50.0
 43
0.0
 44
0.0
 45
917.0296108949
 50
0.0
 51
0.0
 72
   100
 90
   557152
  1

281
     0
 71
     1
 74
     0
110
0.0
120
0.0
130
0.0
111
1.0
121
0.0
131
0.0
112
0.0
122
1.0
132
0.0
 79
     0
146
0.0
  0
ENDSEC
  0
SECTION
  2
OBJECTS
  0
DICTIONARY
  5
C
330
0
100
AcDbDictionary
281
     1
  3
ACAD_GROUP
350
D
  3
ACAD_LAYOUT
350
1A
  3
ACAD_MLINESTYLE
350
17
  3
ACAD_PLOTSETTINGS
350
19
  3
ACAD_PLOTSTYLENAME
350
E
  3
ACAD_SCALELIST
350
47
  0
DICTIONARY
  5
D
102
{ACAD_REACTORS
330
C
102
}
330
C
100
AcDbDictionary
281
     1
  0
DICTIONARY
  5
1A
102
{ACAD_REACTORS
330
C
102
}
330
C
100
AcDbDictionary
281
     1
  3
_Back
350
1E
  3
_Isometric
350
1D0
  3
_Left
350
26
  3
_Top
350
12E
  3
Model
350
22
  0
DICTIONARY
  5
17
102
{ACAD_REACTORS
330
C
102
}
330
C
100
AcDbDictionary
281
     1
  3
Standard
350
18
  0
DICTIONARY
  5
19
102
{ACAD_REACTORS
330
C
102
}
330
C
100
AcDbDictionary
281
     1
  0
ACDBDICTIONARYWDFLT
  5
E
102
{ACAD_REACTORS
330
C
102
}
330
C
100
AcDbDictionary
281
     1
  3
Normal
350
F
100
AcDbDictionaryWithDefault
340
F
  0
DICTIONARY
  5
47
102
{ACAD_REACTORS
330
C
102
}
330
C
100
AcDbDictionary
281
     1
  3
A0
350
48
  3
A1
350
49
  3
A2
350
4A
  3
A3
350
4B
  3
A4
350
4C
  3
A5
350
4D
  3
A6
350
4E
  3
A7
350
4F
  3
A8
350
50
  3
A9
350
51
  3
B0
350
52
  3
B1
350
53
  3
B2
350
54
  3
B3
350
55
  3
B4
350
56
  3
B5
350
57
  3
B6
350
58
  3
B7
350
59
  3
B8
350
5A
  3
B9
350
5B
  3
C0
350
5C
  3
C1
350
5D
  3
C2
350
5E
  3
C3
350
5F
  3
C4
350
60
  3
C5
350
61
  3
C6
350
62
  3
C7
350
63
  3
C8
350
64
  3
C9
350
65
  3
D0
350
66
  3
D1
350
67
  3
D2
350
68
  0
LAYOUT
  5
1E
102
{ACAD_REACTORS
330
1A
102
}
330
1A
100
AcDbPlotSettings
  1

  2
none_device
  4
ISO_A4_(210.00_x_297.00_MM)
  6

 40
7.5
 41
20.0
 42
7.5
 43
20.0
 44
210.0
 45
297.0
 46
0.0
 47
0.0
 48
0.0
 49
0.0
140
0.0
141
0.0
142
1.0
143
4.6105058366
 70
   688
 72
     1
 73
     1
 74
     1
  7

 75
     0
147
0.2168959406
148
592.45
149
0.0
100
AcDbLayout
  1
_Back
 70
     1
 71
     1
 10
-684.6601167315
 20
-34.5787937743
 11
684.6601167315
 21
933.6274319066
 12
0.0
 22
0.0
 32
0.0
 14
-592.45
 24
0.0
 34
0.0
 15
592.45
 25
400.0
 35
0.0
146
0.0
 13
0.0
 23
0.0
 33
0.0
 16
1.0
 26
0.0
 36
0.0
 17
0.0
 27
1.0
 37
0.0
 76
     0
330
1B
331
281
  0
LAYOUT
  5
1D0
102
{ACAD_REACTORS
330
1A
102
}
330
1A
100
AcDbPlotSettings
  1

  2
none_device
  4
ISO_A4_(210.00_x_297.00_MM)
  6

 40
7.5
 41
20.0
 42
7.5
 43
20.0
 44
210.0
 45
297.0
 46
0.0
 47
0.0
 48
0.0
 49
0.0
140
0.0
141
0.0
142
1.0
143
4.6105058366
 70
   688
 72
     1
 73
     1
 74
     1
  7

 75
     0
147
0.2168959406
148
592.45
149
0.0
100
AcDbLayout
  1
_Isometric
 70
     1
 71
     4
 10
0.0
 20
0.0
 11
0.0
 21
0.0
 12
0.0
 22
0.0
 32
0.0
 14
0.0
 24
0.0
 34
0.0
 15
0.0
 25
0.0
 35
0.0
146
0.0
 13
0.0
 23
0.0
 33
0.0
 16
1.0
 26
0.0
 36
0.0
 17
0.0
 27
1.0
 37
0.0
 76
     0
330
1CF
331
287
  0
LAYOUT
  5
26
102
{ACAD_REACTORS
330
1A
102
}
330
1A
100
AcDbPlotSettings
  1

  2
none_device
  4
ISO_A4_(210.00_x_297.00_MM)
  6

 40
7.5
 41
20.0
 42
7.5
 43
20.0
 44
210.0
 45
297.0
 46
0.0
 47
0.0
 48
0.0
 49
0.0
140
0.0
141
0.0
142
1.0
143
4.6105058366
 70
   688
 72
     1
 73
     1
 74
     1
  7

 75
     0
147
0.2168959406
148
592.45
149
0.0
100
AcDbLayout
  1
_Left
 70
     1
 71
     2
 10
0.0
 20
0.0
 11
0.0
 21
0.0
 12
0.0
 22
0.0
 32
0.0
 14
0.0
 24
0.0
 34
0.0
 15
0.0
 25
0.0
 35
0.0
146
0.0
 13
0.0
 23
0.0
 33
0.0
 16
1.0
 26
0.0
 36
0.0
 17
0.0
 27
1.0
 37
0.0
 76
     0
330
23
331
283
  0
LAYOUT
  5
12E
102
{ACAD_REACTORS
330
1A
102
}
330
1A
100
AcDbPlotSettings
  1

  2
none_device
  4
ISO_A4_(210.00_x_297.00_MM)
  6

 40
7.5
 41
20.0
 42
7.5
 43
20.0
 44
210.0
 45
297.0
 46
0.0
 47
0.0
 48
0.0
 49
0.0
140
0.0
141
0.0
142
1.0
143
4.6105058366
 70
   688
 72
     1
 73
     1
 74
     1
  7

 75
     0
147
0.2168959406
148
592.45
149
0.0
100
AcDbLayout
  1
_Top
 70
     1
 71
     3
 10
0.0
 20
0.0
 11
0.0
 21
0.0
 12
0.0
 22
0.0
 32
0.0
 14
0.0
 24
0.0
 34
0.0
 15
0.0
 25
0.0
 35
0.0
146
0.0
 13
0.0
 23
0.0
 33
0.0
 16
1.0
 26
0.0
 36
0.0
 17
0.0
 27
1.0
 37
0.0
 76
     0
330
12D
331
285
  0
LAYOUT
  5
22
102
{ACAD_REACTORS
330
1A
102
}
330
1A
100
AcDbPlotSettings
  1

  2
none_device
  4
ANSI_A_(11.00_x_8.50_Inches)
  6

 40
6.35
 41
19.05
 42
6.35000508
 43
19.05000254
 44
279.4
 45
215.9
 46
133.34999746
 47
42.2115235323
 48
0.0
 49
0.0
140
0.0
141
0.0
142
0.009190649
143
1.0
 70
  1696
 72
     0
 73
     0
 74
     0
  7

 75
     0
147
0.0179189148
148
-1300.4909072572
149
0.0
100
AcDbLayout
  1
Model
 70
     1
 71
     0
 10
0.0
 20
0.0
 11
420.0
 21
297.0
 12
0.0
 22
0.0
 32
0.0
 14
-592.45
 24
-0.0001861003
 34
0.0
 15
592.45
 25
400.0
 35
0.0
146
0.0
 13
0.0
 23
0.0
 33
0.0
 16
1.0
 26
0.0
 36
0.0
 17
0.0
 27
1.0
 37
0.0
 76
     0
330
1F
331
29
  0
MLINESTYLE
  5
18
102
{ACAD_REACTORS
330
17
102
}
330
17
100
AcDbMlineStyle
  2
Standard
 70
     0
  3

 62
   256
 51
90.0
 52
90.0
 71
     2
 49
0.5
 62
   256
  6
BYLAYER
 49
-0.5
 62
   256
  6
BYLAYER
  0
ACDBPLACEHOLDER
  5
F
102
{ACAD_REACTORS
330
E
102
}
330
E
  0
SCALE
  5
48
102
{ACAD_REACTORS
330
47
102
}
330
47
100
AcDbScale
 70
     0
300
1:1
140
1.0
141
1.0
290
     1
  0
SCALE
  5
49
102
{ACAD_REACTORS
330
47
102
}
330
47
100
AcDbScale
 70
     0
300
1:2
140
1.0
141
2.0
290
     0
  0
SCALE
  5
4A
102
{ACAD_REACTORS
330
47
102
}
330
47
100
AcDbScale
 70
     0
300
1:4
140
1.0
141
4.0
290
     0
  0
SCALE
  5
4B
102
{ACAD_REACTORS
330
47
102
}
330
47
100
AcDbScale
 70
     0
300
1:5
140
1.0
141
5.0
290
     0
  0
SCALE
  5
4C
102
{ACAD_REACTORS
330
47
102
}
330
47
100
AcDbScale
 70
     0
300
1:8
140
1.0
141
8.0
290
     0
  0
SCALE
  5
4D
102
{ACAD_REACTORS
330
47
102
}
330
47
100
AcDbScale
 70
     0
300
1:10
140
1.0
141
10.0
290
     0
  0
SCALE
  5
4E
102
{ACAD_REACTORS
330
47
102
}
330
47
100
AcDbScale
 70
     0
300
1:16
140
1.0
141
16.0
290
     0
  0
SCALE
  5
4F
102
{ACAD_REACTORS
330
47
102
}
330
47
100
AcDbScale
 70
     0
300
1:20
140
1.0
141
20.0
290
     0
  0
SCALE
  5
50
102
{ACAD_REACTORS
330
47
102
}
330
47
100
AcDbScale
 70
     0
300
1:30
140
1.0
141
30.0
290
     0
  0
SCALE
  5
51
102
{ACAD_REACTORS
330
47
102
}
330
47
100
AcDbScale
 70
     0
300
1:40
140
1.0
141
40.0
290
     0
  0
SCALE
  5
52
102
{ACAD_REACTORS
330
47
102
}
330
47
100
AcDbScale
 70
     0
300
1:50
140
1.0
141
50.0
290
     0
  0
SCALE
  5
53
102
{ACAD_REACTORS
330
47
102
}
330
47
100
AcDbScale
 70
     0
300
1:100
140
1.0
141
100.0
290
     0
  0
SCALE
  5
54
102
{ACAD_REACTORS
330
47
102
}
330
47
100
AcDbScale
 70
     0
300
2:1
140
2.0
141
1.0
290
     0
  0
SCALE
  5
55
102
{ACAD_REACTORS
330
47
102
}
330
47
100
AcDbScale
 70
     0
300
4:1
140
4.0
141
1.0
290
     0
  0
SCALE
  5
56
102
{ACAD_REACTORS
330
47
102
}
330
47
100
AcDbScale
 70
     0
300
8:1
140
8.0
141
1.0
290
     0
  0
SCALE
  5
57
102
{ACAD_REACTORS
330
47
102
}
330
47
100
AcDbScale
 70
     0
300
10:1
140
10.0
141
1.0
290
     0
  0
SCALE
  5
58
102
{ACAD_REACTORS
330
47
102
}
330
47
100
AcDbScale
 70
     0
300
100:1
140
100.0
141
1.0
290
     0
  0
SCALE
  5
59
102
{ACAD_REACTORS
330
47
102
}
330
47
100
AcDbScale
 70
     0
300
1/128" = 1'-0"
140
0.0078125
141
12.0
290
     0
  0
SCALE
  5
5A
102
{ACAD_REACTORS
330
47
102
}
330
47
100
AcDbScale
 70
     0
300
1/64" = 1'-0"
140
0.015625
141
12.0
290
     0
  0
SCALE
  5
5B
102
{ACAD_REACTORS
330
47
102
}
330
47
100
AcDbScale
 70
     0
300
1/32" = 1'-0"
140
0.03125
141
12.0
290
     0
  0
SCALE
  5
5C
102
{ACAD_REACTORS
330
47
102
}
330
47
100
AcDbScale
 70
     0
300
1/16" = 1'-0"
140
0.0625
141
12.0
290
     0
  0
SCALE
  5
5D
102
{ACAD_REACTORS
330
47
102
}
330
47
100
AcDbScale
 70
     0
300
3/32" = 1'-0"
140
0.09375
141
12.0
290
     0
  0
SCALE
  5
5E
102
{ACAD_REACTORS
330
47
102
}
330
47
100
AcDbScale
 70
     0
300
1/8" = 1'-0"
140
0.125
141
12.0
290
     0
  0
SCALE
  5
5F
102
{ACAD_REACTORS
330
47
102
}
330
47
100
AcDbScale
 70
     0
300
3/16" = 1'-0"
140
0.1875
141
12.0
290
     0
  0
SCALE
  5
60
102
{ACAD_REACTORS
330
47
102
}
330
47
100
AcDbScale
 70
     0
300
1/4" = 1'-0"
140
0.25
141
12.0
290
     0
  0
SCALE
  5
61
102
{ACAD_REACTORS
330
47
102
}
330
47
100
AcDbScale
 70
     0
300
3/8" = 1'-0"
140
0.375
141
12.0
290
     0
  0
SCALE
  5
62
102
{ACAD_REACTORS
330
47
102
}
330
47
100
AcDbScale
 70
     0
300
1/2" = 1'-0"
140
0.5
141
12.0
290
     0
  0
SCALE
  5
63
102
{ACAD_REACTORS
330
47
102
}
330
47
100
AcDbScale
 70
     0
300
3/4" = 1'-0"
140
0.75
141
12.0
290
     0
  0
SCALE
  5
64
102
{ACAD_REACTORS
330
47
102
}
330
47
100
AcDbScale
 70
     0
300
1" = 1'-0"
140
1.0
141
12.0
290
     0
  0
SCALE
  5
65
102
{ACAD_REACTORS
330
47
102
}
330
47
100
AcDbScale
 70
     0
300
1-1/2" = 1'-0"
140
1.5
141
12.0
290
     0
  0
SCALE
  5
66
102
{ACAD_REACTORS
330
47
102
}
330
47
100
AcDbScale
 70
     0
300
3" = 1'-0"
140
3.0
141
12.0
290
     0
  0
SCALE
  5
67
102
{ACAD_REACTORS
330
47
102
}
330
47
100
AcDbScale
 70
     0
300
6" = 1'-0"
140
6.0
141
12.0
290
     0
  0
SCALE
  5
68
102
{ACAD_REACTORS
330
47
102
}
330
47
100
AcDbScale
 70
     0
300
1'-0" = 1'-0"
140
12.0
141
12.0
290
     0
  0
ENDSEC
  0
EOF
