  0
SECTION
  2
HEADER
  9
$ACADVER
  1
AC1015
  9
$ACADMAINTVER
 70
     6
  9
$DWGCODEPAGE
  3
ANSI_1252
  9
$INSBASE
 10
0.0
 20
0.0
 30
0.0
  9
$EXTMIN
 10
-126.5
 20
-73.0
 30
0.0
  9
$EXTMAX
 10
126.5
 20
63.5000634854
 30
0.0
  9
$LIMMIN
 10
0.0
 20
0.0
  9
$LIMMAX
 10
420.0
 20
297.0
  9
$ORTHOMODE
 70
     0
  9
$REGENMODE
 70
     1
  9
$FILLMODE
 70
     1
  9
$QTEXTMODE
 70
     0
  9
$MIRRTEXT
 70
     1
  9
$LTSCALE
 40
1.0
  9
$ATTMODE
 70
     1
  9
$TEXTSIZE
 40
3.5
  9
$TRACEWID
 40
1.0
  9
$TEXTSTYLE
  7
Standard
  9
$CLAYER
  8
0
  9
$CELTYPE
  6
ByLayer
  9
$CECOLOR
 62
   256
  9
$CELTSCALE
 40
1.0
  9
$DISPSILH
 70
     0
  9
$DIMSCALE
 40
1.0
  9
$DIMASZ
 40
3.302
  9
$DIMEXO
 40
1.0
  9
$DIMDLI
 40
3.75
  9
$DIMRND
 40
0.0
  9
$DIMDLE
 40
0.0
  9
$DIMEXE
 40
1.0
  9
$DIMTP
 40
0.0
  9
$DIMTM
 40
0.0
  9
$DIMTXT
 40
3.5
  9
$DIMCEN
 40
2.5
  9
$DIMTSZ
 40
0.0
  9
$DIMTOL
 70
     0
  9
$DIMLIM
 70
     0
  9
$DIMTIH
 70
     1
  9
$DIMTOH
 70
     1
  9
$DIMSE1
 70
     0
  9
$DIMSE2
 70
     0
  9
$DIMTAD
 70
     1
  9
$DIMZIN
 70
     1
  9
$DIMBLK
  1

  9
$DIMASO
 70
     1
  9
$DIMSHO
 70
     1
  9
$DIMPOST
  1

  9
$DIMAPOST
  1

  9
$DIMALT
 70
     0
  9
$DIMALTD
 70
     3
  9
$DIMALTF
 40
0.0393700787
  9
$DIMLFAC
 40
1.0
  9
$DIMTOFL
 70
     1
  9
$DIMTVP
 40
0.0
  9
$DIMTIX
 70
     0
  9
$DIMSOXD
 70
     0
  9
$DIMSAH
 70
     0
  9
$DIMBLK1
  1

  9
$DIMBLK2
  1

  9
$DIMSTYLE
  2
ISO-25
  9
$DIMCLRD
 70
     0
  9
$DIMCLRE
 70
     0
  9
$DIMCLRT
 70
     0
  9
$DIMTFAC
 40
1.0
  9
$DIMGAP
 40
1.524
  9
$DIMJUST
 70
     0
  9
$DIMSD1
 70
     0
  9
$DIMSD2
 70
     0
  9
$DIMTOLJ
 70
     0
  9
$DIMTZIN
 70
     1
  9
$DIMALTZ
 70
     0
  9
$DIMALTTZ
 70
     0
  9
$DIMUPT
 70
     0
  9
$DIMDEC
 70
     2
  9
$DIMTDEC
 70
     2
  9
$DIMALTU
 70
     2
  9
$DIMALTTD
 70
     3
  9
$DIMTXSTY
  7
Standard
  9
$DIMAUNIT
 70
     0
  9
$DIMADEC
 70
     2
  9
$DIMALTRND
 40
0.0
  9
$DIMAZIN
 70
     0
  9
$DIMDSEP
 70
    44
  9
$DIMATFIT
 70
     3
  9
$DIMFRAC
 70
     0
  9
$DIMLDRBLK
  1

  9
$DIMLUNIT
 70
     2
  9
$DIMLWD
 70
    -2
  9
$DIMLWE
 70
    -2
  9
$DIMTMOVE
 70
     0
  9
$LUNITS
 70
     2
  9
$LUPREC
 70
     2
  9
$SKETCHINC
 40
1.0
  9
$FILLETRAD
 40
10.0
  9
$AUNITS
 70
     0
  9
$AUPREC
 70
     2
  9
$MENU
  1
.
  9
$ELEVATION
 40
0.0
  9
$PELEVATION
 40
0.0
  9
$THICKNESS
 40
0.0
  9
$LIMCHECK
 70
     0
  9
$CHAMFERA
 40
0.0
  9
$CHAMFERB
 40
0.0
  9
$CHAMFERC
 40
0.0
  9
$CHAMFERD
 40
0.0
  9
$SKPOLY
 70
     0
  9
$TDCREATE
 40
2459283.050391285
  9
$TDUCREATE
 40
2459283.050391285
  9
$TDUPDATE
 40
2459283.050460637
  9
$TDUUPDATE
 40
2459283.050460637
  9
$TDINDWG
 40
0.0000000116
  9
$TDUSRTIMER
 40
0.0000000116
  9
$USRTIMER
 70
     1
  9
$ANGBASE
 50
0.0
  9
$ANGDIR
 70
     0
  9
$PDMODE
 70
     0
  9
$PDSIZE
 40
-1.0
  9
$PLINEWID
 40
0.0
  9
$SPLFRAME
 70
     0
  9
$SPLINETYPE
 70
     6
  9
$SPLINESEGS
 70
     8
  9
$HANDSEED
  5
2B8
  9
$SURFTAB1
 70
     6
  9
$SURFTAB2
 70
     6
  9
$SURFTYPE
 70
     6
  9
$SURFU
 70
     6
  9
$SURFV
 70
     6
  9
$UCSBASE
  2

  9
$UCSNAME
  2

  9
$UCSORG
 10
0.0
 20
0.0
 30
0.0
  9
$UCSXDIR
 10
1.0
 20
0.0
 30
0.0
  9
$UCSYDIR
 10
0.0
 20
1.0
 30
0.0
  9
$UCSORTHOREF
  2

  9
$UCSORTHOVIEW
 70
     0
  9
$UCSORGTOP
 10
0.0
 20
0.0
 30
0.0
  9
$UCSORGBOTTOM
 10
0.0
 20
0.0
 30
0.0
  9
$UCSORGLEFT
 10
0.0
 20
0.0
 30
0.0
  9
$UCSORGRIGHT
 10
0.0
 20
0.0
 30
0.0
  9
$UCSORGFRONT
 10
0.0
 20
0.0
 30
0.0
  9
$UCSORGBACK
 10
0.0
 20
0.0
 30
0.0
  9
$PUCSBASE
  2

  9
$PUCSNAME
  2

  9
$PUCSORG
 10
0.0
 20
0.0
 30
0.0
  9
$PUCSXDIR
 10
1.0
 20
0.0
 30
0.0
  9
$PUCSYDIR
 10
0.0
 20
1.0
 30
0.0
  9
$PUCSORTHOREF
  2

  9
$PUCSORTHOVIEW
 70
     0
  9
$PUCSORGTOP
 10
0.0
 20
0.0
 30
0.0
  9
$PUCSORGBOTTOM
 10
0.0
 20
0.0
 30
0.0
  9
$PUCSORGLEFT
 10
0.0
 20
0.0
 30
0.0
  9
$PUCSORGRIGHT
 10
0.0
 20
0.0
 30
0.0
  9
$PUCSORGFRONT
 10
0.0
 20
0.0
 30
0.0
  9
$PUCSORGBACK
 10
0.0
 20
0.0
 30
0.0
  9
$USERI1
 70
     0
  9
$USERI2
 70
     0
  9
$USERI3
 70
     0
  9
$USERI4
 70
     0
  9
$USERI5
 70
     0
  9
$USERR1
 40
0.0
  9
$USERR2
 40
0.0
  9
$USERR3
 40
0.0
  9
$USERR4
 40
0.0
  9
$USERR5
 40
0.0
  9
$WORLDVIEW
 70
     1
  9
$SHADEDGE
 70
     3
  9
$SHADEDIF
 70
    70
  9
$TILEMODE
 70
     0
  9
$MAXACTVP
 70
    64
  9
$PINSBASE
 10
0.0
 20
0.0
 30
0.0
  9
$PLIMCHECK
 70
     0
  9
$PEXTMIN
 10
-126.5
 20
-73.0
 30
0.0
  9
$PEXTMAX
 10
126.5
 20
63.5000634854
 30
0.0
  9
$PLIMMIN
 10
0.0
 20
0.0
  9
$PLIMMAX
 10
0.0
 20
0.0
  9
$UNITMODE
 70
     0
  9
$VISRETAIN
 70
     1
  9
$PLINEGEN
 70
     0
  9
$PSLTSCALE
 70
     1
  9
$TREEDEPTH
 70
  3020
  9
$CMLSTYLE
  2
Standard
  9
$CMLJUST
 70
     0
  9
$CMLSCALE
 40
20.0
  9
$PROXYGRAPHICS
 70
     1
  9
$MEASUREMENT
 70
     1
  9
$CELWEIGHT
370
    -1
  9
$ENDCAPS
280
     0
  9
$JOINSTYLE
280
     0
  9
$LWDISPLAY
290
     1
  9
$INSUNITS
 70
     4
  9
$HYPERLINKBASE
  1

  9
$STYLESHEET
  1

  9
$XEDIT
290
     1
  9
$CEPSNTYPE
380
     0
  9
$PSTYLEMODE
290
     1
  9
$FINGERPRINTGUID
  2
{b9a62afa-b956-4456-81ac-438fd6442791}
  9
$VERSIONGUID
  2
{FAEB1C32-E019-11D5-929B-00C0DF256EC4}
  9
$EXTNAMES
290
     1
  9
$PSVPSCALE
 40
0.0
  9
$OLESTARTUP
290
     0
  0
ENDSEC
  0
SECTION
  2
CLASSES
  0
CLASS
  1
ACDBDICTIONARYWDFLT
  2
AcDbDictionaryWithDefault
  3
ObjectDBX Classes
 90
        0
280
     0
281
     0
  0
CLASS
  1
VISUALSTYLE
  2
AcDbVisualStyle
  3
ObjectDBX Classes
 90
     4095
280
     0
281
     0
  0
CLASS
  1
MATERIAL
  2
AcDbMaterial
  3
ObjectDBX Classes
 90
     1153
280
     0
281
     0
  0
CLASS
  1
SCALE
  2
AcDbScale
  3
ObjectDBX Classes
 90
     1153
280
     0
281
     0
  0
CLASS
  1
TABLESTYLE
  2
AcDbTableStyle
  3
ObjectDBX Classes
 90
     4095
280
     0
281
     0
  0
CLASS
  1
MLEADERSTYLE
  2
AcDbMLeaderStyle
  3
ACDB_MLEADERSTYLE_CLASS
 90
     4095
280
     0
281
     0
  0
CLASS
  1
SUN
  2
AcDbSun
  3
SCENEOE
 90
     1153
280
     0
281
     0
  0
CLASS
  1
ACDBPLACEHOLDER
  2
AcDbPlaceHolder
  3
ObjectDBX Classes
 90
        0
280
     0
281
     0
  0
CLASS
  1
LAYOUT
  2
AcDbLayout
  3
ObjectDBX Classes
 90
        0
280
     0
281
     0
  0
ENDSEC
  0
SECTION
  2
TABLES
  0
TABLE
  2
VPORT
  5
8
330
0
100
AcDbSymbolTable
 70
     1
  0
VPORT
  5
29
330
8
100
AcDbSymbolTableRecord
100
AcDbViewportTableRecord
  2
*Active
 70
     0
 10
0.0
 20
0.0
 11
1.0
 21
1.0
 12
0.0
 22
-4.7499682573
 13
0.0
 23
0.0
 14
10.0
 24
10.0
 15
10.0
 25
10.0
 16
0.0
 26
0.0
 36
1.0
 17
0.0
 27
0.0
 37
0.0
 40
139.2300647551
 41
1.8534789914
 42
50.0
 43
0.0
 44
0.0
 50
0.0
 51
0.0
 71
     0
 72
   100
 73
     1
 74
     3
 75
     0
 76
     0
 77
     0
 78
     0
281
     0
 65
     1
110
0.0
120
0.0
130
0.0
111
1.0
121
0.0
131
0.0
112
0.0
122
1.0
132
0.0
 79
     0
146
0.0
  0
ENDTAB
  0
TABLE
  2
LTYPE
  5
5
330
0
100
AcDbSymbolTable
 70
     6
  0
LTYPE
  5
14
330
5
100
AcDbSymbolTableRecord
100
AcDbLinetypeTableRecord
  2
ByBlock
 70
     0
  3

 72
    65
 73
     0
 40
0.0
  0
LTYPE
  5
15
330
5
100
AcDbSymbolTableRecord
100
AcDbLinetypeTableRecord
  2
ByLayer
 70
     0
  3

 72
    65
 73
     0
 40
0.0
  0
LTYPE
  5
16
330
5
100
AcDbSymbolTableRecord
100
AcDbLinetypeTableRecord
  2
Continuous
 70
     0
  3
Solid line
 72
    65
 73
     0
 40
0.0
  0
LTYPE
  5
6E
330
5
100
AcDbSymbolTableRecord
100
AcDbLinetypeTableRecord
  2
HIDDEN
 70
     0
  3
Hidden __ __ __ __ __ __ __ __ __ __ __ __ __ __
 72
    65
 73
     2
 40
1.905
 49
1.27
 74
     0
 49
-0.635
 74
     0
  0
LTYPE
  5
6F
330
5
100
AcDbSymbolTableRecord
100
AcDbLinetypeTableRecord
  2
PHANTOM
 70
     0
  3
Phantom ______  __  __  ______  __  __  ______
 72
    65
 73
     6
 40
12.7
 49
6.35
 74
     0
 49
-1.27
 74
     0
 49
1.27
 74
     0
 49
-1.27
 74
     0
 49
1.27
 74
     0
 49
-1.27
 74
     0
  0
LTYPE
  5
70
330
5
100
AcDbSymbolTableRecord
100
AcDbLinetypeTableRecord
  2
CENTER
 70
     0
  3
Center ____ _ ____ _ ____ _ ____ _ ____ _ ____
 72
    65
 73
     4
 40
10.16
 49
6.35
 74
     0
 49
-1.27
 74
     0
 49
1.27
 74
     0
 49
-1.27
 74
     0
  0
LTYPE
  5
71
330
5
100
AcDbSymbolTableRecord
100
AcDbLinetypeTableRecord
  2
CENTERX2
 70
     0
  3
Center (2x) ________  __  ________  __  _____
 72
    65
 73
     4
 40
20.32
 49
12.7
 74
     0
 49
-2.54
 74
     0
 49
2.54
 74
     0
 49
-2.54
 74
     0
  0
LTYPE
  5
72
330
5
100
AcDbSymbolTableRecord
100
AcDbLinetypeTableRecord
  2
DOT2
 70
     0
  3
Dot (.5x) ........................................
 72
    65
 73
     2
 40
0.635
 49
0.0
 74
     0
 49
-0.635
 74
     0
  0
ENDTAB
  0
TABLE
  2
LAYER
  5
2
330
0
100
AcDbSymbolTable
 70
     1
  0
LAYER
  5
10
330
2
100
AcDbSymbolTableRecord
100
AcDbLayerTableRecord
  2
0
 70
     0
 62
     7
  6
Continuous
370
    -3
390
F
  0
ENDTAB
  0
TABLE
  2
STYLE
  5
3
330
0
100
AcDbSymbolTable
 70
     1
  0
STYLE
  5
11
330
3
100
AcDbSymbolTableRecord
100
AcDbTextStyleTableRecord
  2
Standard
 70
     0
 40
0.0
 41
1.0
 50
0.0
 71
     0
 42
3.5
  3
txt
  4

  0
ENDTAB
  0
TABLE
  2
VIEW
  5
6
330
0
100
AcDbSymbolTable
 70
     0
  0
ENDTAB
  0
TABLE
  2
UCS
  5
7
330
0
100
AcDbSymbolTable
 70
     0
  0
ENDTAB
  0
TABLE
  2
APPID
  5
9
330
0
100
AcDbSymbolTable
 70
     1
  0
APPID
  5
12
330
9
100
AcDbSymbolTableRecord
100
AcDbRegAppTableRecord
  2
ACAD
 70
     0
  0
ENDTAB
  0
TABLE
  2
DIMSTYLE
  5
A
330
0
100
AcDbSymbolTable
 70
     1
100
AcDbDimStyleTable
  0
DIMSTYLE
105
27
330
A
100
AcDbSymbolTableRecord
100
AcDbDimStyleTableRecord
  2
ISO-25
 70
     0
 41
2.5
 42
0.625
 43
3.75
 44
1.25
 73
     0
 74
     0
 77
     1
 78
     8
140
2.5
141
2.5
143
0.0393700787
147
0.625
171
     3
172
     1
178
     0
271
     2
272
     2
274
     3
278
    44
283
     0
284
     8
340
11
  0
ENDTAB
  0
TABLE
  2
BLOCK_RECORD
  5
1
330
0
100
AcDbSymbolTable
 70
     1
  0
BLOCK_RECORD
  5
1F
330
1
100
AcDbSymbolTableRecord
100
AcDbBlockTableRecord
  2
*Model_Space
340
22
  0
BLOCK_RECORD
  5
23
330
1
100
AcDbSymbolTableRecord
100
AcDbBlockTableRecord
  2
*Paper_Space
340
26
  0
BLOCK_RECORD
  5
1B
330
1
100
AcDbSymbolTableRecord
100
AcDbBlockTableRecord
  2
*Paper_Space0
340
1E
  0
ENDTAB
  0
ENDSEC
  0
SECTION
  2
BLOCKS
  0
BLOCK
  5
20
330
1F
100
AcDbEntity
  8
0
100
AcDbBlockBegin
  2
*Model_Space
 70
     0
 10
0.0
 20
0.0
 30
0.0
  3
*Model_Space
  1

  0
ENDBLK
  5
21
330
1F
100
AcDbEntity
  8
0
100
AcDbBlockEnd
  0
BLOCK
  5
24
330
23
100
AcDbEntity
 67
     1
  8
0
100
AcDbBlockBegin
  2
*Paper_Space
 70
     0
 10
0.0
 20
0.0
 30
0.0
  3
*Paper_Space
  1

  0
ENDBLK
  5
25
330
23
100
AcDbEntity
 67
     1
  8
0
100
AcDbBlockEnd
  0
BLOCK
  5
1C
330
1B
100
AcDbEntity
  8
0
100
AcDbBlockBegin
  2
*Paper_Space0
 70
     0
 10
0.0
 20
0.0
 30
0.0
  3
*Paper_Space0
  1

  0
SPLINE
  5
D3
330
1B
100
AcDbEntity
  8
0
  6
Continuous
 62
     7
370
    25
100
AcDbSpline
210
0.0
220
0.0
230
1.0
 70
     8
 71
     3
 72
     9
 73
     5
 74
     0
 42
0.000000001
 43
0.00000001
 40
0.0
 40
0.0
 40
0.0
 40
0.0
 40
0.5000278710620728
 40
1.0
 40
1.0
 40
1.0
 40
1.0
 10
20.36404666061517
 20
-10.24800240681741
 30
0.0
 10
20.440129852819
 20
-10.10205881182032
 30
0.0
 10
20.59228775562194
 20
-9.810187891331198
 30
0.0
 10
20.74447110536674
 20
-9.518349799681928
 30
0.0
 10
20.82055853872755
 20
-9.372438887694859
 30
0.0
  0
SPLINE
  5
D4
330
1B
100
AcDbEntity
  8
0
  6
Continuous
 62
     7
370
    25
100
AcDbSpline
210
0.0
220
0.0
230
1.0
 70
     8
 71
     3
 72
     9
 73
     5
 74
     0
 42
0.000000001
 43
0.00000001
 40
0.0
 40
0.0
 40
0.0
 40
0.0
 40
0.5110141165055735
 40
0.9999999999999999
 40
0.9999999999999999
 40
0.9999999999999999
 40
0.9999999999999999
 10
18.54361333759774
 20
-10.25684015385581
 30
0.0
 10
18.61970330552956
 20
-10.110888405403
 30
0.0
 10
18.76860323896416
 20
-9.825276435520724
 30
0.0
 10
18.91752883250569
 20
-9.53966161523602
 30
0.0
 10
18.99035134543853
 20
-9.4
 30
0.0
  0
SPLINE
  5
D5
330
1B
100
AcDbEntity
  8
0
  6
Continuous
 62
     7
370
    25
100
AcDbSpline
210
0.0
220
0.0
230
1.0
 70
     8
 71
     3
 72
     9
 73
     5
 74
     0
 42
0.000000001
 43
0.00000001
 40
0.0
 40
0.0
 40
0.0
 40
0.0
 40
0.5111955818113744
 40
1.0
 40
1.0
 40
1.0
 40
1.0
 10
16.73573792459836
 20
-10.2410712833897
 30
0.0
 10
16.81045228212123
 20
-10.09774788179672
 30
0.0
 10
16.95660839180069
 20
-9.817378867093721
 30
0.0
 10
17.10279171636597
 20
-9.53703387214702
 30
0.0
 10
17.17424677127899
 20
-9.400000000000002
 30
0.0
  0
SPLINE
  5
D6
330
1B
100
AcDbEntity
  8
0
  6
Continuous
 62
     7
370
    25
100
AcDbSpline
210
0.0
220
0.0
230
1.0
 70
     8
 71
     3
 72
     9
 73
     5
 74
     0
 42
0.000000001
 43
0.00000001
 40
0.0
 40
0.0
 40
0.0
 40
0.0
 40
0.5122002602670196
 40
1.0
 40
1.0
 40
1.0
 40
1.0
 10
14.91279828598364
 20
-10.25472236214881
 30
0.0
 10
14.98887496954957
 20
-10.10878989536624
 30
0.0
 10
15.1374041474267
 20
-9.823876985118023
 30
0.0
 10
15.28595641938838
 20
-9.538975076750908
 30
0.0
 10
15.35842017898802
 20
-9.4
 30
0.0
  0
SPLINE
  5
D7
330
1B
100
AcDbEntity
  8
0
  6
Continuous
 62
     7
370
    25
100
AcDbSpline
210
0.0
220
0.0
230
1.0
 70
     8
 71
     3
 72
     9
 73
     5
 74
     0
 42
0.000000001
 43
0.00000001
 40
0.0
 40
0.0
 40
0.0
 40
0.0
 40
0.4075930187138301
 40
0.9999999999999999
 40
0.9999999999999999
 40
0.9999999999999999
 40
0.9999999999999999
 10
13.16858675602622
 20
-10.11703086541446
 30
0.0
 10
13.22094099071749
 20
-10.01660333222523
 30
0.0
 10
13.34938832000808
 20
-9.77021164105708
 30
0.0
 10
13.47786029573843
 20
-9.523824193172945
 30
0.0
 10
13.55396799106071
 20
-9.377862548945098
 30
0.0
  0
SPLINE
  5
D9
330
1B
100
AcDbEntity
  8
0
  6
Continuous
 62
     7
370
    25
100
AcDbSpline
210
0.0
220
0.0
230
1.0
 70
     8
 71
     3
 72
     9
 73
     5
 74
     0
 42
0.000000001
 43
0.00000001
 40
0.0
 40
0.0
 40
0.0
 40
0.0
 40
0.4999704351678509
 40
1.0
 40
1.0
 40
1.0
 40
1.0
 10
14.46017596498632
 20
9.38115921760864
 30
0.0
 10
14.38407782317952
 20
9.527102208181851
 30
0.0
 10
14.23187253971862
 20
9.819005449468941
 30
0.0
 10
14.07969425340522
 20
10.110904016235
 30
0.0
 10
14.00360061112303
 20
10.25686192955016
 30
0.0
  0
SPLINE
  5
DA
330
1B
100
AcDbEntity
  8
0
  6
Continuous
 62
     7
370
    25
100
AcDbSpline
210
0.0
220
0.0
230
1.0
 70
     8
 71
     3
 72
     9
 73
     5
 74
     0
 42
0.000000001
 43
0.00000001
 40
0.0
 40
0.0
 40
0.0
 40
0.0
 40
0.4999732711023253
 40
1.0
 40
1.0
 40
1.0
 40
1.0
 10
16.28020547774731
 20
9.373223771431238
 30
0.0
 10
16.20412303760914
 20
9.519126034786364
 30
0.0
 10
16.05195002249891
 20
9.81094616155723
 30
0.0
 10
15.89980140993366
 20
10.10279810413986
 30
0.0
 10
15.82372303688634
 20
10.24873187631188
 30
0.0
  0
SPLINE
  5
DB
330
1B
100
AcDbEntity
  8
0
  6
Continuous
 62
     7
370
    25
100
AcDbSpline
210
0.0
220
0.0
230
1.0
 70
     8
 71
     3
 72
     9
 73
     5
 74
     0
 42
0.000000001
 43
0.00000001
 40
0.0
 40
0.0
 40
0.0
 40
0.0
 40
0.499968304409832
 40
1.0
 40
1.0
 40
1.0
 40
1.0
 10
18.09333346439544
 20
9.379072473053064
 30
0.0
 10
18.01722694695852
 20
9.525032477928496
 30
0.0
 10
17.86500426250905
 20
9.816970994006484
 30
0.0
 10
17.71281052403417
 20
10.10890980997394
 30
0.0
 10
17.63670883092637
 20
10.25488847113073
 30
0.0
  0
SPLINE
  5
DC
330
1B
100
AcDbEntity
  8
0
  6
Continuous
 62
     7
370
    25
100
AcDbSpline
210
0.0
220
0.0
230
1.0
 70
     8
 71
     3
 72
     9
 73
     5
 74
     0
 42
0.000000001
 43
0.00000001
 40
0.0
 40
0.0
 40
0.0
 40
0.0
 40
0.4999749034175578
 40
1.0
 40
1.0
 40
1.0
 40
1.0
 10
19.90991148108345
 20
9.377972197296321
 30
0.0
 10
19.83383513499246
 20
9.523873905854861
 30
0.0
 10
19.68167480540198
 20
9.815691970244163
 30
0.0
 10
19.52953738631212
 20
10.10752749927773
 30
0.0
 10
19.45346485863791
 20
10.25345258786893
 30
0.0
  0
SPLINE
  5
DD
330
1B
100
AcDbEntity
  8
0
  6
Continuous
 62
     7
370
    25
100
AcDbSpline
210
0.0
220
0.0
230
1.0
 70
     8
 71
     3
 72
     9
 73
     5
 74
     0
 42
0.000000001
 43
0.00000001
 40
0.0
 40
0.0
 40
0.0
 40
0.0
 40
0.4999683686375275
 40
1.0
 40
1.0
 40
1.0
 40
1.0
 10
21.727616030674
 20
9.374502043179168
 30
0.0
 10
21.65151143663387
 20
9.520455551521223
 30
0.0
 10
21.49929261877639
 20
9.812381036206967
 30
0.0
 10
21.34710268750946
 20
10.10432586052128
 30
0.0
 10
21.2710029079011
 20
10.250307507291
 30
0.0
  0
SPLINE
  5
E9
330
1B
100
AcDbEntity
  8
0
  6
Continuous
 62
     7
370
    25
100
AcDbSpline
210
0.0
220
0.0
230
1.0
 70
     8
 71
     3
 72
     9
 73
     5
 74
     0
 42
0.000000001
 43
0.00000001
 40
0.0
 40
0.0
 40
0.0
 40
0.0
 40
0.4999729233682001
 40
1.0
 40
1.0
 40
1.0
 40
1.0
 10
21.34636437641742
 20
-9.386173126978836
 30
0.0
 10
21.42176993498548
 20
-9.530789542406195
 30
0.0
 10
21.5725892194781
 20
-9.820038037010884
 30
0.0
 10
21.72338400389143
 20
-10.10929762056223
 30
0.0
 10
21.79878547911293
 20
-10.25393524451315
 30
0.0
  0
SPLINE
  5
EA
330
1B
100
AcDbEntity
  8
0
  6
Continuous
 62
     7
370
    25
100
AcDbSpline
210
0.0
220
0.0
230
1.0
 70
     8
 71
     3
 72
     9
 73
     5
 74
     0
 42
0.000000001
 43
0.00000001
 40
0.0
 40
0.0
 40
0.0
 40
0.0
 40
0.4999729396983152
 40
1.0
 40
1.0
 40
1.0
 40
1.0
 10
19.5303358632777
 20
-9.386118779464892
 30
0.0
 10
19.60574132649287
 20
-9.530734962678496
 30
0.0
 10
19.75656041534329
 20
-9.81998298338311
 30
0.0
 10
19.90735501892114
 20
-10.10924233823232
 30
0.0
 10
19.98275640125753
 20
-10.25387984310233
 30
0.0
  0
SPLINE
  5
EB
330
1B
100
AcDbEntity
  8
0
  6
Continuous
 62
     7
370
    25
100
AcDbSpline
210
0.0
220
0.0
230
1.0
 70
     8
 71
     3
 72
     9
 73
     5
 74
     0
 42
0.000000001
 43
0.00000001
 40
0.0
 40
0.0
 40
0.0
 40
0.0
 40
0.4999729532012973
 40
1.0
 40
1.0
 40
1.0
 40
1.0
 10
17.71430633603943
 20
-9.386062399542313
 30
0.0
 10
17.78971171614108
 20
-9.530678370010271
 30
0.0
 10
17.94053063468222
 20
-9.819925957388735
 30
0.0
 10
18.09132508019548
 20
-10.10918512633516
 30
0.0
 10
18.16672638145914
 20
-10.25382253434289
 30
0.0
  0
SPLINE
  5
EC
330
1B
100
AcDbEntity
  8
0
  6
Continuous
 62
     7
370
    25
100
AcDbSpline
210
0.0
220
0.0
230
1.0
 70
     8
 71
     3
 72
     9
 73
     5
 74
     0
 42
0.000000001
 43
0.00000001
 40
0.0
 40
0.0
 40
0.0
 40
0.0
 40
0.4999729634158582
 40
1.0
 40
1.0
 40
1.0
 40
1.0
 10
15.89827945711597
 20
-9.386010988358557
 30
0.0
 10
15.97368477109448
 20
-9.530626781588833
 30
0.0
 10
16.12450355430095
 20
-9.81987400856336
 30
0.0
 10
16.27529787374332
 20
-10.1091330383602
 30
0.0
 10
16.3506991104278
 20
-10.25377037383471
 30
0.0
  0
SPLINE
  5
ED
330
1B
100
AcDbEntity
  8
0
  6
Continuous
 62
     7
370
    25
100
AcDbSpline
210
0.0
220
0.0
230
1.0
 70
     8
 71
     3
 72
     9
 73
     5
 74
     0
 42
0.000000001
 43
0.00000001
 40
0.0
 40
0.0
 40
0.0
 40
0.0
 40
0.4999729700220933
 40
1.0
 40
1.0
 40
1.0
 40
1.0
 10
14.08225925582196
 20
-9.385972294237247
 30
0.0
 10
14.15766452502296
 20
-9.53058796257559
 30
0.0
 10
14.30848321667678
 20
-9.819834935930873
 30
0.0
 10
14.45927745055842
 20
-10.10909387634445
 30
0.0
 10
14.53467864346405
 20
-10.25373116521401
 30
0.0
  0
SPLINE
  5
EE
330
1B
100
AcDbEntity
  8
0
  6
Continuous
 62
     7
370
    25
100
AcDbSpline
210
0.0
220
0.0
230
1.0
 70
     8
 71
     3
 72
     9
 73
     5
 74
     0
 42
0.000000001
 43
0.00000001
 40
0.0
 40
0.0
 40
0.0
 40
0.0
 40
0.5000267816221708
 40
1.0
 40
1.0
 40
1.0
 40
1.0
 10
13.62654687208131
 20
10.25347745640814
 30
0.0
 10
13.55114687244589
 20
10.10884225861163
 30
0.0
 10
13.40035495007964
 20
9.819587356449595
 30
0.0
 10
13.24953879505263
 20
9.530345807520671
 30
0.0
 10
13.17413475664041
 20
9.385732779414086
 30
0.0
  0
SPLINE
  5
EF
330
1B
100
AcDbEntity
  8
0
  6
Continuous
 62
     7
370
    25
100
AcDbSpline
210
0.0
220
0.0
230
1.0
 70
     8
 71
     3
 72
     9
 73
     5
 74
     0
 42
0.000000001
 43
0.00000001
 40
0.0
 40
0.0
 40
0.0
 40
0.0
 40
0.5083800536507532
 40
0.9999999999999999
 40
0.9999999999999999
 40
0.9999999999999999
 40
0.9999999999999999
 10
15.44255131405078
 20
10.25348604476439
 30
0.0
 10
15.36715141605345
 20
10.10885096637318
 30
0.0
 10
15.21883737923027
 20
9.824349091540435
 30
0.0
 10
15.07049952219104
 20
9.539860343197379
 30
0.0
 10
14.99757367287184
 20
9.4
 30
0.0
  0
SPLINE
  5
F0
330
1B
100
AcDbEntity
  8
0
  6
Continuous
 62
     7
370
    25
100
AcDbSpline
210
0.0
220
0.0
230
1.0
 70
     8
 71
     3
 72
     9
 73
     5
 74
     0
 42
0.000000001
 43
0.00000001
 40
0.0
 40
0.0
 40
0.0
 40
0.0
 40
0.5083677592692789
 40
1.0
 40
1.0
 40
1.0
 40
1.0
 10
17.25856187692366
 20
10.25350645755887
 30
0.0
 10
17.18316199972075
 20
10.1088714347833
 30
0.0
 10
17.03484441697065
 20
9.82436278894889
 30
0.0
 10
16.88650301911851
 20
9.53986720259645
 30
0.0
 10
16.81357360529934
 20
9.4
 30
0.0
  0
SPLINE
  5
F1
330
1B
100
AcDbEntity
  8
0
  6
Continuous
 62
     7
370
    25
100
AcDbSpline
210
0.0
220
0.0
230
1.0
 70
     8
 71
     3
 72
     9
 73
     5
 74
     0
 42
0.000000001
 43
0.00000001
 40
0.0
 40
0.0
 40
0.0
 40
0.0
 40
0.508349424181077
 40
0.9999999999999999
 40
0.9999999999999999
 40
0.9999999999999999
 40
0.9999999999999999
 10
19.07457805997731
 20
10.2535377038904
 30
0.0
 10
18.99917814659596
 20
10.10890263494303
 30
0.0
 10
18.85085514317601
 20
9.824383636656814
 30
0.0
 10
18.70250831884612
 20
9.539877571002782
 30
0.0
 10
18.62957351724343
 20
9.4
 30
0.0
  0
SPLINE
  5
F2
330
1B
100
AcDbEntity
  8
0
  6
Continuous
 62
     7
370
    25
100
AcDbSpline
210
0.0
220
0.0
230
1.0
 70
     8
 71
     3
 72
     9
 73
     5
 74
     0
 42
0.000000001
 43
0.00000001
 40
0.0
 40
0.0
 40
0.0
 40
0.0
 40
0.5083265684937828
 40
1.0
 40
1.0
 40
1.0
 40
1.0
 10
20.89059861116363
 20
10.25357733629766
 30
0.0
 10
20.81519859542924
 20
10.10894210059745
 30
0.0
 10
20.66686872166758
 20
9.824409981552835
 30
0.0
 10
20.51851500830539
 20
9.539890613848948
 30
0.0
 10
20.44557342897992
 20
9.4
 30
0.0
  0
SPLINE
  5
F3
330
1B
100
AcDbEntity
  8
0
  6
Continuous
 62
     7
370
    25
100
AcDbSpline
210
0.0
220
0.0
230
1.0
 70
     8
 71
     3
 72
     9
 73
     5
 74
     0
 42
0.000000001
 43
0.00000001
 40
0.0
 40
0.0
 40
0.0
 40
0.0
 40
0.5000268196435901
 40
1.0
 40
1.0
 40
1.0
 40
1.0
 10
22.70662116712041
 20
10.25362077310463
 30
0.0
 10
22.63122094605857
 20
10.10898525858793
 30
0.0
 10
22.48042859232929
 20
9.819729745014095
 30
0.0
 10
22.32961197146438
 20
9.530486969647985
 30
0.0
 10
22.25420770587994
 20
9.385873339353072
 30
0.0
  0
SPLINE
  5
12C
330
1B
100
AcDbEntity
  8
0
  6
Continuous
 62
     7
370
    25
100
AcDbSpline
210
0.0
220
0.0
230
1.0
 70
     8
 71
     3
 72
    19
 73
    15
 74
     0
 42
0.000000001
 43
0.00000001
 40
0.0
 40
0.0
 40
0.0
 40
0.0
 40
0.0352771574454409
 40
0.1241227587908483
 40
0.2134576499797883
 40
0.3032818330564099
 40
0.3935953100316389
 40
0.484398082883893
 40
0.5756901535597789
 40
0.6674715239747707
 40
0.7597421960138698
 40
0.8525021715322477
 40
0.9457514523558727
 40
1.0
 40
1.0
 40
1.0
 40
1.0
 10
12.54128930248377
 20
9.480835725048838
 30
0.0
 10
12.54836437413898
 20
9.487103235056917
 30
0.0
 10
12.57325802986636
 20
9.50915548329021
 30
0.0
 10
12.61575931126176
 20
8.757117183333278
 30
0.0
 10
12.66889821039605
 20
7.295797411390971
 30
0.0
 10
12.72201844968821
 20
5.198333156331083
 30
0.0
 10
12.77514375616259
 20
2.682676787548973
 30
0.0
 10
12.8282676465955
 20
-0.074173569420917
 30
0.0
 10
12.88139214768827
 20
-2.854746576457497
 30
0.0
 10
12.9345156752729
 20
-5.438924966928113
 30
0.0
 10
12.98764255655199
 20
-7.633264898856187
 30
0.0
 10
13.04075695341875
 20
-9.216468272295467
 30
0.0
 10
13.08641390650778
 20
-10.08400169729012
 30
0.0
 10
13.11425489009592
 20
-10.0791445656963
 30
0.0
 10
13.12449458609911
 20
-10.07735815068655
 30
0.0
  0
SPLINE
  5
12D
330
1B
100
AcDbEntity
  8
0
  6
Continuous
 62
     7
370
    25
100
AcDbSpline
210
0.0
220
0.0
230
1.0
 70
     8
 71
     3
 72
    37
 73
    33
 74
     0
 42
0.000000001
 43
0.00000001
 40
0.0
 40
0.0
 40
0.0
 40
0.0
 40
0.0222492543248012
 40
0.0398577148699899
 40
0.0574646958381145
 40
0.0750703093060573
 40
0.0926746673768184
 40
0.1102778821773827
 40
0.1193875604165671
 40
0.1318152896095127
 40
0.1490383656352886
 40
0.1710558627870903
 40
0.1978665914399848
 40
0.2854495729303161
 40
0.3030163560723652
 40
0.3205828563664845
 40
0.3381490790503084
 40
0.3557150293617211
 40
0.3732807125388481
 40
0.3802195086579556
 40
0.4010502347444759
 40
0.4343810299505131
 40
0.4982006603796171
 40
0.5384767557037312
 40
0.5843011606545457
 40
0.6356705370801788
 40
0.692581142866644
 40
0.7550288322207483
 40
0.8230090559785589
 40
0.8965168619411956
 40
0.9755468952388281
 40
1.0
 40
1.0
 40
1.0
 40
1.0
 10
12.64170209903771
 20
9.314796897924658
 30
0.0
 10
12.64886603852582
 20
9.32430211647287
 30
0.0
 10
12.66169964873559
 20
9.341329936153517
 30
0.0
 10
12.68131572509232
 20
9.23380757654091
 30
0.0
 10
12.69750573446309
 20
9.12939274865553
 30
0.0
 10
12.71246005923123
 20
8.992536162146381
 30
0.0
 10
12.72649646741311
 20
8.830930202259522
 30
0.0
 10
12.73592971075407
 20
8.673263531549928
 30
0.0
 10
12.74673398757892
 20
8.519932638316929
 30
0.0
 10
12.75844428536457
 20
8.356877076263693
 30
0.0
 10
12.77427214996415
 20
8.119360833532141
 30
0.0
 10
12.7948402262508
 20
7.782407508763523
 30
0.0
 10
12.83791676813108
 20
7.005705924499252
 30
0.0
 10
12.8783320597904
 20
6.07191487288863
 30
0.0
 10
12.91344306865147
 20
5.096878145029762
 30
0.0
 10
12.92827416981335
 20
4.663107870684524
 30
0.0
 10
12.94278637319532
 20
4.215812126936396
 30
0.0
 10
12.95715830840222
 20
3.756241628349335
 30
0.0
 10
12.96800684237613
 20
3.380576754908557
 30
0.0
 10
12.98066333109413
 20
2.970130374508658
 30
0.0
 10
12.99860273581133
 20
2.408555692005522
 30
0.0
 10
13.03331587143817
 20
1.299001978295231
 30
0.0
 10
13.07426383941554
 20
-0.0301206329378981
 30
0.0
 10
13.11889419740195
 20
-1.470277253607038
 30
0.0
 10
13.15992546657055
 20
-2.765440247508617
 30
0.0
 10
13.20597807208879
 20
-4.153428038911125
 30
0.0
 10
13.25706636826586
 20
-5.572430401545171
 30
0.0
 10
13.31318214241468
 20
-6.934636350394478
 30
0.0
 10
13.37434457839262
 20
-8.13294820730014
 30
0.0
 10
13.44047834628212
 20
-9.016668516811892
 30
0.0
 10
13.4937943769453
 20
-9.389878035613453
 30
0.0
 10
13.52470984873016
 20
-9.382632632025361
 30
0.0
 10
13.5320151864352
 20
-9.380920540410244
 30
0.0
  0
SPLINE
  5
12E
330
1B
100
AcDbEntity
  8
0
  6
Continuous
 62
     7
370
    25
100
AcDbSpline
210
0.0
220
0.0
230
1.0
 70
     8
 71
     3
 72
    30
 73
    26
 74
     0
 42
0.000000001
 43
0.00000001
 40
0.0
 40
0.0
 40
0.0
 40
0.0
 40
0.0213423338200462
 40
0.0540655642684175
 40
0.0884586246415956
 40
0.1858731226209359
 40
0.2764644202816051
 40
0.3602223436996865
 40
0.3996083158446095
 40
0.4372733746855508
 40
0.524368822347123
 40
0.611455840075477
 40
0.6986633068313706
 40
0.7858833061777971
 40
0.8033381237406997
 40
0.8207915047400423
 40
0.8382435543975462
 40
0.8556943779590177
 40
0.8731440806924446
 40
0.882304253927189
 40
0.8947552052856509
 40
0.9119889411199313
 40
0.9340045323445936
 40
0.960800785931596
 40
1.0
 40
1.0
 40
1.0
 40
1.0
 10
14.45454943783434
 20
9.37849988920066
 30
0.0
 10
14.46065959938986
 20
9.367677771472389
 30
0.0
 10
14.4761381939548
 20
9.340262592490948
 30
0.0
 10
14.50138512538544
 20
9.188401668530409
 30
0.0
 10
14.54810396552618
 20
8.766881812333555
 30
0.0
 10
14.61229279147842
 20
7.765557622109826
 30
0.0
 10
14.69273405588871
 20
5.922890420669234
 30
0.0
 10
14.75806241763036
 20
4.124480667283881
 30
0.0
 10
14.80821901884731
 20
2.658976831620856
 30
0.0
 10
14.86090313044236
 20
1.11054700651435
 30
0.0
 10
14.92713766156911
 20
-0.9626452098524538
 30
0.0
 10
14.99710818536905
 20
-3.448073758342563
 30
0.0
 10
15.06853627814417
 20
-5.685700007093028
 30
0.0
 10
15.13291146418705
 20
-7.027659256828956
 30
0.0
 10
15.17457425609651
 20
-7.726254977764306
 30
0.0
 10
15.19086144957665
 20
-8.003606812422959
 30
0.0
 10
15.20589590177997
 20
-8.257718067616443
 30
0.0
 10
15.2200560418736
 20
-8.487914632117219
 30
0.0
 10
15.2296919987497
 20
-8.660979011411571
 30
0.0
 10
15.24065771950128
 20
-8.800041252742215
 30
0.0
 10
15.25256705777778
 20
-8.926592232391814
 30
0.0
 10
15.26864909277978
 20
-9.073617705290825
 30
0.0
 10
15.28946432593159
 20
-9.222753594828836
 30
0.0
 10
15.31793249325436
 20
-9.366815674418415
 30
0.0
 10
15.33773569245792
 20
-9.382604906797315
 30
0.0
 10
15.34949816452452
 20
-9.391983209913949
 30
0.0
  0
SPLINE
  5
12F
330
1B
100
AcDbEntity
  8
0
  6
Continuous
 62
     7
370
    25
100
AcDbSpline
210
0.0
220
0.0
230
1.0
 70
     8
 71
     3
 72
    29
 73
    25
 74
     0
 42
0.000000001
 43
0.00000001
 40
0.0
 40
0.0
 40
0.0
 40
0.0
 40
0.0578739370247909
 40
0.1454697823303571
 40
0.2328889553249603
 40
0.2767007745986749
 40
0.3205147197850809
 40
0.4027541245293138
 40
0.4205320745239012
 40
0.438739286960649
 40
0.4573757558372579
 40
0.4764414748347627
 40
0.4959364373289687
 40
0.5293564235996011
 40
0.5856158017868207
 40
0.6223466815698276
 40
0.6647906871496161
 40
0.7129445407504549
 40
0.7668045236428066
 40
0.8263664764341815
 40
0.8916257993928094
 40
0.962577452804759
 40
0.9875408554889251
 40
1.0
 40
1.0
 40
1.0
 40
1.0
 10
16.2767240528611
 20
9.304093196402844
 30
0.0
 10
16.29407146192369
 20
9.26938355132628
 30
0.0
 10
16.33767526615855
 20
9.182138674381262
 30
0.0
 10
16.40055668624607
 20
8.274816791838827
 30
0.0
 10
16.46151604879628
 20
7.006084388735484
 30
0.0
 10
16.51465452728761
 20
5.73444403569903
 30
0.0
 10
16.56923690626769
 20
4.370373662854306
 30
0.0
 10
16.6152529852618
 20
3.073845876405485
 30
0.0
 10
16.65118232213598
 20
1.967948284103942
 30
0.0
 10
16.66764233302154
 20
1.450644519173009
 30
0.0
 10
16.68430629297329
 20
0.9164943367077254
 30
0.0
 10
16.70120667146788
 20
0.3668868670706326
 30
0.0
 10
16.72219516830847
 20
-0.3263842405312675
 30
0.0
 10
16.75424404323237
 20
-1.376273799984568
 30
0.0
 10
16.79166011703179
 20
-2.573237990255943
 30
0.0
 10
16.83170609896638
 20
-3.798893548116567
 30
0.0
 10
16.86941699067183
 20
-4.892466553560647
 30
0.0
 10
16.91223078618273
 20
-6.033458317053119
 30
0.0
 10
16.96015524048425
 20
-7.154757080384327
 30
0.0
 10
17.01319285932298
 20
-8.16763737333582
 30
0.0
 10
17.07132196224115
 20
-8.966776750252219
 30
0.0
 10
17.11926661988947
 20
-9.309467458254563
 30
0.0
 10
17.15141541798389
 20
-9.396742134815991
 30
0.0
 10
17.16251470890046
 20
-9.396093828233383
 30
0.0
 10
17.16621001239699
 20
-9.395877986554888
 30
0.0
  0
SPLINE
  5
130
330
1B
100
AcDbEntity
  8
0
  6
Continuous
 62
     7
370
    25
100
AcDbSpline
210
0.0
220
0.0
230
1.0
 70
     8
 71
     3
 72
    31
 73
    27
 74
     0
 42
0.000000001
 43
0.00000001
 40
0.0
 40
0.0
 40
0.0
 40
0.0
 40
0.0077658082340975
 40
0.0751549165222168
 40
0.1382431577065102
 40
0.1970277349667918
 40
0.2515060422874054
 40
0.3016756645784833
 40
0.347534377791253
 40
0.4261664450671577
 40
0.4876089329232817
 40
0.519013611043794
 40
0.542740373383698
 40
0.5587859031368838
 40
0.5802410971417598
 40
0.6165672228035199
 40
0.6403167358898936
 40
0.667784855048517
 40
0.6989706784019779
 40
0.7338731817437534
 40
0.8210073258095347
 40
0.9081369433395823
 40
0.9373502443970962
 40
0.9665655578029623
 40
0.99578303223716
 40
1.0
 40
1.0
 40
1.0
 40
1.0
 10
18.0856654704383
 20
9.363497914364068
 30
0.0
 10
18.08800633258832
 20
9.366622199225208
 30
0.0
 10
18.11066042011823
 20
9.396857991927366
 30
0.0
 10
18.15227154301829
 20
9.062258102723407
 30
0.0
 10
18.20919466376116
 20
8.403988404923547
 30
0.0
 10
18.26216010273188
 20
7.468341182832024
 30
0.0
 10
18.31117210191713
 20
6.392276156280855
 30
0.0
 10
18.35623960038638
 20
5.240485642299321
 30
0.0
 10
18.40840481139488
 20
3.767610566248186
 30
0.0
 10
18.46393335033046
 20
2.045480457321226
 30
0.0
 10
18.51476698436424
 20
0.3886522389563709
 30
0.0
 10
18.54886629012237
 20
-0.7379565048005083
 30
0.0
 10
18.56959401353316
 20
-1.42080633133834
 30
0.0
 10
18.58659402565061
 20
-2.002354467285921
 30
0.0
 10
18.60784141539595
 20
-2.695021537208756
 30
0.0
 10
18.63239457278824
 20
-3.44139677500561
 30
0.0
 10
18.65881986194752
 20
-4.212639505385773
 30
0.0
 10
18.68386948728398
 20
-4.910830643451186
 30
0.0
 10
18.71238836505268
 20
-5.66121649003041
 30
0.0
 10
18.75940656543077
 20
-6.799512178417925
 30
0.0
 10
18.82249342798112
 20
-8.09882485082816
 30
0.0
 10
18.87897650599586
 20
-8.905580336157342
 30
0.0
 10
18.9197225057106
 20
-9.237984929236445
 30
0.0
 10
18.94649962328519
 20
-9.361506446647033
 30
0.0
 10
18.96734498935887
 20
-9.400946754006377
 30
0.0
 10
18.97839796976439
 20
-9.399105877513612
 30
0.0
 10
18.97979204303106
 20
-9.398873694282331
 30
0.0
  0
SPLINE
  5
131
330
1B
100
AcDbEntity
  8
0
  6
Continuous
 62
     7
370
    25
100
AcDbSpline
210
0.0
220
0.0
230
1.0
 70
     8
 71
     3
 72
    24
 73
    20
 74
     0
 42
0.000000001
 43
0.00000001
 40
0.0
 40
0.0
 40
0.0
 40
0.0
 40
0.0204504475487232
 40
0.0769443930148854
 40
0.1449876047974916
 40
0.2245583888170901
 40
0.3156313750837113
 40
0.365619906359845
 40
0.4185000394008367
 40
0.4742707204229704
 40
0.5329308380332026
 40
0.5944792232522247
 40
0.6589146495385374
 40
0.7262358328134633
 40
0.7964414314872365
 40
0.8695300464861562
 40
0.9455002212808021
 40
0.9846364475114238
 40
0.9999999999999999
 40
0.9999999999999999
 40
0.9999999999999999
 40
0.9999999999999999
 10
19.90589225081668
 20
9.36258537436444
 30
0.0
 10
19.91208859719709
 20
9.356075325445927
 30
0.0
 10
19.93540222444233
 20
9.33158139878057
 30
0.0
 10
19.9789286734673
 20
9.00922050032201
 30
0.0
 10
20.04009317724781
 20
8.252740592314025
 30
0.0
 10
20.11137405985627
 20
6.884811906036854
 30
0.0
 10
20.1772838329726
 20
5.207237633788473
 30
0.0
 10
20.2348869323937
 20
3.526914986694064
 30
0.0
 10
20.28201200471308
 20
2.059990499386708
 30
0.0
 10
20.33167004968664
 20
0.4529075332641886
 30
0.0
 10
20.38387583019225
 20
-1.25301510066481
 30
0.0
 10
20.43862496507889
 20
-3.000205371215607
 30
0.0
 10
20.49591905775657
 20
-4.715069103913836
 30
0.0
 10
20.55575622872785
 20
-6.310095821747836
 30
0.0
 10
20.61814260672884
 20
-7.684317062718132
 30
0.0
 10
20.68305421147037
 20
-8.740314360809037
 30
0.0
 10
20.73881820048978
 20
-9.240564855421217
 30
0.0
 10
20.77734872041525
 20
-9.403347567667153
 30
0.0
 10
20.79345102685226
 20
-9.386902002587705
 30
0.0
 10
20.7979902862024
 20
-9.382265978217696
 30
0.0
  0
SPLINE
  5
132
330
1B
100
AcDbEntity
  8
0
  6
Continuous
 62
     7
370
    25
100
AcDbSpline
210
0.0
220
0.0
230
1.0
 70
     8
 71
     3
 72
    21
 73
    17
 74
     0
 42
0.000000001
 43
0.00000001
 40
0.0
 40
0.0
 40
0.0
 40
0.0
 40
0.0201036725279015
 40
0.0963391635083112
 40
0.1695043836627859
 40
0.3062687681362614
 40
0.4308299532628196
 40
0.5431672933733492
 40
0.6432621688664981
 40
0.7310979893080563
 40
0.8066601961975312
 40
0.8699362654067677
 40
0.9209157093039031
 40
0.9595900786073948
 40
0.9859529641613474
 40
1.0
 40
1.0
 40
1.0
 40
1.0
 10
21.72016272138888
 20
9.357005560544387
 30
0.0
 10
21.72420353612675
 20
9.356112992191434
 30
0.0
 10
21.74356759566362
 20
9.35183569965306
 30
0.0
 10
21.77764837057297
 20
9.103914931530396
 30
0.0
 10
21.83513680114073
 20
8.492753720430585
 30
0.0
 10
21.9026566839639
 20
7.301536061216664
 30
0.0
 10
21.9779396518504
 20
5.467731057609348
 30
0.0
 10
22.04586382891803
 20
3.497821514914042
 30
0.0
 10
22.10638821355406
 20
1.584976430896439
 30
0.0
 10
22.1595228522401
 20
-0.1473310152137605
 30
0.0
 10
22.20526212029347
 20
-1.630862270579567
 30
0.0
 10
22.24361499665504
 20
-2.83989300606798
 30
0.0
 10
22.27455429441777
 20
-3.776726769877511
 30
0.0
 10
22.29814339980181
 20
-4.457728737968892
 30
0.0
 10
22.31422041660641
 20
-4.905696221940918
 30
0.0
 10
22.32267621376094
 20
-5.127486436303296
 30
0.0
 10
22.32561556334591
 20
-5.204583717922381
 30
0.0
  0
SPLINE
  5
134
330
1B
100
AcDbEntity
  8
0
  6
Continuous
 62
     7
370
    25
100
AcDbSpline
210
0.0
220
0.0
230
1.0
 70
     8
 71
     3
 72
    25
 73
    21
 74
     0
 42
0.000000001
 43
0.00000001
 40
0.0
 40
0.0
 40
0.0
 40
0.0
 40
0.0691326820063571
 40
0.1506218208059835
 40
0.2293082200280919
 40
0.3051903828011344
 40
0.3782668656123774
 40
0.4485362783368704
 40
0.5159972842657118
 40
0.5806486001336665
 40
0.6424889961462747
 40
0.7015172960065458
 40
0.7577323769414662
 40
0.8111331697285626
 40
0.8617186587228767
 40
0.9094878818848618
 40
0.954439930809961
 40
0.9758709712516176
 40
0.9965962801003884
 40
1.0
 40
1.0
 40
1.0
 40
1.0
 10
14.00245044112043
 20
10.18771502182813
 30
0.0
 10
14.02306664262433
 20
10.12909741037031
 30
0.0
 10
14.06798389042233
 20
10.00138514588357
 30
0.0
 10
14.13643632281214
 20
9.024892358610428
 30
0.0
 10
14.20696099049223
 20
7.546379325107223
 30
0.0
 10
14.27504041556073
 20
5.682115106287929
 30
0.0
 10
14.34067271834753
 20
3.597600058545456
 30
0.0
 10
14.40385835749014
 20
1.420762200802844
 30
0.0
 10
14.4645971970859
 20
-0.7301594866082747
 30
0.0
 10
14.52288924426669
 20
-2.760280937862403
 30
0.0
 10
14.57873447843885
 20
-4.597721287682342
 30
0.0
 10
14.63213283565247
 20
-6.193893171210374
 30
0.0
 10
14.6830844115253
 20
-7.521587535195356
 30
0.0
 10
14.73158871378574
 20
-8.571821055011617
 30
0.0
 10
14.77764724567684
 20
-9.35143329343042
 30
0.0
 10
14.82125460970067
 20
-9.875967664660605
 30
0.0
 10
14.85610786009596
 20
-10.13199718609027
 30
0.0
 10
14.88274928936441
 20
-10.22382563941231
 30
0.0
 10
14.89671089982425
 20
-10.25907035079173
 30
0.0
 10
14.90411532000065
 20
-10.24650950272727
 30
0.0
 10
14.90515981178531
 20
-10.24473762831994
 30
0.0
  0
SPLINE
  5
135
330
1B
100
AcDbEntity
  8
0
  6
Continuous
 62
     7
370
    25
100
AcDbSpline
210
0.0
220
0.0
230
1.0
 70
     8
 71
     3
 72
    22
 73
    18
 74
     0
 42
0.000000001
 43
0.00000001
 40
0.0
 40
0.0
 40
0.0
 40
0.0
 40
0.0206892579263655
 40
0.0968448500722438
 40
0.1730003095832164
 40
0.2491556367495945
 40
0.3253108318616912
 40
0.401465895209822
 40
0.4776208270843042
 40
0.5537756277754557
 40
0.6299302975735939
 40
0.7060848367690425
 40
0.7822392456521237
 40
0.8583935245131596
 40
0.9345476736424789
 40
0.9726902747810644
 40
1.0
 40
1.0
 40
1.0
 40
1.0
 10
15.84530704190626
 20
10.17554014604412
 30
0.0
 10
15.85145948876601
 20
10.17885596585477
 30
0.0
 10
15.8802586267453
 20
10.19437706736416
 30
0.0
 10
15.93155605088324
 20
9.658465805069845
 30
0.0
 10
15.99919476415386
 20
8.58266834385171
 30
0.0
 10
16.06667369859956
 20
6.993121407348999
 30
0.0
 10
16.13400741996493
 20
5.031802121710822
 30
0.0
 10
16.20119201749688
 20
2.791534286045996
 30
0.0
 10
16.26822856849824
 20
0.3990715480928593
 30
0.0
 10
16.33511667450172
 20
-2.015507335694994
 30
0.0
 10
16.40185685207511
 20
-4.319476392548665
 30
0.0
 10
16.46844743341772
 20
-6.386894341890764
 30
0.0
 10
16.53489457315016
 20
-8.103338045597573
 30
0.0
 10
16.60117532064506
 20
-9.378701732006512
 30
0.0
 10
16.65636101447346
 20
-10.00349981050014
 30
0.0
 10
16.69720717509829
 20
-10.23015770089154
 30
0.0
 10
16.71607060779151
 20
-10.23587996657497
 30
0.0
 10
16.7239413007402
 20
-10.23826755937939
 30
0.0
  0
SPLINE
  5
137
330
1B
100
AcDbEntity
  8
0
  6
Continuous
 62
     7
370
    25
100
AcDbSpline
210
0.0
220
0.0
230
1.0
 70
     8
 71
     3
 72
    21
 73
    17
 74
     0
 42
0.000000001
 43
0.00000001
 40
0.0
 40
0.0
 40
0.0
 40
0.0
 40
0.0256029884468826
 40
0.1038626521581992
 40
0.1831542653851692
 40
0.2634776247821531
 40
0.3448325243516724
 40
0.4272187554451737
 40
0.510636106763787
 40
0.5950843643590757
 40
0.6805633116337788
 40
0.7670727293425513
 40
0.854612395592702
 40
0.943182085844922
 40
0.9879598393845923
 40
1.0
 40
1.0
 40
1.0
 40
1.0
 10
17.63464894437145
 20
10.17250688438781
 30
0.0
 10
17.64226295305611
 20
10.17681217357533
 30
0.0
 10
17.67315040735412
 20
10.19427727356754
 30
0.0
 10
17.72772702740163
 20
9.616781665354464
 30
0.0
 10
17.79868521030092
 20
8.450663119838199
 30
0.0
 10
17.87067742989443
 20
6.711514918066883
 30
0.0
 10
17.94369393747321
 20
4.541359366101759
 30
0.0
 10
18.01773744239278
 20
2.048567172776674
 30
0.0
 10
18.09280703217902
 20
-0.6101591976252034
 30
0.0
 10
18.16890361543862
 20
-3.261614385890031
 30
0.0
 10
18.24602444082572
 20
-5.721737415551238
 30
0.0
 10
18.32417977519217
 20
-7.805224573900168
 30
0.0
 10
18.40333066652758
 20
-9.358362653014494
 30
0.0
 10
18.4700804076384
 20
-10.05852356348436
 30
0.0
 10
18.51387253921157
 20
-10.26115788539144
 30
0.0
 10
18.53100005461132
 20
-10.23752309016768
 30
0.0
 10
18.53462950914908
 20
-10.2325146921151
 30
0.0
  0
SPLINE
  5
138
330
1B
100
AcDbEntity
  8
0
  6
Continuous
 62
     7
370
    25
100
AcDbSpline
210
0.0
220
0.0
230
1.0
 70
     8
 71
     3
 72
    23
 73
    19
 74
     0
 42
0.000000001
 43
0.00000001
 40
0.0
 40
0.0
 40
0.0
 40
0.0
 40
0.0171198147454588
 40
0.0928577869101819
 40
0.1681947690172335
 40
0.2431307320170512
 40
0.3176656470164803
 40
0.3917994852788138
 40
0.4655322182238352
 40
0.53886381742786
 40
0.6117942546237805
 40
0.6843235017011078
 40
0.756451530706019
 40
0.8281783138414014
 40
0.8995038234669007
 40
0.9704280320989676
 40
0.994021820301008
 40
1.0
 40
1.0
 40
1.0
 40
1.0
 10
19.46457629974654
 20
10.18646245677893
 30
0.0
 10
19.46967389607725
 20
10.19210904252834
 30
0.0
 10
19.49732323229199
 20
10.22273609451955
 30
0.0
 10
19.54732591330599
 20
9.725338936618881
 30
0.0
 10
19.61446082455526
 20
8.7048841029469
 30
0.0
 10
19.6811503885103
 20
7.17812238745446
 30
0.0
 10
19.74740304779851
 20
5.292070631735688
 30
0.0
 10
19.81321656116218
 20
3.136035936954423
 30
0.0
 10
19.87859151396576
 20
0.830349231854822
 30
0.0
 10
19.94352778918527
 20
-1.505287356193537
 30
0.0
 10
20.00802527544053
 20
-3.751579371253757
 30
0.0
 10
20.07208452995302
 20
-5.797073699348502
 30
0.0
 10
20.13570345205964
 20
-7.544277725768645
 30
0.0
 10
20.19888982679398
 20
-8.909461475811499
 30
0.0
 10
20.26161484039604
 20
-9.843432719741278
 30
0.0
 10
20.31022874379723
 20
-10.17509872980902
 30
0.0
 10
20.33956148849132
 20
-10.25835052591078
 30
0.0
 10
20.34819846293759
 20
-10.24406483669804
 30
0.0
 10
20.3499444876008
 20
-10.24117688492142
 30
0.0
  0
SPLINE
  5
139
330
1B
100
AcDbEntity
  8
0
  6
Continuous
 62
     7
370
    25
100
AcDbSpline
210
0.0
220
0.0
230
1.0
 70
     8
 71
     3
 72
    18
 73
    14
 74
     0
 42
0.000000001
 43
0.00000001
 40
0.0
 40
0.0
 40
0.0
 40
0.0
 40
0.0404794497386153
 40
0.1534515717568934
 40
0.2604399228900283
 40
0.361440244462252
 40
0.4564485163263629
 40
0.545460957058407
 40
0.6284740241552429
 40
0.7054844142408404
 40
0.776489063290558
 40
0.9002091199131943
 40
0.9999999999999999
 40
0.9999999999999999
 40
0.9999999999999999
 40
0.9999999999999999
 10
21.26450575468608
 20
10.16096911393072
 30
0.0
 10
21.27268034315803
 20
10.16389981293191
 30
0.0
 10
21.30366899190665
 20
10.17500965683994
 30
0.0
 10
21.35640572184969
 20
9.593679991766175
 30
0.0
 10
21.42151919305457
 20
8.527440467502482
 30
0.0
 10
21.48316299199675
 20
7.093267489106096
 30
0.0
 10
21.54132616735545
 20
5.464524835062476
 30
0.0
 10
21.59601155535831
 20
3.741452585355732
 30
0.0
 10
21.64721710135076
 20
2.019650813508785
 30
0.0
 10
21.69494675823633
 20
0.3678454437837679
 30
0.0
 10
21.75138293456896
 20
-1.579246074974808
 30
0.0
 10
21.8131941737732
 20
-3.666191307086026
 30
0.0
 10
21.86128317562644
 20
-5.055103596396084
 30
0.0
 10
21.882753461994
 20
-5.67521096901118
 30
0.0
  0
SPLINE
  5
13C
330
1B
100
AcDbEntity
  8
0
  6
Continuous
 62
     7
370
    25
100
AcDbSpline
210
0.0
220
0.0
230
1.0
 70
     8
 71
     3
 72
    15
 73
    11
 74
     0
 42
0.000000001
 43
0.00000001
 40
0.0
 40
0.0
 40
0.0
 40
0.0
 40
0.1357100685898133
 40
0.2714201251120379
 40
0.4071301695680019
 40
0.54284020195904
 40
0.6785502222864735
 40
0.8142602305516374
 40
0.949970226755856
 40
1.0
 40
1.0
 40
1.0
 40
1.0
 10
23.3
 20
-4.36203629524848
 30
0.0
 10
23.2735808153049
 20
-3.487115213543828
 30
0.0
 10
23.22074244826394
 20
-1.737273127934114
 30
0.0
 10
23.14149596096975
 20
1.102209075643708
 30
0.0
 10
23.06225756402823
 20
3.837944101201099
 30
0.0
 10
22.98302810345251
 20
6.292456793439404
 30
0.0
 10
22.90380717162851
 20
8.293108108507722
 30
0.0
 10
22.82459555299945
 20
9.631373795853431
 30
0.0
 10
22.76205915971708
 20
10.27102106847498
 30
0.0
 10
22.72592966488117
 20
10.18465002534579
 30
0.0
 10
22.71619803638054
 20
10.16138562852088
 30
0.0
  0
SPLINE
  5
13D
330
1B
100
AcDbEntity
  8
0
  6
Continuous
 62
     7
370
    25
100
AcDbSpline
210
0.0
220
0.0
230
1.0
 70
     8
 71
     3
 72
    36
 73
    32
 74
     0
 42
0.000000001
 43
0.00000001
 40
0.0
 40
0.0
 40
0.0
 40
0.0
 40
0.0112661333228583
 40
0.0466884801508388
 40
0.0821136432025177
 40
0.1701581600580866
 40
0.258197233461972
 40
0.2978922155885546
 40
0.3335045068428371
 40
0.365032694947756
 40
0.404650963657844
 40
0.4350812137819711
 40
0.4646948341504949
 40
0.4892515185356998
 40
0.508749821108331
 40
0.5231886561126304
 40
0.5453495382189132
 40
0.5675117210663414
 40
0.5896753331308386
 40
0.6118405028634709
 40
0.6999421176385576
 40
0.7880367070237021
 40
0.8222827120398435
 40
0.84843664856004
 40
0.8664944509765033
 40
0.8764533626341652
 40
0.8985887559078825
 40
0.9207219203496924
 40
0.9428530666398184
 40
0.9649824055161325
 40
1.0
 40
1.0
 40
1.0
 40
1.0
 10
21.79398820686812
 20
-10.22682886654751
 30
0.0
 10
21.79112695236725
 20
-10.22310089923165
 30
0.0
 10
21.77926950135529
 20
-10.20765166540476
 30
0.0
 10
21.75578731546116
 20
-10.07071132449681
 30
0.0
 10
21.70537025353755
 20
-9.662647957084134
 30
0.0
 10
21.63674628522491
 20
-8.69489410811817
 30
0.0
 10
21.57390236521989
 20
-7.186159744214455
 30
0.0
 10
21.5277671133568
 20
-5.822107028506768
 30
0.0
 10
21.4970044270662
 20
-4.855876122810606
 30
0.0
 10
21.46583438755505
 20
-3.835896139994413
 30
0.0
 10
21.43560511918067
 20
-2.819949020917859
 30
0.0
 10
21.40429614245998
 20
-1.793564879407156
 30
0.0
 10
21.37686093090064
 20
-0.9078087106446512
 30
0.0
 10
21.35425140952771
 20
-0.1311988538069148
 30
0.0
 10
21.337013100138
 20
0.4857463144487912
 30
0.0
 10
21.3227440394279
 20
1.075773376813359
 30
0.0
 10
21.30901661280219
 20
1.690586543294227
 30
0.0
 10
21.29086681456162
 20
2.378182786068493
 30
0.0
 10
21.27138806293982
 20
3.054754577461566
 30
0.0
 10
21.22821451798898
 20
4.373118565256251
 30
0.0
 10
21.16350651901758
 20
6.2268992577252
 30
0.0
 10
21.10308143757178
 20
7.824741994510281
 30
0.0
 10
21.06233408607849
 20
8.712132156001518
 30
0.0
 10
21.04000335500278
 20
9.115412552273208
 30
0.0
 10
21.02438611990399
 20
9.358942876776986
 30
0.0
 10
21.00801813400122
 20
9.563475850928537
 30
0.0
 10
20.98717949270407
 20
9.758014509330946
 30
0.0
 10
20.96587799257525
 20
9.952426147184568
 30
0.0
 10
20.94598017710297
 20
10.09424002803352
 30
0.0
 10
20.92596742869022
 20
10.23486195143759
 30
0.0
 10
20.91044132408015
 20
10.18780201558315
 30
0.0
 10
20.90092748312349
 20
10.15896537198232
 30
0.0
  0
SPLINE
  5
13F
330
1B
100
AcDbEntity
  8
0
  6
Continuous
 62
     7
370
    25
100
AcDbSpline
210
0.0
220
0.0
230
1.0
 70
     8
 71
     3
 72
    31
 73
    27
 74
     0
 42
0.000000001
 43
0.00000001
 40
0.0
 40
0.0
 40
0.0
 40
0.0
 40
0.0789963763895079
 40
0.1671860936498714
 40
0.1892396984151091
 40
0.2083647663859957
 40
0.2245609123855136
 40
0.2555626139118173
 40
0.2777114160498999
 40
0.2998615689460416
 40
0.3220132070207906
 40
0.3441664646676496
 40
0.4322393582086098
 40
0.5203046700789931
 40
0.541947189188429
 40
0.5650152629400215
 40
0.5895087814486845
 40
0.6713465099293754
 40
0.7171507126545781
 40
0.7661557507883728
 40
0.8183604266487985
 40
0.8737634638915525
 40
0.9176366741885539
 40
0.9557438053849936
 40
0.9880818346360191
 40
1.0
 40
1.0
 40
1.0
 40
1.0
 10
19.97470168922028
 20
-10.20100030280462
 30
0.0
 10
19.95341466400838
 20
-10.11358918266453
 30
0.0
 10
19.90836329895521
 20
-9.928594321055648
 30
0.0
 10
19.84980598303683
 20
-9.03397871351956
 30
0.0
 10
19.80864920846868
 20
-8.26311435670748
 30
0.0
 10
19.79076450306762
 20
-7.888629517775147
 30
0.0
 10
19.77042671284417
 20
-7.427062218920784
 30
0.0
 10
19.75031503480914
 20
-6.90488010320002
 30
0.0
 10
19.73282812814446
 20
-6.2947057010709
 30
0.0
 10
19.71432016682316
 20
-5.726871244388534
 30
0.0
 10
19.69456181806303
 20
-5.132208858847527
 30
0.0
 10
19.65066304240938
 20
-3.900714386040773
 30
0.0
 10
19.58502623653692
 20
-1.889949395652366
 30
0.0
 10
19.52766521775248
 20
0.2209409115756754
 30
0.0
 10
19.49088276509785
 20
1.610364145622718
 30
0.0
 10
19.4713399827482
 20
2.327186832289108
 30
0.0
 10
19.43455785841834
 20
3.644031539465868
 30
0.0
 10
19.39030141421062
 20
5.121104850712921
 30
0.0
 10
19.33854360901863
 20
6.632661571111309
 30
0.0
 10
19.29508403434943
 20
7.746205862963644
 30
0.0
 10
19.24849130883607
 20
8.738247933102391
 30
0.0
 10
19.20313042783767
 20
9.471498873646373
 30
0.0
 10
19.16186231557933
 20
9.933660677747996
 30
0.0
 10
19.1273044183905
 20
10.16010927136319
 30
0.0
 10
19.1023679245604
 20
10.2553038781666
 30
0.0
 10
19.08870552214648
 20
10.23932346198695
 30
0.0
 10
19.08502624577274
 20
10.2350199459646
 30
0.0
  0
SPLINE
  5
140
330
1B
100
AcDbEntity
  8
0
  6
Continuous
 62
     7
370
    25
100
AcDbSpline
210
0.0
220
0.0
230
1.0
 70
     8
 71
     3
 72
    26
 73
    22
 74
     0
 42
0.000000001
 43
0.00000001
 40
0.0
 40
0.0
 40
0.0
 40
0.0
 40
0.0598145797681305
 40
0.1153796411047982
 40
0.1584323422177332
 40
0.1889565855744688
 40
0.1995180617450817
 40
0.2090645348554575
 40
0.2317485080621461
 40
0.2543089393445106
 40
0.3430537595028705
 40
0.4298556099576874
 40
0.5180764300022761
 40
0.60630017991008
 40
0.6505159357018112
 40
0.6948292917544204
 40
0.7892046922954251
 40
0.8773637032061483
 40
0.9191963916327874
 40
0.9595923405967389
 40
1.0
 40
1.0
 40
1.0
 40
1.0
 10
18.15996685529447
 20
-10.21235440565353
 30
0.0
 10
18.14220678449245
 20
-10.15642514090455
 30
0.0
 10
18.10794840462794
 20
-10.04854009817737
 30
0.0
 10
18.06081863997826
 20
-9.492710524636303
 30
0.0
 10
18.0223026840943
 20
-8.874162074614317
 30
0.0
 10
17.99705499717928
 20
-8.381092331480767
 30
0.0
 10
17.9817446569958
 20
-8.057788456069355
 30
0.0
 10
17.9685151545414
 20
-7.773535146241108
 30
0.0
 10
17.95158275088776
 20
-7.387408284656049
 30
0.0
 10
17.91071924323798
 20
-6.373042354881457
 30
0.0
 10
17.85128631100023
 20
-4.62289035107221
 30
0.0
 10
17.77679206646188
 20
-1.959339621605114
 30
0.0
 10
17.70248052853204
 20
0.8438353665203872
 30
0.0
 10
17.63650259714483
 20
3.143815289502496
 30
0.0
 10
17.58243698726726
 20
4.846268828403773
 30
0.0
 10
17.52495347314674
 20
6.48446870543948
 30
0.0
 10
17.45376982362847
 20
8.219177056022287
 30
0.0
 10
17.3864163675472
 20
9.404868851685697
 30
0.0
 10
17.33689676377377
 20
9.946307050411535
 30
0.0
 10
17.30243633759493
 20
10.22877097907809
 30
0.0
 10
17.27949202587456
 20
10.17989674025995
 30
0.0
 10
17.26801820741555
 20
10.1554560793085
 30
0.0
  0
SPLINE
  5
141
330
1B
100
AcDbEntity
  8
0
  6
Continuous
 62
     7
370
    25
100
AcDbSpline
210
0.0
220
0.0
230
1.0
 70
     8
 71
     3
 72
    19
 73
    15
 74
     0
 42
0.000000001
 43
0.00000001
 40
0.0
 40
0.0
 40
0.0
 40
0.0
 40
0.0738658930592921
 40
0.1621541299930331
 40
0.250442479548207
 40
0.3387309419078476
 40
0.4270195172549833
 40
0.5153082057726477
 40
0.6035970076438677
 40
0.6918859230516733
 40
0.7802279650578657
 40
0.8685700146926282
 40
0.9569120719567835
 40
1.0
 40
1.0
 40
1.0
 40
1.0
 10
16.34132282763387
 20
-10.18441375518701
 30
0.0
 10
16.31960367141575
 20
-10.11312891554452
 30
0.0
 10
16.27192468542006
 20
-9.956640844051996
 30
0.0
 10
16.19813270463485
 20
-8.817545697516614
 30
0.0
 10
16.11997752939991
 20
-7.039220395393455
 30
0.0
 10
16.04169171772427
 20
-4.719420624789261
 30
0.0
 10
15.96328015505608
 20
-2.056227821162317
 30
0.0
 10
15.88474020052645
 20
0.7603057946575075
 30
0.0
 10
15.8060775321644
 20
3.52099362186689
 30
0.0
 10
15.7272563058372
 20
6.019042113382537
 30
0.0
 10
15.64835111272222
 20
8.083050599294646
 30
0.0
 10
15.56943716205636
 20
9.508721945546865
 30
0.0
 10
15.50398876233058
 20
10.23211636466485
 30
0.0
 10
15.46484379529141
 20
10.1738609692324
 30
0.0
 10
15.45201053262997
 20
10.15476255511744
 30
0.0
  0
SPLINE
  5
142
330
1B
100
AcDbEntity
  8
0
  6
Continuous
 62
     7
370
    25
100
AcDbSpline
210
0.0
220
0.0
230
1.0
 70
     8
 71
     3
 72
    29
 73
    25
 74
     0
 42
0.000000001
 43
0.00000001
 40
0.0
 40
0.0
 40
0.0
 40
0.0
 40
0.0713650914434295
 40
0.084882101147081
 40
0.100701128678312
 40
0.1188219769159653
 40
0.1392444190061626
 40
0.1619681986633677
 40
0.2287447085577836
 40
0.3098185064791746
 40
0.3558197933702335
 40
0.4054091337837655
 40
0.4585850027977064
 40
0.5153457651360873
 40
0.5756896752314098
 40
0.6396148772870577
 40
0.707119405340821
 40
0.7782011833302203
 40
0.8002992289821776
 40
0.8223972255444787
 40
0.8444951731495353
 40
0.8665930719297591
 40
0.9547278729217871
 40
1.0
 40
1.0
 40
1.0
 40
1.0
 10
14.52829385011016
 20
-10.17797764431039
 30
0.0
 10
14.50744011870871
 20
-10.12225255459122
 30
0.0
 10
14.48263655575782
 20
-10.05597277260955
 30
0.0
 10
14.45470206870479
 20
-9.741800897937413
 30
0.0
 10
14.44118552892472
 20
-9.576309037233122
 30
0.0
 10
14.42557120627107
 20
-9.357344398863342
 30
0.0
 10
14.4077997830839
 20
-9.075894615835468
 30
0.0
 10
14.37570330125581
 20
-8.502575940649958
 30
0.0
 10
14.32527072922479
 20
-7.399150061063247
 30
0.0
 10
14.26736183628528
 20
-5.800854654672219
 30
0.0
 10
14.21451955331191
 20
-4.153667630525414
 30
0.0
 10
14.16986336280196
 20
-2.67124514358159
 30
0.0
 10
14.12186615231151
 20
-1.011210988801043
 30
0.0
 10
14.07051615675896
 20
0.7922151772754354
 30
0.0
 10
14.01581897244174
 20
2.684403888520462
 30
0.0
 10
13.9577638536883
 20
4.589301144074607
 30
0.0
 10
13.8963904670608
 20
6.408589696085241
 30
0.0
 10
13.84752348847948
 20
7.628410978716903
 30
0.0
 10
13.81260524499285
 20
8.365182474268641
 30
0.0
 10
13.7925838376768
 20
8.749989096396629
 30
0.0
 10
13.77261127081861
 20
9.095157995173102
 30
0.0
 10
13.73288309146696
 20
9.691862816447824
 30
0.0
 10
13.68617472478079
 20
10.22523236669174
 30
0.0
 10
13.64676650666116
 20
10.17276247672567
 30
0.0
 10
13.63339318426747
 20
10.15495662840366
 30
0.0
  0
SPLINE
  5
145
330
1B
100
AcDbEntity
  8
0
  6
Continuous
 62
     7
370
    25
100
AcDbSpline
210
0.0
220
0.0
230
1.0
 70
     8
 71
     3
 72
    24
 73
    20
 74
     0
 42
0.000000001
 43
0.00000001
 40
0.0
 40
0.0
 40
0.0
 40
0.0
 40
0.1321568281366151
 40
0.264325760042475
 40
0.3963371599926916
 40
0.5283305158645678
 40
0.6603545899849089
 40
0.6868752601120685
 40
0.713393362261326
 40
0.7399091098020856
 40
0.7664227161605972
 40
0.7929343948148229
 40
0.7971645504966948
 40
0.830885733443605
 40
0.8560026600067008
 40
0.8873502451174659
 40
0.9249270812262929
 40
0.9769965396538854
 40
1.0
 40
1.0
 40
1.0
 40
1.0
 10
22.8974576375171
 20
-5.20458371792242
 30
0.0
 10
22.87122523134237
 20
-4.41869225387982
 30
0.0
 10
22.81875801646102
 20
-2.846837348817974
 30
0.0
 10
22.72821947536691
 20
-0.1472300952081894
 30
0.0
 10
22.63872833462852
 20
2.53315314568587
 30
0.0
 10
22.57045356493256
 20
5.015635329618521
 30
0.0
 10
22.5111312430421
 20
6.540756359010302
 30
0.0
 10
22.46545491300748
 20
7.347329411948919
 30
0.0
 10
22.44801977759509
 20
7.67040612172197
 30
0.0
 10
22.4320505814266
 20
7.968427759967972
 30
0.0
 10
22.41715727997309
 20
8.240493678923306
 30
0.0
 10
22.40886324017096
 20
8.417050049783056
 30
0.0
 10
22.39697716643396
 20
8.602765781211007
 30
0.0
 10
22.38281866067504
 20
8.768785892485818
 30
0.0
 10
22.36339596602148
 20
8.969930234974042
 30
0.0
 10
22.34270044000358
 20
9.143643859271908
 30
0.0
 10
22.31599934910658
 20
9.304798353961075
 30
0.0
 10
22.29112427744177
 20
9.397086700123706
 30
0.0
 10
22.27541393139679
 20
9.391179116305201
 30
0.0
 10
22.27060004740011
 20
9.3893689446437
 30
0.0
  0
SPLINE
  5
146
330
1B
100
AcDbEntity
  8
0
  6
Continuous
 62
     7
370
    25
100
AcDbSpline
210
0.0
220
0.0
230
1.0
 70
     8
 71
     3
 72
    19
 73
    15
 74
     0
 42
0.000000001
 43
0.00000001
 40
0.0
 40
0.0
 40
0.0
 40
0.0
 40
0.0200082395731874
 40
0.112447993022617
 40
0.2048860659773981
 40
0.2973224899648913
 40
0.3897572965141438
 40
0.482111326880974
 40
0.5744637901023235
 40
0.6668598320371062
 40
0.7592722030171408
 40
0.8516836413687315
 40
0.9440941565719179
 40
1.0
 40
1.0
 40
1.0
 40
1.0
 10
21.34632380795074
 20
-9.320453922647749
 30
0.0
 10
21.3401967948092
 20
-9.329537655114423
 30
0.0
 10
21.30576246446896
 20
-9.380588997302498
 30
0.0
 10
21.24372551790647
 20
-8.723990746191832
 30
0.0
 10
21.1613509682407
 20
-7.369255747742145
 30
0.0
 10
21.08040218207428
 20
-5.355111442654959
 30
0.0
 10
21.00155012031557
 20
-2.926061012702051
 30
0.0
 10
20.92236996199955
 20
-0.257234689216821
 30
0.0
 10
20.83911177544553
 20
2.431242352676654
 30
0.0
 10
20.75315534058056
 20
4.92203593600306
 30
0.0
 10
20.66869147099005
 20
7.024739025842424
 30
0.0
 10
20.58493759594708
 20
8.527524923811475
 30
0.0
 10
20.51287631467644
 20
9.340881711879538
 30
0.0
 10
20.46906251099723
 20
9.31762612318855
 30
0.0
 10
20.45254749086672
 20
9.30886024387366
 30
0.0
  0
SPLINE
  5
147
330
1B
100
AcDbEntity
  8
0
  6
Continuous
 62
     7
370
    25
100
AcDbSpline
210
0.0
220
0.0
230
1.0
 70
     8
 71
     3
 72
    27
 73
    23
 74
     0
 42
0.000000001
 43
0.00000001
 40
0.0
 40
0.0
 40
0.0
 40
0.0
 40
0.019987912591065
 40
0.0536759133230457
 40
0.0960806654541377
 40
0.147194505528887
 40
0.2070081947401633
 40
0.2755109210781163
 40
0.313079563732363
 40
0.3469612004015749
 40
0.4077866313015162
 40
0.4634199922890432
 40
0.5138577002729101
 40
0.5590965076615664
 40
0.5991335029198991
 40
0.6229402832620585
 40
0.6444315571140516
 40
0.6636070538849171
 40
0.7524437632349708
 40
0.8423578985122661
 40
0.9333492253662399
 40
0.9999999999999999
 40
0.9999999999999999
 40
0.9999999999999999
 40
0.9999999999999999
 10
19.53067619241414
 20
-9.381060422100202
 30
0.0
 10
19.52462995345664
 20
-9.368555888460495
 30
0.0
 10
19.50839327057466
 20
-9.334975980567062
 30
0.0
 10
19.47994273732651
 20
-9.17166421712807
 30
0.0
 10
19.44246187951727
 20
-8.826621640566946
 30
0.0
 10
19.39756503895107
 20
-8.205275082691497
 30
0.0
 10
19.34521976607333
 20
-7.219997102107369
 30
0.0
 10
19.29691234896965
 20
-6.062012752146572
 30
0.0
 10
19.25632527381334
 20
-4.950409410562427
 30
0.0
 10
19.217993155389
 20
-3.826467504128385
 30
0.0
 10
19.17416990122413
 20
-2.455089962990237
 30
0.0
 10
19.12530487693748
 20
-0.8600141813868063
 30
0.0
 10
19.08070846161802
 20
0.6065664918437378
 30
0.0
 10
19.0403954679491
 20
1.908106212016773
 30
0.0
 10
19.00767039991921
 20
2.925440485901326
 30
0.0
 10
18.98179481534459
 20
3.694259910540083
 30
0.0
 10
18.96206119289662
 20
4.258112574656653
 30
0.0
 10
18.92176188757508
 20
5.354202234930029
 30
0.0
 10
18.85976844175588
 20
6.880150685051077
 30
0.0
 10
18.77708247594345
 20
8.404057925333639
 30
0.0
 10
18.70199150767424
 20
9.296711008447746
 30
0.0
 10
18.65504451572976
 20
9.315973162947973
 30
0.0
 10
18.63519541862756
 20
9.32411716449603
 30
0.0
  0
SPLINE
  5
148
330
1B
100
AcDbEntity
  8
0
  6
Continuous
 62
     7
370
    25
100
AcDbSpline
210
0.0
220
0.0
230
1.0
 70
     8
 71
     3
 72
    39
 73
    35
 74
     0
 42
0.000000001
 43
0.00000001
 40
0.0
 40
0.0
 40
0.0
 40
0.0
 40
0.0127129275188315
 40
0.0358596025461128
 40
0.0590061099257749
 40
0.0821524510418002
 40
0.1052986272781967
 40
0.1639418269027817
 40
0.20170260226342
 40
0.2450660298438434
 40
0.2940288704444213
 40
0.3485874642780439
 40
0.3720034347276836
 40
0.3963169831354373
 40
0.4215280630542559
 40
0.4476366263052736
 40
0.474642622979597
 40
0.532286579110152
 40
0.5698140368710083
 40
0.6131224928007318
 40
0.6622084984026141
 40
0.7170681436781112
 40
0.7366607427314551
 40
0.7568966245197075
 40
0.7777757691731599
 40
0.7992981561853614
 40
0.8214637644135746
 40
0.8442725720791685
 40
0.8526116848332691
 40
0.8779076626502391
 40
0.9185355227931806
 40
0.9675143399135047
 40
0.9983137525079948
 40
1.0
 40
1.0
 40
1.0
 40
1.0
 10
17.71577920695114
 20
-9.375019924534197
 30
0.0
 10
17.71208403570659
 20
-9.370810113387071
 30
0.0
 10
17.70166099412368
 20
-9.358935416995807
 30
0.0
 10
17.68473098218276
 20
-9.275702527777776
 30
0.0
 10
17.664936395173
 20
-9.143631047988679
 30
0.0
 10
17.64527491472685
 20
-8.96142304358126
 30
0.0
 10
17.61605162132226
 20
-8.618672122584208
 30
0.0
 10
17.58141136717098
 20
-8.090710981315056
 30
0.0
 10
17.53983915954716
 20
-7.304495306502952
 30
0.0
 10
17.50066360234161
 20
-6.449541279376438
 30
0.0
 10
17.45599169438833
 20
-5.344859168675431
 30
0.0
 10
17.41705362646062
 20
-4.276874874777111
 30
0.0
 10
17.38559827003371
 20
-3.367159084247739
 30
0.0
 10
17.36311077529184
 20
-2.699646554171869
 30
0.0
 10
17.3397360211351
 20
-1.991474665569469
 30
0.0
 10
17.31551275218199
 20
-1.24525050856121
 30
0.0
 10
17.28101765852143
 20
-0.1787432081322435
 30
0.0
 10
17.24400609446845
 20
1.008186229885132
 30
0.0
 10
17.20302027203616
 20
2.325681592231262
 30
0.0
 10
17.16488946009048
 20
3.524840535825071
 30
0.0
 10
17.12201466037129
 20
4.808968205406646
 30
0.0
 10
17.08622236820494
 20
5.790392055390291
 30
0.0
 10
17.05892871162776
 20
6.473514713413668
 30
0.0
 10
17.04145453078201
 20
6.88684421162437
 30
0.0
 10
17.02344403885825
 20
7.285183691502543
 30
0.0
 10
17.00493766647504
 20
7.664217971418336
 30
0.0
 10
16.98577144890454
 20
8.01930237161958
 30
0.0
 10
16.97082352396583
 20
8.273548628171191
 30
0.0
 10
16.95393205662236
 20
8.519428213546295
 30
0.0
 10
16.9308869884742
 20
8.809125860703732
 30
0.0
 10
16.89517018668383
 20
9.155994294206556
 30
0.0
 10
16.85746749747549
 20
9.347993949415201
 30
0.0
 10
16.83199427008823
 20
9.412489474417969
 30
0.0
 10
16.82205209806346
 20
9.398530419713707
 30
0.0
 10
16.8215360253533
 20
9.397805840901912
 30
0.0
  0
SPLINE
  5
149
330
1B
100
AcDbEntity
  8
0
  6
Continuous
 62
     7
370
    25
100
AcDbSpline
210
0.0
220
0.0
230
1.0
 70
     8
 71
     3
 72
    19
 73
    15
 74
     0
 42
0.000000001
 43
0.00000001
 40
0.0
 40
0.0
 40
0.0
 40
0.0
 40
0.0090426093895192
 40
0.1014307432850295
 40
0.193819162355879
 40
0.2862078675513629
 40
0.378596859820763
 40
0.4709861401133593
 40
0.5633757093784134
 40
0.655765568565183
 40
0.7481557186229211
 40
0.8405461605008628
 40
0.9329368951482387
 40
1.0
 40
1.0
 40
1.0
 40
1.0
 10
15.89978767894011
 20
-9.375838508999198
 30
0.0
 10
15.89715276142399
 20
-9.373466120909187
 30
0.0
 10
15.86759695174103
 20
-9.346855097811261
 30
0.0
 10
15.81068646868552
 20
-8.87184029834063
 30
0.0
 10
15.72926280348323
 20
-7.565802631561032
 30
0.0
 10
15.64750647299
 20
-5.625010953446743
 30
0.0
 10
15.56549569976598
 20
-3.236497536881299
 30
0.0
 10
15.48320946670082
 20
-0.5851144916946271
 30
0.0
 10
15.40065361933936
 20
2.113548711322535
 30
0.0
 10
15.31782579269951
 20
4.639823761513945
 30
0.0
 10
15.23472960115446
 20
6.798522781820589
 30
0.0
 10
15.15135295214748
 20
8.382140251169975
 30
0.0
 10
15.07538107641786
 20
9.295179087092944
 30
0.0
 10
15.02708014739409
 20
9.315601700186068
 30
0.0
 10
15.00676573992839
 20
9.324191043957992
 30
0.0
  0
SPLINE
  5
14A
330
1B
100
AcDbEntity
  8
0
  6
Continuous
 62
     7
370
    25
100
AcDbSpline
210
0.0
220
0.0
230
1.0
 70
     8
 71
     3
 72
    27
 73
    23
 74
     0
 42
0.000000001
 43
0.00000001
 40
0.0
 40
0.0
 40
0.0
 40
0.0
 40
0.0160207899177719
 40
0.0802104941594551
 40
0.1401719046387714
 40
0.1959024564126123
 40
0.2473997657154103
 40
0.2946616301136336
 40
0.3376860286782308
 40
0.3884345450456468
 40
0.4316513469171385
 40
0.4673305996489479
 40
0.5323466840362567
 40
0.6155429813256283
 40
0.6640731394162618
 40
0.7171643774530326
 40
0.7454463781038211
 40
0.7748710293617457
 40
0.8054382402511647
 40
0.8371479162156643
 40
0.9292686749196006
 40
1.0
 40
1.0
 40
1.0
 40
1.0
 10
14.08396886280645
 20
-9.372610719407279
 30
0.0
 10
14.07928444087544
 20
-9.366242981186284
 30
0.0
 10
14.05583117796734
 20
-9.334361942111089
 30
0.0
 10
14.01466382668456
 20
-9.030152447760925
 30
0.0
 10
13.9617527433142
 20
-8.365594214345442
 30
0.0
 10
13.91239781295517
 20
-7.481967528804989
 30
0.0
 10
13.86662236692365
 20
-6.4727627608493
 30
0.0
 10
13.82441516352549
 20
-5.403324740166069
 30
0.0
 10
13.78221985630434
 20
-4.231942432016367
 30
0.0
 10
13.74085453769192
 20
-3.006017559508698
 30
0.0
 10
13.70138731799284
 20
-1.789734331670736
 30
0.0
 10
13.65641045349808
 20
-0.4094818243665713
 30
0.0
 10
13.59983347673978
 20
1.377023951377092
 30
0.0
 10
13.54166991605089
 20
3.237005103367689
 30
0.0
 10
13.4878918721366
 20
4.841267801487307
 30
0.0
 10
13.45041442590664
 20
5.87018499288111
 30
0.0
 10
13.41867801065988
 20
6.659987040447759
 30
0.0
 10
13.39348781032104
 20
7.235599840062345
 30
0.0
 10
13.36737250882189
 20
7.771714211939504
 30
0.0
 10
13.32378090213356
 20
8.54907660996698
 30
0.0
 10
13.26694625553985
 20
9.280534037212814
 30
0.0
 10
13.21434140581446
 20
9.316584299281736
 30
0.0
 10
13.19149361264982
 20
9.332241960801175
 30
0.0
  0
SPLINE
  5
14B
330
1B
100
AcDbEntity
  8
0
  6
Continuous
 62
     7
370
    25
100
AcDbSpline
210
0.0
220
0.0
230
1.0
 70
     8
 71
     3
 72
    13
 73
     9
 74
     0
 42
0.000000001
 43
0.00000001
 40
0.0
 40
0.0
 40
0.0
 40
0.0
 40
0.1896548134889054
 40
0.3701519298695374
 40
0.5414617062165071
 40
0.7035562430445274
 40
0.85640997719813
 40
1.0
 40
1.0
 40
1.0
 40
1.0
 10
23.32650845593107
 20
-5.660533790487095
 30
0.0
 10
23.32486811638201
 20
-5.581683935867053
 30
0.0
 10
23.32166664293375
 20
-5.427791581011274
 30
0.0
 10
23.31694192391851
 20
-5.197493745081607
 30
0.0
 10
23.31242384962898
 20
-4.975752463815575
 30
0.0
 10
23.3081083122119
 20
-4.762848692873241
 30
0.0
 10
23.30400144458942
 20
-4.559719909891335
 30
0.0
 10
23.30130573502824
 20
-4.42654360364139
 30
0.0
 10
23.3
 20
-4.362036295248418
 30
0.0
  0
SPLINE
  5
155
330
1B
100
AcDbEntity
  8
0
  6
Continuous
 62
     7
370
    25
100
AcDbSpline
210
0.0
220
0.0
230
1.0
 70
     8
 71
     3
 72
    20
 73
    16
 74
     0
 42
0.000000001
 43
0.00000001
 40
0.0
 40
0.0
 40
0.0
 40
0.0
 40
0.0598999231850269
 40
0.1254725258406365
 40
0.2499981885111226
 40
0.3746924208141353
 40
0.4405738242736195
 40
0.4995647533369104
 40
0.5586230522332497
 40
0.6247510963293622
 40
0.749887193735267
 40
0.8747323314297887
 40
0.9401347821365856
 40
0.9995390006530546
 40
0.9999999999999999
 40
0.9999999999999999
 40
0.9999999999999999
 40
0.9999999999999999
 10
73.00000000000001
 20
10.5
 30
0.0
 10
73.01589877245324
 20
10.49208062285349
 30
0.0
 10
73.04920197271466
 20
10.47549188282144
 30
0.0
 10
73.40534382074026
 20
10.32371714723908
 30
0.0
 10
74.23794959834817
 20
10.00929360302522
 30
0.0
 10
75.48546230316364
 20
9.676270274913916
 30
0.0
 10
76.61871231760932
 20
9.51897832937865
 30
0.0
 10
77.49394498271072
 20
9.471873875609983
 30
0.0
 10
78.37049662096466
 20
9.518073588197105
 30
0.0
 10
79.50875075152355
 20
9.675366576930841
 30
0.0
 10
80.75682906599106
 20
10.00698312142708
 30
0.0
 10
81.6070939200212
 20
10.32868499680273
 30
0.0
 10
81.92925537631704
 20
10.46475465131898
 30
0.0
 10
82.02609663494226
 20
10.51222161528817
 30
0.0
 10
81.99959133595523
 20
10.49980886707503
 30
0.0
 10
81.99938722869628
 20
10.4997132812069
 30
0.0
  0
LWPOLYLINE
  5
157
330
1B
100
AcDbEntity
  8
0
  6
Continuous
 62
     7
370
    25
100
AcDbPolyline
 90
       17
 70
   128
 43
0.0
 10
78.1532515687
 20
63.5
 10
78.1356974173
 20
63.5000002043
 10
76.9464216859
 20
63.5000138647
 10
75.783032449
 20
63.5000268768
 10
74.6999284942
 20
63.5000386321
 10
73.7477545587
 20
63.5000485811
 10
72.9710332375
 20
63.5000562584
 10
72.4060831563
 20
63.5000613052
 10
72.0793207529
 20
63.5000634854
 10
72.0060250742
 20
63.500062697
 10
72.1896233447
 20
63.500058977
 10
72.6215307132
 20
63.5000524993
 10
73.2815516714
 20
63.5000435668
 10
74.1388243726
 20
63.5000325971
 10
75.1532636982
 20
63.5000201032
 10
76.2774355929
 20
63.5000066693
 10
76.8467866701
 20
63.5
  0
LWPOLYLINE
  5
158
330
1B
100
AcDbEntity
  8
0
  6
Continuous
 62
     7
370
    25
100
AcDbPolyline
 90
        5
 70
   128
 43
0.0
 10
82.0
 20
33.4999440159
 10
82.3395454054
 20
33.4999408731
 10
82.7880306877
 20
33.4999372384
 10
82.9892392218
 20
33.4999365383
 10
82.9996939522
 20
33.4999368837
  0
LINE
  5
16D
330
1B
100
AcDbEntity
  8
0
  6
Continuous
 62
     7
370
    25
100
AcDbLine
 10
12.6485499479
 20
9.3724581568
 30
0.0
 11
12.5811886415
 21
9.5016443773
 31
0.0
  0
LINE
  5
16E
330
1B
100
AcDbEntity
  8
0
  6
Continuous
 62
     7
370
    25
100
AcDbLine
 10
13.9890225132
 20
10.25
 30
0.0
 11
13.6333931843
 21
10.25
 31
0.0
  0
LINE
  5
16F
330
1B
100
AcDbEntity
  8
0
  6
Continuous
 62
     7
370
    25
100
AcDbLine
 10
15.8278161522
 20
10.25
 30
0.0
 11
15.4520105326
 21
10.25
 31
0.0
  0
LINE
  5
170
330
1B
100
AcDbEntity
  8
0
  6
Continuous
 62
     7
370
    25
100
AcDbLine
 10
17.6201616603
 20
10.25
 30
0.0
 11
17.2680182074
 21
10.25
 31
0.0
  0
LINE
  5
171
330
1B
100
AcDbEntity
  8
0
  6
Continuous
 62
     7
370
    25
100
AcDbLine
 10
19.4493808036
 20
10.25
 30
0.0
 11
19.0850262458
 21
10.25
 31
0.0
  0
LINE
  5
172
330
1B
100
AcDbEntity
  8
0
  6
Continuous
 62
     7
370
    25
100
AcDbLine
 10
21.2477346497
 20
10.25
 30
0.0
 11
20.9009274831
 21
10.25
 31
0.0
  0
LINE
  5
173
330
1B
100
AcDbEntity
  8
0
  6
Continuous
 62
     7
370
    25
100
AcDbLine
 10
23.3
 20
10.25
 30
0.0
 11
22.7161980364
 21
10.25
 31
0.0
  0
LINE
  5
174
330
1B
100
AcDbEntity
  8
0
  6
Continuous
 62
     7
370
    25
100
AcDbLine
 10
21.8067883642
 20
-10.25
 30
0.0
 11
23.3
 21
-10.25
 31
0.0
  0
LINE
  5
175
330
1B
100
AcDbEntity
  8
0
  6
Continuous
 62
     7
370
    25
100
AcDbLine
 10
19.9886265371
 20
-10.25
 30
0.0
 11
20.3499444876
 21
-10.25
 31
0.0
  0
LINE
  5
176
330
1B
100
AcDbEntity
  8
0
  6
Continuous
 62
     7
370
    25
100
AcDbLine
 10
18.1749108242
 20
-10.25
 30
0.0
 11
18.5346295091
 21
-10.25
 31
0.0
  0
LINE
  5
177
330
1B
100
AcDbEntity
  8
0
  6
Continuous
 62
     7
370
    25
100
AcDbLine
 10
16.3561957047
 20
-10.25
 30
0.0
 11
16.7239413007
 21
-10.25
 31
0.0
  0
LINE
  5
178
330
1B
100
AcDbEntity
  8
0
  6
Continuous
 62
     7
370
    25
100
AcDbLine
 10
14.5428734027
 20
-10.25
 30
0.0
 11
14.9051598118
 21
-10.25
 31
0.0
  0
LINE
  5
179
330
1B
100
AcDbEntity
  8
0
  6
Continuous
 62
     7
370
    25
100
AcDbLine
 10
12.4852137498
 20
9.5352137511
 30
0.0
 11
12.0
 21
9.0500000022
 31
0.0
  0
LINE
  5
17A
330
1B
100
AcDbEntity
  8
0
  6
Continuous
 62
     7
370
    25
100
AcDbLine
 10
12.0
 20
-9.0500000022
 30
0.0
 11
13.0759263683
 21
-10.1259263685
 31
0.0
  0
LINE
  5
17B
330
1B
100
AcDbEntity
  8
0
  6
Continuous
 62
     7
370
    25
100
AcDbLine
 10
23.3
 20
-10.25
 30
0.0
 11
24.4
 21
-9.150000002
 31
0.0
  0
LINE
  5
17C
330
1B
100
AcDbEntity
  8
0
  6
Continuous
 62
     7
370
    25
100
AcDbLine
 10
24.4
 20
9.150000002
 30
0.0
 11
23.3
 21
10.25
 31
0.0
  0
LINE
  5
17D
330
1B
100
AcDbEntity
  8
0
  6
Continuous
 62
     7
370
    25
100
AcDbLine
 10
13.1914936126
 20
9.4
 30
0.0
 11
12.634188861
 21
9.4
 31
0.0
  0
LINE
  5
17E
330
1B
100
AcDbEntity
  8
0
  6
Continuous
 62
     7
370
    25
100
AcDbLine
 10
15.0067657399
 20
9.4
 30
0.0
 11
14.4403260624
 21
9.4
 31
0.0
  0
LINE
  5
17F
330
1B
100
AcDbEntity
  8
0
  6
Continuous
 62
     7
370
    25
100
AcDbLine
 10
16.8215360254
 20
9.4
 30
0.0
 11
16.2662433273
 21
9.4
 31
0.0
  0
LINE
  5
180
330
1B
100
AcDbEntity
  8
0
  6
Continuous
 62
     7
370
    25
100
AcDbLine
 10
18.6351954186
 20
9.4
 30
0.0
 11
18.0695446662
 21
9.4
 31
0.0
  0
LINE
  5
181
330
1B
100
AcDbEntity
  8
0
  6
Continuous
 62
     7
370
    25
100
AcDbLine
 10
20.4525474909
 20
9.4
 30
0.0
 11
19.8984261051
 21
9.4
 31
0.0
  0
LINE
  5
182
330
1B
100
AcDbEntity
  8
0
  6
Continuous
 62
     7
370
    25
100
AcDbLine
 10
22.2706000474
 20
9.4
 30
0.0
 11
21.7143211885
 21
9.4
 31
0.0
  0
LINE
  5
183
330
1B
100
AcDbEntity
  8
0
  6
Continuous
 62
     7
370
    25
100
AcDbLine
 10
20.7979902862
 20
-9.4
 30
0.0
 11
21.3535737115
 21
-9.4
 31
0.0
  0
LINE
  5
184
330
1B
100
AcDbEntity
  8
0
  6
Continuous
 62
     7
370
    25
100
AcDbLine
 10
18.979792043
 20
-9.4
 30
0.0
 11
19.5375735367
 21
-9.4
 31
0.0
  0
LINE
  5
185
330
1B
100
AcDbEntity
  8
0
  6
Continuous
 62
     7
370
    25
100
AcDbLine
 10
17.1662100124
 20
-9.4
 30
0.0
 11
17.7215734077
 21
-9.4
 31
0.0
  0
LINE
  5
186
330
1B
100
AcDbEntity
  8
0
  6
Continuous
 62
     7
370
    25
100
AcDbLine
 10
15.3494981645
 20
-9.4
 30
0.0
 11
15.9055733363
 21
-9.4
 31
0.0
  0
LINE
  5
187
330
1B
100
AcDbEntity
  8
0
  6
Continuous
 62
     7
370
    25
100
AcDbLine
 10
13.5320151864
 20
-9.4
 30
0.0
 11
14.0895733115
 21
-9.4
 31
0.0
  0
LINE
  5
188
330
1B
100
AcDbEntity
  8
0
  6
Continuous
 62
     7
370
    25
100
AcDbLine
 10
27.0
 20
9.15
 30
0.0
 11
24.4
 21
9.15
 31
0.0
  0
LINE
  5
189
330
1B
100
AcDbEntity
  8
0
  6
Continuous
 62
     7
370
    25
100
AcDbLine
 10
24.4
 20
-9.15
 30
0.0
 11
27.0
 21
-9.15
 31
0.0
  0
LINE
  5
18A
330
1B
100
AcDbEntity
  8
0
  6
Continuous
 62
     7
370
    25
100
AcDbLine
 10
230.0
 20
-72.0
 30
0.0
 11
230.0
 21
-50.0
 31
0.0
  0
LINE
  5
18B
330
1B
100
AcDbEntity
  8
0
  6
Continuous
 62
     7
370
    25
100
AcDbLine
 10
204.0
 20
-50.0
 30
0.0
 11
204.0
 21
-72.0
 31
0.0
  0
LINE
  5
18C
330
1B
100
AcDbEntity
  8
0
  6
Continuous
 62
     7
370
    25
100
AcDbLine
 10
27.0
 20
-13.0
 30
0.0
 11
38.0
 21
-13.0
 31
0.0
  0
LINE
  5
18D
330
1B
100
AcDbEntity
  8
0
  6
Continuous
 62
     7
370
    25
100
AcDbLine
 10
59.0
 20
-13.0
 30
0.0
 11
167.0
 21
-13.0
 31
0.0
  0
LINE
  5
18E
330
1B
100
AcDbEntity
  8
0
  6
Continuous
 62
     7
370
    25
100
AcDbLine
 10
167.0
 20
13.0
 30
0.0
 11
82.0
 21
13.0
 31
0.0
  0
LINE
  5
18F
330
1B
100
AcDbEntity
  8
0
  6
Continuous
 62
     7
370
    25
100
AcDbLine
 10
73.0
 20
13.0
 30
0.0
 11
59.0
 21
13.0
 31
0.0
  0
LINE
  5
190
330
1B
100
AcDbEntity
  8
0
  6
Continuous
 62
     7
370
    25
100
AcDbLine
 10
38.0
 20
13.0
 30
0.0
 11
27.0
 21
13.0
 31
0.0
  0
LINE
  5
191
330
1B
100
AcDbEntity
  8
0
  6
Continuous
 62
     7
370
    25
100
AcDbLine
 10
47.0
 20
-14.5
 30
0.0
 11
59.0
 21
-14.5
 31
0.0
  0
LINE
  5
192
330
1B
100
AcDbEntity
  8
0
  6
Continuous
 62
     7
370
    25
100
AcDbLine
 10
59.0
 20
14.5
 30
0.0
 11
47.0
 21
14.5
 31
0.0
  0
LINE
  5
193
330
1B
100
AcDbEntity
  8
0
  6
Continuous
 62
     7
370
    25
100
AcDbLine
 10
73.0
 20
10.5
 30
0.0
 11
70.0
 21
10.5
 31
0.0
  0
LINE
  5
194
330
1B
100
AcDbEntity
  8
0
  6
Continuous
 62
     7
370
    25
100
AcDbLine
 10
85.0
 20
10.5
 30
0.0
 11
82.0
 21
10.5
 31
0.0
  0
LINE
  5
195
330
1B
100
AcDbEntity
  8
0
  6
Continuous
 62
     7
370
    25
100
AcDbLine
 10
70.0
 20
-10.5
 30
0.0
 11
85.0
 21
-10.5
 31
0.0
  0
LINE
  5
196
330
1B
100
AcDbEntity
  8
0
  6
Continuous
 62
     7
370
    25
100
AcDbLine
 10
70.0
 20
6.5
 30
0.0
 11
59.0
 21
6.5
 31
0.0
  0
LINE
  5
197
330
1B
100
AcDbEntity
  8
0
  6
Continuous
 62
     7
370
    25
100
AcDbLine
 10
59.0
 20
-6.5
 30
0.0
 11
70.0
 21
-6.5
 31
0.0
  0
LINE
  5
198
330
1B
100
AcDbEntity
  8
0
  6
Continuous
 62
     7
370
    25
100
AcDbLine
 10
72.0000382336
 20
63.5000631179
 30
0.0
 11
72.0000382328
 21
63.5
 31
0.0
  0
LINE
  5
199
330
1B
100
AcDbEntity
  8
0
  6
Continuous
 62
     7
370
    25
100
AcDbLine
 10
72.0
 20
60.168459172
 30
0.0
 11
71.9996939529
 21
33.5000631199
 31
0.0
  0
LINE
  5
19A
330
1B
100
AcDbEntity
  8
0
  6
Continuous
 62
     7
370
    25
100
AcDbLine
 10
82.9996939522
 20
33.4999368837
 30
0.0
 11
82.9996939529
 21
33.5
 31
0.0
  0
LINE
  5
19B
330
1B
100
AcDbEntity
  8
0
  6
Continuous
 62
     7
370
    25
100
AcDbLine
 10
83.0
 20
60.1683960556
 30
0.0
 11
83.0000382328
 21
63.4999368817
 31
0.0
  0
LINE
  5
19C
330
1B
100
AcDbEntity
  8
0
  6
Continuous
 62
     7
370
    25
100
AcDbLine
 10
72.9996939522
 20
33.5
 30
0.0
 11
72.9994586938
 21
13.0
 31
0.0
  0
LINE
  5
19D
330
1B
100
AcDbEntity
  8
0
  6
Continuous
 62
     7
370
    25
100
AcDbLine
 10
59.0
 20
-14.4651022084
 30
0.0
 11
60.5105602556
 21
-14.4594925256
 31
0.0
  0
LINE
  5
19E
330
1B
100
AcDbEntity
  8
0
  6
Continuous
 62
     7
370
    25
100
AcDbLine
 10
60.402865326
 20
14.5403075048
 30
0.0
 11
50.5
 21
14.5035317897
 31
0.0
  0
LINE
  5
19F
330
1B
100
AcDbEntity
  8
0
  6
Continuous
 62
     7
370
    25
100
AcDbLine
 10
38.0
 20
-25.0
 30
0.0
 11
47.0
 21
-25.0
 31
0.0
  0
LINE
  5
1A0
330
1B
100
AcDbEntity
  8
0
  6
Continuous
 62
     7
370
    25
100
AcDbLine
 10
47.0
 20
25.0
 30
0.0
 11
38.0
 21
25.0
 31
0.0
  0
LINE
  5
1A1
330
1B
100
AcDbEntity
  8
0
  6
Continuous
 62
     7
370
    25
100
AcDbLine
 10
72.0
 20
63.5
 30
0.0
 11
72.0
 21
33.5
 31
0.0
  0
LINE
  5
1A2
330
1B
100
AcDbEntity
  8
0
  6
Continuous
 62
     7
370
    25
100
AcDbLine
 10
83.0
 20
33.5
 30
0.0
 11
83.0
 21
63.5
 31
0.0
  0
LINE
  5
1A3
330
1B
100
AcDbEntity
  8
0
  6
Continuous
 62
     7
370
    25
100
AcDbLine
 10
73.0
 20
33.5
 30
0.0
 11
73.0
 21
10.5
 31
0.0
  0
LINE
  5
1A4
330
1B
100
AcDbEntity
  8
0
  6
Continuous
 62
     7
370
    25
100
AcDbLine
 10
82.0
 20
10.5
 30
0.0
 11
82.0
 21
33.5
 31
0.0
  0
LINE
  5
1A5
330
1B
100
AcDbEntity
  8
0
  6
Continuous
 62
     7
370
    25
100
AcDbLine
 10
47.0
 20
-20.0
 30
0.0
 11
50.5
 21
-20.0
 31
0.0
  0
LINE
  5
1A6
330
1B
100
AcDbEntity
  8
0
  6
Continuous
 62
     7
370
    25
100
AcDbLine
 10
50.5
 20
20.0
 30
0.0
 11
47.0
 21
20.0
 31
0.0
  0
LINE
  5
1A7
330
1B
100
AcDbEntity
  8
0
  6
Continuous
 62
     7
370
    25
100
AcDbLine
 10
21.882753462
 20
-5.675210969
 30
0.0
 11
22.3256155633
 21
-5.2045837179
 31
0.0
  0
LINE
  5
1A8
330
1B
100
AcDbEntity
  8
0
  6
Continuous
 62
     7
370
    25
100
AcDbLine
 10
16.7316050989
 20
-10.2461879042
 30
0.0
 11
16.7408306228
 21
-10.2046357301
 31
0.0
  0
LINE
  5
1A9
330
1B
100
AcDbEntity
  8
0
  6
Continuous
 62
     7
370
    25
100
AcDbLine
 10
23.3
 20
-4.3620362952
 30
0.0
 11
23.3
 21
10.25
 31
0.0
  0
LINE
  5
1AA
330
1B
100
AcDbEntity
  8
0
  6
Continuous
 62
     7
370
    25
100
AcDbLine
 10
23.3
 20
-10.25
 30
0.0
 11
23.3
 21
-5.675210969
 31
0.0
  0
LINE
  5
1AB
330
1B
100
AcDbEntity
  8
0
  6
Continuous
 62
     7
370
    25
100
AcDbLine
 10
19.9886265371
 20
-10.2204759593
 30
0.0
 11
19.9823017224
 21
-10.2472134467
 31
0.0
  0
LINE
  5
1AC
330
1B
100
AcDbEntity
  8
0
  6
Continuous
 62
     7
370
    25
100
AcDbLine
 10
21.882753462
 20
-5.675210969
 30
0.0
 11
23.3
 21
-5.675210969
 31
0.0
  0
LINE
  5
1AD
330
1B
100
AcDbEntity
  8
0
  6
Continuous
 62
     7
370
    25
100
AcDbLine
 10
22.8974576375
 20
-5.2045837179
 30
0.0
 11
23.3265084559
 21
-5.6605337905
 31
0.0
  0
LINE
  5
1AE
330
1B
100
AcDbEntity
  8
0
  6
Continuous
 62
     7
370
    25
100
AcDbLine
 10
12.0
 20
-9.05
 30
0.0
 11
12.0
 21
9.05
 31
0.0
  0
LINE
  5
1AF
330
1B
100
AcDbEntity
  8
0
  6
Continuous
 62
     7
370
    25
100
AcDbLine
 10
24.4
 20
9.15
 30
0.0
 11
24.4
 21
-9.15
 31
0.0
  0
LINE
  5
1B0
330
1B
100
AcDbEntity
  8
0
  6
Continuous
 62
     7
370
    25
100
AcDbLine
 10
23.3
 20
-5.675210969
 30
0.0
 11
23.3265084559
 21
-5.6605337905
 31
0.0
  0
LINE
  5
1B1
330
1B
100
AcDbEntity
  8
0
  6
Continuous
 62
     7
370
    25
100
AcDbLine
 10
22.3256155633
 20
-5.2045837179
 30
0.0
 11
22.8974576375
 21
-5.2045837179
 31
0.0
  0
LINE
  5
1B2
330
1B
100
AcDbEntity
  8
0
  6
Continuous
 62
     7
370
    25
100
AcDbLine
 10
230.0
 20
-55.0
 30
0.0
 11
204.0
 21
-55.0
 31
0.0
  0
LINE
  5
1B3
330
1B
100
AcDbEntity
  8
0
  6
Continuous
 62
     7
370
    25
100
AcDbLine
 10
27.0
 20
13.0
 30
0.0
 11
27.0
 21
-13.0
 31
0.0
  0
LINE
  5
1B4
330
1B
100
AcDbEntity
  8
0
  6
Continuous
 62
     7
370
    25
100
AcDbLine
 10
59.0
 20
-14.5
 30
0.0
 11
59.0
 21
14.5
 31
0.0
  0
LINE
  5
1B5
330
1B
100
AcDbEntity
  8
0
  6
Continuous
 62
     7
370
    25
100
AcDbLine
 10
86.0
 20
9.4999996765
 30
0.0
 11
86.0
 21
-9.5
 31
0.0
  0
LINE
  5
1B6
330
1B
100
AcDbEntity
  8
0
  6
Continuous
 62
     7
370
    25
100
AcDbLine
 10
70.0
 20
10.5
 30
0.0
 11
70.0
 21
-10.5
 31
0.0
  0
LINE
  5
1B7
330
1B
100
AcDbEntity
  8
0
  6
Continuous
 62
     7
370
    25
100
AcDbLine
 10
228.9999999662
 20
-73.0
 30
0.0
 11
205.0
 21
-73.0
 31
0.0
  0
LINE
  5
1B8
330
1B
100
AcDbEntity
  8
0
  6
Continuous
 62
     7
370
    25
100
AcDbLine
 10
39.0
 20
-25.0
 30
0.0
 11
39.0
 21
25.0
 31
0.0
  0
LINE
  5
1B9
330
1B
100
AcDbEntity
  8
0
  6
Continuous
 62
     7
370
    25
100
AcDbLine
 10
47.0
 20
-25.0
 30
0.0
 11
47.0
 21
25.0
 31
0.0
  0
LINE
  5
1BA
330
1B
100
AcDbEntity
  8
0
  6
Continuous
 62
     7
370
    25
100
AcDbLine
 10
72.0
 20
63.5
 30
0.0
 11
83.0
 21
63.5
 31
0.0
  0
LINE
  5
1BB
330
1B
100
AcDbEntity
  8
0
  6
Continuous
 62
     7
370
    25
100
AcDbLine
 10
72.0
 20
33.5
 30
0.0
 11
83.0
 21
33.5
 31
0.0
  0
LINE
  5
1BC
330
1B
100
AcDbEntity
  8
0
  6
Continuous
 62
     7
370
    25
100
AcDbLine
 10
38.0
 20
-25.0
 30
0.0
 11
38.0
 21
25.0
 31
0.0
  0
LINE
  5
1BD
330
1B
100
AcDbEntity
  8
0
  6
Continuous
 62
     7
370
    25
100
AcDbLine
 10
50.5
 20
-14.4966681813
 30
0.0
 11
50.5
 21
-20.0
 31
0.0
  0
LINE
  5
1BE
330
1B
100
AcDbEntity
  8
0
  6
Continuous
 62
     7
370
    25
100
AcDbLine
 10
50.5
 20
20.0
 30
0.0
 11
50.5
 21
14.5035317897
 31
0.0
  0
LINE
  5
1BF
330
1B
100
AcDbEntity
  8
0
  6
Continuous
 62
     8
370
    25
100
AcDbLine
 10
230.0
 20
-50.0
 30
0.0
 11
204.0
 21
-50.0
 31
0.0
  0
LINE
  5
1C0
330
1B
100
AcDbEntity
  8
0
  6
Continuous
 62
     8
370
    25
100
AcDbLine
 10
167.0
 20
13.0
 30
0.0
 11
167.0
 21
-13.0
 31
0.0
  0
LINE
  5
1C1
330
1B
100
AcDbEntity
  8
0
  6
Continuous
 62
     8
370
    25
100
AcDbLine
 10
85.0
 20
-10.5
 30
0.0
 11
85.0
 21
10.5
 31
0.0
  0
LINE
  5
1C2
330
1B
100
AcDbEntity
  8
0
  6
Continuous
 62
     8
370
    25
100
AcDbLine
 10
204.0
 20
-72.0
 30
0.0
 11
230.0
 21
-72.0
 31
0.0
  0
ARC
  5
1C3
330
1B
100
AcDbEntity
  8
0
  6
Continuous
 62
     7
370
    25
100
AcDbCircle
 10
167.0
 20
-50.0
 30
0.0
 40
36.99999999999997
100
AcDbArc
 50
0.0
 51
90.0
  0
ARC
  5
1C4
330
1B
100
AcDbEntity
  8
0
  6
Continuous
 62
     7
370
    25
100
AcDbCircle
 10
167.0
 20
-50.0
 30
0.0
 40
63.0
100
AcDbArc
 50
0.0
 51
90.0
  0
ARC
  5
1C5
330
1B
100
AcDbEntity
  8
0
  6
Continuous
 62
     7
370
    25
100
AcDbCircle
 10
85.0
 20
9.5
 30
0.0
 40
1.0
100
AcDbArc
 50
0.0
 51
90.0
  0
ARC
  5
1C6
330
1B
100
AcDbEntity
  8
0
  6
Continuous
 62
     7
370
    25
100
AcDbCircle
 10
85.0
 20
-9.5
 30
0.0
 40
0.9999999999999876
100
AcDbArc
 50
270.0
 51
0.0
  0
ARC
  5
1C7
330
1B
100
AcDbEntity
  8
0
  6
Continuous
 62
     7
370
    25
100
AcDbCircle
 10
229.0
 20
-72.0
 30
0.0
 40
1.000000000000028
100
AcDbArc
 50
270.0
 51
0.0
  0
ARC
  5
1C8
330
1B
100
AcDbEntity
  8
0
  6
Continuous
 62
     7
370
    25
100
AcDbCircle
 10
205.0
 20
-72.0
 30
0.0
 40
1.000000000000057
100
AcDbArc
 50
180.0
 51
270.0
  0
ARC
  5
1C9
330
1B
100
AcDbEntity
  8
0
  6
Continuous
 62
     7
370
    25
100
AcDbCircle
 10
41.9752996182
 20
13.2267027493
 30
0.0
 40
18.47432638467188
100
AcDbArc
 50
359.2968925371
 51
4.0774192192
  0
ARC
  5
1CA
330
1B
100
AcDbEntity
  8
0
  6
Continuous
 62
     7
370
    25
100
AcDbCircle
 10
34.9279393146
 20
-13.1469238643
 30
0.0
 40
25.61627081953133
100
AcDbArc
 50
357.0628983275
 51
0.3286256439
  0
VIEWPORT
  5
2B4
330
1B
100
AcDbEntity
  8
0
100
AcDbViewport
 10
0.0
 20
0.0
 30
0.0
 40
205.6
 41
156.0
 68
     1
 69
     1
 12
0.0
 22
-4.7499682573
 13
0.0
 23
0.0
 14
10.0
 24
10.0
 15
10.0
 25
10.0
 16
0.0
 26
0.0
 36
1.0
 17
0.0
 27
0.0
 37
0.0
 42
50.0
 43
0.0
 44
0.0
 45
195.8042801556
 50
0.0
 51
0.0
 72
   100
 90
   557152
  1

281
     0
 71
     1
 74
     0
110
0.0
120
0.0
130
0.0
111
1.0
121
0.0
131
0.0
112
0.0
122
1.0
132
0.0
 79
     0
146
0.0
  0
ENDBLK
  5
1D
330
1B
100
AcDbEntity
  8
0
100
AcDbBlockEnd
  0
ENDSEC
  0
SECTION
  2
ENTITIES
  0
CIRCLE
  5
8F
330
1F
100
AcDbEntity
  8
0
  6
Continuous
 62
     7
370
    25
100
AcDbCircle
 10
-101.5
 20
0.0
 30
0.0
 40
9.500000000000002
  0
CIRCLE
  5
90
330
1F
100
AcDbEntity
  8
0
  6
Continuous
 62
     7
370
    25
100
AcDbCircle
 10
-101.5
 20
0.0
 30
0.0
 40
10.5
  0
LWPOLYLINE
  5
91
330
1F
100
AcDbEntity
  8
0
  6
Continuous
 62
     7
370
    25
100
AcDbPolyline
 90
       30
 70
   128
 43
0.0
 10
102.3490517406
 20
63.4999388038
 10
103.497365431
 20
63.4999439327
 10
104.55228432
 20
63.4999516833
 10
105.4644815726
 20
63.499961693
 10
106.1913038593
 20
63.499973494
 10
106.6987657777
 20
63.4999865343
 10
106.9631389725
 20
63.5000002043
 10
106.9720616469
 20
63.5000138647
 10
106.7251165866
 20
63.5000268768
 10
106.2338506683
 20
63.5000386321
 10
105.5212349401
 20
63.5000485811
 10
104.6205905215
 20
63.5000562584
 10
103.5740305446
 20
63.5000613052
 10
102.4304909908
 20
63.5000634854
 10
101.2434424985
 20
63.500062697
 10
100.068390136
 20
63.500058977
 10
98.9602780458
 20
63.5000524993
 10
97.9709203176
 20
63.5000435668
 10
97.1465782192
 20
63.5000325971
 10
96.525797071
 20
63.5000201032
 10
96.1376039095
 20
63.5000066693
 10
96.0001502154
 20
63.4999929236
 10
96.1198631708
 20
63.4999795087
 10
96.4911451309
 20
63.4999670519
 10
97.0966353639
 20
63.4999561358
 10
97.9080218194
 20
63.4999472707
 10
98.8873649686
 20
63.4999408711
 10
99.9888718143
 20
63.4999372364
 10
101.1610371206
 20
63.4999365363
 10
102.3490517406
 20
63.4999388038
  0
LWPOLYLINE
  5
92
330
1F
100
AcDbEntity
  8
0
  6
Continuous
 62
     7
370
    25
100
AcDbPolyline
 90
        8
 70
   128
 43
0.0
 10
102.3490929222
 20
33.4999388058
 10
103.4974066126
 20
33.4999439347
 10
104.5523255015
 20
33.4999516853
 10
105.4645227542
 20
33.499961695
 10
106.1913450408
 20
33.499973496
 10
106.6988069592
 20
33.4999865363
 10
106.963180154
 20
33.5000002063
 10
107.0000366082
 20
33.5000075517
  0
LWPOLYLINE
  5
93
330
1F
100
AcDbEntity
  8
0
  6
Continuous
 62
     7
370
    25
100
AcDbPolyline
 90
        9
 70
   128
 43
0.0
 10
96.0000366082
 20
33.4999924518
 10
96.1199043524
 20
33.4999795107
 10
96.4911863124
 20
33.4999670539
 10
97.0966765454
 20
33.4999561378
 10
97.9080630009
 20
33.4999472727
 10
98.8874061502
 20
33.4999408731
 10
99.9889129959
 20
33.4999372384
 10
101.1610783022
 20
33.4999365383
 10
102.3490929222
 20
33.4999388058
  0
CIRCLE
  5
A7
330
1F
100
AcDbEntity
  8
0
  6
Continuous
 62
     7
370
    25
100
AcDbCircle
 10
101.490675226
 20
0.0000742524
 30
0.0
 40
9.49999930802783
  0
CIRCLE
  5
A8
330
1F
100
AcDbEntity
  8
0
  6
Continuous
 62
     7
370
    25
100
AcDbCircle
 10
101.4911261249
 20
0.0000706133
 30
0.0
 40
10.49999929121306
  0
SPLINE
  5
AA
330
1F
100
AcDbEntity
  8
0
  6
Continuous
 62
     7
370
    25
100
AcDbSpline
210
0.0
220
0.0
230
1.0
 70
     8
 71
     3
 72
    15
 73
    11
 74
     0
 42
0.000000001
 43
0.00000001
 40
0.0
 40
0.0
 40
0.0
 40
0.0
 40
0.0108315635228067
 40
0.1283040669320516
 40
0.2576759469229735
 40
0.5053691458166104
 40
0.7526803711118258
 40
0.8826159317131528
 40
0.9990479920468108
 40
1.0
 40
1.0
 40
1.0
 40
1.0
 10
101.5769608967267
 20
10.49658081640656
 30
0.0
 10
101.6028669246513
 20
10.49741243022279
 30
0.0
 10
101.9097338634614
 20
10.50726321810909
 30
0.0
 10
102.5324699856361
 20
10.45140315143631
 30
0.0
 10
103.6680620144022
 20
10.29615509388171
 30
0.0
 10
104.9143858315346
 20
9.956501491533814
 30
0.0
 10
105.7580318842238
 20
9.60500030727475
 30
0.0
 10
106.0767977912955
 20
9.45300970234367
 30
0.0
 10
106.1718278291815
 20
9.399633055036615
 30
0.0
 10
106.1459941916196
 20
9.413545676119554
 30
0.0
 10
106.1457846757221
 20
9.413658510221438
 30
0.0
  0
LINE
  5
AE
330
1F
100
AcDbEntity
  8
0
  6
Continuous
 62
     7
370
    25
100
AcDbLine
 10
13.0
 20
-72.0
 30
0.0
 11
13.0
 21
0.0
 31
0.0
  0
LINE
  5
AF
330
1F
100
AcDbEntity
  8
0
  6
Continuous
 62
     7
370
    25
100
AcDbLine
 10
-13.0
 20
0.0
 30
0.0
 11
-13.0
 21
-72.0
 31
0.0
  0
LINE
  5
B0
330
1F
100
AcDbEntity
  8
0
  6
Continuous
 62
     7
370
    25
100
AcDbLine
 10
95.9999954267
 20
63.4999924498
 30
0.0
 11
96.0000366082
 21
33.4999924518
 31
0.0
  0
LINE
  5
B1
330
1F
100
AcDbEntity
  8
0
  6
Continuous
 62
     7
370
    25
100
AcDbLine
 10
107.0000366082
 20
33.5000075517
 30
0.0
 11
106.9999954267
 21
63.5000075497
 31
0.0
  0
LINE
  5
B2
330
1F
100
AcDbEntity
  8
0
  6
Continuous
 62
     7
370
    25
100
AcDbLine
 10
97.0000366083
 20
33.4999575342
 30
0.0
 11
97.0000695656
 21
9.4911411119
 31
0.0
  0
LINE
  5
B3
330
1F
100
AcDbEntity
  8
0
  6
Continuous
 62
     7
370
    25
100
AcDbLine
 10
106.0000709262
 20
8.5000061807
 30
0.0
 11
106.0000366083
 21
33.4999698886
 31
0.0
  0
LINE
  5
B4
330
1F
100
AcDbEntity
  8
0
  6
Continuous
 62
     7
370
    25
100
AcDbLine
 10
108.9877783506
 20
-12.4172224138
 30
0.0
 11
109.1097032116
 21
-12.3429514287
 31
0.0
  0
LINE
  5
B5
330
1F
100
AcDbEntity
  8
0
  6
Continuous
 62
     7
370
    25
100
AcDbLine
 10
94.0229644123
 20
12.423766408
 30
0.0
 11
93.9010395513
 21
12.3494954229
 31
0.0
  0
LINE
  5
B6
330
1F
100
AcDbEntity
  8
0
  6
Continuous
 62
     7
370
    25
100
AcDbLine
 10
-107.0
 20
63.5
 30
0.0
 11
-107.0
 21
33.5
 31
0.0
  0
LINE
  5
B7
330
1F
100
AcDbEntity
  8
0
  6
Continuous
 62
     7
370
    25
100
AcDbLine
 10
-96.0
 20
33.5
 30
0.0
 11
-96.0
 21
63.5
 31
0.0
  0
LINE
  5
B8
330
1F
100
AcDbEntity
  8
0
  6
Continuous
 62
     7
370
    25
100
AcDbLine
 10
-106.0
 20
33.5
 30
0.0
 11
-106.0
 21
9.4868329805
 31
0.0
  0
LINE
  5
B9
330
1F
100
AcDbEntity
  8
0
  6
Continuous
 62
     7
370
    25
100
AcDbLine
 10
-97.0
 20
9.4868329805
 30
0.0
 11
-97.0
 21
33.5
 31
0.0
  0
LINE
  5
BA
330
1F
100
AcDbEntity
  8
0
  6
Continuous
 62
     7
370
    25
100
AcDbLine
 10
101.4067381935
 20
-10.4995895627
 30
0.0
 11
101.4135048523
 21
-10.4996439478
 31
0.0
  0
LINE
  5
BB
330
1F
100
AcDbEntity
  8
0
  6
Continuous
 62
     7
370
    25
100
AcDbLine
 10
101.5768681515
 20
10.499721322
 30
0.0
 11
101.5755142677
 21
10.4997322035
 31
0.0
  0
LINE
  5
BC
330
1F
100
AcDbEntity
  8
0
  6
Continuous
 62
     7
370
    25
100
AcDbLine
 10
13.0
 20
-55.0
 30
0.0
 11
-13.0
 21
-55.0
 31
0.0
  0
LINE
  5
BD
330
1F
100
AcDbEntity
  8
0
  6
Continuous
 62
     7
370
    25
100
AcDbLine
 10
12.0
 20
-73.0
 30
0.0
 11
-12.0
 21
-73.0
 31
0.0
  0
LINE
  5
BE
330
1F
100
AcDbEntity
  8
0
  6
Continuous
 62
     7
370
    25
100
AcDbLine
 10
-107.0
 20
63.5
 30
0.0
 11
-96.0
 21
63.5
 31
0.0
  0
LINE
  5
BF
330
1F
100
AcDbEntity
  8
0
  6
Continuous
 62
     7
370
    25
100
AcDbLine
 10
-107.0
 20
33.5
 30
0.0
 11
-96.0
 21
33.5
 31
0.0
  0
LINE
  5
C0
330
1F
100
AcDbEntity
  8
0
  6
Continuous
 62
     7
370
    25
100
AcDbLine
 10
106.0700755913
 20
9.4544230612
 30
0.0
 11
106.0000695705
 21
9.4875761387
 31
0.0
  0
LINE
  5
C1
330
1F
100
AcDbEntity
  8
0
  6
Continuous
 62
     8
370
    25
100
AcDbLine
 10
13.0
 20
-50.0
 30
0.0
 11
-13.0
 21
-50.0
 31
0.0
  0
LINE
  5
C2
330
1F
100
AcDbEntity
  8
0
  6
Continuous
 62
     8
370
    25
100
AcDbLine
 10
-13.0
 20
-72.0
 30
0.0
 11
13.0
 21
-72.0
 31
0.0
  0
ARC
  5
C3
330
1F
100
AcDbEntity
  8
0
  6
Continuous
 62
     7
370
    25
100
AcDbCircle
 10
12.0
 20
-72.0
 30
0.0
 40
1.000000000000009
100
AcDbArc
 50
270.0
 51
0.0
  0
ARC
  5
C4
330
1F
100
AcDbEntity
  8
0
  6
Continuous
 62
     7
370
    25
100
AcDbCircle
 10
-12.0
 20
-72.0
 30
0.0
 40
1.000000000000009
100
AcDbArc
 50
180.0
 51
270.0
  0
ARC
  5
C5
330
1F
100
AcDbEntity
  8
0
  6
Continuous
 62
     7
370
    25
100
AcDbCircle
 10
0.0
 20
0.0
 30
0.0
 40
13.0
100
AcDbArc
 50
0.0
 51
180.0
  0
ARC
  5
C6
330
1F
100
AcDbEntity
  8
0
  6
Continuous
 62
     7
370
    25
100
AcDbCircle
 10
101.5
 20
0.0
 30
0.0
 40
14.75000000000041
100
AcDbArc
 50
107.7630042412
 51
72.2364792694
  0
ARC
  5
C7
330
1F
100
AcDbEntity
  8
0
  6
Continuous
 62
     7
370
    25
100
AcDbCircle
 10
101.5
 20
0.0
 30
0.0
 40
25.00000000000034
100
AcDbArc
 50
100.3696460212
 51
79.6301264101
  0
ARC
  5
C8
330
1F
100
AcDbEntity
  8
0
  6
Continuous
 62
     7
370
    25
100
AcDbCircle
 10
-101.5
 20
0.0
 30
0.0
 40
14.5000000000004
100
AcDbArc
 50
108.0800126244
 51
71.9199873756
  0
ARC
  5
C9
330
1F
100
AcDbEntity
  8
0
  6
Continuous
 62
     7
370
    25
100
AcDbCircle
 10
101.5659861324
 20
0.0409752191
 30
0.0
 40
14.49933299541872
100
AcDbArc
 50
108.3551205799
 51
157.5525722048
  0
ARC
  5
CA
330
1F
100
AcDbEntity
  8
0
  6
Continuous
 62
     7
370
    25
100
AcDbCircle
 10
101.5662430978
 20
0.0404584568
 30
0.0
 40
14.49976781377827
100
AcDbArc
 50
157.551072656
 51
72.1945650797
  0
ARC
  5
CB
330
1F
100
AcDbEntity
  8
0
  6
Continuous
 62
     7
370
    25
100
AcDbCircle
 10
101.4440996619
 20
-0.0333259112
 30
0.0
 40
14.49937998758987
100
AcDbArc
 50
121.3479012293
 51
157.5525200346
  0
ARC
  5
CC
330
1F
100
AcDbEntity
  8
0
  6
Continuous
 62
     7
370
    25
100
AcDbCircle
 10
101.4446809202
 20
-0.0336499144
 30
0.0
 40
14.50004092033687
100
AcDbArc
 50
157.5522137683
 51
301.3464830278
  0
ARC
  5
CD
330
1F
100
AcDbEntity
  8
0
  6
Continuous
 62
     7
370
    25
100
AcDbCircle
 10
-101.5
 20
0.0
 30
0.0
 40
14.75000000000037
100
AcDbArc
 50
107.7632624856
 51
72.2367375144
  0
ARC
  5
CE
330
1F
100
AcDbEntity
  8
0
  6
Continuous
 62
     7
370
    25
100
AcDbCircle
 10
-101.5
 20
0.0
 30
0.0
 40
25.00000000000029
100
AcDbArc
 50
100.3697598055
 51
79.6302401945
  0
ARC
  5
CF
330
1F
100
AcDbEntity
  8
0
  6
Continuous
 62
     7
370
    25
100
AcDbCircle
 10
0.0
 20
0.0
 30
0.0
 40
13.25000000000036
100
AcDbArc
 50
348.8523089815
 51
191.1476910185
  0
ARC
  5
D0
330
1F
100
AcDbEntity
  8
0
  6
Continuous
 62
     7
370
    25
100
AcDbCircle
 10
0.0
 20
0.0
 30
0.0
 40
20.00000000000005
100
AcDbArc
 50
310.5416018735
 51
229.4583981265
  0
ARC
  5
D1
330
1F
100
AcDbEntity
  8
0
  6
Continuous
 62
     7
370
    25
100
AcDbCircle
 10
0.0
 20
0.0
 30
0.0
 40
25.00000000000003
100
AcDbArc
 50
301.3322514976
 51
238.6677485024
  0
ARC
  5
D2
330
1F
100
AcDbEntity
  8
0
  6
Continuous
 62
     7
370
    25
100
AcDbCircle
 10
101.4978918865
 20
0.0000170658
 30
0.0
 40
10.50000012238496
100
AcDbArc
 50
269.5395168671
 51
64.6099139262
  0
SPLINE
  5
1CB
330
23
100
AcDbEntity
 67
     1
  8
0
  6
Continuous
 62
     7
370
    25
100
AcDbSpline
210
0.0
220
0.0
230
1.0
 70
     8
 71
     3
 72
     9
 73
     5
 74
     0
 42
0.000000001
 43
0.00000001
 40
0.0
 40
0.0
 40
0.0
 40
0.0
 40
0.5116044445543052
 40
1.0
 40
1.0
 40
1.0
 40
1.0
 10
10.25504973532015
 20
21.72262145613352
 30
0.0
 10
10.10922765987256
 20
21.79863831826306
 30
0.0
 10
9.824198714170928
 20
21.94722354448364
 30
0.0
 10
9.539194695837978
 20
22.09582159346335
 30
0.0
 10
9.4
 20
22.16839622013295
 30
0.0
  0
SPLINE
  5
1CC
330
23
100
AcDbEntity
 67
     1
  8
0
  6
Continuous
 62
     7
370
    25
100
AcDbSpline
210
0.0
220
0.0
230
1.0
 70
     8
 71
     3
 72
     9
 73
     5
 74
     0
 42
0.000000001
 43
0.00000001
 40
0.0
 40
0.0
 40
0.0
 40
0.0
 40
0.5149501354843099
 40
1.0
 40
1.0
 40
1.0
 40
1.0
 10
10.25008072157772
 20
19.9091084359421
 30
0.0
 10
10.10415716007295
 20
19.98518121575159
 30
0.0
 10
9.820783001199237
 20
20.13290965500708
 30
0.0
 10
9.537436959255748
 20
20.28066061962067
 30
0.0
 10
9.4
 20
20.35232720498854
 30
0.0
  0
SPLINE
  5
1CD
330
23
100
AcDbEntity
 67
     1
  8
0
  6
Continuous
 62
     7
370
    25
100
AcDbSpline
210
0.0
220
0.0
230
1.0
 70
     8
 71
     3
 72
     9
 73
     5
 74
     0
 42
0.000000001
 43
0.00000001
 40
0.0
 40
0.0
 40
0.0
 40
0.0
 40
0.5112488968764303
 40
1.0
 40
1.0
 40
1.0
 40
1.0
 10
10.25652932982751
 20
18.08979369866497
 30
0.0
 10
10.11056397802063
 20
18.16589088963245
 30
0.0
 10
9.82505656138134
 20
18.31473657210221
 30
0.0
 10
9.539544389138765
 20
18.46360945482298
 30
0.0
 10
9.400000000000002
 20
18.53637124047794
 30
0.0
  0
SPLINE
  5
1CE
330
23
100
AcDbEntity
 67
     1
  8
0
  6
Continuous
 62
     7
370
    25
100
AcDbSpline
210
0.0
220
0.0
230
1.0
 70
     8
 71
     3
 72
     9
 73
     5
 74
     0
 42
0.000000001
 43
0.00000001
 40
0.0
 40
0.0
 40
0.0
 40
0.0
 40
0.5164710224580805
 40
1.0
 40
1.0
 40
1.0
 40
1.0
 10
10.24775790115285
 20
16.27815383752337
 30
0.0
 10
10.1018025029739
 20
16.35424222344645
 30
0.0
 10
9.819201172343009
 20
16.50156585364923
 30
0.0
 10
9.536630910023234
 20
16.64891521651841
 30
0.0
 10
9.400000000000002
 20
16.720162903288
 30
0.0
  0
SPLINE
  5
1CF
330
23
100
AcDbEntity
 67
     1
  8
0
  6
Continuous
 62
     7
370
    25
100
AcDbSpline
210
0.0
220
0.0
230
1.0
 70
     8
 71
     3
 72
     9
 73
     5
 74
     0
 42
0.000000001
 43
0.00000001
 40
0.0
 40
0.0
 40
0.0
 40
0.0
 40
0.5112154149369807
 40
1.0
 40
1.0
 40
1.0
 40
1.0
 10
10.25645891396788
 20
14.45783422811553
 30
0.0
 10
10.11051373661769
 20
14.53391973243409
 30
0.0
 10
9.825027084443503
 20
14.68275230300113
 30
0.0
 10
9.539541132541665
 20
14.83160963909252
 30
0.0
 10
9.4
 20
14.90436881034754
 30
0.0
  0
SPLINE
  5
1D0
330
23
100
AcDbEntity
 67
     1
  8
0
  6
Continuous
 62
     7
370
    25
100
AcDbSpline
210
0.0
220
0.0
230
1.0
 70
     8
 71
     3
 72
     9
 73
     5
 74
     0
 42
0.000000001
 43
0.00000001
 40
0.0
 40
0.0
 40
0.0
 40
0.0
 40
0.0311934841784817
 40
1.0
 40
1.0
 40
1.0
 40
1.0
 10
9.825854220743828
 20
12.86628932936783
 30
0.0
 10
9.821426078050973
 20
12.86859779796237
 30
0.0
 10
9.679468781215522
 20
12.94260263119365
 30
0.0
 10
9.537520459239907
 20
13.01662153863778
 30
0.0
 10
9.4
 20
13.08833153846366
 30
0.0
  0
SPLINE
  5
1D1
330
23
100
AcDbEntity
 67
     1
  8
0
  6
Continuous
 62
     7
370
    25
100
AcDbSpline
210
0.0
220
0.0
230
1.0
 70
     8
 71
     3
 72
     9
 73
     5
 74
     0
 42
0.000000001
 43
0.00000001
 40
0.0
 40
0.0
 40
0.0
 40
0.0
 40
0.499968876312634
 40
1.0
 40
1.0
 40
1.0
 40
1.0
 10
-9.38014192197645
 20
14.00675103913279
 30
0.0
 10
-9.526097365261702
 20
13.93064653503519
 30
0.0
 10
-9.818026423649695
 20
13.77842805163899
 30
0.0
 10
-10.10995214255681
 20
13.62623799119191
 30
0.0
 10
-10.25592408781518
 20
13.55013822425249
 30
0.0
  0
SPLINE
  5
1D2
330
23
100
AcDbEntity
 67
     1
  8
0
  6
Continuous
 62
     7
370
    25
100
AcDbSpline
210
0.0
220
0.0
230
1.0
 70
     8
 71
     3
 72
     9
 73
     5
 74
     0
 42
0.000000001
 43
0.00000001
 40
0.0
 40
0.0
 40
0.0
 40
0.0
 40
0.4999757349817672
 40
0.9999999999999999
 40
0.9999999999999999
 40
0.9999999999999999
 40
0.9999999999999999
 10
-9.376227512058925
 20
15.82478912136062
 30
0.0
 10
-9.522115963017193
 20
15.74871739221152
 30
0.0
 10
-9.813907025564632
 20
15.59656655002742
 30
0.0
 10
-10.10572322963689
 20
15.4444378578887
 30
0.0
 10
-10.25163841259853
 20
15.36836982041384
 30
0.0
  0
SPLINE
  5
1D3
330
23
100
AcDbEntity
 67
     1
  8
0
  6
Continuous
 62
     7
370
    25
100
AcDbSpline
210
0.0
220
0.0
230
1.0
 70
     8
 71
     3
 72
     9
 73
     5
 74
     0
 42
0.000000001
 43
0.00000001
 40
0.0
 40
0.0
 40
0.0
 40
0.0
 40
0.4999680110575114
 40
1.0
 40
1.0
 40
1.0
 40
1.0
 10
-9.376239808473875
 20
17.64078308905252
 30
0.0
 10
-9.522199791691483
 20
17.56467638491599
 30
0.0
 10
-9.814138435743697
 20
17.41245323772792
 30
0.0
 10
-10.10608888173528
 20
17.26025930448136
 30
0.0
 10
-10.2520734439171
 20
17.18415746933509
 30
0.0
  0
SPLINE
  5
1D4
330
23
100
AcDbEntity
 67
     1
  8
0
  6
Continuous
 62
     7
370
    25
100
AcDbSpline
210
0.0
220
0.0
230
1.0
 70
     8
 71
     3
 72
     9
 73
     5
 74
     0
 42
0.000000001
 43
0.00000001
 40
0.0
 40
0.0
 40
0.0
 40
0.0
 40
0.4999731309682172
 40
1.0
 40
1.0
 40
1.0
 40
1.0
 10
-9.380228844000085
 20
19.45470273786826
 30
0.0
 10
-9.526150080413718
 20
19.37861718048397
 30
0.0
 10
-9.818008237133164
 20
19.22643788789494
 30
0.0
 10
-10.10987152103404
 20
19.07428312678999
 30
0.0
 10
-10.25581100506833
 20
18.99820165798642
 30
0.0
  0
SPLINE
  5
1D5
330
23
100
AcDbEntity
 67
     1
  8
0
  6
Continuous
 62
     7
370
    25
100
AcDbSpline
210
0.0
220
0.0
230
1.0
 70
     8
 71
     3
 72
     9
 73
     5
 74
     0
 42
0.000000001
 43
0.00000001
 40
0.0
 40
0.0
 40
0.0
 40
0.0
 40
0.4999699062602834
 40
1.0
 40
1.0
 40
1.0
 40
1.0
 10
-9.372383491194146
 20
21.27458321520811
 30
0.0
 10
-9.518316458173308
 20
21.19848591595329
 30
0.0
 10
-9.810199959863883
 20
21.04628215668298
 30
0.0
 10
-10.10211315626548
 20
20.89410587721374
 30
0.0
 10
-10.24807853922603
 20
20.81801315792577
 30
0.0
  0
SPLINE
  5
1E2
330
23
100
AcDbEntity
 67
     1
  8
0
  6
Continuous
 62
     7
370
    25
100
AcDbSpline
210
0.0
220
0.0
230
1.0
 70
     8
 71
     3
 72
     9
 73
     5
 74
     0
 42
0.000000001
 43
0.00000001
 40
0.0
 40
0.0
 40
0.0
 40
0.0
 40
0.4999810491713478
 40
1.0
 40
1.0
 40
1.0
 40
1.0
 10
9.392875640133854
 20
22.71237509054895
 30
0.0
 10
9.537430118259
 20
22.7877431046524
 30
0.0
 10
9.826550032633206
 20
22.93848484622116
 30
0.0
 10
10.11566908258442
 20
23.08920944867879
 30
0.0
 10
10.26023408660561
 20
23.16457460626373
 30
0.0
  0
SPLINE
  5
1E3
330
23
100
AcDbEntity
 67
     1
  8
0
  6
Continuous
 62
     7
370
    25
100
AcDbSpline
210
0.0
220
0.0
230
1.0
 70
     8
 71
     3
 72
     9
 73
     5
 74
     0
 42
0.000000001
 43
0.00000001
 40
0.0
 40
0.0
 40
0.0
 40
0.0
 40
0.4999680292525494
 40
1.0
 40
1.0
 40
1.0
 40
1.0
 10
9.383519989789585
 20
20.89102579925132
 30
0.0
 10
9.528174928259784
 20
20.96645192318325
 30
0.0
 10
9.817503305289128
 20
21.11731381738216
 30
0.0
 10
10.1068442101904
 20
21.26814677535123
 30
0.0
 10
10.25152391308603
 20
21.34356807657817
 30
0.0
  0
SPLINE
  5
1E4
330
23
100
AcDbEntity
 67
     1
  8
0
  6
Continuous
 62
     7
370
    25
100
AcDbSpline
210
0.0
220
0.0
230
1.0
 70
     8
 71
     3
 72
     9
 73
     5
 74
     0
 42
0.000000001
 43
0.00000001
 40
0.0
 40
0.0
 40
0.0
 40
0.0
 40
0.4999679852536305
 40
1.0
 40
1.0
 40
1.0
 40
1.0
 10
9.385061151728754
 20
19.07579051350475
 30
0.0
 10
9.529718349797522
 20
19.15121737060251
 30
0.0
 10
9.819051271775285
 20
19.30208074450331
 30
0.0
 10
10.10839035170973
 20
19.45291514207115
 30
0.0
 10
10.25306915479421
 20
19.52833716978006
 30
0.0
  0
SPLINE
  5
1E5
330
23
100
AcDbEntity
 67
     1
  8
0
  6
Continuous
 62
     7
370
    25
100
AcDbSpline
210
0.0
220
0.0
230
1.0
 70
     8
 71
     3
 72
     9
 73
     5
 74
     0
 42
0.000000001
 43
0.00000001
 40
0.0
 40
0.0
 40
0.0
 40
0.0
 40
0.4999681888344938
 40
1.0
 40
1.0
 40
1.0
 40
1.0
 10
9.386411765127143
 20
17.2604901678755
 30
0.0
 10
9.53106805045531
 20
17.33591667523993
 30
0.0
 10
9.820399029022933
 20
17.48677928819987
 30
0.0
 10
10.10973080330903
 20
17.63761310921419
 30
0.0
 10
10.25440589443304
 20
17.71303481792098
 30
0.0
  0
SPLINE
  5
1E6
330
23
100
AcDbEntity
 67
     1
  8
0
  6
Continuous
 62
     7
370
    25
100
AcDbSpline
210
0.0
220
0.0
230
1.0
 70
     8
 71
     3
 72
     9
 73
     5
 74
     0
 42
0.000000001
 43
0.00000001
 40
0.0
 40
0.0
 40
0.0
 40
0.0
 40
0.4999686039752924
 40
1.0
 40
1.0
 40
1.0
 40
1.0
 10
9.38752377579121
 20
15.44508964287386
 30
0.0
 10
9.532176754849583
 20
15.52051483059966
 30
0.0
 10
9.821500880221103
 20
15.67137467885031
 30
0.0
 10
10.11082173023438
 20
15.82220611138019
 30
0.0
 10
10.25549123876557
 20
15.89762656315251
 30
0.0
  0
SPLINE
  5
1E7
330
23
100
AcDbEntity
 67
     1
  8
0
  6
Continuous
 62
     7
370
    25
100
AcDbSpline
210
0.0
220
0.0
230
1.0
 70
     8
 71
     3
 72
     9
 73
     5
 74
     0
 42
0.000000001
 43
0.00000001
 40
0.0
 40
0.0
 40
0.0
 40
0.0
 40
0.499969188442837
 40
1.0
 40
1.0
 40
1.0
 40
1.0
 10
9.388369428024061
 20
13.62956135405224
 30
0.0
 10
9.533017507581544
 20
13.70498439094664
 30
0.0
 10
9.822331495125445
 20
13.85583976091316
 30
0.0
 10
10.11163959960598
 20
14.00666724492412
 30
0.0
 10
10.25630256587946
 20
14.08208563415925
 30
0.0
  0
SPLINE
  5
1E8
330
23
100
AcDbEntity
 67
     1
  8
0
  6
Continuous
 62
     7
370
    25
100
AcDbSpline
210
0.0
220
0.0
230
1.0
 70
     8
 71
     3
 72
     9
 73
     5
 74
     0
 42
0.000000001
 43
0.00000001
 40
0.0
 40
0.0
 40
0.0
 40
0.0
 40
0.5118362694992623
 40
0.9999999999999999
 40
0.9999999999999999
 40
0.9999999999999999
 40
0.9999999999999999
 10
-10.24765525086267
 20
13.16978563249409
 30
0.0
 10
-10.10302667147534
 20
13.09438727730977
 30
0.0
 10
-9.820458616013353
 20
12.94707775729843
 30
0.0
 10
-9.53792343027013
 20
12.79974450907162
 30
0.0
 10
-9.4
 20
12.72782176099042
 30
0.0
  0
SPLINE
  5
1E9
330
23
100
AcDbEntity
 67
     1
  8
0
  6
Continuous
 62
     7
370
    25
100
AcDbSpline
210
0.0
220
0.0
230
1.0
 70
     8
 71
     3
 72
     9
 73
     5
 74
     0
 42
0.000000001
 43
0.00000001
 40
0.0
 40
0.0
 40
0.0
 40
0.0
 40
0.5111379416207668
 40
1.0
 40
1.0
 40
1.0
 40
1.0
 10
-10.24876309394858
 20
14.98627781783747
 30
0.0
 10
-10.10414361438482
 20
14.9108842965439
 30
0.0
 10
-9.821207311309394
 20
14.76338297614786
 30
0.0
 10
-9.538301780243668
 20
14.61585891724095
 30
0.0
 10
-9.400000000000002
 20
14.54374000214324
 30
0.0
  0
SPLINE
  5
1EA
330
23
100
AcDbEntity
 67
     1
  8
0
  6
Continuous
 62
     7
370
    25
100
AcDbSpline
210
0.0
220
0.0
230
1.0
 70
     8
 71
     3
 72
     9
 73
     5
 74
     0
 42
0.000000001
 43
0.00000001
 40
0.0
 40
0.0
 40
0.0
 40
0.0
 40
0.5102437181500227
 40
1.0
 40
1.0
 40
1.0
 40
1.0
 10
-10.25020714717675
 20
16.80294037539015
 30
0.0
 10
-10.10559587534447
 20
16.72755158216087
 30
0.0
 10
-9.822179800460486
 20
16.57980102581374
 30
0.0
 10
-9.538791298861943
 20
16.43202869462971
 30
0.0
 10
-9.400000000000002
 20
16.35965626714872
 30
0.0
  0
SPLINE
  5
1EB
330
23
100
AcDbEntity
 67
     1
  8
0
  6
Continuous
 62
     7
370
    25
100
AcDbSpline
210
0.0
220
0.0
230
1.0
 70
     8
 71
     3
 72
     9
 73
     5
 74
     0
 42
0.000000001
 43
0.00000001
 40
0.0
 40
0.0
 40
0.0
 40
0.0
 40
0.5092002016552681
 40
1.0
 40
1.0
 40
1.0
 40
1.0
 10
-10.25193832518642
 20
18.61977071199848
 30
0.0
 10
-10.10733018191211
 20
18.54438432567279
 30
0.0
 10
-9.823339439559227
 20
18.39633570730886
 30
0.0
 10
-9.539371437934014
 20
18.24826583659013
 30
0.0
 10
-9.400000000000002
 20
18.17559317390045
 30
0.0
  0
SPLINE
  5
1EC
330
23
100
AcDbEntity
 67
     1
  8
0
  6
Continuous
 62
     7
370
    25
100
AcDbSpline
210
0.0
220
0.0
230
1.0
 70
     8
 71
     3
 72
     9
 73
     5
 74
     0
 42
0.000000001
 43
0.00000001
 40
0.0
 40
0.0
 40
0.0
 40
0.0
 40
0.5082809650200165
 40
1.0
 40
1.0
 40
1.0
 40
1.0
 10
-10.2535427795202
 20
20.4365806903675
 30
0.0
 10
-10.10892554291524
 20
20.36118999579518
 30
0.0
 10
-9.824403307070206
 20
20.21286515233123
 30
0.0
 10
-9.539897111789337
 20
20.06451830102128
 30
0.0
 10
-9.4
 20
19.99157333045284
 30
0.0
  0
SPLINE
  5
1ED
330
23
100
AcDbEntity
 67
     1
  8
0
  6
Continuous
 62
     7
370
    25
100
AcDbSpline
210
0.0
220
0.0
230
1.0
 70
     8
 71
     3
 72
     9
 73
     5
 74
     0
 42
0.000000001
 43
0.00000001
 40
0.0
 40
0.0
 40
0.0
 40
0.0
 40
0.5075466613564351
 40
1.0
 40
1.0
 40
1.0
 40
1.0
 10
-10.25482976329045
 20
22.2532630421037
 30
0.0
 10
-10.11020526132312
 20
22.17786806288109
 30
0.0
 10
-9.825257072360905
 20
22.02932018548767
 30
0.0
 10
-9.540318802366206
 20
21.88074952848996
 30
0.0
 10
-9.4
 20
21.80758541242698
 30
0.0
  0
SPLINE
  5
21D
330
23
100
AcDbEntity
 67
     1
  8
0
  6
Continuous
 62
     7
370
    25
100
AcDbSpline
210
0.0
220
0.0
230
1.0
 70
     8
 71
     3
 72
    33
 73
    29
 74
     0
 42
0.000000001
 43
0.00000001
 40
0.0
 40
0.0
 40
0.0
 40
0.0
 40
0.0192912745963083
 40
0.0379516214919588
 40
0.0533476114946507
 40
0.0663619629953736
 40
0.0770829775716659
 40
0.0853982358289814
 40
0.0911434614766424
 40
0.094349293098968
 40
0.0952727117985483
 40
0.0955001730816405
 40
0.0956551949457586
 40
0.0958327967817184
 40
0.0961312077296858
 40
0.0968297479482161
 40
0.099482683116076
 40
0.1249582792291792
 40
0.2157896253100672
 40
0.304900037492842
 40
0.3939929956076677
 40
0.4830850241196745
 40
0.5721768432066808
 40
0.6612685887537006
 40
0.7503603020902906
 40
0.839451999488802
 40
0.9285436886503676
 40
1.0
 40
1.0
 40
1.0
 40
1.0
 10
-91.00394586977265
 20
84.99766018878678
 30
0.0
 10
-91.00855177009555
 20
85.103701060349
 30
0.0
 10
-91.01761293320384
 20
85.3123147006823
 30
0.0
 10
-91.16110055097067
 20
85.57406240719158
 30
0.0
 10
-91.3356269611665
 20
85.76314315744773
 30
0.0
 10
-91.51442180719872
 20
85.88190743595335
 30
0.0
 10
-91.6761561070128
 20
85.9490700033727
 30
0.0
 10
-91.80729886474454
 20
85.98095299509319
 30
0.0
 10
-91.90099666472062
 20
85.99253492595923
 30
0.0
 10
-91.95396157898656
 20
85.99524215324443
 30
0.0
 10
-91.97829083834402
 20
85.99564442976008
 30
0.0
 10
-91.98460771588742
 20
85.99569204842985
 30
0.0
 10
-91.98644034510845
 20
85.99570175152148
 30
0.0
 10
-91.98770705799316
 20
85.99570683237403
 30
0.0
 10
-91.98889408292324
 20
85.99571018344025
 30
0.0
 10
-91.99011119920598
 20
85.9957121823598
 30
0.0
 10
-91.99156136107075
 20
85.99571300248112
 30
0.0
 10
-92.01016004957663
 20
85.99572490174683
 30
0.0
 10
-92.1548677333644
 20
85.99579322389431
 30
0.0
 10
-92.56581438787087
 20
85.99598405971228
 30
0.0
 10
-93.1830428517465
 20
85.99626719918962
 30
0.0
 10
-93.9945301960664
 20
85.99663768888952
 30
0.0
 10
-94.98137590542936
 20
85.99708675378342
 30
0.0
 10
-96.12048540052218
 20
85.99760392260357
 30
0.0
 10
-97.38521744804257
 20
85.9981770941401
 30
0.0
 10
-98.74598106932753
 20
85.99879284310376
 30
0.0
 10
-100.076941638112
 20
85.99939434750225
 30
0.0
 10
-100.9495842152566
 20
85.99978817077557
 30
0.0
 10
-101.3379778389133
 20
85.99996345267476
 30
0.0
  0
SPLINE
  5
21E
330
23
100
AcDbEntity
 67
     1
  8
0
  6
Continuous
 62
     7
370
    25
100
AcDbSpline
210
0.0
220
0.0
230
1.0
 70
     8
 71
     3
 72
    33
 73
    29
 74
     0
 42
0.000000001
 43
0.00000001
 40
0.0
 40
0.0
 40
0.0
 40
0.0
 40
0.0458234009213056
 40
0.1331329983787272
 40
0.2205042381940176
 40
0.3078756026060346
 40
0.3952469753169228
 40
0.4826183625915066
 40
0.5699897771446021
 40
0.657361248159986
 40
0.7447328584892331
 40
0.832104943722214
 40
0.8758244192033912
 40
0.8976811592520306
 40
0.9031974181096161
 40
0.9047574497437723
 40
0.9050923385528462
 40
0.9052994661162457
 40
0.9054842679583915
 40
0.9057608885804149
 40
0.906890093705508
 40
0.9102101210811803
 40
0.9194396653282502
 40
0.9355244785345308
 40
0.9523920201516762
 40
0.973571314838956
 40
0.9950859840326896
 40
1.0
 40
1.0
 40
1.0
 40
1.0
 10
-101.3379778389133
 20
85.99996345267476
 30
0.0
 10
-101.5920927555829
 20
86.00007807912799
 30
0.0
 10
-102.3303854206575
 20
86.00041110904509
 30
0.0
 10
-103.5458845348329
 20
86.00095878297427
 30
0.0
 10
-104.9416024482867
 20
86.00158688389742
 30
0.0
 10
-106.2571301404153
 20
86.00217804575816
 30
0.0
 10
-107.4611055928322
 20
86.00271818408994
 30
0.0
 10
-108.5254312196963
 20
86.00319470615084
 30
0.0
 10
-109.4252038531169
 20
86.00359640284897
 30
0.0
 10
-110.1393349341816
 20
86.00391408415841
 30
0.0
 10
-110.6512922196796
 20
86.00413955614205
 30
0.0
 10
-110.8989676613305
 20
86.00424860275912
 30
0.0
 10
-110.9763678362781
 20
86.00427753639988
 30
0.0
 10
-110.988696804479
 20
86.00428546772551
 30
0.0
 10
-110.9911620754041
 20
86.0042825612627
 30
0.0
 10
-110.9916264941676
 20
86.00428427634564
 30
0.0
 10
-110.993561970782
 20
86.00428084610111
 30
0.0
 10
-110.9950647872015
 20
86.00427626638378
 30
0.0
 10
-110.9975823013015
 20
86.00426433250398
 30
0.0
 10
-111.0059936333921
 20
86.00419763677382
 30
0.0
 10
-111.0324674717403
 20
86.0036805577752
 30
0.0
 10
-111.1078689021335
 20
85.99938822759756
 30
0.0
 10
-111.2654887125985
 20
85.9738754988864
 30
0.0
 10
-111.4855674546854
 20
85.88784679088754
 30
0.0
 10
-111.7300253308982
 20
85.70461890821458
 30
0.0
 10
-111.9134102136112
 20
85.42812721213774
 30
0.0
 10
-112.0059951173555
 20
85.16481077644237
 30
0.0
 10
-111.9826072175902
 20
85.01957114729771
 30
0.0
 10
-111.9782585898704
 20
84.99256602569012
 30
0.0
  0
SPLINE
  5
221
330
23
100
AcDbEntity
 67
     1
  8
0
  6
Continuous
 62
     7
370
    25
100
AcDbSpline
210
0.0
220
0.0
230
1.0
 70
     8
 71
     3
 72
    17
 73
    13
 74
     0
 42
0.000000001
 43
0.00000001
 40
0.0
 40
0.0
 40
0.0
 40
0.0
 40
0.1063745704274232
 40
0.2133481512221495
 40
0.3209207450587237
 40
0.4290923545672575
 40
0.5378629823344103
 40
0.64723263090434
 40
0.7572013027796284
 40
0.867769000422183
 40
0.9789357262541128
 40
0.9999999999999999
 40
0.9999999999999999
 40
0.9999999999999999
 40
0.9999999999999999
 10
-7.613114045527673
 20
12.34999999924487
 30
0.0
 10
-7.051943556153677
 20
12.36772929074949
 30
0.0
 10
-5.926442546398187
 20
12.40328770992608
 30
0.0
 10
-3.594615312000044
 20
12.45639465410776
 30
0.0
 10
-0.9986103919414472
 20
12.50952350946556
 30
0.0
 10
1.716442526148407
 20
12.56264633982544
 30
0.0
 10
4.324957756968406
 20
12.61577124656801
 30
0.0
 10
6.618931120635347
 20
12.66889395863294
 30
0.0
 10
8.436211670921047
 20
12.72202346396969
 30
0.0
 10
9.543996328229394
 20
12.77512785677669
 30
0.0
 10
9.998120133023273
 20
12.81385827447518
 30
0.0
 10
9.836864439298239
 20
12.83480117956976
 30
0.0
 10
9.811176559099557
 20
12.83813736463493
 30
0.0
  0
SPLINE
  5
222
330
23
100
AcDbEntity
 67
     1
  8
0
  6
Continuous
 62
     7
370
    25
100
AcDbSpline
210
0.0
220
0.0
230
1.0
 70
     8
 71
     3
 72
    31
 73
    27
 74
     0
 42
0.000000001
 43
0.00000001
 40
0.0
 40
0.0
 40
0.0
 40
0.0
 40
0.1072079161241876
 40
0.2144068664220758
 40
0.3214126752731593
 40
0.4284327723014191
 40
0.4499774911037799
 40
0.4715203995791272
 40
0.4930616348584105
 40
0.5146013341045353
 40
0.536139634509754
 40
0.5472857228085882
 40
0.5624915910403268
 40
0.5835647750892534
 40
0.6105041423127533
 40
0.6433082371528808
 40
0.7504698316170344
 40
0.7719635563004743
 40
0.7934569349071466
 40
0.8149499738455249
 40
0.8364426795243888
 40
0.8579350583528134
 40
0.8664249777770262
 40
0.8919122788861347
 40
0.9326939592795046
 40
1.0
 40
1.0
 40
1.0
 40
1.0
 10
-7.613114044903882
 20
12.3500000000117
 30
0.0
 10
-7.063350116930467
 20
12.37730506666364
 30
0.0
 10
-5.963868237885921
 20
12.4319129164376
 30
0.0
 10
-3.735687027463473
 20
12.50287640132218
 30
0.0
 10
-1.280088227785108
 20
12.57548768774321
 30
0.0
 10
0.6003023312677068
 20
12.63980920049643
 30
0.0
 10
1.765450691946631
 20
12.68127845955698
 30
0.0
 10
2.262283566137314
 20
12.69751571959417
 30
0.0
 10
2.752424637217556
 20
12.71245738008593
 30
0.0
 10
3.234521710282963
 20
12.72649719988692
 30
0.0
 10
3.631199987737784
 20
12.73592961791316
 30
0.0
 10
3.975333453137305
 20
12.74673401278982
 30
0.0
 10
4.310938783204763
 20
12.75844427454263
 30
0.0
 10
4.748022395669013
 20
12.77427215423629
 30
0.0
 10
5.287704523181883
 20
12.79484022472838
 30
0.0
 10
6.346706440818314
 20
12.8379167697818
 30
0.0
 10
7.237181545047489
 20
12.87833205953218
 30
0.0
 10
7.903623609157965
 20
12.91344306875621
 30
0.0
 10
8.167090701850054
 20
12.92827416944552
 30
0.0
 10
8.406702468392078
 20
12.94278637456191
 30
0.0
 10
8.621873123974849
 20
12.95715830330381
 30
0.0
 10
8.773565351494952
 20
12.96800685653786
 30
0.0
 10
8.921759894895244
 20
12.98066329750654
 30
0.0
 10
9.096260309561169
 20
12.99860330588813
 30
0.0
 10
9.338170301623013
 20
13.03071914899399
 30
0.0
 10
9.363014982332494
 20
13.05703133454406
 30
0.0
 10
9.378485722896619
 20
13.07341588788488
 30
0.0
  0
SPLINE
  5
223
330
23
100
AcDbEntity
 67
     1
  8
0
  6
Continuous
 62
     7
370
    25
100
AcDbSpline
210
0.0
220
0.0
230
1.0
 70
     8
 71
     3
 72
    31
 73
    27
 74
     0
 42
0.000000001
 43
0.00000001
 40
0.0
 40
0.0
 40
0.0
 40
0.0
 40
0.0064193454246446
 40
0.0236354812629631
 40
0.0456867929728409
 40
0.0725720574619027
 40
0.1596772071822721
 40
0.1815164291042122
 40
0.2033561157009098
 40
0.225196276547712
 40
0.2470369212193404
 40
0.2756231533653705
 40
0.3160844418765036
 40
0.3684072408600034
 40
0.4154548807969433
 40
0.4691716239748428
 40
0.4985592131338801
 40
0.529617320285681
 40
0.5623457393487282
 40
0.5967442531057977
 40
0.6941741971852616
 40
0.7847798590553966
 40
0.8685510631791028
 40
0.9079432803869459
 40
0.9456143114217812
 40
0.9999999999999999
 40
0.9999999999999999
 40
0.9999999999999999
 40
0.9999999999999999
 10
-9.385100592727277
 20
14.00166922034438
 30
0.0
 10
-9.382090911062512
 20
14.00356361633474
 30
0.0
 10
-9.371009520377115
 20
14.01053862047819
 30
0.0
 10
-9.324518058914558
 20
14.02351158801864
 30
0.0
 10
-9.223796364458577
 20
14.0422234687559
 30
0.0
 10
-8.916810748085037
 20
14.07996726374429
 30
0.0
 10
-8.383876088277121
 20
14.11956297875318
 30
0.0
 10
-7.691117734353975
 20
14.15974004709813
 30
0.0
 10
-7.309097499951438
 20
14.18030968506567
 30
0.0
 10
-6.893951114647153
 20
14.20121423736073
 30
0.0
 10
-6.401607109730445
 20
14.2250818586105
 30
0.0
 10
-5.735444472197146
 20
14.25388346333573
 30
0.0
 10
-4.768216288098734
 20
14.29042510874465
 30
0.0
 10
-3.552802704905189
 20
14.33176678131215
 30
0.0
 10
-2.138707142229711
 20
14.37633893955877
 30
0.0
 10
-0.8893766219115411
 20
14.41394382732396
 30
0.0
 10
0.2146290850177975
 20
14.44670435343653
 30
0.0
 10
1.114163888720794
 20
14.47335984304597
 30
0.0
 10
2.051313727222193
 20
14.50138707894352
 30
0.0
 10
3.585318764659406
 20
14.5481019465304
 30
0.0
 10
5.530503211573328
 20
14.61229772813077
 30
0.0
 10
7.445302468354903
 20
14.69271976355577
 30
0.0
 10
8.515878160303734
 20
14.75810009487982
 30
0.0
 10
9.034002391018431
 20
14.80815898890145
 30
0.0
 10
9.34671959801412
 20
14.85066072607528
 30
0.0
 10
9.330004686267824
 20
14.87855819174215
 30
0.0
 10
9.320129774488787
 20
14.8950395837172
 30
0.0
  0
SPLINE
  5
224
330
23
100
AcDbEntity
 67
     1
  8
0
  6
Continuous
 62
     7
370
    25
100
AcDbSpline
210
0.0
220
0.0
230
1.0
 70
     8
 71
     3
 72
    36
 73
    32
 74
     0
 42
0.000000001
 43
0.00000001
 40
0.0
 40
0.0
 40
0.0
 40
0.0
 40
0.0439741251602963
 40
0.1314220630433625
 40
0.218851118386042
 40
0.2679182967165311
 40
0.2895256090410647
 40
0.2990344786274541
 40
0.3027702595648151
 40
0.3065060638815935
 40
0.3065981437469349
 40
0.307378261788714
 40
0.309594132644601
 40
0.318056676051052
 40
0.3510921539967908
 40
0.4055767885355639
 40
0.4225711805382126
 40
0.4409087541115256
 40
0.4605894310301337
 40
0.4816131273391367
 40
0.5691087546142382
 40
0.656599404239626
 40
0.7439135937235193
 40
0.7876727984684024
 40
0.831434126572924
 40
0.9135747682983248
 40
0.9313313683814488
 40
0.9495167153965004
 40
0.9681308033483891
 40
0.9871736259257379
 40
0.9999999999999999
 40
0.9999999999999999
 40
0.9999999999999999
 40
0.9999999999999999
 10
-9.297888436924902
 20
15.8213515751737
 30
0.0
 10
-9.288655052304248
 20
15.83480186717738
 30
0.0
 10
-9.261059950609877
 20
15.87499971346122
 30
0.0
 10
-8.480634200817768
 20
15.93221625405385
 30
0.0
 10
-7.270999050700119
 20
15.99348644571615
 30
0.0
 10
-6.158890451752381
 20
16.04283093549591
 30
0.0
 10
-5.544256369899469
 20
16.06898932053415
 30
0.0
 10
-5.267677432447379
 20
16.08066327659491
 30
0.0
 10
-5.13108796582427
 20
16.08634112321387
 30
0.0
 10
-5.06979127302623
 20
16.0889854709739
 30
0.0
 10
-5.032304494395456
 20
16.09047774674609
 30
0.0
 10
-5.007159581033542
 20
16.09141973857886
 30
0.0
 10
-4.913586699376236
 20
16.09495340676077
 30
0.0
 10
-4.552945655897435
 20
16.10827890827673
 30
0.0
 10
-3.731031841873932
 20
16.1375740527655
 30
0.0
 10
-2.777716960082492
 20
16.169465108495
 30
0.0
 10
-1.935660657615497
 20
16.19681429902479
 30
0.0
 10
-1.413798393074679
 20
16.21357041531195
 30
0.0
 10
-0.8486184969661617
 20
16.23154201413109
 30
0.0
 10
0.385079182929953
 20
16.27064229441773
 30
0.0
 10
2.289357725515669
 20
16.32924962636656
 30
0.0
 10
4.666314167929025
 20
16.40066576355727
 30
0.0
 10
6.368494485532318
 20
16.46150251411947
 30
0.0
 10
7.483630660159795
 20
16.51465704139693
 30
0.0
 10
8.391179545685365
 20
16.56923550012285
 30
0.0
 10
8.927864955134927
 20
16.61525316462421
 30
0.0
 10
9.196521651888652
 20
16.65118224881509
 30
0.0
 10
9.292680666794297
 20
16.66764259323818
 30
0.0
 10
9.35970977100371
 20
16.68430529393085
 30
0.0
 10
9.396530714735647
 20
16.69924411215598
 30
0.0
 10
9.396301425751068
 20
16.70856130176065
 30
0.0
 10
9.396209143968141
 20
16.71231118477456
 30
0.0
  0
SPLINE
  5
225
330
23
100
AcDbEntity
 67
     1
  8
0
  6
Continuous
 62
     7
370
    25
100
AcDbSpline
210
0.0
220
0.0
230
1.0
 70
     8
 71
     3
 72
    27
 73
    23
 74
     0
 42
0.000000001
 43
0.00000001
 40
0.0
 40
0.0
 40
0.0
 40
0.0
 40
0.0397314552280995
 40
0.0889820789285723
 40
0.1404132990873035
 40
0.1940245342171187
 40
0.2498151781450433
 40
0.2785556557943221
 40
0.3078423793270643
 40
0.337675328060779
 40
0.3680544809257066
 40
0.4441617698006865
 40
0.5159672578695013
 40
0.5834677618412425
 40
0.6466602892808929
 40
0.7055420387450615
 40
0.7601103999102903
 40
0.8103629536945149
 40
0.8562974723725613
 40
0.9350595201914841
 40
0.9966035738363834
 40
1.0
 40
1.0
 40
1.0
 40
1.0
 10
-9.290790635583486
 20
17.6288712129383
 30
0.0
 10
-9.292036815097408
 20
17.64067653759686
 30
0.0
 10
-9.294827743424356
 20
17.66711559764424
 30
0.0
 10
-8.896164165153296
 20
17.70890837915504
 30
0.0
 10
-8.31121549983735
 20
17.75495628862391
 30
0.0
 10
-7.459335199909475
 20
17.80305372681001
 30
0.0
 10
-6.553634988792306
 20
17.84447667431431
 30
0.0
 10
-5.710915596378936
 20
17.87859737222283
 30
0.0
 10
-5.014435441420659
 20
17.90496720258584
 30
0.0
 10
-4.262927714172083
 20
17.93185217963797
 30
0.0
 10
-3.063686867554281
 20
17.97282340010581
 30
0.0
 10
-1.385308939409853
 20
18.02659779580891
 30
0.0
 10
0.7070471656784468
 20
18.09140013480742
 30
0.0
 10
2.640778931224473
 20
18.15227640392387
 30
0.0
 10
4.345764924621294
 20
18.20919352458249
 30
0.0
 10
5.784945860594189
 20
18.26216026101191
 30
0.0
 10
6.948212016701593
 20
18.31117244503472
 30
0.0
 10
7.844444315898595
 20
18.35623826697913
 30
0.0
 10
8.679120945752695
 20
18.4084107377579
 30
0.0
 10
9.235357768173678
 20
18.4638967696987
 30
0.0
 10
9.422785171164001
 20
18.50652478978834
 30
0.0
 10
9.397101014181386
 20
18.52549698304328
 30
0.0
 10
9.395757717319038
 20
18.52648924016459
 30
0.0
  0
SPLINE
  5
226
330
23
100
AcDbEntity
 67
     1
  8
0
  6
Continuous
 62
     7
370
    25
100
AcDbSpline
210
0.0
220
0.0
230
1.0
 70
     8
 71
     3
 72
    28
 73
    24
 74
     0
 42
0.000000001
 43
0.00000001
 40
0.0
 40
0.0
 40
0.0
 40
0.0
 40
0.0253052127867008
 40
0.0862627681286144
 40
0.1422890928561589
 40
0.1933809236378677
 40
0.2395352845677151
 40
0.3168834094250901
 40
0.3745341800807084
 40
0.4124338746831574
 40
0.4239667995510193
 40
0.430548815947064
 40
0.4522678554159146
 40
0.4855610974067966
 40
0.5304179360752396
 40
0.5868240728641616
 40
0.6547615249167206
 40
0.7342086318726254
 40
0.8251400631745437
 40
0.8750508971545811
 40
0.9278488384758
 40
0.9835328349923831
 40
1.0
 40
1.0
 40
1.0
 40
1.0
 10
-9.340956423353987
 20
19.44865927985311
 30
0.0
 10
-9.340025678834454
 20
19.45614426216823
 30
0.0
 10
-9.336852870158545
 20
19.48165976758357
 30
0.0
 10
-8.975999336709394
 20
19.5237590833226
 30
0.0
 10
-8.347666215053259
 20
19.57349894201649
 30
0.0
 10
-7.539843938156516
 20
19.61888811093236
 30
0.0
 10
-6.423872785791024
 20
19.67058528910395
 30
0.0
 10
-5.02460668744831
 20
19.72447971429585
 30
0.0
 10
-3.51263584802577
 20
19.77591618765176
 30
0.0
 10
-2.522496084458955
 20
19.80799265204219
 30
0.0
 10
-1.994940905153895
 20
19.82487723511926
 30
0.0
 10
-1.617561718744589
 20
19.83729788569066
 30
0.0
 10
-1.029048636697528
 20
19.85680916541664
 30
0.0
 10
-0.0646507948140581
 20
19.88719086343878
 30
0.0
 10
1.238132728185932
 20
19.92801999555466
 30
0.0
 10
2.846512681095669
 20
19.97894095745112
 30
0.0
 10
4.674668615153272
 20
20.04008896629714
 30
0.0
 10
6.559420110785798
 20
20.11137551546317
 30
0.0
 10
7.916142647505032
 20
20.17728349469289
 30
0.0
 10
8.758820415426447
 20
20.23488723481746
 30
0.0
 10
9.203761413690104
 20
20.28201091859126
 30
0.0
 10
9.418112474606136
 20
20.31915772604691
 30
0.0
 10
9.37808853514771
 20
20.34059431843423
 30
0.0
 10
9.368953812970082
 20
20.34548682323367
 30
0.0
  0
SPLINE
  5
227
330
23
100
AcDbEntity
 67
     1
  8
0
  6
Continuous
 62
     7
370
    25
100
AcDbSpline
210
0.0
220
0.0
230
1.0
 70
     8
 71
     3
 72
    23
 73
    19
 74
     0
 42
0.000000001
 43
0.00000001
 40
0.0
 40
0.0
 40
0.0
 40
0.0
 40
0.0328444585619773
 40
0.1014851072182573
 40
0.1680392438859576
 40
0.2325061791047491
 40
0.2948852450364396
 40
0.3551757954718744
 40
0.413377205837691
 40
0.4694888732027963
 40
0.523510216284651
 40
0.5754406754553297
 40
0.625279712747318
 40
0.7184415353127147
 40
0.8032907237324274
 40
0.8798132144900669
 40
0.947996324195845
 40
1.0
 40
1.0
 40
1.0
 40
1.0
 10
-9.324344547046469
 20
21.26889602550691
 30
0.0
 10
-9.315438322773808
 20
21.27858711068357
 30
0.0
 10
-9.28791924756922
 20
21.30853130405063
 30
0.0
 10
-8.792029501117899
 20
21.35811107464362
 30
0.0
 10
-7.916027022670807
 20
21.41702030771528
 30
0.0
 10
-6.731092329673905
 20
21.47408148098311
 30
0.0
 10
-5.339807595476623
 20
21.52929469465847
 30
0.0
 10
-3.808309313411631
 20
21.58266000666653
 30
0.0
 10
-2.207237508141207
 20
21.63417710248422
 30
0.0
 10
-0.5975686457851277
 20
21.68384711754079
 30
0.0
 10
0.9680913071594816
 20
21.73166603413519
 30
0.0
 10
2.447644718388406
 20
21.77764799543624
 30
0.0
 10
4.220799198429032
 20
21.83513699015735
 30
0.0
 10
6.104134886228675
 20
21.90265669766989
 30
0.0
 10
7.767732039728583
 20
21.97793943155224
 30
0.0
 10
8.801898502801917
 20
22.04586457048825
 30
0.0
 10
9.328383076202602
 20
22.10406941649287
 30
0.0
 10
9.365771426238174
 20
22.13965385139324
 30
0.0
 10
9.381949008705769
 20
22.15505089698676
 30
0.0
  0
SPLINE
  5
228
330
23
100
AcDbEntity
 67
     1
  8
0
  6
Continuous
 62
     7
370
    25
100
AcDbSpline
210
0.0
220
0.0
230
1.0
 70
     8
 71
     3
 72
    21
 73
    17
 74
     0
 42
0.000000001
 43
0.00000001
 40
0.0
 40
0.0
 40
0.0
 40
0.0
 40
0.0276713214095267
 40
0.0773663139479825
 40
0.1263563324572714
 40
0.2219589386689353
 40
0.3147634571761252
 40
0.4047681224848531
 40
0.491971222371807
 40
0.5763710979176204
 40
0.6579661435392118
 40
0.7367548070212725
 40
0.812735589546855
 40
0.8859070457271744
 40
0.956267783630613
 40
1.0
 40
1.0
 40
1.0
 40
1.0
 10
-10.20745434643158
 20
13.55051683568986
 30
0.0
 10
-10.19815083453187
 20
13.55870499887965
 30
0.0
 10
-10.17213912328038
 20
13.58159830399597
 30
0.0
 10
-9.863623061308514
 20
13.61901191735304
 30
0.0
 10
-9.146028875497224
 20
13.67650444470606
 30
0.0
 10
-7.734441142121499
 20
13.74712953580662
 30
0.0
 10
-5.446152672151674
 20
13.82985866224101
 30
0.0
 10
-2.800524411819097
 20
13.91017909461598
 30
0.0
 10
-0.0344188763082229
 20
13.98804310326553
 30
0.0
 10
2.64258521780142
 20
14.06346291579788
 30
0.0
 10
5.058317990578248
 20
14.13643529661265
 30
0.0
 10
7.083112509896636
 20
14.20696142406473
 30
0.0
 10
8.643373438426194
 20
14.27503969432464
 30
0.0
 10
9.675749397590689
 20
14.34067505606396
 30
0.0
 10
10.2058823668454
 20
14.39672207390749
 30
0.0
 10
10.20094279942105
 20
14.4309277663746
 30
0.0
 10
10.19904944647257
 20
14.44403892432095
 30
0.0
  0
SPLINE
  5
229
330
23
100
AcDbEntity
 67
     1
  8
0
  6
Continuous
 62
     7
370
    25
100
AcDbSpline
210
0.0
220
0.0
230
1.0
 70
     8
 71
     3
 72
    22
 73
    18
 74
     0
 42
0.000000001
 43
0.00000001
 40
0.0
 40
0.0
 40
0.0
 40
0.0
 40
0.0165976443955019
 40
0.0913024179629866
 40
0.1660070594305534
 40
0.2407115690829665
 40
0.3154159472049966
 40
0.3901201940814134
 40
0.4648243099969896
 40
0.5395282952364989
 40
0.6142321500847148
 40
0.6889358748264149
 40
0.7636394697463764
 40
0.8383429351293783
 40
0.9130462712602018
 40
0.9877494784236298
 40
1.0
 40
1.0
 40
1.0
 40
1.0
 10
-10.20133168126388
 20
15.36984055863441
 30
0.0
 10
-10.21625876134228
 20
15.37494884745044
 30
0.0
 10
-10.29837152817895
 20
15.40304916755878
 30
0.0
 10
-9.892120504029712
 20
15.45399565350997
 30
0.0
 10
-8.976888145475531
 20
15.52267320747828
 30
0.0
 10
-7.522519017198963
 20
15.59118997724086
 30
0.0
 10
-5.668368919867648
 20
15.65956180130686
 30
0.0
 10
-3.500098740970806
 20
15.72778443738232
 30
0.0
 10
-1.140877840749916
 20
15.79585901617281
 30
0.0
 10
1.281199847730955
 20
15.8637852571395
 30
0.0
 10
3.632709823982641
 20
15.9315631517352
 30
0.0
 10
5.786091891627286
 20
15.99919301468594
 30
0.0
 10
7.61854876969671
 20
16.06667359563799
 30
0.0
 10
9.047274012498344
 20
16.13400958126897
 30
0.0
 10
9.928101097953581
 20
16.20118347526421
 30
0.0
 10
10.310672857524
 20
16.24956822174142
 30
0.0
 10
10.22366717374063
 20
16.27551703527598
 30
0.0
 10
10.21140933245076
 20
16.2791728474498
 30
0.0
  0
SPLINE
  5
22A
330
23
100
AcDbEntity
 67
     1
  8
0
  6
Continuous
 62
     7
370
    25
100
AcDbSpline
210
0.0
220
0.0
230
1.0
 70
     8
 71
     3
 72
    21
 73
    17
 74
     0
 42
0.000000001
 43
0.00000001
 40
0.0
 40
0.0
 40
0.0
 40
0.0
 40
0.0134975625890837
 40
0.084616753548424
 40
0.1567705326597478
 40
0.2299587149320396
 40
0.3041811127134473
 40
0.3794375356921408
 40
0.4557277908971533
 40
0.5330516826992052
 40
0.6114090128115153
 40
0.6907995802905941
 40
0.7712231815370312
 40
0.8526796102962675
 40
0.9351686576593607
 40
1.0
 40
1.0
 40
1.0
 40
1.0
 10
-10.19727522197527
 20
17.18478577466864
 30
0.0
 10
-10.20109264556373
 20
17.18874785848953
 30
0.0
 10
-10.22502422497611
 20
17.2135863186188
 30
0.0
 10
-9.791195597487917
 20
17.25971826168259
 30
0.0
 10
-8.874024504830645
 20
17.32348946825693
 30
0.0
 10
-7.451460975119596
 20
17.38829762442348
 30
0.0
 10
-5.633880281172209
 20
17.45412926978493
 30
0.0
 10
-3.486566245037329
 20
17.52098809066238
 30
0.0
 10
-1.11880734320204
 20
17.58887307511163
 30
0.0
 10
1.344954743790415
 20
17.65778451756933
 30
0.0
 10
3.764944710560166
 20
17.72772227511608
 30
0.0
 10
5.992643294866127
 20
17.79868662885663
 30
0.0
 10
7.8902208482276
 20
17.87067658515301
 30
0.0
 10
9.298888547431218
 20
17.9436959076101
 30
0.0
 10
10.13904245899125
 20
18.01213879111067
 30
0.0
 10
10.17508265496036
 20
18.05628699988496
 30
0.0
 10
10.19094287829805
 20
18.07571531963437
 30
0.0
  0
SPLINE
  5
22B
330
23
100
AcDbEntity
 67
     1
  8
0
  6
Continuous
 62
     7
370
    25
100
AcDbSpline
210
0.0
220
0.0
230
1.0
 70
     8
 71
     3
 72
    21
 73
    17
 74
     0
 42
0.000000001
 43
0.00000001
 40
0.0
 40
0.0
 40
0.0
 40
0.0
 40
0.0638898093730095
 40
0.1419478704570501
 40
0.2196055562382459
 40
0.2968628367621192
 40
0.3737196822301974
 40
0.4501760630000515
 40
0.5262319495853324
 40
0.6018873126558096
 40
0.6771421230374083
 40
0.751996351712251
 40
0.8264499698186973
 40
0.9005029486513842
 40
0.9741552596612683
 40
1.0
 40
1.0
 40
1.0
 40
1.0
 10
-10.19257431741169
 20
19.00772438077146
 30
0.0
 10
-10.13946824866757
 20
19.0269025443999
 30
0.0
 10
-10.02147926982178
 20
19.06951183550672
 30
0.0
 10
-9.134445313300585
 20
19.13533860225054
 30
0.0
 10
-7.731992499599548
 20
19.20510208313418
 30
0.0
 10
-5.879250995510773
 20
19.27442463860304
 30
0.0
 10
-3.709334663688599
 20
19.34330911506191
 30
0.0
 10
-1.34278108798762
 20
19.41175475314512
 30
0.0
 10
1.084976764941975
 20
19.47976176448597
 30
0.0
 10
3.440264548856766
 20
19.54733005694208
 30
0.0
 10
5.597466357577036
 20
19.61445978806012
 30
0.0
 10
7.44088538021831
 20
19.68115042356866
 30
0.0
 10
8.890034723142433
 20
19.74740392863335
 30
0.0
 10
9.830057977598173
 20
19.81321303176686
 30
0.0
 10
10.26815546561892
 20
19.86457470972888
 30
0.0
 10
10.20613755830465
 20
19.89397111751384
 30
0.0
 10
10.19002816924071
 20
19.90160694707657
 30
0.0
  0
SPLINE
  5
22D
330
23
100
AcDbEntity
 67
     1
  8
0
  6
Continuous
 62
     7
370
    25
100
AcDbSpline
210
0.0
220
0.0
230
1.0
 70
     8
 71
     3
 72
    22
 73
    18
 74
     0
 42
0.000000001
 43
0.00000001
 40
0.0
 40
0.0
 40
0.0
 40
0.0
 40
0.0395630155501085
 40
0.0899333499313284
 40
0.1873269144804134
 40
0.2806568732070864
 40
0.369919510710074
 40
0.4551112735504806
 40
0.5362287703998565
 40
0.6132687721834779
 40
0.6862282122193998
 40
0.7551041863540764
 40
0.8198939530956947
 40
0.880594933746936
 40
0.9372047125397023
 40
0.9897210367757994
 40
1.0
 40
1.0
 40
1.0
 40
1.0
 10
-10.20806875886258
 20
20.81477700539432
 30
0.0
 10
-10.17688790460953
 20
20.82636753323748
 30
0.0
 10
-10.10600860894145
 20
20.85271474115161
 30
0.0
 10
-9.571611929694386
 20
20.90759519938332
 30
0.0
 10
-8.378604563531105
 20
20.9786509970928
 30
0.0
 10
-6.273322699674983
 20
21.06113104384564
 30
0.0
 10
-3.784941470850407
 20
21.14017157793642
 30
0.0
 10
-1.146822323468726
 20
21.2157244532579
 30
0.0
 10
1.434452072044866
 20
21.28780167987276
 30
0.0
 10
3.800492550002154
 20
21.3564001136852
 30
0.0
 10
5.842036931899872
 20
21.42152069260927
 30
0.0
 10
7.498411865020306
 20
21.48316221543052
 30
0.0
 10
8.746312447789958
 20
21.54132774911477
 30
0.0
 10
9.606918526731665
 20
21.59600646559825
 30
0.0
 10
10.08393596043514
 20
21.64723412030461
 30
0.0
 10
10.27240597339413
 20
21.68335269169729
 30
0.0
 10
10.23683173184951
 20
21.70249373487644
 30
0.0
 10
10.23100858276691
 20
21.705626933033
 30
0.0
  0
SPLINE
  5
22F
330
23
100
AcDbEntity
 67
     1
  8
0
  6
Continuous
 62
     7
370
    25
100
AcDbSpline
210
0.0
220
0.0
230
1.0
 70
     8
 71
     3
 72
    20
 73
    16
 74
     0
 42
0.000000001
 43
0.00000001
 40
0.0
 40
0.0
 40
0.0
 40
0.0
 40
0.0218185249584137
 40
0.1097350859046565
 40
0.197651639034921
 40
0.2855681843500628
 40
0.3734847218509469
 40
0.4614012515384311
 40
0.5493177734133737
 40
0.6372342874766396
 40
0.7251507937290864
 40
0.8130672921715725
 40
0.9009837828049627
 40
0.988900265630115
 40
1.0
 40
1.0
 40
1.0
 40
1.0
 10
10.17141843246774
 20
23.16116427315576
 30
0.0
 10
10.18395592379696
 20
23.15460855402151
 30
0.0
 10
10.24701255529079
 20
23.12163692079998
 30
0.0
 10
9.603836887079156
 20
23.06225803638781
 30
0.0
 10
8.26141148179136
 20
22.98302795311555
 30
0.0
 10
6.247290051366385
 20
22.90380730061688
 30
0.0
 10
3.787340748778614
 20
22.82459518738306
 30
0.0
 10
1.042796488080736
 20
22.74539185088402
 30
0.0
 10
-1.777330459332054
 20
22.66619723274856
 30
0.0
 10
-4.467739448161247
 20
22.5870113289918
 30
0.0
 10
-6.822244161512645
 20
22.5078342139242
 30
0.0
 10
-8.692124343367125
 20
22.42866559428894
 30
0.0
 10
-9.84450659221919
 20
22.34950656880276
 30
0.0
 10
-10.34237646265085
 20
22.2934064164293
 30
0.0
 10
-10.22163106645863
 20
22.26369517323097
 30
0.0
 10
-10.20809548751927
 20
22.26036453794068
 30
0.0
  0
SPLINE
  5
230
330
23
100
AcDbEntity
 67
     1
  8
0
  6
Continuous
 62
     7
370
    25
100
AcDbSpline
210
0.0
220
0.0
230
1.0
 70
     8
 71
     3
 72
    36
 73
    32
 74
     0
 42
0.000000001
 43
0.00000001
 40
0.0
 40
0.0
 40
0.0
 40
0.0
 40
0.0167670900360119
 40
0.0309751647027425
 40
0.0527818733155166
 40
0.0745898618810925
 40
0.0963992568221012
 40
0.1182101845367141
 40
0.2049037661595556
 40
0.2915904346716902
 40
0.3252891227003079
 40
0.3510250690420476
 40
0.3687942730653489
 40
0.3785940221717901
 40
0.4003756493125374
 40
0.4221550832423958
 40
0.4439325312745132
 40
0.4657082007787657
 40
0.5523443639811206
 40
0.6389897417268553
 40
0.7257700921012019
 40
0.8125441177416907
 40
0.8334163080363519
 40
0.8517291321975576
 40
0.8674823030745897
 40
0.8993700648747257
 40
0.9211739784473408
 40
0.942976126554081
 40
0.9647766463066652
 40
0.9865756748475345
 40
1.0
 40
1.0
 40
1.0
 40
1.0
 10
10.24795501021748
 20
21.35073580323239
 30
0.0
 10
10.24612856767906
 20
21.34568196937961
 30
0.0
 10
10.24275443666848
 20
21.3363456244543
 30
0.0
 10
10.1983573401034
 20
21.32276093254193
 30
0.0
 10
10.11791490465112
 20
21.30901130533842
 30
0.0
 10
9.978470703217896
 20
21.29086823275469
 30
0.0
 10
9.792589965388865
 20
21.27138769809298
 30
0.0
 10
9.331461355731696
 20
21.22821496151878
 30
0.0
 10
8.30295416466627
 20
21.16350634612244
 30
0.0
 10
6.721041478140831
 20
21.10308143674605
 30
0.0
 10
5.428375463259445
 20
21.0623341055343
 30
0.0
 10
4.704990963837022
 20
21.04000330209427
 30
0.0
 10
4.188048402104223
 20
21.02438622842513
 30
0.0
 10
3.700408592977069
 20
21.00801782036185
 30
0.0
 10
3.162536197363504
 20
20.98718242769473
 30
0.0
 10
2.489144796901032
 20
20.96586729726237
 30
0.0
 10
1.804043480712185
 20
20.94602001851893
 30
0.0
 10
0.4226896255029133
 20
20.91224596151906
 30
0.0
 10
-1.696096068498034
 20
20.86091674859209
 30
0.0
 10
-4.389709624357943
 20
20.7769589737949
 30
0.0
 10
-6.760998367384182
 20
20.69155210749728
 30
0.0
 10
-8.160998526461741
 20
20.63510110008755
 30
0.0
 10
-8.872822270523137
 20
20.59987042950549
 30
0.0
 10
-9.152176719129624
 20
20.5840350739136
 30
0.0
 10
-9.453628242646795
 20
20.56461411609409
 30
0.0
 10
-9.720623747632661
 20
20.54250493738867
 30
0.0
 10
-9.94479998973887
 20
20.51420198589832
 30
0.0
 10
-10.09590547452814
 20
20.49275850433005
 30
0.0
 10
-10.18739184470218
 20
20.47255128777394
 30
0.0
 10
-10.26609260874897
 20
20.45713676735123
 30
0.0
 10
-10.2184790754724
 20
20.44726705949541
 30
0.0
 10
-10.20033260486863
 20
20.44350551627128
 30
0.0
  0
SPLINE
  5
231
330
23
100
AcDbEntity
 67
     1
  8
0
  6
Continuous
 62
     7
370
    25
100
AcDbSpline
210
0.0
220
0.0
230
1.0
 70
     8
 71
     3
 72
    33
 73
    29
 74
     0
 42
0.000000001
 43
0.00000001
 40
0.0
 40
0.0
 40
0.0
 40
0.0
 40
0.011588487302291
 40
0.0328570288608492
 40
0.0555264918185011
 40
0.0795967681889486
 40
0.1600203603063148
 40
0.2050330773699612
 40
0.2531913201723404
 40
0.3044939117271486
 40
0.3589395977450076
 40
0.4020546894675007
 40
0.4395033385563928
 40
0.4712825744008672
 40
0.5083044616421252
 40
0.5325662786037735
 40
0.5543123291994756
 40
0.5760579198081526
 40
0.5978030609944582
 40
0.6195477633237034
 40
0.7062693922181404
 40
0.7928260963887237
 40
0.8793875633210306
 40
0.9110424285808706
 40
0.939863352370966
 40
0.9658497648305566
 40
0.9890011526176464
 40
1.0
 40
1.0
 40
1.0
 40
1.0
 10
10.19160190555928
 20
19.51969855160578
 30
0.0
 10
10.20114182145178
 20
19.51620431021997
 30
0.0
 10
10.22819050206328
 20
19.50629703008361
 30
0.0
 10
10.12235548705441
 20
19.49096721228441
 30
0.0
 10
9.994184233924651
 20
19.47131598733517
 30
0.0
 10
9.631884177035992
 20
19.43458278095571
 30
0.0
 10
8.958444218752462
 20
19.39029637209799
 30
0.0
 10
7.86254729236901
 20
19.33854464267136
 30
0.0
 10
6.776293009285925
 20
19.29508398884661
 30
0.0
 10
5.448011080198077
 20
19.24849025903028
 30
0.0
 10
4.021081621669239
 20
19.20313456297965
 30
0.0
 10
2.643407264394972
 20
19.16185102560637
 30
0.0
 10
1.458654552742462
 20
19.12733841435704
 30
0.0
 10
0.321669718550321
 20
19.09445691135522
 30
0.0
 10
-0.6786568813924746
 20
19.06543832794683
 30
0.0
 10
-1.563738435678268
 20
19.03864115310125
 30
0.0
 10
-2.277864479847685
 20
19.01609081273977
 30
0.0
 10
-2.954844165860487
 20
18.99516056647882
 30
0.0
 10
-3.618136736725155
 20
18.97464880827007
 30
0.0
 10
-4.90787119252701
 20
18.93464759268853
 30
0.0
 10
-6.699762818131318
 20
18.87938041793427
 30
0.0
 10
-8.58554058025882
 20
18.80694594797942
 30
0.0
 10
-9.574298588506416
 20
18.74354428297183
 30
0.0
 10
-10.00068964394013
 20
18.69703655722138
 30
0.0
 10
-10.16790355835577
 20
18.66995118173823
 30
0.0
 10
-10.24048274398634
 20
18.64571969908116
 30
0.0
 10
-10.26511189692272
 20
18.62707737763594
 30
0.0
 10
-10.23077606407551
 20
18.61677231567721
 30
0.0
 10
-10.21971744080809
 20
18.6134533398872
 30
0.0
  0
SPLINE
  5
232
330
23
100
AcDbEntity
 67
     1
  8
0
  6
Continuous
 62
     7
370
    25
100
AcDbSpline
210
0.0
220
0.0
230
1.0
 70
     8
 71
     3
 72
    23
 73
    19
 74
     0
 42
0.000000001
 43
0.00000001
 40
0.0
 40
0.0
 40
0.0
 40
0.0
 40
0.0100018848838609
 40
0.0982196818970427
 40
0.1424324542321067
 40
0.1867428202424742
 40
0.2811118528064327
 40
0.3692649151907954
 40
0.4110947809581595
 40
0.4514880042067838
 40
0.5396923802409985
 40
0.6278981593230101
 40
0.716105371623094
 40
0.8043140473100449
 40
0.8925242165511624
 40
0.9274255208077309
 40
0.960958389841363
 40
1.0
 40
1.0
 40
1.0
 40
1.0
 10
10.19865312331983
 20
17.71029923669996
 30
0.0
 10
10.20579509245435
 20
17.70745366348257
 30
0.0
 10
10.27593006647738
 20
17.67950980095345
 30
0.0
 10
9.810712563486423
 20
17.63641660332231
 30
0.0
 10
9.07225770840845
 20
17.58245294149798
 30
0.0
 10
8.04120499841705
 20
17.52494325046207
 30
0.0
 10
6.350391038795914
 20
17.45377612761376
 30
0.0
 10
4.264973117763812
 20
17.38640794814132
 30
0.0
 10
2.553748878814321
 20
17.33690982072886
 30
0.0
 10
0.7859530689746744
 20
17.28893245381238
 30
0.0
 10
-1.529116257358604
 20
17.22769628884015
 30
0.0
 10
-4.237407379355861
 20
17.15098234166986
 30
0.0
 10
-6.633996269416436
 20
17.07271595148489
 30
0.0
 10
-8.537107247796863
 20
16.99284348284525
 30
0.0
 10
-9.559991808831564
 20
16.92761372068141
 30
0.0
 10
-10.00399099682962
 20
16.87887690941467
 30
0.0
 10
-10.22374483657135
 20
16.84573780107047
 30
0.0
 10
-10.19908193558796
 20
16.82356419837164
 30
0.0
 10
-10.18581447054665
 20
16.81163585714182
 30
0.0
  0
SPLINE
  5
233
330
23
100
AcDbEntity
 67
     1
  8
0
  6
Continuous
 62
     7
370
    25
100
AcDbSpline
210
0.0
220
0.0
230
1.0
 70
     8
 71
     3
 72
    20
 73
    16
 74
     0
 42
0.000000001
 43
0.00000001
 40
0.0
 40
0.0
 40
0.0
 40
0.0
 40
0.0080486965038046
 40
0.0962376334891604
 40
0.1844266838826787
 40
0.2726688007822328
 40
0.360910925301728
 40
0.4491530574419865
 40
0.5373951972038294
 40
0.6256373445880804
 40
0.7138794995955594
 40
0.8021216622270892
 40
0.8903638324834938
 40
0.9786060103655916
 40
1.0
 40
1.0
 40
1.0
 40
1.0
 10
10.2064230044657
 20
15.89188778904772
 30
0.0
 10
10.21263779188406
 20
15.88949860054084
 30
0.0
 10
10.28694751812335
 20
15.8609312607543
 30
0.0
 10
9.712522218886024
 20
15.80606933649871
 30
0.0
 10
8.466304146712202
 20
15.72725852129481
 30
0.0
 10
6.513937439842072
 20
15.64835045185205
 30
0.0
 10
4.100258083351863
 20
15.56943758950261
 30
0.0
 10
1.377244399255074
 20
15.49051097221582
 30
0.0
 10
-1.445883927202371
 20
15.41157723574997
 30
0.0
 10
-4.163559207146409
 20
15.33263461775619
 30
0.0
 10
-6.568498730984779
 20
15.25368353187081
 30
0.0
 10
-8.503595512808715
 20
15.17472408589768
 30
0.0
 10
-9.747952688816072
 20
15.09575543498488
 30
0.0
 10
-10.30940448434338
 20
15.03672334914874
 30
0.0
 10
-10.20119208046109
 20
15.00401144819344
 30
0.0
 10
-10.18007591871069
 20
14.99762817079683
 30
0.0
  0
SPLINE
  5
234
330
23
100
AcDbEntity
 67
     1
  8
0
  6
Continuous
 62
     7
370
    25
100
AcDbSpline
210
0.0
220
0.0
230
1.0
 70
     8
 71
     3
 72
    23
 73
    19
 74
     0
 42
0.000000001
 43
0.00000001
 40
0.0
 40
0.0
 40
0.0
 40
0.0
 40
0.0087434319101051
 40
0.0704839514181745
 40
0.1358886488986571
 40
0.2049555128887889
 40
0.2776824192773584
 40
0.3002919057443389
 40
0.322901341985524
 40
0.34551072813639
 40
0.3681200643324133
 40
0.4582946717019465
 40
0.5484684883384958
 40
0.6386415229381788
 40
0.728855034828969
 40
0.819234505128352
 40
0.9096161387570363
 40
1.0
 40
1.0
 40
1.0
 40
1.0
 10
10.21861060405601
 20
14.07931113764151
 30
0.0
 10
10.2207978482046
 20
14.07673459463862
 30
0.0
 10
10.23843001048299
 20
14.05596415418581
 30
0.0
 10
9.936459208249248
 20
14.01581186769397
 30
0.0
 10
9.250293010537513
 20
13.95776592264696
 30
0.0
 10
8.098385730589397
 20
13.89638986290574
 30
0.0
 10
6.903876154718639
 20
13.84752348497838
 30
0.0
 10
5.937108659942071
 20
13.81260529058226
 30
0.0
 10
5.353529155874686
 20
13.79258363796151
 30
0.0
 10
4.74499339814016
 20
13.772612024088
 30
0.0
 10
3.487048430855796
 20
13.73287672530325
 30
0.0
 10
1.447890260136366
 20
13.67340940770795
 30
0.0
 10
-1.372204585916831
 20
13.59522743009717
 30
0.0
 10
-4.091659716624655
 20
13.51769245273172
 30
0.0
 10
-6.514093533833877
 20
13.44157747412716
 30
0.0
 10
-8.441188597013102
 20
13.36363556581051
 30
0.0
 10
-9.7973029527606
 20
13.283290517179
 30
0.0
 10
-10.08099942279168
 20
13.22776373381607
 30
0.0
 10
-10.22284940583526
 20
13.2
 30
0.0
  0
SPLINE
  5
236
330
23
100
AcDbEntity
 67
     1
  8
0
  6
Continuous
 62
     7
370
    25
100
AcDbSpline
210
0.0
220
0.0
230
1.0
 70
     8
 71
     3
 72
    30
 73
    26
 74
     0
 42
0.000000001
 43
0.00000001
 40
0.0
 40
0.0
 40
0.0
 40
0.0
 40
0.0733658293285515
 40
0.1652048971436532
 40
0.2570653382717167
 40
0.2755180369414466
 40
0.2939689488492964
 40
0.3124182224546112
 40
0.3308660062562888
 40
0.3493124487892072
 40
0.3522557299261228
 40
0.3757184412649637
 40
0.3931944354670824
 40
0.4150056317641275
 40
0.4411510508034416
 40
0.477380226825522
 40
0.5081429370400601
 40
0.5334370360824074
 40
0.6244192244807377
 40
0.7159845838387352
 40
0.8081331223421607
 40
0.8545457308547059
 40
0.9011052700365569
 40
0.9528726508486673
 40
0.9999999999999999
 40
0.9999999999999999
 40
0.9999999999999999
 40
0.9999999999999999
 10
9.330895079506782
 20
22.71102445594189
 30
0.0
 10
9.278693184485302
 20
22.68724857560486
 30
0.0
 10
9.16114515461016
 20
22.63371013813981
 30
0.0
 10
8.086998441060445
 20
22.57058761111529
 30
0.0
 10
6.824572457574806
 20
22.5111250650476
 30
0.0
 10
5.871257545411556
 20
22.46545553036922
 30
0.0
 10
5.442537133453603
 20
22.44801961192563
 30
0.0
 10
4.996009112960076
 20
22.43205062682152
 30
0.0
 10
4.533248806206061
 20
22.41715726404396
 30
0.0
 10
4.189412124486816
 20
22.40886324890039
 30
0.0
 10
3.796241963309551
 20
22.39697715125794
 30
0.0
 10
3.404114727838283
 20
22.38281918919582
 30
0.0
 10
2.829856616581302
 20
22.36339445953418
 30
0.0
 10
2.219180190112184
 20
22.34270830835106
 30
0.0
 10
1.418947057720048
 20
22.31595777443437
 30
0.0
 10
0.5191953726667863
 20
22.28664756656144
 30
0.0
 10
-0.3768294400666222
 20
22.2585276932504
 30
0.0
 10
-1.797910712025061
 20
22.21675737800594
 30
0.0
 10
-3.771955862725234
 20
22.15911742188084
 30
0.0
 10
-6.073588987039411
 20
22.07894039131145
 30
0.0
 10
-7.594576129237482
 20
22.00986561593421
 30
0.0
 10
-8.493000912000053
 20
21.95326295138325
 30
0.0
 10
-9.009549772801092
 20
21.90821412478401
 30
0.0
 10
-9.341756913654347
 20
21.86274285953886
 30
0.0
 10
-9.376898977944531
 20
21.83223700170755
 30
0.0
 10
-9.393645596640127
 20
21.81769972339445
 30
0.0
  0
SPLINE
  5
237
330
23
100
AcDbEntity
 67
     1
  8
0
  6
Continuous
 62
     7
370
    25
100
AcDbSpline
210
0.0
220
0.0
230
1.0
 70
     8
 71
     3
 72
    26
 73
    22
 74
     0
 42
0.000000001
 43
0.00000001
 40
0.0
 40
0.0
 40
0.0
 40
0.0
 40
0.0641108487141103
 40
0.1565386650186292
 40
0.2489828159838474
 40
0.3414260339998971
 40
0.4338683285500779
 40
0.5263097091179747
 40
0.6187501851874534
 40
0.6372983800282215
 40
0.6558465392602966
 40
0.6743946629593075
 40
0.692942751200885
 40
0.7114908040606582
 40
0.7322937791301328
 40
0.76256001831257
 40
0.8022831167706692
 40
0.8514546668982726
 40
0.9100642607779267
 40
0.9780994925952042
 40
1.0
 40
1.0
 40
1.0
 40
1.0
 10
9.302452336750653
 20
20.8962836955035
 30
0.0
 10
9.261673823530929
 20
20.87720277102341
 30
0.0
 10
9.162105433018347
 20
20.83061311411909
 30
0.0
 10
8.140047184745443
 20
20.75307177802696
 30
0.0
 10
6.448129169156755
 20
20.66871901628998
 30
0.0
 10
4.207750577353635
 20
20.58491098335526
 30
0.0
 10
1.634625892699215
 20
20.50202790766226
 30
0.0
 10
-1.070920231536649
 20
20.42003327912088
 30
0.0
 10
-2.996048281542091
 20
20.36036964558948
 30
0.0
 10
-4.132149095643974
 20
20.32282975131407
 30
0.0
 10
-4.607023815052786
 20
20.30672881778801
 30
0.0
 10
-5.066846461249805
 20
20.29066884999314
 30
0.0
 10
-5.510215629594603
 20
20.27462563086419
 30
0.0
 10
-5.95291018322784
 20
20.25803379064969
 30
0.0
 10
-6.459576815315753
 20
20.23781648081892
 30
0.0
 10
-7.073896716772577
 20
20.21111736367889
 30
0.0
 10
-7.787749956833337
 20
20.1759186003912
 30
0.0
 10
-8.514417775613687
 20
20.13217301543029
 30
0.0
 10
-9.115817377617576
 20
20.07990658746536
 30
0.0
 10
-9.396026269134609
 20
20.03561238353909
 30
0.0
 10
-9.383290478310723
 20
20.00882321208416
 30
0.0
 10
-9.38018914969924
 20
20.0022997048234
 30
0.0
  0
SPLINE
  5
238
330
23
100
AcDbEntity
 67
     1
  8
0
  6
Continuous
 62
     7
370
    25
100
AcDbSpline
210
0.0
220
0.0
230
1.0
 70
     8
 71
     3
 72
    24
 73
    20
 74
     0
 42
0.000000001
 43
0.00000001
 40
0.0
 40
0.0
 40
0.0
 40
0.0
 40
0.0037934986192874
 40
0.0491168717332895
 40
0.0892287088749545
 40
0.1130799916645478
 40
0.1346114395455837
 40
0.1538227814212806
 40
0.2428255548476695
 40
0.3329077682531796
 40
0.4240691868491718
 40
0.5163095721494073
 40
0.6096286820013994
 40
0.7040262706160128
 40
0.7995020885954303
 40
0.8460216038248962
 40
0.8897222035706486
 40
0.9796433435818043
 40
0.9999999999999999
 40
0.9999999999999999
 40
0.9999999999999999
 40
0.9999999999999999
 10
9.376314584886885
 20
19.08246384080282
 30
0.0
 10
9.376802710046006
 20
19.08134777507628
 30
0.0
 10
9.383122781103536
 20
19.06689735275172
 30
0.0
 10
9.219762220100622
 20
19.04037724083021
 30
0.0
 10
8.951241726703323
 20
19.00767300861951
 30
0.0
 10
8.651621501703715
 20
18.98179432081064
 30
0.0
 10
8.387212391088195
 20
18.96206133599775
 30
0.0
 10
7.785887353977754
 20
18.92176141860405
 30
0.0
 10
6.585378231540449
 20
18.85977516145707
 30
0.0
 10
4.448578484303921
 20
18.77705817712869
 30
0.0
 10
1.937100818065221
 20
18.6943736204677
 30
0.0
 10
-0.7599779290320359
 20
18.61192247989582
 30
0.0
 10
-3.427372444822729
 20
18.52962822047327
 30
0.0
 10
-5.840087124079779
 20
18.44759420323132
 30
0.0
 10
-7.43977766920837
 20
18.37982330913765
 30
0.0
 10
-8.377609869259576
 20
18.32759523883218
 30
0.0
 10
-9.046231469515677
 20
18.27609522153284
 30
0.0
 10
-9.465833790732896
 20
18.2312332097421
 30
0.0
 10
-9.35416456064219
 20
18.19795099801082
 30
0.0
 10
-9.333551053453574
 20
18.19180729029278
 30
0.0
  0
SPLINE
  5
239
330
23
100
AcDbEntity
 67
     1
  8
0
  6
Continuous
 62
     7
370
    25
100
AcDbSpline
210
0.0
220
0.0
230
1.0
 70
     8
 71
     3
 72
    30
 73
    26
 74
     0
 42
0.000000001
 43
0.00000001
 40
0.0
 40
0.0
 40
0.0
 40
0.0
 40
0.0234417987581453
 40
0.0610091493125441
 40
0.104363643407231
 40
0.1535018288796438
 40
0.208419791574795
 40
0.2280332181383308
 40
0.2482906112652802
 40
0.2691919510648124
 40
0.2907372170086774
 40
0.3129263879316627
 40
0.3357594420319859
 40
0.3441074195086997
 40
0.3694302876955673
 40
0.4101013364511532
 40
0.459132219497493
 40
0.4899643727752368
 40
0.5207960692330551
 40
0.6130106590378764
 40
0.7052213650045908
 40
0.7974142098696894
 40
0.8896097751228232
 40
0.9818081514935485
 40
1.0
 40
1.0
 40
1.0
 40
1.0
 10
9.349754579143282
 20
17.25947348049017
 30
0.0
 10
9.346768457812711
 20
17.2523364880781
 30
0.0
 10
9.338996839090035
 20
17.23376189658865
 30
0.0
 10
9.125599651615845
 20
17.20306259554978
 30
0.0
 10
8.750938130276644
 20
17.16487567295165
 30
0.0
 10
8.123053652758978
 20
17.12201918702177
 30
0.0
 10
7.433073951231157
 20
17.08622196097463
 30
0.0
 10
6.823819719253613
 20
17.05892877595907
 30
0.0
 10
6.407024199728032
 20
17.04145451242017
 30
0.0
 10
5.950808327197264
 20
17.02344404514383
 30
0.0
 10
5.454681725927612
 20
17.00493766028277
 30
0.0
 10
4.918607153333976
 20
16.98577146791771
 30
0.0
 10
4.470018264536337
 20
16.97082347158778
 30
0.0
 10
3.983172081010056
 20
16.95393217114802
 30
0.0
 10
3.326097723507451
 20
16.93088500996344
 30
0.0
 10
2.267508673520941
 20
16.89518327559869
 30
0.0
 10
1.117392562845191
 20
16.85741797856418
 30
0.0
 10
0.0489397618329768
 20
16.82300082422417
 30
0.0
 10
-1.436421993831834
 20
16.77599689251608
 30
0.0
 10
-3.489309334537207
 20
16.71161853760357
 30
0.0
 10
-5.839900045212299
 20
16.63370300406464
 30
0.0
 10
-7.72306385252313
 20
16.55626709545724
 30
0.0
 10
-8.973741018979297
 20
16.47536801183236
 30
0.0
 10
-9.384326805790861
 20
16.41428354299412
 30
0.0
 10
-9.394347134385622
 20
16.38041792786718
 30
0.0
 10
-9.395998442732749
 20
16.37483701578322
 30
0.0
  0
SPLINE
  5
23A
330
23
100
AcDbEntity
 67
     1
  8
0
  6
Continuous
 62
     7
370
    25
100
AcDbSpline
210
0.0
220
0.0
230
1.0
 70
     8
 71
     3
 72
    19
 73
    15
 74
     0
 42
0.000000001
 43
0.00000001
 40
0.0
 40
0.0
 40
0.0
 40
0.0
 40
0.055176639122845
 40
0.1474963962632125
 40
0.2398164440538463
 40
0.3321367834432612
 40
0.4244574153799676
 40
0.5167783408124702
 40
0.6090522210116258
 40
0.7013245028585448
 40
0.7935952153424042
 40
0.8858643874538633
 40
0.9782076785169724
 40
1.0
 40
1.0
 40
1.0
 40
1.0
 10
9.295208089143168
 20
15.44994986392434
 30
0.0
 10
9.276283254411995
 20
15.433511428673
 30
0.0
 10
9.225694002020052
 20
15.38956873846343
 30
0.0
 10
8.300601944850841
 20
15.31781801125656
 30
0.0
 10
6.685943941427777
 20
15.23473283786442
 30
0.0
 10
4.498370171851426
 20
15.15134778676293
 30
0.0
 10
1.956445557196545
 20
15.06775802662354
 30
0.0
 10
-0.7450217024616994
 20
14.98367545724923
 30
0.0
 10
-3.386426319680279
 20
14.90021501978381
 30
0.0
 10
-5.750031654329838
 20
14.81852552543812
 30
0.0
 10
-7.666406546712615
 20
14.73818437178774
 30
0.0
 10
-8.903061037544395
 20
14.65965720474527
 30
0.0
 10
-9.461331513810586
 20
14.60133834358406
 30
0.0
 10
-9.352144574090637
 20
14.56734042682373
 30
0.0
 10
-9.331297120442784
 20
14.56084908275269
 30
0.0
  0
SPLINE
  5
23B
330
23
100
AcDbEntity
 67
     1
  8
0
  6
Continuous
 62
     7
370
    25
100
AcDbSpline
210
0.0
220
0.0
230
1.0
 70
     8
 71
     3
 72
    29
 73
    25
 74
     0
 42
0.000000001
 43
0.00000001
 40
0.0
 40
0.0
 40
0.0
 40
0.0
 40
0.0244565596530899
 40
0.1075856936108915
 40
0.1560766739111041
 40
0.2091250520545876
 40
0.2373842209995302
 40
0.2667851181040471
 40
0.2973276524659399
 40
0.3290117296051291
 40
0.4210581203712738
 40
0.5131114948128492
 40
0.5362729161397125
 40
0.5594325888206777
 40
0.582590644268983
 40
0.6057472139254007
 40
0.6385376786631743
 40
0.6553994353295006
 40
0.6752244459824296
 40
0.6980123034539591
 40
0.790221909065644
 40
0.8824238648572869
 40
0.9744912890022174
 40
1.0
 40
1.0
 40
1.0
 40
1.0
 10
9.343080577516032
 20
13.62830924903582
 30
0.0
 10
9.3420216362844
 20
13.6207696262895
 30
0.0
 10
9.337363298050645
 20
13.58760242884903
 30
0.0
 10
8.883943843111885
 20
13.54172256470515
 30
0.0
 10
8.105077003225965
 20
13.48787963979862
 30
0.0
 10
7.37389263930414
 20
13.45041617898102
 30
0.0
 10
6.651248637409684
 20
13.41867754127096
 30
0.0
 10
6.021275920583224
 20
13.39348841361246
 30
0.0
 10
5.314352522068485
 20
13.36737048135933
 30
0.0
 10
4.043945976630281
 20
13.32379497252662
 30
0.0
 10
2.065173424251652
 20
13.26052590269274
 30
0.0
 10
0.0386057074700849
 20
13.1932687182772
 30
0.0
 10
-1.291816692185454
 20
13.1486163587825
 30
0.0
 10
-1.953677384744461
 20
13.12829461013813
 30
0.0
 10
-2.60548427792504
 20
13.10912233391596
 30
0.0
 10
-3.332540539898772
 20
13.09059892101952
 30
0.0
 10
-3.981043838198628
 20
13.06953986563741
 30
0.0
 10
-4.57687075310754
 20
13.04825288305117
 30
0.0
 10
-5.071352935054079
 20
13.02972488915309
 30
0.0
 10
-6.145512151732929
 20
12.986849091482
 30
0.0
 10
-7.597273185133504
 20
12.92261773549207
 30
0.0
 10
-8.88775482471151
 20
12.84702331085122
 30
0.0
 10
-9.398820915908182
 20
12.78956814537639
 30
0.0
 10
-9.375236029357639
 20
12.75246949542336
 30
0.0
 10
-9.370119174187984
 20
12.74442076394472
 30
0.0
  0
CIRCLE
  5
24B
330
23
100
AcDbEntity
 67
     1
  8
0
  6
Continuous
 62
     7
370
    25
100
AcDbCircle
 10
-101.4999954268
 20
77.5000382329
 30
0.0
 40
5.499999999898031
  0
LWPOLYLINE
  5
24F
330
23
100
AcDbEntity
 67
     1
  8
0
  6
Continuous
 62
     7
370
    25
100
AcDbPolyline
 90
       31
 70
   128
 43
0.0
 10
-88.1652635698
 20
60.5178488725
 10
-89.0025777486
 20
60.5064242976
 10
-90.0548612769
 20
60.4941491451
 10
-91.3041092919
 20
60.4812334462
 10
-92.7289468137
 20
60.4678981921
 10
-94.3049944772
 20
60.4543715526
 10
-96.0052856699
 20
60.4408849724
 10
-97.8007279381
 20
60.4276692105
 10
-99.6606007669
 20
60.4149503924
 10
-101.5530812164
 20
60.4029461405
 10
-103.4457884216
 20
60.3918618508
 10
-105.3063376372
 20
60.3818871788
 10
-107.1028943505
 20
60.3731927936
 10
-108.804718978
 20
60.3659274588
 10
-110.3826928284
 20
60.3602154862
 10
-111.8098163317
 20
60.3561546093
 10
-113.061671009
 20
60.3538143107
 10
-114.1168372798
 20
60.3532346336
 10
-114.9572609566
 20
60.3544254965
 10
-115.5685621572
 20
60.3573665233
 10
-115.9402813488
 20
60.3620073924
 10
-116.0660583128
 20
60.368268697
 10
-115.9437409704
 20
60.3760433046
 10
-115.5754222055
 20
60.3851981895
 10
-114.967404054
 20
60.3955767091
 10
-114.1300898753
 20
60.4070012839
 10
-113.0778063469
 20
60.4192764364
 10
-111.8285583319
 20
60.4321921354
 10
-110.4037208102
 20
60.4455273895
 10
-108.8276731467
 20
60.459054029
 10
-108.0021945611
 20
60.4657302475
  0
LWPOLYLINE
  5
250
330
23
100
AcDbEntity
 67
     1
  8
0
  6
Continuous
 62
     7
370
    25
100
AcDbPolyline
 90
       13
 70
   128
 43
0.0
 10
-95.0021575946
 20
60.5447435788
 10
-94.3279486459
 20
60.5474981227
 10
-92.7499747955
 20
60.5532100953
 10
-91.3228512922
 20
60.5572709723
 10
-90.0709966148
 20
60.5596112709
 10
-89.0158303441
 20
60.560190948
 10
-88.1754066673
 20
60.5590000851
 10
-87.5641054666
 20
60.5560590582
 10
-87.1923862751
 20
60.5514181892
 10
-87.0666093111
 20
60.5451568846
 10
-87.1889266534
 20
60.5373822769
 10
-87.5572454184
 20
60.528227392
 10
-88.1652635698
 20
60.5178488725
  0
LWPOLYLINE
  5
251
330
23
100
AcDbEntity
 67
     1
  8
0
  6
Continuous
 62
     7
370
    25
100
AcDbPolyline
 90
       23
 70
   128
 43
0.0
 10
-95.0021751813
 20
60.5057581215
 10
-94.8287481771
 20
60.5048365081
 10
-94.5912706317
 20
60.5014215467
 10
-94.605890043
 20
60.4963906944
 10
-94.8720780273
 20
60.4899257793
 10
-95.3802138574
 20
60.4822604602
 10
-96.1119321804
 20
60.4736717818
 10
-97.0407867897
 20
60.4644701613
 10
-98.1332064596
 20
60.4549881692
 10
-99.3497082969
 20
60.4455685094
 10
-100.6463247557
 20
60.4365516329
 10
-101.9761927389
 20
60.4282634333
 10
-103.2912473525
 20
60.4210034676
 10
-104.5439590966
 20
60.4150341298
 10
-105.6890517047
 20
60.4105711674
 10
-106.6851385466
 20
60.4077758836
 10
-107.4962184485
 20
60.406749307
 10
-108.0929768694
 20
60.407528541
 10
-108.4538454052
 20
60.4100854218
 10
-108.5657813268
 20
60.4143275373
 10
-108.4247389783
 20
60.4201015663
 10
-108.0358159978
 20
60.4271988203
 10
-108.0358159978
 20
60.4271988203
  0
CIRCLE
  5
254
330
23
100
AcDbEntity
 67
     1
  8
0
  6
Continuous
 62
     7
370
    25
100
AcDbCircle
 10
101.5
 20
77.5
 30
0.0
 40
5.500000000000164
  0
LWPOLYLINE
  5
258
330
23
100
AcDbEntity
 67
     1
  8
0
  6
Continuous
 62
     7
370
    25
100
AcDbPolyline
 90
       12
 70
   128
 43
0.0
 10
-101.6666635042
 20
70.0000375943
 10
-100.0222361369
 20
69.9992961485
 10
-98.4141443364
 20
69.9985720222
 10
-96.8819846596
 20
69.9978830458
 10
-95.4634839627
 20
69.997246184
 10
-94.1935704407
 20
69.9966771187
 10
-93.103513579
 20
69.996189862
 10
-92.2201541952
 20
69.9957964119
 10
-91.5652435292
 20
69.9955064564
 10
-91.154907655
 20
69.9953271351
 10
-90.9992504037
 20
69.9952628635
 10
-90.9978939578
 20
69.9952628635
  0
LWPOLYLINE
  5
259
330
23
100
AcDbEntity
 67
     1
  8
0
  6
Continuous
 62
     7
370
    25
100
AcDbPolyline
 90
       11
 70
   128
 43
0.0
 10
-111.9978918211
 20
70.0047361859
 10
-111.8936812055
 20
70.0046838251
 10
-111.5348482259
 20
70.0045161213
 10
-110.9288720951
 20
70.0042372039
 10
-110.0906739566
 20
70.0038539408
 10
-109.0408930305
 20
70.0033757692
 10
-107.8053784071
 20
70.0028144632
 10
-106.414552557
 20
70.0021838441
 10
-104.9026622283
 20
70.0014994398
 10
-103.3069351788
 20
70.0007781026
 10
-101.6666635042
 20
70.0000375943
  0
LWPOLYLINE
  5
25A
330
23
100
AcDbEntity
 67
     1
  8
0
  6
Continuous
 62
     7
370
    25
100
AcDbPolyline
 90
       21
 70
   128
 43
0.0
 10
-110.9906038214
 20
86.004283548
 10
-110.9696134082
 20
86.0042716542
 10
-110.7362719549
 20
86.0041607659
 10
-110.2507347214
 20
86.0039363255
 10
-109.5262458977
 20
86.0036044549
 10
-108.5825676504
 20
86.0031742068
 10
-107.4454410621
 20
86.0026573173
 10
-106.1458839817
 20
86.0020678857
 10
-104.7193449389
 20
86.0014219902
 10
-103.2047361999
 20
86.0007372492
 10
-101.6433723429
 20
86.0000323405
 10
-100.0778433037
 20
85.9993264923
 10
-98.5508526334
 20
85.9986389582
 10
-97.1040526571
 20
85.9979884925
 10
-95.7769083065
 20
85.997392838
 10
-94.6056206198
 20
85.9968682428
 10
-93.622139272
 20
85.9964290163
 10
-92.8532910703
 20
85.9960871396
 10
-92.3200481895
 20
85.9958519382
 10
-92.0369561054
 20
85.9957298277
 10
-91.9906761607
 20
85.9957123417
  0
LWPOLYLINE
  5
25D
330
23
100
AcDbEntity
 67
     1
  8
0
  6
Continuous
 62
     8
370
    25
100
AcDbPolyline
 90
       22
 70
   128
 43
0.0
 10
-90.991127299
 20
84.9952613372
 10
-90.9924837449
 20
84.9952613372
 10
-91.1481409962
 20
84.9953256087
 10
-91.5584768704
 20
84.99550493
 10
-92.2133875364
 20
84.9957948856
 10
-93.0967469201
 20
84.9961883357
 10
-94.1868037818
 20
84.9966755924
 10
-95.4567173039
 20
84.9972446577
 10
-96.8752180007
 20
84.9978815194
 10
-98.4073776776
 20
84.9985704959
 10
-100.0154694781
 20
84.9992946222
 10
-101.6598968454
 20
85.0000360679
 10
-103.3001685199
 20
85.0007765763
 10
-104.8958955695
 20
85.0014979135
 10
-106.4077858981
 20
85.0021823178
 10
-107.7986117483
 20
85.0028129369
 10
-109.0341263717
 20
85.0033742428
 10
-110.0839072978
 20
85.0038524145
 10
-110.9221054363
 20
85.0042356776
 10
-111.5280815671
 20
85.004514595
 10
-111.8869145467
 20
85.0046822988
 10
-111.9911251623
 20
85.0047346595
  0
LWPOLYLINE
  5
25E
330
23
100
AcDbEntity
 67
     1
  8
0
  6
Continuous
 62
     8
370
    25
100
AcDbPolyline
 90
        3
 70
   128
 43
0.0
 10
-101.3379778972
 20
85.9999634527
 10
-102.9035069364
 20
86.0006693009
 10
-104.1793335121
 20
86.0012438146
  0
LWPOLYLINE
  5
25F
330
23
100
AcDbEntity
 67
     1
  8
0
  6
Continuous
 62
     8
370
    25
100
AcDbPolyline
 90
        4
 70
   128
 43
0.0
 10
-110.5867514828
 20
86.0041111702
 10
-110.6613020506
 20
86.004143855
 10
-110.9443941347
 20
86.0042659655
 10
-110.9906038214
 20
86.004283548
  0
LWPOLYLINE
  5
260
330
23
100
AcDbEntity
 67
     1
  8
0
  6
Continuous
 62
     8
370
    25
100
AcDbPolyline
 90
        3
 70
   128
 43
0.0
 10
-91.9906761607
 20
85.9957123417
 10
-92.0117368319
 20
85.995724139
 10
-92.0301966277
 20
85.9957333127
  0
LINE
  5
262
330
23
100
AcDbEntity
 67
     1
  8
0
  6
Continuous
 62
     7
370
    25
100
AcDbLine
 10
-10.25
 20
13.5366854075
 30
0.0
 11
-10.25
 21
13.2
 31
0.0
  0
LINE
  5
263
330
23
100
AcDbEntity
 67
     1
  8
0
  6
Continuous
 62
     7
370
    25
100
AcDbLine
 10
-10.25
 20
15.3698405586
 30
0.0
 11
-10.25
 21
14.9976281708
 31
0.0
  0
LINE
  5
264
330
23
100
AcDbEntity
 67
     1
  8
0
  6
Continuous
 62
     7
370
    25
100
AcDbLine
 10
-10.25
 20
17.1690901624
 30
0.0
 11
-10.25
 21
16.8116358571
 31
0.0
  0
LINE
  5
265
330
23
100
AcDbEntity
 67
     1
  8
0
  6
Continuous
 62
     7
370
    25
100
AcDbLine
 10
-10.25
 20
18.9936053907
 30
0.0
 11
-10.25
 21
18.6294282811
 31
0.0
  0
LINE
  5
266
330
23
100
AcDbEntity
 67
     1
  8
0
  6
Continuous
 62
     7
370
    25
100
AcDbLine
 10
-10.25
 20
20.7972400763
 30
0.0
 11
-10.25
 21
20.4435055163
 31
0.0
  0
LINE
  5
267
330
23
100
AcDbEntity
 67
     1
  8
0
  6
Continuous
 62
     7
370
    25
100
AcDbLine
 10
-10.25
 20
23.3
 30
0.0
 11
-10.25
 21
22.2603645379
 31
0.0
  0
LINE
  5
268
330
23
100
AcDbEntity
 67
     1
  8
0
  6
Continuous
 62
     7
370
    25
100
AcDbLine
 10
10.25
 20
23.1722748828
 30
0.0
 11
10.25
 21
23.3
 31
0.0
  0
LINE
  5
269
330
23
100
AcDbEntity
 67
     1
  8
0
  6
Continuous
 62
     7
370
    25
100
AcDbLine
 10
10.25
 20
21.3507358032
 30
0.0
 11
10.25
 21
21.705626933
 31
0.0
  0
LINE
  5
26A
330
23
100
AcDbEntity
 67
     1
  8
0
  6
Continuous
 62
     7
370
    25
100
AcDbLine
 10
10.25
 20
19.5347108657
 30
0.0
 11
10.25
 21
19.9016069471
 31
0.0
  0
LINE
  5
26B
330
23
100
AcDbEntity
 67
     1
  8
0
  6
Continuous
 62
     7
370
    25
100
AcDbLine
 10
10.25
 20
17.7242268241
 30
0.0
 11
10.25
 21
18.0757153196
 31
0.0
  0
LINE
  5
26C
330
23
100
AcDbEntity
 67
     1
  8
0
  6
Continuous
 62
     7
370
    25
100
AcDbLine
 10
10.25
 20
15.9057907044
 30
0.0
 11
10.25
 21
16.2791728474
 31
0.0
  0
LINE
  5
26D
330
23
100
AcDbEntity
 67
     1
  8
0
  6
Continuous
 62
     7
370
    25
100
AcDbLine
 10
10.25
 20
14.0930412418
 30
0.0
 11
10.25
 21
14.4440389243
 31
0.0
  0
LINE
  5
26E
330
23
100
AcDbEntity
 67
     1
  8
0
  6
Continuous
 62
     7
370
    25
100
AcDbLine
 10
-9.4000000015
 20
12.35
 30
0.0
 11
-9.0500000022
 21
12.0
 31
0.0
  0
LINE
  5
26F
330
23
100
AcDbEntity
 67
     1
  8
0
  6
Continuous
 62
     7
370
    25
100
AcDbLine
 10
-10.25
 20
13.2
 30
0.0
 11
-10.1919572556
 21
13.1419572555
 31
0.0
  0
LINE
  5
270
330
23
100
AcDbEntity
 67
     1
  8
0
  6
Continuous
 62
     7
370
    25
100
AcDbLine
 10
9.0500000022
 20
12.0
 30
0.0
 11
9.8719473862
 21
12.8219473856
 31
0.0
  0
LINE
  5
271
330
23
100
AcDbEntity
 67
     1
  8
0
  6
Continuous
 62
     7
370
    25
100
AcDbLine
 10
10.25
 20
23.3
 30
0.0
 11
9.150000002
 21
24.4
 31
0.0
  0
LINE
  5
272
330
23
100
AcDbEntity
 67
     1
  8
0
  6
Continuous
 62
     7
370
    25
100
AcDbLine
 10
-9.150000002
 20
24.4
 30
0.0
 11
-10.25
 21
23.3
 31
0.0
  0
LINE
  5
273
330
23
100
AcDbEntity
 67
     1
  8
0
  6
Continuous
 62
     7
370
    25
100
AcDbLine
 10
-9.4
 20
12.7444207639
 30
0.0
 11
-9.4
 21
12.35
 31
0.0
  0
LINE
  5
274
330
23
100
AcDbEntity
 67
     1
  8
0
  6
Continuous
 62
     7
370
    25
100
AcDbLine
 10
-9.4
 20
14.5608490828
 30
0.0
 11
-9.4
 21
13.9963968859
 31
0.0
  0
LINE
  5
275
330
23
100
AcDbEntity
 67
     1
  8
0
  6
Continuous
 62
     7
370
    25
100
AcDbLine
 10
-9.4
 20
16.3748370158
 30
0.0
 11
-9.4
 21
15.8123937302
 31
0.0
  0
LINE
  5
276
330
23
100
AcDbEntity
 67
     1
  8
0
  6
Continuous
 62
     7
370
    25
100
AcDbLine
 10
-9.4
 20
18.1918072903
 30
0.0
 11
-9.4
 21
17.6283944891
 31
0.0
  0
LINE
  5
277
330
23
100
AcDbEntity
 67
     1
  8
0
  6
Continuous
 62
     7
370
    25
100
AcDbLine
 10
-9.4
 20
20.0022997048
 30
0.0
 11
-9.4
 21
19.4443940628
 31
0.0
  0
LINE
  5
278
330
23
100
AcDbEntity
 67
     1
  8
0
  6
Continuous
 62
     7
370
    25
100
AcDbLine
 10
-9.4
 20
21.8176997234
 30
0.0
 11
-9.4
 21
21.2601831594
 31
0.0
  0
LINE
  5
279
330
23
100
AcDbEntity
 67
     1
  8
0
  6
Continuous
 62
     7
370
    25
100
AcDbLine
 10
9.4
 20
22.155050897
 30
0.0
 11
9.4
 21
22.7160895306
 31
0.0
  0
LINE
  5
27A
330
23
100
AcDbEntity
 67
     1
  8
0
  6
Continuous
 62
     7
370
    25
100
AcDbLine
 10
9.4
 20
20.3454868232
 30
0.0
 11
9.4
 21
20.8996184861
 31
0.0
  0
LINE
  5
27B
330
23
100
AcDbEntity
 67
     1
  8
0
  6
Continuous
 62
     7
370
    25
100
AcDbLine
 10
9.4
 20
18.5264892402
 30
0.0
 11
9.4
 21
19.0990899551
 31
0.0
  0
LINE
  5
27C
330
23
100
AcDbEntity
 67
     1
  8
0
  6
Continuous
 62
     7
370
    25
100
AcDbLine
 10
9.4
 20
16.7123111848
 30
0.0
 11
9.4
 21
17.2675751005
 31
0.0
  0
LINE
  5
27D
330
23
100
AcDbEntity
 67
     1
  8
0
  6
Continuous
 62
     7
370
    25
100
AcDbLine
 10
9.4
 20
14.8950395837
 30
0.0
 11
9.4
 21
15.4515948237
 31
0.0
  0
LINE
  5
27E
330
23
100
AcDbEntity
 67
     1
  8
0
  6
Continuous
 62
     7
370
    25
100
AcDbLine
 10
9.4
 20
13.0734158879
 30
0.0
 11
9.4
 21
13.6356256517
 31
0.0
  0
LINE
  5
27F
330
23
100
AcDbEntity
 67
     1
  8
0
  6
Continuous
 62
     7
370
    25
100
AcDbLine
 10
-9.15
 20
27.0
 30
0.0
 11
-9.15
 21
24.4
 31
0.0
  0
LINE
  5
280
330
23
100
AcDbEntity
 67
     1
  8
0
  6
Continuous
 62
     7
370
    25
100
AcDbLine
 10
9.15
 20
24.4
 30
0.0
 11
9.15
 21
27.0
 31
0.0
  0
LINE
  5
281
330
23
100
AcDbEntity
 67
     1
  8
0
  6
Continuous
 62
     7
370
    25
100
AcDbLine
 10
13.0
 20
27.0
 30
0.0
 11
13.0
 21
38.0
 31
0.0
  0
LINE
  5
282
330
23
100
AcDbEntity
 67
     1
  8
0
  6
Continuous
 62
     7
370
    25
100
AcDbLine
 10
13.0
 20
50.5
 30
0.0
 11
13.0
 21
217.0
 31
0.0
  0
LINE
  5
283
330
23
100
AcDbEntity
 67
     1
  8
0
  6
Continuous
 62
     7
370
    25
100
AcDbLine
 10
-13.0
 20
217.0
 30
0.0
 11
-13.0
 21
50.5
 31
0.0
  0
LINE
  5
284
330
23
100
AcDbEntity
 67
     1
  8
0
  6
Continuous
 62
     7
370
    25
100
AcDbLine
 10
-13.0
 20
38.0
 30
0.0
 11
-13.0
 21
27.0
 31
0.0
  0
LINE
  5
285
330
23
100
AcDbEntity
 67
     1
  8
0
  6
Continuous
 62
     7
370
    25
100
AcDbLine
 10
-76.5
 20
39.0
 30
0.0
 11
-76.5
 21
47.0
 31
0.0
  0
LINE
  5
286
330
23
100
AcDbEntity
 67
     1
  8
0
  6
Continuous
 62
     7
370
    25
100
AcDbLine
 10
-126.5
 20
47.0
 30
0.0
 11
-126.5
 21
39.0
 31
0.0
  0
LINE
  5
287
330
23
100
AcDbEntity
 67
     1
  8
0
  6
Continuous
 62
     7
370
    25
100
AcDbLine
 10
116.0
 20
47.0
 30
0.0
 11
116.0
 21
59.0
 31
0.0
  0
LINE
  5
288
330
23
100
AcDbEntity
 67
     1
  8
0
  6
Continuous
 62
     7
370
    25
100
AcDbLine
 10
87.0
 20
59.0
 30
0.0
 11
87.0
 21
47.0
 31
0.0
  0
LINE
  5
289
330
23
100
AcDbEntity
 67
     1
  8
0
  6
Continuous
 62
     7
370
    25
100
AcDbLine
 10
91.0
 20
85.0
 30
0.0
 11
91.0
 21
70.0
 31
0.0
  0
LINE
  5
28A
330
23
100
AcDbEntity
 67
     1
  8
0
  6
Continuous
 62
     7
370
    25
100
AcDbLine
 10
112.0
 20
70.0
 30
0.0
 11
112.0
 21
85.0
 31
0.0
  0
LINE
  5
28B
330
23
100
AcDbEntity
 67
     1
  8
0
  6
Continuous
 62
     7
370
    25
100
AcDbLine
 10
95.0
 20
70.0
 30
0.0
 11
95.0
 21
59.0
 31
0.0
  0
LINE
  5
28C
330
23
100
AcDbEntity
 67
     1
  8
0
  6
Continuous
 62
     7
370
    25
100
AcDbLine
 10
108.0
 20
59.0
 30
0.0
 11
108.0
 21
70.0
 31
0.0
  0
LINE
  5
28D
330
23
100
AcDbEntity
 67
     1
  8
0
  6
Continuous
 62
     7
370
    25
100
AcDbLine
 10
-106.9610655935
 20
78.1532706827
 30
0.0
 11
-106.9611067751
 21
78.152926402
 31
0.0
  0
LINE
  5
28E
330
23
100
AcDbEntity
 67
     1
  8
0
  6
Continuous
 62
     7
370
    25
100
AcDbLine
 10
-96.0389664414
 20
76.846461503
 30
0.0
 11
-96.0389252599
 21
76.8468057837
 31
0.0
  0
LINE
  5
28F
330
23
100
AcDbEntity
 67
     1
  8
0
  6
Continuous
 62
     7
370
    25
100
AcDbLine
 10
-86.9840268784
 20
47.0
 30
0.0
 11
-87.0666032584
 21
60.5451089245
 31
0.0
  0
LINE
  5
290
330
23
100
AcDbEntity
 67
     1
  8
0
  6
Continuous
 62
     7
370
    25
100
AcDbLine
 10
-116.0660643654
 20
60.368316657
 30
0.0
 11
-115.9845657815
 21
47.0
 31
0.0
  0
LINE
  5
291
330
23
100
AcDbEntity
 67
     1
  8
0
  6
Continuous
 62
     7
370
    25
100
AcDbLine
 10
126.5
 20
39.0
 30
0.0
 11
126.5
 21
47.0
 31
0.0
  0
LINE
  5
292
330
23
100
AcDbEntity
 67
     1
  8
0
  6
Continuous
 62
     7
370
    25
100
AcDbLine
 10
76.5
 20
47.0
 30
0.0
 11
76.5
 21
39.0
 31
0.0
  0
LINE
  5
293
330
23
100
AcDbEntity
 67
     1
  8
0
  6
Continuous
 62
     7
370
    25
100
AcDbLine
 10
25.0
 20
38.0
 30
0.0
 11
25.0
 21
44.0
 31
0.0
  0
LINE
  5
294
330
23
100
AcDbEntity
 67
     1
  8
0
  6
Continuous
 62
     7
370
    25
100
AcDbLine
 10
-25.0
 20
44.0
 30
0.0
 11
-25.0
 21
38.0
 31
0.0
  0
LINE
  5
295
330
23
100
AcDbEntity
 67
     1
  8
0
  6
Continuous
 62
     7
370
    25
100
AcDbLine
 10
20.0
 20
44.0
 30
0.0
 11
20.0
 21
50.5
 31
0.0
  0
LINE
  5
296
330
23
100
AcDbEntity
 67
     1
  8
0
  6
Continuous
 62
     7
370
    25
100
AcDbLine
 10
-20.0
 20
50.5
 30
0.0
 11
-20.0
 21
44.0
 31
0.0
  0
LINE
  5
297
330
23
100
AcDbEntity
 67
     1
  8
0
  6
Continuous
 62
     7
370
    25
100
AcDbLine
 10
-111.9911251623
 20
85.0047346595
 30
0.0
 11
-111.9978918211
 21
70.0047361859
 31
0.0
  0
LINE
  5
298
330
23
100
AcDbEntity
 67
     1
  8
0
  6
Continuous
 62
     7
370
    25
100
AcDbLine
 10
-90.9978939578
 20
69.9952628635
 30
0.0
 11
-90.991127299
 21
84.9952613372
 31
0.0
  0
LINE
  5
299
330
23
100
AcDbEntity
 67
     1
  8
0
  6
Continuous
 62
     7
370
    25
100
AcDbLine
 10
-107.9978922416
 20
70.0029018455
 30
0.0
 11
-108.00222094
 21
60.4072548127
 31
0.0
  0
LINE
  5
29A
330
23
100
AcDbEntity
 67
     1
  8
0
  6
Continuous
 62
     7
370
    25
100
AcDbLine
 10
-95.0021833268
 20
60.4877016769
 30
0.0
 11
-94.9978935643
 21
69.9970374078
 31
0.0
  0
LINE
  5
29B
330
23
100
AcDbEntity
 67
     1
  8
0
  6
Continuous
 62
     7
370
    25
100
AcDbLine
 10
-10.2325628917
 20
20.7972400763
 30
0.0
 11
-10.2467879958
 21
20.8043786935
 31
0.0
  0
LINE
  5
29C
330
23
100
AcDbEntity
 67
     1
  8
0
  6
Continuous
 62
     7
370
    25
100
AcDbLine
 10
10.25
 20
23.3
 30
0.0
 11
-10.25
 21
23.3
 31
0.0
  0
LINE
  5
29D
330
23
100
AcDbEntity
 67
     1
  8
0
  6
Continuous
 62
     7
370
    25
100
AcDbLine
 10
-10.25
 20
13.2
 30
0.0
 11
-10.2228494058
 21
13.2
 31
0.0
  0
LINE
  5
29E
330
23
100
AcDbEntity
 67
     1
  8
0
  6
Continuous
 62
     7
370
    25
100
AcDbLine
 10
-10.2228494058
 20
13.2
 30
0.0
 11
-10.1786757588
 21
13.1552387522
 31
0.0
  0
LINE
  5
29F
330
23
100
AcDbEntity
 67
     1
  8
0
  6
Continuous
 62
     7
370
    25
100
AcDbLine
 10
9.0500000022
 20
12.0
 30
0.0
 11
-9.0500000022
 21
12.0
 31
0.0
  0
LINE
  5
2A0
330
23
100
AcDbEntity
 67
     1
  8
0
  6
Continuous
 62
     7
370
    25
100
AcDbLine
 10
-7.6131140449
 20
12.35
 30
0.0
 11
-9.4000000015
 21
12.35
 31
0.0
  0
LINE
  5
2A1
330
23
100
AcDbEntity
 67
     1
  8
0
  6
Continuous
 62
     7
370
    25
100
AcDbLine
 10
-9.150000002
 20
24.4
 30
0.0
 11
9.150000002
 21
24.4
 31
0.0
  0
LINE
  5
2A2
330
23
100
AcDbEntity
 67
     1
  8
0
  6
Continuous
 62
     7
370
    25
100
AcDbLine
 10
-13.0
 20
27.0
 30
0.0
 11
13.0
 21
27.0
 31
0.0
  0
LINE
  5
2A3
330
23
100
AcDbEntity
 67
     1
  8
0
  6
Continuous
 62
     7
370
    25
100
AcDbLine
 10
-76.5
 20
39.0
 30
0.0
 11
-126.5
 21
39.0
 31
0.0
  0
LINE
  5
2A4
330
23
100
AcDbEntity
 67
     1
  8
0
  6
Continuous
 62
     7
370
    25
100
AcDbLine
 10
-76.5
 20
47.0
 30
0.0
 11
-126.5
 21
47.0
 31
0.0
  0
LINE
  5
2A5
330
23
100
AcDbEntity
 67
     1
  8
0
  6
Continuous
 62
     7
370
    25
100
AcDbLine
 10
116.0
 20
59.0
 30
0.0
 11
87.0
 21
59.0
 31
0.0
  0
LINE
  5
2A6
330
23
100
AcDbEntity
 67
     1
  8
0
  6
Continuous
 62
     7
370
    25
100
AcDbLine
 10
91.0
 20
70.0
 30
0.0
 11
112.0
 21
70.0
 31
0.0
  0
LINE
  5
2A7
330
23
100
AcDbEntity
 67
     1
  8
0
  6
Continuous
 62
     7
370
    25
100
AcDbLine
 10
92.0
 20
86.0
 30
0.0
 11
111.0
 21
86.0
 31
0.0
  0
LINE
  5
2A8
330
23
100
AcDbEntity
 67
     1
  8
0
  6
Continuous
 62
     7
370
    25
100
AcDbLine
 10
126.5
 20
39.0
 30
0.0
 11
76.5
 21
39.0
 31
0.0
  0
LINE
  5
2A9
330
23
100
AcDbEntity
 67
     1
  8
0
  6
Continuous
 62
     7
370
    25
100
AcDbLine
 10
126.5
 20
47.0
 30
0.0
 11
76.5
 21
47.0
 31
0.0
  0
LINE
  5
2AA
330
23
100
AcDbEntity
 67
     1
  8
0
  6
Continuous
 62
     7
370
    25
100
AcDbLine
 10
25.0
 20
38.0
 30
0.0
 11
-25.0
 21
38.0
 31
0.0
  0
LINE
  5
2AB
330
23
100
AcDbEntity
 67
     1
  8
0
  6
Continuous
 62
     7
370
    25
100
AcDbLine
 10
25.0
 20
44.0
 30
0.0
 11
-25.0
 21
44.0
 31
0.0
  0
LINE
  5
2AC
330
23
100
AcDbEntity
 67
     1
  8
0
  6
Continuous
 62
     7
370
    25
100
AcDbLine
 10
-20.0
 20
50.5
 30
0.0
 11
20.0
 21
50.5
 31
0.0
  0
LINE
  5
2AD
330
23
100
AcDbEntity
 67
     1
  8
0
  6
Continuous
 62
     8
370
    25
100
AcDbLine
 10
-13.0
 20
167.0
 30
0.0
 11
13.0
 21
167.0
 31
0.0
  0
LINE
  5
2AE
330
23
100
AcDbEntity
 67
     1
  8
0
  6
Continuous
 62
     8
370
    25
100
AcDbLine
 10
112.0
 20
85.0
 30
0.0
 11
91.0
 21
85.0
 31
0.0
  0
LINE
  5
2AF
330
23
100
AcDbEntity
 67
     1
  8
0
  6
Continuous
 62
     8
370
    25
100
AcDbLine
 10
-100.0035028045
 20
85.9993610366
 30
0.0
 11
-101.3379778972
 21
85.9999634527
 31
0.0
  0
ARC
  5
2B0
330
23
100
AcDbEntity
 67
     1
  8
0
  6
Continuous
 62
     7
370
    25
100
AcDbCircle
 10
92.0
 20
85.0
 30
0.0
 40
0.9999999999999716
100
AcDbArc
 50
90.0
 51
180.0
  0
ARC
  5
2B1
330
23
100
AcDbEntity
 67
     1
  8
0
  6
Continuous
 62
     7
370
    25
100
AcDbCircle
 10
111.0
 20
85.0
 30
0.0
 40
0.9999999999999858
100
AcDbArc
 50
0.0
 51
90.0
  0
ARC
  5
2B2
330
23
100
AcDbEntity
 67
     1
  8
0
  6
Continuous
 62
     7
370
    25
100
AcDbCircle
 10
0.0
 20
217.0
 30
0.0
 40
13.0
100
AcDbArc
 50
0.0
 51
180.0
  0
ARC
  5
2B3
330
23
100
AcDbEntity
 67
     1
  8
0
  6
Continuous
 62
     7
370
    25
100
AcDbCircle
 10
-101.5000366082
 20
77.4996939528
 30
0.0
 40
5.500000000000018
100
AcDbArc
 50
173.1789056531
 51
353.1789056472
  0
VIEWPORT
  5
2B6
330
23
100
AcDbEntity
 67
     1
  8
0
100
AcDbViewport
 10
0.0
 20
0.0
 30
0.0
 40
205.6
 41
156.0
 68
     1
 69
     1
 12
0.0
 22
-4.7499682573
 13
0.0
 23
0.0
 14
10.0
 24
10.0
 15
10.0
 25
10.0
 16
0.0
 26
0.0
 36
1.0
 17
0.0
 27
0.0
 37
0.0
 42
50.0
 43
0.0
 44
0.0
 45
195.8042801556
 50
0.0
 51
0.0
 72
   100
 90
   557152
  1

281
     0
 71
     1
 74
     0
110
0.0
120
0.0
130
0.0
111
1.0
121
0.0
131
0.0
112
0.0
122
1.0
132
0.0
 79
     0
146
0.0
  0
ENDSEC
  0
SECTION
  2
OBJECTS
  0
DICTIONARY
  5
C
330
0
100
AcDbDictionary
281
     1
  3
ACAD_GROUP
350
D
  3
ACAD_LAYOUT
350
1A
  3
ACAD_MLINESTYLE
350
17
  3
ACAD_PLOTSETTINGS
350
19
  3
ACAD_PLOTSTYLENAME
350
E
  3
ACAD_SCALELIST
350
47
  0
DICTIONARY
  5
D
102
{ACAD_REACTORS
330
C
102
}
330
C
100
AcDbDictionary
281
     1
  0
DICTIONARY
  5
1A
102
{ACAD_REACTORS
330
C
102
}
330
C
100
AcDbDictionary
281
     1
  3
_Right
350
1E
  3
_Top
350
26
  3
Model
350
22
  0
DICTIONARY
  5
17
102
{ACAD_REACTORS
330
C
102
}
330
C
100
AcDbDictionary
281
     1
  3
Standard
350
18
  0
DICTIONARY
  5
19
102
{ACAD_REACTORS
330
C
102
}
330
C
100
AcDbDictionary
281
     1
  0
ACDBDICTIONARYWDFLT
  5
E
102
{ACAD_REACTORS
330
C
102
}
330
C
100
AcDbDictionary
281
     1
  3
Normal
350
F
100
AcDbDictionaryWithDefault
340
F
  0
DICTIONARY
  5
47
102
{ACAD_REACTORS
330
C
102
}
330
C
100
AcDbDictionary
281
     1
  3
A0
350
48
  3
A1
350
49
  3
A2
350
4A
  3
A3
350
4B
  3
A4
350
4C
  3
A5
350
4D
  3
A6
350
4E
  3
A7
350
4F
  3
A8
350
50
  3
A9
350
51
  3
B0
350
52
  3
B1
350
53
  3
B2
350
54
  3
B3
350
55
  3
B4
350
56
  3
B5
350
57
  3
B6
350
58
  3
B7
350
59
  3
B8
350
5A
  3
B9
350
5B
  3
C0
350
5C
  3
C1
350
5D
  3
C2
350
5E
  3
C3
350
5F
  3
C4
350
60
  3
C5
350
61
  3
C6
350
62
  3
C7
350
63
  3
C8
350
64
  3
C9
350
65
  3
D0
350
66
  3
D1
350
67
  3
D2
350
68
  0
LAYOUT
  5
1E
102
{ACAD_REACTORS
330
1A
102
}
330
1A
100
AcDbPlotSettings
  1

  2
none_device
  4
ISO_A4_(210.00_x_297.00_MM)
  6

 40
7.5
 41
20.0
 42
7.5
 43
20.0
 44
210.0
 45
297.0
 46
0.0
 47
0.0
 48
0.0
 49
0.0
140
0.0
141
0.0
142
1.0
143
0.8482490272
 70
   688
 72
     1
 73
     1
 74
     1
  7

 75
     0
147
1.1788990826
148
-12.0
149
73.0
100
AcDbLayout
  1
_Right
 70
     1
 71
     1
 10
-4.9649805447
 20
-79.3618677043
 11
246.9649805447
 21
98.7704280156
 12
0.0
 22
0.0
 32
0.0
 14
1.0000000000E+20
 24
1.0000000000E+20
 34
1.0000000000E+20
 15
-1.0000000000E+20
 25
-1.0000000000E+20
 35
-1.0000000000E+20
146
0.0
 13
0.0
 23
0.0
 33
0.0
 16
1.0
 26
0.0
 36
0.0
 17
0.0
 27
1.0
 37
0.0
 76
     0
330
1B
331
2B4
  0
LAYOUT
  5
26
102
{ACAD_REACTORS
330
1A
102
}
330
1A
100
AcDbPlotSettings
  1

  2
none_device
  4
ANSI_A_(11.00_x_8.50_Inches)
  6

 40
6.35
 41
19.05
 42
6.35000508
 43
19.05000254
 44
279.4
 45
215.9
 46
133.34999746
 47
94.0931596778
 48
0.0
 49
0.0
140
0.0
141
0.0
142
0.0430434783
143
1.0
 70
  1696
 72
     0
 73
     0
 74
     1
  7

 75
     0
147
0.0415019755
148
3213.1
149
1854.2
100
AcDbLayout
  1
_Top
 70
     1
 71
     2
 10
0.0
 20
0.0
 11
0.0
 21
0.0
 12
0.0
 22
0.0
 32
0.0
 14
-126.5
 24
-73.0
 34
0.0
 15
126.5
 25
63.5000634854
 35
0.0
146
0.0
 13
0.0
 23
0.0
 33
0.0
 16
1.0
 26
0.0
 36
0.0
 17
0.0
 27
1.0
 37
0.0
 76
     0
330
23
331
2B6
  0
LAYOUT
  5
22
102
{ACAD_REACTORS
330
1A
102
}
330
1A
100
AcDbPlotSettings
  1

  2
none_device
  4
Letter_(8.50_x_11.00_Inches)
  6

 40
6.35
 41
6.35
 42
6.35000508
 43
6.35000508
 44
215.9
 45
279.4
 46
0.0
 47
0.0
 48
0.0
 49
0.0
140
0.0
141
0.0
142
1.0
143
1.0
 70
  1712
 72
     1
 73
     0
 74
     0
  7

 75
     0
147
1.0
148
0.0
149
0.0
100
AcDbLayout
  1
Model
 70
     1
 71
     0
 10
0.0
 20
0.0
 11
420.0
 21
297.0
 12
0.0
 22
0.0
 32
0.0
 14
-126.5
 24
-73.0
 34
0.0
 15
126.5
 25
63.5000634854
 35
0.0
146
0.0
 13
0.0
 23
0.0
 33
0.0
 16
1.0
 26
0.0
 36
0.0
 17
0.0
 27
1.0
 37
0.0
 76
     0
330
1F
331
29
  0
MLINESTYLE
  5
18
102
{ACAD_REACTORS
330
17
102
}
330
17
100
AcDbMlineStyle
  2
Standard
 70
     0
  3

 62
   256
 51
90.0
 52
90.0
 71
     2
 49
0.5
 62
   256
  6
BYLAYER
 49
-0.5
 62
   256
  6
BYLAYER
  0
ACDBPLACEHOLDER
  5
F
102
{ACAD_REACTORS
330
E
102
}
330
E
  0
SCALE
  5
48
102
{ACAD_REACTORS
330
47
102
}
330
47
100
AcDbScale
 70
     0
300
1:1
140
1.0
141
1.0
290
     1
  0
SCALE
  5
49
102
{ACAD_REACTORS
330
47
102
}
330
47
100
AcDbScale
 70
     0
300
1:2
140
1.0
141
2.0
290
     0
  0
SCALE
  5
4A
102
{ACAD_REACTORS
330
47
102
}
330
47
100
AcDbScale
 70
     0
300
1:4
140
1.0
141
4.0
290
     0
  0
SCALE
  5
4B
102
{ACAD_REACTORS
330
47
102
}
330
47
100
AcDbScale
 70
     0
300
1:5
140
1.0
141
5.0
290
     0
  0
SCALE
  5
4C
102
{ACAD_REACTORS
330
47
102
}
330
47
100
AcDbScale
 70
     0
300
1:8
140
1.0
141
8.0
290
     0
  0
SCALE
  5
4D
102
{ACAD_REACTORS
330
47
102
}
330
47
100
AcDbScale
 70
     0
300
1:10
140
1.0
141
10.0
290
     0
  0
SCALE
  5
4E
102
{ACAD_REACTORS
330
47
102
}
330
47
100
AcDbScale
 70
     0
300
1:16
140
1.0
141
16.0
290
     0
  0
SCALE
  5
4F
102
{ACAD_REACTORS
330
47
102
}
330
47
100
AcDbScale
 70
     0
300
1:20
140
1.0
141
20.0
290
     0
  0
SCALE
  5
50
102
{ACAD_REACTORS
330
47
102
}
330
47
100
AcDbScale
 70
     0
300
1:30
140
1.0
141
30.0
290
     0
  0
SCALE
  5
51
102
{ACAD_REACTORS
330
47
102
}
330
47
100
AcDbScale
 70
     0
300
1:40
140
1.0
141
40.0
290
     0
  0
SCALE
  5
52
102
{ACAD_REACTORS
330
47
102
}
330
47
100
AcDbScale
 70
     0
300
1:50
140
1.0
141
50.0
290
     0
  0
SCALE
  5
53
102
{ACAD_REACTORS
330
47
102
}
330
47
100
AcDbScale
 70
     0
300
1:100
140
1.0
141
100.0
290
     0
  0
SCALE
  5
54
102
{ACAD_REACTORS
330
47
102
}
330
47
100
AcDbScale
 70
     0
300
2:1
140
2.0
141
1.0
290
     0
  0
SCALE
  5
55
102
{ACAD_REACTORS
330
47
102
}
330
47
100
AcDbScale
 70
     0
300
4:1
140
4.0
141
1.0
290
     0
  0
SCALE
  5
56
102
{ACAD_REACTORS
330
47
102
}
330
47
100
AcDbScale
 70
     0
300
8:1
140
8.0
141
1.0
290
     0
  0
SCALE
  5
57
102
{ACAD_REACTORS
330
47
102
}
330
47
100
AcDbScale
 70
     0
300
10:1
140
10.0
141
1.0
290
     0
  0
SCALE
  5
58
102
{ACAD_REACTORS
330
47
102
}
330
47
100
AcDbScale
 70
     0
300
100:1
140
100.0
141
1.0
290
     0
  0
SCALE
  5
59
102
{ACAD_REACTORS
330
47
102
}
330
47
100
AcDbScale
 70
     0
300
1/128" = 1'-0"
140
0.0078125
141
12.0
290
     0
  0
SCALE
  5
5A
102
{ACAD_REACTORS
330
47
102
}
330
47
100
AcDbScale
 70
     0
300
1/64" = 1'-0"
140
0.015625
141
12.0
290
     0
  0
SCALE
  5
5B
102
{ACAD_REACTORS
330
47
102
}
330
47
100
AcDbScale
 70
     0
300
1/32" = 1'-0"
140
0.03125
141
12.0
290
     0
  0
SCALE
  5
5C
102
{ACAD_REACTORS
330
47
102
}
330
47
100
AcDbScale
 70
     0
300
1/16" = 1'-0"
140
0.0625
141
12.0
290
     0
  0
SCALE
  5
5D
102
{ACAD_REACTORS
330
47
102
}
330
47
100
AcDbScale
 70
     0
300
3/32" = 1'-0"
140
0.09375
141
12.0
290
     0
  0
SCALE
  5
5E
102
{ACAD_REACTORS
330
47
102
}
330
47
100
AcDbScale
 70
     0
300
1/8" = 1'-0"
140
0.125
141
12.0
290
     0
  0
SCALE
  5
5F
102
{ACAD_REACTORS
330
47
102
}
330
47
100
AcDbScale
 70
     0
300
3/16" = 1'-0"
140
0.1875
141
12.0
290
     0
  0
SCALE
  5
60
102
{ACAD_REACTORS
330
47
102
}
330
47
100
AcDbScale
 70
     0
300
1/4" = 1'-0"
140
0.25
141
12.0
290
     0
  0
SCALE
  5
61
102
{ACAD_REACTORS
330
47
102
}
330
47
100
AcDbScale
 70
     0
300
3/8" = 1'-0"
140
0.375
141
12.0
290
     0
  0
SCALE
  5
62
102
{ACAD_REACTORS
330
47
102
}
330
47
100
AcDbScale
 70
     0
300
1/2" = 1'-0"
140
0.5
141
12.0
290
     0
  0
SCALE
  5
63
102
{ACAD_REACTORS
330
47
102
}
330
47
100
AcDbScale
 70
     0
300
3/4" = 1'-0"
140
0.75
141
12.0
290
     0
  0
SCALE
  5
64
102
{ACAD_REACTORS
330
47
102
}
330
47
100
AcDbScale
 70
     0
300
1" = 1'-0"
140
1.0
141
12.0
290
     0
  0
SCALE
  5
65
102
{ACAD_REACTORS
330
47
102
}
330
47
100
AcDbScale
 70
     0
300
1-1/2" = 1'-0"
140
1.5
141
12.0
290
     0
  0
SCALE
  5
66
102
{ACAD_REACTORS
330
47
102
}
330
47
100
AcDbScale
 70
     0
300
3" = 1'-0"
140
3.0
141
12.0
290
     0
  0
SCALE
  5
67
102
{ACAD_REACTORS
330
47
102
}
330
47
100
AcDbScale
 70
     0
300
6" = 1'-0"
140
6.0
141
12.0
290
     0
  0
SCALE
  5
68
102
{ACAD_REACTORS
330
47
102
}
330
47
100
AcDbScale
 70
     0
300
1'-0" = 1'-0"
140
12.0
141
12.0
290
     0
  0
ENDSEC
  0
EOF
