  0
SECTION
  2
HEADER
  9
$ACADVER
  1
AC1015
  9
$ACADMAINTVER
 70
     6
  9
$DWGCODEPAGE
  3
ANSI_1252
  9
$INSBASE
 10
0.0
 20
0.0
 30
0.0
  9
$EXTMIN
 10
-7.874015748
 20
-7.874015748
 30
0.0
  9
$EXTMAX
 10
7.874015748
 20
7.874015748
 30
0.0
  9
$LIMMIN
 10
0.0
 20
0.0
  9
$LIMMAX
 10
12.0
 20
9.0
  9
$ORTHOMODE
 70
     0
  9
$REGENMODE
 70
     1
  9
$FILLMODE
 70
     1
  9
$QTEXTMODE
 70
     0
  9
$MIRRTEXT
 70
     1
  9
$LTSCALE
 40
1.0
  9
$ATTMODE
 70
     1
  9
$TEXTSIZE
 40
0.1377952756
  9
$TRACEWID
 40
0.05
  9
$TEXTSTYLE
  7
Standard
  9
$CLAYER
  8
0
  9
$CELTYPE
  6
ByLayer
  9
$CECOLOR
 62
   256
  9
$CELTSCALE
 40
1.0
  9
$DISPSILH
 70
     0
  9
$DIMSCALE
 40
1.0
  9
$DIMASZ
 40
0.13
  9
$DIMEXO
 40
0.0393700787
  9
$DIMDLI
 40
0.38
  9
$DIMRND
 40
0.0
  9
$DIMDLE
 40
0.0
  9
$DIMEXE
 40
0.0393700787
  9
$DIMTP
 40
0.0
  9
$DIMTM
 40
0.0
  9
$DIMTXT
 40
0.1377952756
  9
$DIMCEN
 40
0.09
  9
$DIMTSZ
 40
0.0
  9
$DIMTOL
 70
     0
  9
$DIMLIM
 70
     0
  9
$DIMTIH
 70
     1
  9
$DIMTOH
 70
     1
  9
$DIMSE1
 70
     0
  9
$DIMSE2
 70
     0
  9
$DIMTAD
 70
     1
  9
$DIMZIN
 70
     1
  9
$DIMBLK
  1

  9
$DIMASO
 70
     1
  9
$DIMSHO
 70
     1
  9
$DIMPOST
  1

  9
$DIMAPOST
  1

  9
$DIMALT
 70
     0
  9
$DIMALTD
 70
     2
  9
$DIMALTF
 40
25.4
  9
$DIMLFAC
 40
1.0
  9
$DIMTOFL
 70
     0
  9
$DIMTVP
 40
0.0
  9
$DIMTIX
 70
     0
  9
$DIMSOXD
 70
     0
  9
$DIMSAH
 70
     0
  9
$DIMBLK1
  1

  9
$DIMBLK2
  1

  9
$DIMSTYLE
  2
Standard
  9
$DIMCLRD
 70
     0
  9
$DIMCLRE
 70
     0
  9
$DIMCLRT
 70
     0
  9
$DIMTFAC
 40
1.0
  9
$DIMGAP
 40
0.06
  9
$DIMJUST
 70
     0
  9
$DIMSD1
 70
     0
  9
$DIMSD2
 70
     0
  9
$DIMTOLJ
 70
     1
  9
$DIMTZIN
 70
     1
  9
$DIMALTZ
 70
     0
  9
$DIMALTTZ
 70
     0
  9
$DIMUPT
 70
     0
  9
$DIMDEC
 70
     2
  9
$DIMTDEC
 70
     2
  9
$DIMALTU
 70
     2
  9
$DIMALTTD
 70
     2
  9
$DIMTXSTY
  7
Standard
  9
$DIMAUNIT
 70
     0
  9
$DIMADEC
 70
     2
  9
$DIMALTRND
 40
0.0
  9
$DIMAZIN
 70
     0
  9
$DIMDSEP
 70
    46
  9
$DIMATFIT
 70
     3
  9
$DIMFRAC
 70
     0
  9
$DIMLDRBLK
  1

  9
$DIMLUNIT
 70
     2
  9
$DIMLWD
 70
    -2
  9
$DIMLWE
 70
    -2
  9
$DIMTMOVE
 70
     0
  9
$LUNITS
 70
     2
  9
$LUPREC
 70
     2
  9
$SKETCHINC
 40
0.1
  9
$FILLETRAD
 40
0.5
  9
$AUNITS
 70
     0
  9
$AUPREC
 70
     2
  9
$MENU
  1
.
  9
$ELEVATION
 40
0.0
  9
$PELEVATION
 40
0.0
  9
$THICKNESS
 40
0.0
  9
$LIMCHECK
 70
     0
  9
$CHAMFERA
 40
0.0
  9
$CHAMFERB
 40
0.0
  9
$CHAMFERC
 40
0.0
  9
$CHAMFERD
 40
0.0
  9
$SKPOLY
 70
     0
  9
$TDCREATE
 40
2459556.534763217
  9
$TDUCREATE
 40
2459556.534763217
  9
$TDUPDATE
 40
2459556.534780798
  9
$TDUUPDATE
 40
2459556.534780798
  9
$TDINDWG
 40
0.0000000116
  9
$TDUSRTIMER
 40
0.0000000116
  9
$USRTIMER
 70
     1
  9
$ANGBASE
 50
0.0
  9
$ANGDIR
 70
     0
  9
$PDMODE
 70
     0
  9
$PDSIZE
 40
-1.0
  9
$PLINEWID
 40
0.0
  9
$SPLFRAME
 70
     0
  9
$SPLINETYPE
 70
     6
  9
$SPLINESEGS
 70
     8
  9
$HANDSEED
  5
109
  9
$SURFTAB1
 70
     6
  9
$SURFTAB2
 70
     6
  9
$SURFTYPE
 70
     6
  9
$SURFU
 70
     6
  9
$SURFV
 70
     6
  9
$UCSBASE
  2

  9
$UCSNAME
  2

  9
$UCSORG
 10
0.0
 20
0.0
 30
0.0
  9
$UCSXDIR
 10
1.0
 20
0.0
 30
0.0
  9
$UCSYDIR
 10
0.0
 20
1.0
 30
0.0
  9
$UCSORTHOREF
  2

  9
$UCSORTHOVIEW
 70
     0
  9
$UCSORGTOP
 10
0.0
 20
0.0
 30
0.0
  9
$UCSORGBOTTOM
 10
0.0
 20
0.0
 30
0.0
  9
$UCSORGLEFT
 10
0.0
 20
0.0
 30
0.0
  9
$UCSORGRIGHT
 10
0.0
 20
0.0
 30
0.0
  9
$UCSORGFRONT
 10
0.0
 20
0.0
 30
0.0
  9
$UCSORGBACK
 10
0.0
 20
0.0
 30
0.0
  9
$PUCSBASE
  2

  9
$PUCSNAME
  2

  9
$PUCSORG
 10
0.0
 20
0.0
 30
0.0
  9
$PUCSXDIR
 10
1.0
 20
0.0
 30
0.0
  9
$PUCSYDIR
 10
0.0
 20
1.0
 30
0.0
  9
$PUCSORTHOREF
  2

  9
$PUCSORTHOVIEW
 70
     0
  9
$PUCSORGTOP
 10
0.0
 20
0.0
 30
0.0
  9
$PUCSORGBOTTOM
 10
0.0
 20
0.0
 30
0.0
  9
$PUCSORGLEFT
 10
0.0
 20
0.0
 30
0.0
  9
$PUCSORGRIGHT
 10
0.0
 20
0.0
 30
0.0
  9
$PUCSORGFRONT
 10
0.0
 20
0.0
 30
0.0
  9
$PUCSORGBACK
 10
0.0
 20
0.0
 30
0.0
  9
$USERI1
 70
     0
  9
$USERI2
 70
     0
  9
$USERI3
 70
     0
  9
$USERI4
 70
     0
  9
$USERI5
 70
     0
  9
$USERR1
 40
0.0
  9
$USERR2
 40
0.0
  9
$USERR3
 40
0.0
  9
$USERR4
 40
0.0
  9
$USERR5
 40
0.0
  9
$WORLDVIEW
 70
     1
  9
$SHADEDGE
 70
     3
  9
$SHADEDIF
 70
    70
  9
$TILEMODE
 70
     1
  9
$MAXACTVP
 70
    64
  9
$PINSBASE
 10
0.0
 20
0.0
 30
0.0
  9
$PLIMCHECK
 70
     0
  9
$PEXTMIN
 10
-7.874015748
 20
-7.874015748
 30
0.0
  9
$PEXTMAX
 10
7.874015748
 20
7.874015748
 30
0.0
  9
$PLIMMIN
 10
-8.3661425315
 20
-8.3661417565
  9
$PLIMMAX
 10
13.2874018412
 20
8.3661425315
  9
$UNITMODE
 70
     0
  9
$VISRETAIN
 70
     1
  9
$PLINEGEN
 70
     0
  9
$PSLTSCALE
 70
     1
  9
$TREEDEPTH
 70
  3020
  9
$CMLSTYLE
  2
Standard
  9
$CMLJUST
 70
     0
  9
$CMLSCALE
 40
1.0
  9
$PROXYGRAPHICS
 70
     1
  9
$MEASUREMENT
 70
     0
  9
$CELWEIGHT
370
    -1
  9
$ENDCAPS
280
     0
  9
$JOINSTYLE
280
     0
  9
$LWDISPLAY
290
     1
  9
$INSUNITS
 70
     1
  9
$HYPERLINKBASE
  1

  9
$STYLESHEET
  1

  9
$XEDIT
290
     1
  9
$CEPSNTYPE
380
     0
  9
$PSTYLEMODE
290
     1
  9
$FINGERPRINTGUID
  2
{532346e2-bcb0-42e3-9a6d-2886b13019ea}
  9
$VERSIONGUID
  2
{FAEB1C32-E019-11D5-929B-00C0DF256EC4}
  9
$EXTNAMES
290
     1
  9
$PSVPSCALE
 40
0.0
  9
$OLESTARTUP
290
     0
  0
ENDSEC
  0
SECTION
  2
CLASSES
  0
CLASS
  1
ACDBDICTIONARYWDFLT
  2
AcDbDictionaryWithDefault
  3
ObjectDBX Classes
 90
        0
280
     0
281
     0
  0
CLASS
  1
VISUALSTYLE
  2
AcDbVisualStyle
  3
ObjectDBX Classes
 90
     4095
280
     0
281
     0
  0
CLASS
  1
MATERIAL
  2
AcDbMaterial
  3
ObjectDBX Classes
 90
     1153
280
     0
281
     0
  0
CLASS
  1
SCALE
  2
AcDbScale
  3
ObjectDBX Classes
 90
     1153
280
     0
281
     0
  0
CLASS
  1
TABLESTYLE
  2
AcDbTableStyle
  3
ObjectDBX Classes
 90
     4095
280
     0
281
     0
  0
CLASS
  1
MLEADERSTYLE
  2
AcDbMLeaderStyle
  3
ACDB_MLEADERSTYLE_CLASS
 90
     4095
280
     0
281
     0
  0
CLASS
  1
SUN
  2
AcDbSun
  3
SCENEOE
 90
     1153
280
     0
281
     0
  0
CLASS
  1
ACDBPLACEHOLDER
  2
AcDbPlaceHolder
  3
ObjectDBX Classes
 90
        0
280
     0
281
     0
  0
CLASS
  1
LAYOUT
  2
AcDbLayout
  3
ObjectDBX Classes
 90
        0
280
     0
281
     0
  0
ENDSEC
  0
SECTION
  2
TABLES
  0
TABLE
  2
VPORT
  5
8
330
0
100
AcDbSymbolTable
 70
     1
  0
VPORT
  5
29
330
8
100
AcDbSymbolTableRecord
100
AcDbViewportTableRecord
  2
*Active
 70
     0
 10
0.0
 20
0.0
 11
1.0
 21
1.0
 12
0.0
 22
0.0
 13
0.0
 23
0.0
 14
0.5
 24
0.5
 15
0.5
 25
0.5
 16
0.0
 26
0.0
 36
1.0
 17
0.0
 27
0.0
 37
0.0
 40
16.062992126
 41
1.0
 42
50.0
 43
0.0
 44
0.0
 50
0.0
 51
0.0
 71
     0
 72
   100
 73
     1
 74
     3
 75
     0
 76
     0
 77
     0
 78
     0
281
     0
 65
     1
110
0.0
120
0.0
130
0.0
111
1.0
121
0.0
131
0.0
112
0.0
122
1.0
132
0.0
 79
     0
146
0.0
  0
ENDTAB
  0
TABLE
  2
LTYPE
  5
5
330
0
100
AcDbSymbolTable
 70
     6
  0
LTYPE
  5
14
330
5
100
AcDbSymbolTableRecord
100
AcDbLinetypeTableRecord
  2
ByBlock
 70
     0
  3

 72
    65
 73
     0
 40
0.0
  0
LTYPE
  5
15
330
5
100
AcDbSymbolTableRecord
100
AcDbLinetypeTableRecord
  2
ByLayer
 70
     0
  3

 72
    65
 73
     0
 40
0.0
  0
LTYPE
  5
16
330
5
100
AcDbSymbolTableRecord
100
AcDbLinetypeTableRecord
  2
Continuous
 70
     0
  3
Solid line
 72
    65
 73
     0
 40
0.0
  0
LTYPE
  5
6E
330
5
100
AcDbSymbolTableRecord
100
AcDbLinetypeTableRecord
  2
HIDDEN
 70
     0
  3
Hidden __ __ __ __ __ __ __ __ __ __ __ __ __ __
 72
    65
 73
     2
 40
0.075
 49
0.05
 74
     0
 49
-0.025
 74
     0
  0
LTYPE
  5
6F
330
5
100
AcDbSymbolTableRecord
100
AcDbLinetypeTableRecord
  2
PHANTOM
 70
     0
  3
Phantom ______  __  __  ______  __  __  ______
 72
    65
 73
     6
 40
0.5
 49
0.25
 74
     0
 49
-0.05
 74
     0
 49
0.05
 74
     0
 49
-0.05
 74
     0
 49
0.05
 74
     0
 49
-0.05
 74
     0
  0
LTYPE
  5
70
330
5
100
AcDbSymbolTableRecord
100
AcDbLinetypeTableRecord
  2
CENTER
 70
     0
  3
Center ____ _ ____ _ ____ _ ____ _ ____ _ ____
 72
    65
 73
     4
 40
0.4
 49
0.25
 74
     0
 49
-0.05
 74
     0
 49
0.05
 74
     0
 49
-0.05
 74
     0
  0
LTYPE
  5
71
330
5
100
AcDbSymbolTableRecord
100
AcDbLinetypeTableRecord
  2
CENTERX2
 70
     0
  3
Center (2x) ________  __  ________  __  _____
 72
    65
 73
     4
 40
0.8
 49
0.5
 74
     0
 49
-0.1
 74
     0
 49
0.1
 74
     0
 49
-0.1
 74
     0
  0
LTYPE
  5
72
330
5
100
AcDbSymbolTableRecord
100
AcDbLinetypeTableRecord
  2
DOT2
 70
     0
  3
Dot (.5x) ........................................
 72
    65
 73
     2
 40
0.025
 49
0.0
 74
     0
 49
-0.025
 74
     0
  0
ENDTAB
  0
TABLE
  2
LAYER
  5
2
330
0
100
AcDbSymbolTable
 70
     1
  0
LAYER
  5
10
330
2
100
AcDbSymbolTableRecord
100
AcDbLayerTableRecord
  2
0
 70
     0
 62
     7
  6
Continuous
370
    -3
390
F
  0
ENDTAB
  0
TABLE
  2
STYLE
  5
3
330
0
100
AcDbSymbolTable
 70
     1
  0
STYLE
  5
11
330
3
100
AcDbSymbolTableRecord
100
AcDbTextStyleTableRecord
  2
Standard
 70
     0
 40
0.0
 41
1.0
 50
0.0
 71
     0
 42
0.1377952756
  3
txt
  4

  0
ENDTAB
  0
TABLE
  2
VIEW
  5
6
330
0
100
AcDbSymbolTable
 70
     0
  0
ENDTAB
  0
TABLE
  2
UCS
  5
7
330
0
100
AcDbSymbolTable
 70
     0
  0
ENDTAB
  0
TABLE
  2
APPID
  5
9
330
0
100
AcDbSymbolTable
 70
     1
  0
APPID
  5
12
330
9
100
AcDbSymbolTableRecord
100
AcDbRegAppTableRecord
  2
ACAD
 70
     0
  0
ENDTAB
  0
TABLE
  2
DIMSTYLE
  5
A
330
0
100
AcDbSymbolTable
 70
     1
100
AcDbDimStyleTable
  0
DIMSTYLE
105
27
330
A
100
AcDbSymbolTableRecord
100
AcDbDimStyleTableRecord
  2
Standard
 70
     0
178
     0
340
11
  0
ENDTAB
  0
TABLE
  2
BLOCK_RECORD
  5
1
330
0
100
AcDbSymbolTable
 70
     2
  0
BLOCK_RECORD
  5
1F
330
1
100
AcDbSymbolTableRecord
100
AcDbBlockTableRecord
  2
*Model_Space
340
22
  0
BLOCK_RECORD
  5
1B
330
1
100
AcDbSymbolTableRecord
100
AcDbBlockTableRecord
  2
*Paper_Space
340
1E
  0
BLOCK_RECORD
  5
23
330
1
100
AcDbSymbolTableRecord
100
AcDbBlockTableRecord
  2
*Paper_Space0
340
26
  0
BLOCK_RECORD
  5
DB
330
1
100
AcDbSymbolTableRecord
100
AcDbBlockTableRecord
  2
*Paper_Space1
340
DC
  0
ENDTAB
  0
ENDSEC
  0
SECTION
  2
BLOCKS
  0
BLOCK
  5
20
330
1F
100
AcDbEntity
  8
0
100
AcDbBlockBegin
  2
*Model_Space
 70
     0
 10
0.0
 20
0.0
 30
0.0
  3
*Model_Space
  1

  0
ENDBLK
  5
21
330
1F
100
AcDbEntity
  8
0
100
AcDbBlockEnd
  0
BLOCK
  5
1C
330
1B
100
AcDbEntity
 67
     1
  8
0
100
AcDbBlockBegin
  2
*Paper_Space
 70
     0
 10
0.0
 20
0.0
 30
0.0
  3
*Paper_Space
  1

  0
ENDBLK
  5
1D
330
1B
100
AcDbEntity
 67
     1
  8
0
100
AcDbBlockEnd
  0
BLOCK
  5
24
330
23
100
AcDbEntity
  8
0
100
AcDbBlockBegin
  2
*Paper_Space0
 70
     0
 10
0.0
 20
0.0
 30
0.0
  3
*Paper_Space0
  1

  0
LINE
  5
D0
330
23
100
AcDbEntity
  8
0
  6
Continuous
 62
     7
370
    25
100
AcDbLine
 10
-1.7716535433
 20
-7.4212598425
 30
0.0
 11
-0.3937007874
 21
-7.4212598425
 31
0.0
  0
LINE
  5
D1
330
23
100
AcDbEntity
  8
0
  6
Continuous
 62
     7
370
    25
100
AcDbLine
 10
-0.3937007874
 20
7.4212598425
 30
0.0
 11
-1.7716535433
 21
7.4212598425
 31
0.0
  0
LINE
  5
D2
330
23
100
AcDbEntity
  8
0
  6
Continuous
 62
     7
370
    25
100
AcDbLine
 10
-0.3937007874
 20
-7.874015748
 30
0.0
 11
0.1377952756
 21
-7.874015748
 31
0.0
  0
LINE
  5
D3
330
23
100
AcDbEntity
  8
0
  6
Continuous
 62
     7
370
    25
100
AcDbLine
 10
0.1377952756
 20
7.874015748
 30
0.0
 11
-0.3937007874
 21
7.874015748
 31
0.0
  0
LINE
  5
D4
330
23
100
AcDbEntity
  8
0
  6
Continuous
 62
     7
370
    25
100
AcDbLine
 10
0.1377952756
 20
-7.6771653543
 30
0.0
 11
0.157480315
 21
-7.657480315
 31
0.0
  0
LINE
  5
D5
330
23
100
AcDbEntity
  8
0
  6
Continuous
 62
     7
370
    25
100
AcDbLine
 10
0.157480315
 20
7.657480315
 30
0.0
 11
0.1377952756
 21
7.6771653543
 31
0.0
  0
LINE
  5
D6
330
23
100
AcDbEntity
  8
0
  6
Continuous
 62
     7
370
    25
100
AcDbLine
 10
-1.7716535433
 20
7.4212598425
 30
0.0
 11
-1.7716535433
 21
-7.4212598425
 31
0.0
  0
LINE
  5
D7
330
23
100
AcDbEntity
  8
0
  6
Continuous
 62
     7
370
    25
100
AcDbLine
 10
-0.3937007874
 20
7.874015748
 30
0.0
 11
-0.3937007874
 21
-7.874015748
 31
0.0
  0
LINE
  5
D8
330
23
100
AcDbEntity
  8
0
  6
Continuous
 62
     7
370
    25
100
AcDbLine
 10
0.0
 20
7.874015748
 30
0.0
 11
0.0
 21
-7.874015748
 31
0.0
  0
LINE
  5
D9
330
23
100
AcDbEntity
  8
0
  6
Continuous
 62
     7
370
    25
100
AcDbLine
 10
0.1377952756
 20
7.874015748
 30
0.0
 11
0.1377952756
 21
-7.874015748
 31
0.0
  0
LINE
  5
DA
330
23
100
AcDbEntity
  8
0
  6
Continuous
 62
     7
370
    25
100
AcDbLine
 10
0.157480315
 20
7.657480315
 30
0.0
 11
0.157480315
 21
-7.657480315
 31
0.0
  0
VIEWPORT
  5
105
330
23
100
AcDbEntity
  8
0
100
AcDbViewport
 10
0.0
 20
0.0
 30
0.0
 40
8.4
 41
6.4
 68
     1
 69
     1
 12
0.0
 22
0.0
 13
0.0
 23
0.0
 14
0.5
 24
0.5
 15
0.5
 25
0.5
 16
0.0
 26
0.0
 36
1.0
 17
0.0
 27
0.0
 37
0.0
 42
50.0
 43
0.0
 44
0.0
 45
16.062992126
 50
0.0
 51
0.0
 72
   100
 90
   557152
  1

281
     0
 71
     1
 74
     0
110
0.0
120
0.0
130
0.0
111
1.0
121
0.0
131
0.0
112
0.0
122
1.0
132
0.0
 79
     0
146
0.0
  0
ENDBLK
  5
25
330
23
100
AcDbEntity
  8
0
100
AcDbBlockEnd
  0
BLOCK
  5
DD
330
DB
100
AcDbEntity
  8
0
100
AcDbBlockBegin
  2
*Paper_Space1
 70
     0
 10
0.0
 20
0.0
 30
0.0
  3
*Paper_Space1
  1

  0
LWPOLYLINE
  5
E9
330
DB
100
AcDbEntity
  8
0
  6
Continuous
 62
     7
370
    25
100
AcDbPolyline
 90
       54
 70
   128
 43
0.0
 10
6.4991154061
 20
-2.4380404034
 10
6.4991638882
 20
-2.1755054604
 10
6.4893627732
 20
-1.907528508
 10
6.4697304615
 20
-1.6346126449
 10
6.4403038107
 20
-1.3572702421
 10
6.4011380665
 20
-1.076021981
 10
6.3523067582
 20
-0.7913958759
 10
6.2939015617
 20
-0.5039262825
 10
6.2260321265
 20
-0.2141528949
 10
6.1488258705
 20
0.0773802676
 10
6.0624277403
 20
0.370125882
 10
5.9669999394
 20
0.6635343489
 10
5.8627216235
 20
0.9570548246
 10
5.7497885642
 20
1.2501362552
 10
5.6284127816
 20
1.5422284107
 10
5.498822146
 20
1.8327829189
 10
5.3612599503
 20
2.1212542938
 10
5.2159844532
 20
2.4071009606
 10
5.0632683941
 20
2.6897862722
 10
4.9033984817
 20
2.9687795162
 10
4.7366748548
 20
3.2435569122
 10
4.5634105197
 20
3.5136025942
 10
4.3839307621
 20
3.7784095797
 10
4.1985725365
 20
4.0374807213
 10
4.0076838336
 20
4.2903296399
 10
3.8116230269
 20
4.5364816381
 10
3.6107582002
 20
4.7754745913
 10
3.4054664561
 20
5.0068598151
 10
3.1961332086
 20
5.230202908
 10
2.9831514588
 20
5.4450845667
 10
2.7669210577
 20
5.6511013733
 10
2.5478479554
 20
5.8478665527
 10
2.3263434387
 20
6.035010699
 10
2.1028233591
 20
6.2121824684
 10
1.8777073524
 20
6.3790492397
 10
1.6514180502
 20
6.5352977377
 10
1.424380287
 20
6.6806346223
 10
1.1970203027
 20
6.8147870387
 10
0.9697649417
 20
6.9375031298
 10
0.7430408522
 20
7.0485525088
 10
0.5172736851
 20
7.1477266922
 10
0.2928872947
 20
7.2348394908
 10
0.0703029428
 20
7.3097273595
 10
-0.1500614915
 20
7.372249704
 10
-0.3677922972
 20
7.4222891453
 10
-0.5824807074
 20
7.4597517394
 10
-0.793723667
 20
7.4845671544
 10
-1.0011245894
 20
7.4966888018
 10
-1.2042941011
 20
7.4960939245
 10
-1.4028507725
 20
7.4827836394
 10
-1.5964218343
 20
7.456782935
 10
-1.784643877
 20
7.4181406251
 10
-1.9671635334
 20
7.3669292565
 10
-2.0344419536
 20
7.3443722797
  0
LWPOLYLINE
  5
EA
330
DB
100
AcDbEntity
  8
0
  6
Continuous
 62
     7
370
    25
100
AcDbPolyline
 90
       17
 70
   128
 43
0.0
 10
5.3426820459
 20
-5.4345659257
 10
5.3598673739
 20
-5.4196676123
 10
5.4975067621
 20
-5.290134492
 10
5.6271770598
 20
-5.1493119717
 10
5.7486348244
 20
-4.997464431
 10
5.8616520317
 20
-4.8348769477
 10
5.9660165037
 20
-4.6618547629
 10
6.061532307
 20
-4.4787227077
 10
6.1480201207
 20
-4.2858245934
 10
6.2253175729
 20
-4.083522566
 10
6.2932795457
 20
-3.8721964264
 10
6.3517784477
 20
-3.6522429174
 10
6.4007044532
 20
-3.4240749786
 10
6.4399657089
 20
-3.1881209717
 10
6.4694885057
 20
-2.9448238755
 10
6.4892174178
 20
-2.694640455
 10
6.4991154061
 20
-2.4380404034
  0
LWPOLYLINE
  5
EB
330
DB
100
AcDbEntity
  8
0
  6
Continuous
 62
     7
370
    25
100
AcDbPolyline
 90
       58
 70
   128
 43
0.0
 10
5.8461584271
 20
-3.0534949064
 10
5.8412745469
 20
-2.7814378623
 10
5.8266314743
 20
-2.5042192906
 10
5.8022548982
 20
-2.2223255269
 10
5.7681875834
 20
-1.9362511087
 10
5.7244892956
 20
-1.6464979077
 10
5.6712366964
 20
-1.3535742495
 10
5.6085232089
 20
-1.0579940217
 10
5.5364588539
 20
-0.7602757725
 10
5.4551700568
 20
-0.4609418009
 10
5.3647994258
 20
-0.1605172403
 10
5.2655055017
 20
0.1404708625
 10
5.1574624797
 20
0.4414944721
 10
5.040859904
 20
0.7420254908
 10
4.9159023351
 20
1.041536685
 10
4.7828089912
 20
1.3395026103
 10
4.641813363
 20
1.6354005333
 10
4.493162805
 20
1.9287113485
 10
4.3371181006
 20
2.218920489
 10
4.1739530054
 20
2.5055188293
 10
4.0039537663
 20
2.7880035787
 10
3.8274186197
 20
3.0658791628
 10
3.6446572683
 20
3.3386580934
 10
3.4559903377
 20
3.6058618237
 10
3.2617488136
 20
3.8670215875
 10
3.0622734618
 20
4.1216792217
 10
2.8579142298
 20
4.3693879705
 10
2.6490296332
 20
4.6097132684
 10
2.4359861264
 20
4.8422335033
 10
2.2191574603
 20
5.0665407556
 10
1.9989240259
 20
5.2822415143
 10
1.7756721875
 20
5.4889573667
 10
1.5497936048
 20
5.6863256632
 10
1.3216845454
 20
5.8740001527
 10
1.0917451903
 20
6.0516515903
 10
0.8603789312
 20
6.2189683151
 10
0.6279916631
 20
6.3756567966
 10
0.3949910722
 20
6.52144215
 10
0.1617859208
 20
6.6560686183
 10
-0.07121467
 20
6.7793000209
 10
-0.3036019381
 20
6.890920168
 10
-0.5349681973
 20
6.9907332401
 10
-0.7649075524
 20
7.0785641309
 10
-0.9930166117
 20
7.1542587554
 10
-1.2188951944
 20
7.2176843193
 10
-1.4421470328
 20
7.2687295528
 10
-1.6623804672
 20
7.3073049052
 10
-1.8792091334
 20
7.333342702
 10
-2.0922526401
 20
7.3467972643
 10
-2.3011372368
 20
7.3476449882
 10
-2.5054964688
 20
7.3358843864
 10
-2.7049718206
 20
7.311536091
 10
-2.8992133446
 20
7.2746428173
 10
-3.0878802753
 20
7.2252692885
 10
-3.2706416266
 20
7.1635021226
 10
-3.4471767732
 20
7.0894496802
 10
-3.6171760123
 20
7.0032418745
 10
-3.6582994272
 20
6.9799926392
  0
LWPOLYLINE
  5
EC
330
DB
100
AcDbEntity
  8
0
  6
Continuous
 62
     7
370
    25
100
AcDbPolyline
 90
       20
 70
   128
 43
0.0
 10
4.2150764203
 20
-6.6585721227
 10
4.3371181006
 20
-6.5836094268
 10
4.493162805
 20
-6.473565667
 10
4.641813363
 20
-6.351883133
 10
4.7828089912
 20
-6.2187752971
 10
4.9159023351
 20
-6.0744756758
 10
5.040859904
 20
-5.9192374197
 10
5.1574624797
 20
-5.7533328693
 10
5.2655055017
 20
-5.5770530777
 10
5.3647994258
 20
-5.3907072995
 10
5.4551700568
 20
-5.1946224485
 10
5.5364588539
 20
-4.9891425242
 10
5.6085232089
 20
-4.7746280082
 10
5.6712366964
 20
-4.5514552318
 10
5.7244892956
 20
-4.3200157159
 10
5.7681875834
 20
-4.0807154842
 10
5.8022548982
 20
-3.8339743504
 10
5.8266314743
 20
-3.5802251824
 10
5.8412745469
 20
-3.3199131425
 10
5.8461584271
 20
-3.0534949064
  0
LWPOLYLINE
  5
ED
330
DB
100
AcDbEntity
  8
0
  6
Continuous
 62
     7
370
    25
100
AcDbPolyline
 90
       58
 70
   128
 43
0.0
 10
5.5677699306
 20
-3.2142051647
 10
5.5628860504
 20
-2.9421481205
 10
5.5482429778
 20
-2.6649295488
 10
5.5238664017
 20
-2.3830357852
 10
5.4897990869
 20
-2.096961367
 10
5.4461007991
 20
-1.807208166
 10
5.3928481998
 20
-1.5142845078
 10
5.3301347123
 20
-1.21870428
 10
5.2580703574
 20
-0.9209860308
 10
5.1767815603
 20
-0.6216520591
 10
5.0864109293
 20
-0.3212274985
 10
4.9871170051
 20
-0.0202393957
 10
4.8790739831
 20
0.2807842139
 10
4.7624714074
 20
0.5813152325
 10
4.6375138386
 20
0.8808264268
 10
4.5044204946
 20
1.1787923521
 10
4.3634248665
 20
1.4746902751
 10
4.2147743085
 20
1.7680010903
 10
4.0587296041
 20
2.0582102307
 10
3.8955645089
 20
2.3448085711
 10
3.7255652697
 20
2.6272933204
 10
3.5490301232
 20
2.9051689045
 10
3.3662687718
 20
3.1779478352
 10
3.1776018411
 20
3.4451515655
 10
2.9833603171
 20
3.7063113292
 10
2.7838849653
 20
3.9609689635
 10
2.5795257333
 20
4.2086777123
 10
2.3706411366
 20
4.4490030102
 10
2.1575976299
 20
4.6815232451
 10
1.9407689637
 20
4.9058304974
 10
1.7205355293
 20
5.121531256
 10
1.497283691
 20
5.3282471085
 10
1.2714051082
 20
5.525615405
 10
1.0432960489
 20
5.7132898945
 10
0.8133566938
 20
5.8909413321
 10
0.5819904347
 20
6.0582580568
 10
0.3496031666
 20
6.2149465383
 10
0.1166025757
 20
6.3607318918
 10
-0.1166025757
 20
6.4953583601
 10
-0.3496031666
 20
6.6185897627
 10
-0.5819904347
 20
6.7302099098
 10
-0.8133566938
 20
6.8300229818
 10
-1.0432960489
 20
6.9178538727
 10
-1.2714051082
 20
6.9935484971
 10
-1.497283691
 20
7.0569740611
 10
-1.7205355293
 20
7.1080192946
 10
-1.9407689637
 20
7.1465946469
 10
-2.1575976299
 20
7.1726324438
 10
-2.3706411366
 20
7.1860870061
 10
-2.5795257333
 20
7.18693473
 10
-2.7838849653
 20
7.1751741282
 10
-2.9833603171
 20
7.1508258328
 10
-3.1776018411
 20
7.113932559
 10
-3.3662687718
 20
7.0645590303
 10
-3.5490301232
 20
7.0027918644
 10
-3.7255652697
 20
6.928739422
 10
-3.8955645089
 20
6.8425316163
 10
-3.9366879238
 20
6.819282381
  0
LWPOLYLINE
  5
EE
330
DB
100
AcDbEntity
  8
0
  6
Continuous
 62
     7
370
    25
100
AcDbPolyline
 90
       20
 70
   128
 43
0.0
 10
3.9366879238
 20
-6.819282381
 10
4.0587296041
 20
-6.744319685
 10
4.2147743085
 20
-6.6342759253
 10
4.3634248665
 20
-6.5125933912
 10
4.5044204946
 20
-6.3794855553
 10
4.6375138386
 20
-6.235185934
 10
4.7624714074
 20
-6.0799476779
 10
4.8790739831
 20
-5.9140431275
 10
4.9871170051
 20
-5.7377633359
 10
5.0864109293
 20
-5.5514175577
 10
5.1767815603
 20
-5.3553327067
 10
5.2580703574
 20
-5.1498527824
 10
5.3301347123
 20
-4.9353382664
 10
5.3928481998
 20
-4.71216549
 10
5.4461007991
 20
-4.4807259742
 10
5.4897990869
 20
-4.2414257424
 10
5.5238664017
 20
-3.9946846086
 10
5.5482429778
 20
-3.7409354407
 10
5.5628860504
 20
-3.4806234007
 10
5.5677699306
 20
-3.2142051647
  0
LWPOLYLINE
  5
EF
330
DB
100
AcDbEntity
  8
0
  6
Continuous
 62
     7
370
    25
100
AcDbPolyline
 90
      151
 70
   128
 43
0.0
 10
5.4703339568
 20
-3.270453755
 10
5.4654500766
 20
-2.9983967109
 10
5.450807004
 20
-2.7211781392
 10
5.4264304279
 20
-2.4392843755
 10
5.3923631131
 20
-2.1532099573
 10
5.3486648253
 20
-1.8634567564
 10
5.295412226
 20
-1.5705330982
 10
5.2326987386
 20
-1.2749528704
 10
5.1606343836
 20
-0.9772346212
 10
5.0793455865
 20
-0.6779006495
 10
4.9889749555
 20
-0.3774760889
 10
4.8896810314
 20
-0.0764879861
 10
4.7816380093
 20
0.2245356235
 10
4.6650354336
 20
0.5250666422
 10
4.5400778648
 20
0.8245778364
 10
4.4069845208
 20
1.1225437617
 10
4.2659888927
 20
1.4184416847
 10
4.1173383347
 20
1.7117524999
 10
3.9612936303
 20
2.0019616404
 10
3.7981285351
 20
2.2885599807
 10
3.6281292959
 20
2.57104473
 10
3.4515941494
 20
2.8489203141
 10
3.268832798
 20
3.1216992448
 10
3.0801658674
 20
3.3889029751
 10
2.8859243433
 20
3.6500627388
 10
2.6864489915
 20
3.9047203731
 10
2.4820897595
 20
4.1524291219
 10
2.2732051629
 20
4.3927544198
 10
2.0601616561
 20
4.6252746547
 10
1.8433329899
 20
4.849581907
 10
1.6230995555
 20
5.0652826656
 10
1.3998477172
 20
5.2719985181
 10
1.1739691344
 20
5.4693668146
 10
0.9458600751
 20
5.6570413041
 10
0.71592072
 20
5.8346927417
 10
0.4845544609
 20
6.0020094665
 10
0.2521671928
 20
6.158697948
 10
0.0191666019
 20
6.3044833014
 10
-0.2140385495
 20
6.4391097697
 10
-0.4470391403
 20
6.5623411723
 10
-0.6794264085
 20
6.6739613194
 10
-0.9107926676
 20
6.7737743915
 10
-1.1407320227
 20
6.8616052823
 10
-1.368841082
 20
6.9372999068
 10
-1.5947196648
 20
7.0007254707
 10
-1.8179715031
 20
7.0517707042
 10
-2.0382049375
 20
7.0903460565
 10
-2.2550336037
 20
7.1163838534
 10
-2.4680771104
 20
7.1298384157
 10
-2.6769617071
 20
7.1306861396
 10
-2.8813209391
 20
7.1189255378
 10
-3.0807962909
 20
7.0945772424
 10
-3.2750378149
 20
7.0576839687
 10
-3.4637047456
 20
7.0083104399
 10
-3.646466097
 20
6.946543274
 10
-3.8230012435
 20
6.8724908316
 10
-3.9930004826
 20
6.7862830259
 10
-4.1561655779
 20
6.6880710946
 10
-4.3122102823
 20
6.5780273349
 10
-4.4608608403
 20
6.4563448008
 10
-4.6018564684
 20
6.3232369649
 10
-4.7349498124
 20
6.1789373437
 10
-4.8599073812
 20
6.0236990875
 10
-4.9765099569
 20
5.8577945371
 10
-5.0845529789
 20
5.6815147455
 10
-5.1838469031
 20
5.4951689673
 10
-5.2742175341
 20
5.2990841163
 10
-5.3555063312
 20
5.093604192
 10
-5.4275706861
 20
4.879089676
 10
-5.4902841736
 20
4.6559168996
 10
-5.5435367728
 20
4.4244773838
 10
-5.5872350607
 20
4.185177152
 10
-5.6213023755
 20
3.9384360183
 10
-5.6456789516
 20
3.6846868503
 10
-5.6603220242
 20
3.4243748104
 10
-5.6652059044
 20
3.1579565743
 10
-5.6603220242
 20
2.8858995301
 10
-5.6456789516
 20
2.6086809584
 10
-5.6213023755
 20
2.3267871948
 10
-5.5872350607
 20
2.0407127766
 10
-5.5435367728
 20
1.7509595756
 10
-5.4902841736
 20
1.4580359174
 10
-5.4275706861
 20
1.1624556896
 10
-5.3555063312
 20
0.8647374404
 10
-5.2742175341
 20
0.5654034687
 10
-5.1838469031
 20
0.2649789081
 10
-5.0845529789
 20
-0.0360091947
 10
-4.9765099569
 20
-0.3370328043
 10
-4.8599073812
 20
-0.6375638229
 10
-4.7349498124
 20
-0.9370750171
 10
-4.6018564684
 20
-1.2350409425
 10
-4.4608608403
 20
-1.5309388655
 10
-4.3122102823
 20
-1.8242496806
 10
-4.1561655779
 20
-2.1144588211
 10
-3.9930004826
 20
-2.4010571615
 10
-3.8230012435
 20
-2.6835419108
 10
-3.646466097
 20
-2.9614174949
 10
-3.4637047456
 20
-3.2341964256
 10
-3.2750378149
 20
-3.5014001558
 10
-3.0807962909
 20
-3.7625599196
 10
-2.8813209391
 20
-4.0172175539
 10
-2.6769617071
 20
-4.2649263026
 10
-2.4680771104
 20
-4.5052516006
 10
-2.2550336037
 20
-4.7377718355
 10
-2.0382049375
 20
-4.9620790878
 10
-1.8179715031
 20
-5.1777798464
 10
-1.5947196648
 20
-5.3844956989
 10
-1.368841082
 20
-5.5818639954
 10
-1.1407320227
 20
-5.7695384849
 10
-0.9107926676
 20
-5.9471899225
 10
-0.6794264085
 20
-6.1145066472
 10
-0.4470391403
 20
-6.2711951287
 10
-0.2140385495
 20
-6.4169804822
 10
0.0191666019
 20
-6.5516069505
 10
0.2521671928
 20
-6.6748383531
 10
0.4845544609
 20
-6.7864585002
 10
0.71592072
 20
-6.8862715722
 10
0.9458600751
 20
-6.9741024631
 10
1.1739691344
 20
-7.0497970875
 10
1.3998477172
 20
-7.1132226515
 10
1.6230995555
 20
-7.164267885
 10
1.8433329899
 20
-7.2028432373
 10
2.0601616561
 20
-7.2288810342
 10
2.2732051629
 20
-7.2423355965
 10
2.4820897595
 20
-7.2431833203
 10
2.6864489915
 20
-7.2314227185
 10
2.8859243433
 20
-7.2070744232
 10
3.0801658674
 20
-7.1701811494
 10
3.268832798
 20
-7.1208076206
 10
3.4515941494
 20
-7.0590404548
 10
3.6281292959
 20
-6.9849880124
 10
3.7981285351
 20
-6.8987802067
 10
3.9612936303
 20
-6.8005682754
 10
4.1173383347
 20
-6.6905245156
 10
4.2659888927
 20
-6.5688419816
 10
4.4069845208
 20
-6.4357341457
 10
4.5400778648
 20
-6.2914345244
 10
4.6650354336
 20
-6.1361962683
 10
4.7816380093
 20
-5.9702917179
 10
4.8896810314
 20
-5.7940119263
 10
4.9889749555
 20
-5.6076661481
 10
5.0793455865
 20
-5.4115812971
 10
5.1606343836
 20
-5.2061013728
 10
5.2326987386
 20
-4.9915868568
 10
5.295412226
 20
-4.7684140804
 10
5.3486648253
 20
-4.5369745646
 10
5.3923631131
 20
-4.2976743328
 10
5.4264304279
 20
-4.050933199
 10
5.450807004
 20
-3.797184031
 10
5.4654500766
 20
-3.5368719911
 10
5.4703339568
 20
-3.270453755
  0
LWPOLYLINE
  5
F0
330
DB
100
AcDbEntity
  8
0
  6
Continuous
 62
     7
370
    25
100
AcDbPolyline
 90
       75
 70
   128
 43
0.0
 10
5.3311397086
 20
-3.1900986259
 10
5.3262483784
 20
-2.9212229514
 10
5.3115832025
 20
-2.6471843995
 10
5.2871706084
 20
-2.3684768061
 10
5.2530545893
 20
-2.0856024212
 10
5.2092966245
 20
-1.7990710035
 10
5.1559755689
 20
-1.509398902
 10
5.0931875107
 20
-1.2171081255
 10
5.0210455981
 20
-0.9227254016
 10
4.9396798357
 20
-0.6267812279
 10
4.8492368502
 20
-0.3298089158
 10
4.7498796259
 20
-0.0323436296
 10
4.6417872113
 20
0.2650785783
 10
4.5251543961
 20
0.5619217329
 10
4.4001913607
 20
0.8576509029
 10
4.2671232968
 20
1.1517331641
 10
4.1261900021
 20
1.4436385606
 10
3.9776454479
 20
1.7328410591
 10
3.8217573216
 20
2.0188194971
 10
3.658806544
 20
2.3010585221
 10
3.4890867635
 20
2.5790495204
 10
3.3129038267
 20
2.8522915334
 10
3.130575227
 20
3.1202921605
 10
2.942429533
 20
3.3825684464
 10
2.7488057958
 20
3.6386477516
 10
2.5500529386
 20
3.8880686039
 10
2.3465291274
 20
4.13038153
 10
2.138601126
 20
4.3651498656
 10
1.9266436345
 20
4.5919505423
 10
1.7110386148
 20
4.8103748501
 10
1.4921746016
 20
5.0200291735
 10
1.2704460027
 20
5.2205357012
 10
1.0462523881
 20
5.411533107
 10
0.8199977697
 20
5.5926772006
 10
0.5920898737
 20
5.7636415481
 10
0.3629394055
 20
5.9241180602
 10
0.1329593098
 20
6.0738175474
 10
-0.0974359738
 20
6.212470241
 10
-0.3278312574
 20
6.3398262796
 10
-0.5578113531
 20
6.455656159
 10
-0.7869618213
 20
6.5597511459
 10
-1.0148697173
 20
6.6519236541
 10
-1.2411243357
 20
6.7320075825
 10
-1.4653179503
 20
6.7998586145
 10
-1.6870465492
 20
6.8553544778
 10
-1.9059105623
 20
6.8983951653
 10
-2.1215155821
 20
6.9289031146
 10
-2.3334730735
 20
6.9468233485
 10
-2.541401075
 20
6.9521235733
 10
-2.7449248862
 20
6.9447942379
 10
-2.9436777434
 20
6.92484855
 10
-3.1373014805
 20
6.8923224533
 10
-3.3254471746
 20
6.8472745618
 10
-3.5077757743
 20
6.7897860551
 10
-3.6839587111
 20
6.7199605311
 10
-3.8536784916
 20
6.6379238204
 10
-4.0166292691
 20
6.5438237585
 10
-4.1725173955
 20
6.4378299201
 10
-4.3210619497
 20
6.3201333133
 10
-4.4619952444
 20
6.1909460353
 10
-4.5950633083
 20
6.0505008903
 10
-4.7200263437
 20
5.89905097
 10
-4.8366591588
 20
5.7368691974
 10
-4.9447515735
 20
5.564247835
 10
-5.0441087978
 20
5.3814979582
 10
-5.1345517833
 20
5.1889488945
 10
-5.2159175456
 20
4.9869476304
 10
-5.2880594583
 20
4.7758581858
 10
-5.3508475165
 20
4.5560609583
 10
-5.4041685721
 20
4.3279520371
 10
-5.4479265368
 20
4.0919424902
 10
-5.4820425559
 20
3.8484576225
 10
-5.50645515
 20
3.5979362103
 10
-5.521120326
 20
3.3408297101
 10
-5.5260116561
 20
3.0776014452
  0
LWPOLYLINE
  5
F1
330
DB
100
AcDbEntity
  8
0
  6
Continuous
 62
     7
370
    25
100
AcDbPolyline
 90
       39
 70
   128
 43
0.0
 10
-0.09831827
 20
-6.3244580002
 10
-0.0974359738
 20
-6.3249674218
 10
0.1329593098
 20
-6.4523234604
 10
0.3629394055
 20
-6.5681533398
 10
0.5920898737
 20
-6.6722483267
 10
0.8199977697
 20
-6.7644208349
 10
1.0462523881
 20
-6.8445047633
 10
1.2704460027
 20
-6.9123557952
 10
1.4921746016
 20
-6.9678516586
 10
1.7110386148
 20
-7.010892346
 10
1.9266436345
 20
-7.0414002954
 10
2.138601126
 20
-7.0593205292
 10
2.3465291274
 20
-7.0646207541
 10
2.5500529386
 20
-7.0572914186
 10
2.7488057958
 20
-7.0373457308
 10
2.942429533
 20
-7.004819634
 10
3.130575227
 20
-6.9597717426
 10
3.3129038267
 20
-6.9022832358
 10
3.4890867635
 20
-6.8324577119
 10
3.658806544
 20
-6.7504210011
 10
3.8217573216
 20
-6.6563209392
 10
3.9776454479
 20
-6.5503271008
 10
4.1261900021
 20
-6.432630494
 10
4.2671232968
 20
-6.303443216
 10
4.4001913607
 20
-6.1629980711
 10
4.5251543961
 20
-6.0115481508
 10
4.6417872113
 20
-5.8493663782
 10
4.7498796259
 20
-5.6767450158
 10
4.8492368502
 20
-5.4939951389
 10
4.9396798357
 20
-5.3014460752
 10
5.0210455981
 20
-5.0994448111
 10
5.0931875107
 20
-4.8883553666
 10
5.1559755689
 20
-4.668558139
 10
5.2092966245
 20
-4.4404492179
 10
5.2530545893
 20
-4.2044396709
 10
5.2871706084
 20
-3.9609548032
 10
5.3115832025
 20
-3.710433391
 10
5.3262483784
 20
-3.4533268908
 10
5.3311397086
 20
-3.1900986259
  0
LWPOLYLINE
  5
F2
330
DB
100
AcDbEntity
  8
0
  6
Continuous
 62
     7
370
    25
100
AcDbPolyline
 90
       58
 70
   128
 43
0.0
 10
5.5677699306
 20
-3.2142051647
 10
5.5628860504
 20
-2.9421481205
 10
5.5482429778
 20
-2.6649295488
 10
5.5238664017
 20
-2.3830357852
 10
5.4897990869
 20
-2.096961367
 10
5.4461007991
 20
-1.807208166
 10
5.3928481998
 20
-1.5142845078
 10
5.3301347123
 20
-1.21870428
 10
5.2580703574
 20
-0.9209860308
 10
5.1767815603
 20
-0.6216520591
 10
5.0864109293
 20
-0.3212274985
 10
4.9871170051
 20
-0.0202393957
 10
4.8790739831
 20
0.2807842139
 10
4.7624714074
 20
0.5813152325
 10
4.6375138386
 20
0.8808264268
 10
4.5044204946
 20
1.1787923521
 10
4.3634248665
 20
1.4746902751
 10
4.2147743085
 20
1.7680010903
 10
4.0587296041
 20
2.0582102307
 10
3.8955645089
 20
2.3448085711
 10
3.7255652697
 20
2.6272933204
 10
3.5490301232
 20
2.9051689045
 10
3.3662687718
 20
3.1779478352
 10
3.1776018411
 20
3.4451515655
 10
2.9833603171
 20
3.7063113292
 10
2.7838849653
 20
3.9609689635
 10
2.5795257333
 20
4.2086777123
 10
2.3706411366
 20
4.4490030102
 10
2.1575976299
 20
4.6815232451
 10
1.9407689637
 20
4.9058304974
 10
1.7205355293
 20
5.121531256
 10
1.497283691
 20
5.3282471085
 10
1.2714051082
 20
5.525615405
 10
1.0432960489
 20
5.7132898945
 10
0.8133566938
 20
5.8909413321
 10
0.5819904347
 20
6.0582580568
 10
0.3496031666
 20
6.2149465383
 10
0.1166025757
 20
6.3607318918
 10
-0.1166025757
 20
6.4953583601
 10
-0.3496031666
 20
6.6185897627
 10
-0.5819904347
 20
6.7302099098
 10
-0.8133566938
 20
6.8300229818
 10
-1.0432960489
 20
6.9178538727
 10
-1.2714051082
 20
6.9935484971
 10
-1.497283691
 20
7.0569740611
 10
-1.7205355293
 20
7.1080192946
 10
-1.9407689637
 20
7.1465946469
 10
-2.1575976299
 20
7.1726324438
 10
-2.3706411366
 20
7.1860870061
 10
-2.5795257333
 20
7.18693473
 10
-2.7838849653
 20
7.1751741282
 10
-2.9833603171
 20
7.1508258328
 10
-3.1776018411
 20
7.113932559
 10
-3.3662687718
 20
7.0645590303
 10
-3.5490301232
 20
7.0027918644
 10
-3.7255652697
 20
6.928739422
 10
-3.8955645089
 20
6.8425316163
 10
-3.9366879238
 20
6.819282381
  0
LWPOLYLINE
  5
F3
330
DB
100
AcDbEntity
  8
0
  6
Continuous
 62
     7
370
    25
100
AcDbPolyline
 90
       20
 70
   128
 43
0.0
 10
3.9366879238
 20
-6.819282381
 10
4.0587296041
 20
-6.744319685
 10
4.2147743085
 20
-6.6342759253
 10
4.3634248665
 20
-6.5125933912
 10
4.5044204946
 20
-6.3794855553
 10
4.6375138386
 20
-6.235185934
 10
4.7624714074
 20
-6.0799476779
 10
4.8790739831
 20
-5.9140431275
 10
4.9871170051
 20
-5.7377633359
 10
5.0864109293
 20
-5.5514175577
 10
5.1767815603
 20
-5.3553327067
 10
5.2580703574
 20
-5.1498527824
 10
5.3301347123
 20
-4.9353382664
 10
5.3928481998
 20
-4.71216549
 10
5.4461007991
 20
-4.4807259742
 10
5.4897990869
 20
-4.2414257424
 10
5.5238664017
 20
-3.9946846086
 10
5.5482429778
 20
-3.7409354407
 10
5.5628860504
 20
-3.4806234007
 10
5.5677699306
 20
-3.2142051647
  0
LWPOLYLINE
  5
F4
330
DB
100
AcDbEntity
  8
0
  6
Continuous
 62
     7
370
    25
100
AcDbPolyline
 90
      149
 70
   128
 43
0.0
 10
5.3033008589
 20
-3.1900986259
 10
5.2984220706
 20
-2.9219123762
 10
5.2837944977
 20
-2.6485764872
 10
5.2594445
 20
-2.3705835287
 10
5.2254159579
 20
-2.0884344627
 10
5.181770193
 20
-1.802637741
 10
5.1285858581
 20
-1.5137083885
 10
5.0659587949
 20
-1.2221670755
 10
4.9940018615
 20
-0.9285391791
 10
4.9128447293
 20
-0.6333538366
 10
4.8226336489
 20
-0.337142992
 10
4.7235311867
 20
-0.0404404373
 10
4.6157159321
 20
0.2562191496
 10
4.4993821755
 20
0.5523011679
 10
4.3747395581
 20
0.8472720579
 10
4.2420126944
 20
1.1406002621
 10
4.1014407671
 20
1.4317571832
 10
3.9532770964
 20
1.7202181368
 10
3.7977886832
 20
2.0054632967
 10
3.6352557281
 20
2.286978632
 10
3.4659711266
 20
2.5642568328
 10
3.2902399408
 20
2.8367982253
 10
3.1083788504
 20
3.1041116713
 10
2.9207155812
 20
3.3657154539
 10
2.7275883152
 20
3.6211381455
 10
2.5293450807
 20
3.8699194571
 10
2.3263431254
 20
4.111611068
 10
2.1189482727
 20
4.3457774336
 10
1.907534262
 20
4.5719965701
 10
1.6924820756
 20
4.7898608155
 10
1.4741792522
 20
4.9989775637
 10
1.2530191882
 20
5.1989699722
 10
1.029400429
 20
5.389477641
 10
0.8037259507
 20
5.5701572626
 10
0.5764024339
 20
5.7406832399
 10
0.347839531
 20
5.9007482738
 10
0.1184491279
 20
6.0500639161
 10
-0.1113553986
 20
6.1883610901
 10
-0.3411599251
 20
6.3153905748
 10
-0.5705503282
 20
6.4309234545
 10
-0.7991132311
 20
6.5347515311
 10
-1.0264367479
 20
6.6266876996
 10
-1.2521112262
 20
6.7065662845
 10
-1.4757299854
 20
6.7742433395
 10
-1.6968900494
 20
6.8295969058
 10
-1.9151928728
 20
6.8725272325
 10
-2.1302450592
 20
6.9029569563
 10
-2.3416590699
 20
6.9208312409
 10
-2.5490539226
 20
6.9261178754
 10
-2.7520558779
 20
6.9188073331
 10
-2.9502991124
 20
6.898912788
 10
-3.1434263784
 20
6.8664700915
 10
-3.3310896476
 20
6.8215377075
 10
-3.5129507381
 20
6.7641966072
 10
-3.6886819238
 20
6.6945501231
 10
-3.8579665253
 20
6.6127237628
 10
-4.0204994804
 20
6.5188649831
 10
-4.1759878936
 20
6.4131429238
 10
-4.3241515643
 20
6.2957481032
 10
-4.4647234916
 20
6.1668920746
 10
-4.5974503553
 20
6.0268070454
 10
-4.7220929727
 20
5.8757454583
 10
-4.8384267293
 20
5.7139795364
 10
-4.9462419839
 20
5.5418007928
 10
-5.0453444461
 20
5.3595195054
 10
-5.1355555265
 20
5.1674641572
 10
-5.2167126587
 20
4.9659808451
 10
-5.2886695921
 20
4.7554326555
 10
-5.3512966553
 20
4.5361990106
 10
-5.4044809902
 20
4.3086749842
 10
-5.4481267551
 20
4.0732705899
 10
-5.4821552972
 20
3.8304100424
 10
-5.5065052949
 20
3.5805309927
 10
-5.5211328678
 20
3.32408374
 10
-5.5260116561
 20
3.0615304193
 10
-5.5211328678
 20
2.7933441696
 10
-5.5065052949
 20
2.5200082807
 10
-5.4821552972
 20
2.2420153221
 10
-5.4481267551
 20
1.9598662561
 10
-5.4044809902
 20
1.6740695344
 10
-5.3512966553
 20
1.3851401819
 10
-5.2886695921
 20
1.0935988689
 10
-5.2167126587
 20
0.7999709725
 10
-5.1355555265
 20
0.50478563
 10
-5.0453444461
 20
0.2085747854
 10
-4.9462419839
 20
-0.0881277693
 10
-4.8384267293
 20
-0.3847873562
 10
-4.7220929727
 20
-0.6808693745
 10
-4.5974503553
 20
-0.9758402645
 10
-4.4647234916
 20
-1.2691684687
 10
-4.3241515643
 20
-1.5603253898
 10
-4.1759878936
 20
-1.8487863434
 10
-4.0204994804
 20
-2.1340315033
 10
-3.8579665253
 20
-2.4155468386
 10
-3.6886819238
 20
-2.6928250394
 10
-3.5129507381
 20
-2.9653664319
 10
-3.3310896476
 20
-3.2326798778
 10
-3.1434263784
 20
-3.4942836605
 10
-2.9502991124
 20
-3.7497063521
 10
-2.7520558779
 20
-3.9984876637
 10
-2.5490539226
 20
-4.2401792746
 10
-2.3416590699
 20
-4.4743456401
 10
-2.1302450592
 20
-4.7005647767
 10
-1.9151928728
 20
-4.9184290221
 10
-1.6968900494
 20
-5.1275457703
 10
-1.4757299854
 20
-5.3275381787
 10
-1.2521112262
 20
-5.5180458476
 10
-1.0264367479
 20
-5.6987254691
 10
-0.7991132311
 20
-5.8692514465
 10
-0.5705503282
 20
-6.0293164804
 10
-0.3411599251
 20
-6.1786321227
 10
-0.1113553986
 20
-6.3169292967
 10
0.1184491279
 20
-6.4439587813
 10
0.347839531
 20
-6.5594916611
 10
0.5764024339
 20
-6.6633197377
 10
0.8037259507
 20
-6.7552559061
 10
1.029400429
 20
-6.8351344911
 10
1.2530191882
 20
-6.9028115461
 10
1.4741792522
 20
-6.9581651123
 10
1.6924820756
 20
-7.0010954391
 10
1.907534262
 20
-7.0315251629
 10
2.1189482727
 20
-7.0493994474
 10
2.3263431254
 20
-7.054686082
 10
2.5293450807
 20
-7.0473755397
 10
2.7275883152
 20
-7.0274809946
 10
2.9207155812
 20
-6.9950382981
 10
3.1083788504
 20
-6.9501059141
 10
3.2902399408
 20
-6.8927648138
 10
3.4659711266
 20
-6.8231183296
 10
3.6352557281
 20
-6.7412919694
 10
3.7977886832
 20
-6.6474331897
 10
3.9532770964
 20
-6.5417111304
 10
4.1014407671
 20
-6.4243163097
 10
4.2420126944
 20
-6.2954602812
 10
4.3747395581
 20
-6.155375252
 10
4.4993821755
 20
-6.0043136648
 10
4.6157159321
 20
-5.8425477429
 10
4.7235311867
 20
-5.6703689994
 10
4.8226336489
 20
-5.488087712
 10
4.9128447293
 20
-5.2960323638
 10
4.9940018615
 20
-5.0945490517
 10
5.0659587949
 20
-4.8840008621
 10
5.1285858581
 20
-4.6647672172
 10
5.181770193
 20
-4.4372431908
 10
5.2254159579
 20
-4.2018387965
 10
5.2594445
 20
-3.9589782489
 10
5.2837944977
 20
-3.7090991993
 10
5.2984220706
 20
-3.4526519466
 10
5.3033008589
 20
-3.1900986259
  0
LWPOLYLINE
  5
F5
330
DB
100
AcDbEntity
  8
0
  6
Continuous
 62
     7
370
    25
100
AcDbPolyline
 90
       30
 70
   128
 43
0.0
 10
0.0974359738
 20
-3.3995444028
 10
0.0925545475
 20
-3.3448960598
 10
0.0781385188
 20
-3.2871670377
 10
0.0548619651
 20
-3.2290566816
 10
0.0238132723
 20
-3.173282167
 10
-0.0135557574
 20
-3.1224514483
 10
-0.0554977897
 20
-3.0789413134
 10
-0.1000516616
 20
-3.0447862478
 10
-0.1451340837
 20
-3.0215833045
 10
-0.188637052
 20
-3.0104174273
 10
-0.2285264162
 20
-3.0118107201
 10
-0.2629369937
 20
-3.0256980343
 10
-0.2902597844
 20
-3.0514300143
 10
-0.3092172048
 20
-3.0878034615
 10
-0.318922827
 20
-3.1331175938
 10
-0.318922827
 20
-3.1852535728
 10
-0.3092172048
 20
-3.241773578
 10
-0.2902597844
 20
-3.3000347969
 10
-0.2629369937
 20
-3.3573129995
 10
-0.2285264162
 20
-3.4109299209
 10
-0.188637052
 20
-3.4583784932
 10
-0.1451340837
 20
-3.4974400741
 10
-0.1000516616
 20
-3.5262881874
 10
-0.0554977897
 20
-3.5435739275
 10
-0.0135557574
 20
-3.5484890322
 10
0.0238132723
 20
-3.5408036768
 10
0.0548619651
 20
-3.52087722
 10
0.0781385188
 20
-3.4896414007
 10
0.0925545475
 20
-3.4485567711
 10
0.0974359738
 20
-3.3995444028
  0
LWPOLYLINE
  5
F6
330
DB
100
AcDbEntity
  8
0
  6
Continuous
 62
     7
370
    25
100
AcDbPolyline
 90
       17
 70
   128
 43
0.0
 10
-0.2587028073
 20
-3.0231279096
 10
-0.2626586052
 20
-3.025537324
 10
-0.2899813959
 20
-3.0512693041
 10
-0.3089388163
 20
-3.0876427512
 10
-0.3186444385
 20
-3.1329568835
 10
-0.3186444385
 20
-3.1850928625
 10
-0.3089388163
 20
-3.2416128678
 10
-0.2899813959
 20
-3.2998740866
 10
-0.2626586052
 20
-3.3571522893
 10
-0.2282480277
 20
-3.4107692106
 10
-0.1883586635
 20
-3.458217783
 10
-0.1448556952
 20
-3.4972793639
 10
-0.0997732731
 20
-3.5261274772
 10
-0.0552194012
 20
-3.5434132172
 10
-0.0132773689
 20
-3.5483283219
 10
0.0240916608
 20
-3.5406429665
 10
0.036548787
 20
-3.5345740882
  0
LWPOLYLINE
  5
F7
330
DB
100
AcDbEntity
  8
0
  6
Continuous
 62
     7
370
    25
100
AcDbPolyline
 90
       12
 70
   128
 43
0.0
 10
0.0698755126
 20
-3.3833126667
 10
0.064997914
 20
-3.3323080206
 10
0.0506280706
 20
-3.2784214925
 10
0.0275406644
 20
-3.2245581193
 10
-0.0030196565
 20
-3.1736216892
 10
-0.0394053772
 20
-3.1283581985
 10
-0.0796549343
 20
-3.0912078136
 10
-0.1215984636
 20
-3.0641733214
 10
-0.1629747786
 20
-3.0487121583
 10
-0.2015532715
 20
-3.0456578397
 10
-0.2352541657
 20
-3.0551750247
 10
-0.2390193676
 20
-3.0572243215
  0
LWPOLYLINE
  5
F9
330
DB
100
AcDbEntity
  8
0
  6
Continuous
 62
     7
370
    25
100
AcDbPolyline
 90
       28
 70
   128
 43
0.0
 10
0.0695971241
 20
-3.383473377
 10
0.0647195255
 20
-3.3324687308
 10
0.0503496821
 20
-3.2785822028
 10
0.0272622759
 20
-3.2247188295
 10
-0.003298045
 20
-3.1737823995
 10
-0.0396837657
 20
-3.1285189088
 10
-0.0799333228
 20
-3.0913685238
 10
-0.1218768521
 20
-3.0643340316
 10
-0.1632531671
 20
-3.0488728686
 10
-0.20183166
 20
-3.04581855
 10
-0.2355325542
 20
-3.055335735
 10
-0.2625390258
 20
-3.0769113496
 10
-0.2813951489
 20
-3.1093822469
 10
-0.2910843851
 20
-3.1509979125
 10
-0.2910843851
 20
-3.199514835
 10
-0.2813951489
 20
-3.2523174545
 10
-0.2625390258
 20
-3.3065591682
 10
-0.2355325542
 20
-3.3593157912
 10
-0.20183166
 20
-3.4077432005
 10
-0.1632531671
 20
-3.4492306616
 10
-0.1218768521
 20
-3.481541575
 10
-0.0799333228
 20
-3.502934051
 10
-0.0396837657
 20
-3.5122548155
 10
-0.003298045
 20
-3.5090013837
 10
0.0272622759
 20
-3.4933491491
 10
0.0503496821
 20
-3.4661419276
 10
0.0647195255
 20
-3.4288464676
 10
0.0695971241
 20
-3.383473377
  0
LINE
  5
FA
330
DB
100
AcDbEntity
  8
0
  6
Continuous
 62
     7
370
    25
100
AcDbLine
 10
-3.6582994272
 20
6.9799926392
 30
0.0
 11
-4.0341238975
 21
6.7630337906
 31
0.0
  0
LINE
  5
FB
330
DB
100
AcDbEntity
  8
0
  6
Continuous
 62
     7
370
    25
100
AcDbLine
 10
3.83925195
 20
-6.8755309713
 30
0.0
 11
4.2150764203
 21
-6.6585721227
 31
0.0
  0
LINE
  5
FC
330
DB
100
AcDbEntity
  8
0
  6
Continuous
 62
     7
370
    25
100
AcDbLine
 10
-5.5260116561
 20
3.0776014452
 30
0.0
 11
-5.5260116561
 21
3.0615304193
 31
0.0
  0
LINE
  5
FD
330
DB
100
AcDbEntity
  8
0
  6
Continuous
 62
     7
370
    25
100
AcDbLine
 10
-0.1122354325
 20
-6.3164211813
 30
0.0
 11
-0.09831827
 21
-6.3244580002
 31
0.0
  0
LINE
  5
FE
330
DB
100
AcDbEntity
  8
0
  6
Continuous
 62
     7
370
    25
100
AcDbLine
 10
0.0362703985
 20
-3.5347347984
 30
0.0
 11
0.036548787
 21
-3.5345740882
 31
0.0
  0
LINE
  5
FF
330
DB
100
AcDbEntity
  8
0
  6
Continuous
 62
     7
370
    25
100
AcDbLine
 10
-0.2587028073
 20
-3.0231279096
 30
0.0
 11
-0.2589811958
 21
-3.0232886199
 31
0.0
  0
LINE
  5
100
330
DB
100
AcDbEntity
  8
0
  6
Continuous
 62
     7
370
    25
100
AcDbLine
 10
0.0165869589
 20
-3.5006383865
 30
0.0
 11
0.0168653474
 21
-3.5004776763
 31
0.0
  0
LINE
  5
101
330
DB
100
AcDbEntity
  8
0
  6
Continuous
 62
     7
370
    25
100
AcDbLine
 10
-0.2390193676
 20
-3.0572243215
 30
0.0
 11
-0.2392977561
 21
-3.0573850318
 31
0.0
  0
ARC
  5
102
330
DB
100
AcDbEntity
  8
0
  6
Continuous
 62
     7
370
    25
100
AcDbCircle
 10
-0.0542669064
 20
-3.3977201114
 30
0.0
 40
0.124975656280346
100
AcDbArc
 50
304.6922892564
 51
6.619891137
  0
VIEWPORT
  5
107
330
DB
100
AcDbEntity
  8
0
100
AcDbViewport
 10
0.0
 20
0.0
 30
0.0
 40
8.4
 41
6.4
 68
     1
 69
     1
 12
0.0
 22
0.0
 13
0.0
 23
0.0
 14
0.5
 24
0.5
 15
0.5
 25
0.5
 16
0.0
 26
0.0
 36
1.0
 17
0.0
 27
0.0
 37
0.0
 42
50.0
 43
0.0
 44
0.0
 45
16.062992126
 50
0.0
 51
0.0
 72
   100
 90
   557152
  1

281
     0
 71
     1
 74
     0
110
0.0
120
0.0
130
0.0
111
1.0
121
0.0
131
0.0
112
0.0
122
1.0
132
0.0
 79
     0
146
0.0
  0
ENDBLK
  5
DE
330
DB
100
AcDbEntity
  8
0
100
AcDbBlockEnd
  0
ENDSEC
  0
SECTION
  2
ENTITIES
  0
CIRCLE
  5
73
330
1F
100
AcDbEntity
  8
0
  6
Continuous
 62
     7
370
    25
100
AcDbCircle
 10
0.0
 20
-3.937007874
 30
0.0
 40
0.2559055118110247
  0
CIRCLE
  5
74
330
1F
100
AcDbEntity
  8
0
  6
Continuous
 62
     7
370
    25
100
AcDbCircle
 10
0.0
 20
0.0
 30
0.0
 40
7.657480314960623
  0
CIRCLE
  5
75
330
1F
100
AcDbEntity
  8
0
  6
Continuous
 62
     7
370
    25
100
AcDbCircle
 10
0.0
 20
-3.937007874
 30
0.0
 40
0.2952755905511816
  0
CIRCLE
  5
76
330
1F
100
AcDbEntity
  8
0
  6
Continuous
 62
     7
370
    25
100
AcDbCircle
 10
0.0
 20
0.0
 30
0.0
 40
7.677165354330707
  0
CIRCLE
  5
77
330
1F
100
AcDbEntity
  8
0
  6
Continuous
 62
     7
370
    25
100
AcDbCircle
 10
0.0
 20
0.0
 30
0.0
 40
7.874015748031497
  0
CIRCLE
  5
90
330
1B
100
AcDbEntity
 67
     1
  8
0
  6
Continuous
 62
     7
370
    25
100
AcDbCircle
 10
0.0
 20
0.0
 30
0.0
 40
7.421259842519686
  0
CIRCLE
  5
9D
330
1B
100
AcDbEntity
 67
     1
  8
0
  6
Continuous
 62
     7
370
    25
100
AcDbCircle
 10
0.0
 20
0.0
 30
0.0
 40
7.874015748031504
  0
LINE
  5
9E
330
1B
100
AcDbEntity
 67
     1
  8
0
  6
Continuous
 62
     7
370
    25
100
AcDbLine
 10
4.0685700618
 20
3.9285336482
 30
0.0
 11
4.3047339963
 21
3.933701594
 31
0.0
  0
LINE
  5
9F
330
1B
100
AcDbEntity
 67
     1
  8
0
  6
Continuous
 62
     7
370
    25
100
AcDbLine
 10
4.0737380076
 20
3.6923697138
 30
0.0
 11
4.0685700618
 21
3.9285336482
 31
0.0
  0
LINE
  5
A0
330
1B
100
AcDbEntity
 67
     1
  8
0
  6
Continuous
 62
     7
370
    25
100
AcDbLine
 10
3.8375740732
 20
3.687201768
 30
0.0
 11
4.0737380076
 21
3.6923697138
 31
0.0
  0
LINE
  5
A1
330
1B
100
AcDbEntity
 67
     1
  8
0
  6
Continuous
 62
     7
370
    25
100
AcDbLine
 10
3.842742019
 20
3.4510378335
 30
0.0
 11
3.8375740732
 21
3.687201768
 31
0.0
  0
LINE
  5
A2
330
1B
100
AcDbEntity
 67
     1
  8
0
  6
Continuous
 62
     7
370
    25
100
AcDbLine
 10
4.0789059534
 20
3.4562057793
 30
0.0
 11
3.842742019
 21
3.4510378335
 31
0.0
  0
LINE
  5
A3
330
1B
100
AcDbEntity
 67
     1
  8
0
  6
Continuous
 62
     7
370
    25
100
AcDbLine
 10
4.0840738992
 20
3.2200418449
 30
0.0
 11
4.0789059534
 21
3.4562057793
 31
0.0
  0
LINE
  5
A4
330
1B
100
AcDbEntity
 67
     1
  8
0
  6
Continuous
 62
     7
370
    25
100
AcDbLine
 10
4.3202378336
 20
3.2252097906
 30
0.0
 11
4.0840738992
 21
3.2200418449
 31
0.0
  0
LINE
  5
A5
330
1B
100
AcDbEntity
 67
     1
  8
0
  6
Continuous
 62
     7
370
    25
100
AcDbLine
 10
4.3150698879
 20
3.4613737251
 30
0.0
 11
4.3202378336
 21
3.2252097906
 31
0.0
  0
LINE
  5
A6
330
1B
100
AcDbEntity
 67
     1
  8
0
  6
Continuous
 62
     7
370
    25
100
AcDbLine
 10
4.5512338223
 20
3.4665416709
 30
0.0
 11
4.3150698879
 21
3.4613737251
 31
0.0
  0
LINE
  5
A7
330
1B
100
AcDbEntity
 67
     1
  8
0
  6
Continuous
 62
     7
370
    25
100
AcDbLine
 10
4.5460658765
 20
3.7027056053
 30
0.0
 11
4.5512338223
 21
3.4665416709
 31
0.0
  0
LINE
  5
A8
330
1B
100
AcDbEntity
 67
     1
  8
0
  6
Continuous
 62
     7
370
    25
100
AcDbLine
 10
4.3099019421
 20
3.6975376595
 30
0.0
 11
4.5460658765
 21
3.7027056053
 31
0.0
  0
LINE
  5
A9
330
1B
100
AcDbEntity
 67
     1
  8
0
  6
Continuous
 62
     7
370
    25
100
AcDbLine
 10
4.3047339963
 20
3.933701594
 30
0.0
 11
4.3099019421
 21
3.6975376595
 31
0.0
  0
LINE
  5
AA
330
1B
100
AcDbEntity
 67
     1
  8
0
  6
Continuous
 62
     7
370
    25
100
AcDbLine
 10
-4.7036882229
 20
3.5002943955
 30
0.0
 11
-4.6985202771
 21
3.2641304611
 31
0.0
  0
LINE
  5
AB
330
1B
100
AcDbEntity
 67
     1
  8
0
  6
Continuous
 62
     7
370
    25
100
AcDbLine
 10
-4.6985202771
 20
3.2641304611
 30
0.0
 11
-4.4623563427
 21
3.2692984068
 31
0.0
  0
LINE
  5
AC
330
1B
100
AcDbEntity
 67
     1
  8
0
  6
Continuous
 62
     7
370
    25
100
AcDbLine
 10
-4.4623563427
 20
3.2692984068
 30
0.0
 11
-4.4571883969
 21
3.0331344724
 31
0.0
  0
LINE
  5
AD
330
1B
100
AcDbEntity
 67
     1
  8
0
  6
Continuous
 62
     7
370
    25
100
AcDbLine
 10
-4.4571883969
 20
3.0331344724
 30
0.0
 11
-4.2210244624
 21
3.0383024182
 31
0.0
  0
LINE
  5
AE
330
1B
100
AcDbEntity
 67
     1
  8
0
  6
Continuous
 62
     7
370
    25
100
AcDbLine
 10
-4.2210244624
 20
3.0383024182
 30
0.0
 11
-4.2261924082
 21
3.2744663526
 31
0.0
  0
LINE
  5
AF
330
1B
100
AcDbEntity
 67
     1
  8
0
  6
Continuous
 62
     7
370
    25
100
AcDbLine
 10
-4.2261924082
 20
3.2744663526
 30
0.0
 11
-3.9900284738
 21
3.2796342984
 31
0.0
  0
LINE
  5
B0
330
1B
100
AcDbEntity
 67
     1
  8
0
  6
Continuous
 62
     7
370
    25
100
AcDbLine
 10
-3.9900284738
 20
3.2796342984
 30
0.0
 11
-3.9951964195
 21
3.5157982329
 31
0.0
  0
LINE
  5
B1
330
1B
100
AcDbEntity
 67
     1
  8
0
  6
Continuous
 62
     7
370
    25
100
AcDbLine
 10
-3.9951964195
 20
3.5157982329
 30
0.0
 11
-4.231360354
 21
3.5106302871
 31
0.0
  0
LINE
  5
B2
330
1B
100
AcDbEntity
 67
     1
  8
0
  6
Continuous
 62
     7
370
    25
100
AcDbLine
 10
-4.231360354
 20
3.5106302871
 30
0.0
 11
-4.2365282998
 21
3.7467942215
 31
0.0
  0
LINE
  5
B3
330
1B
100
AcDbEntity
 67
     1
  8
0
  6
Continuous
 62
     7
370
    25
100
AcDbLine
 10
-4.2365282998
 20
3.7467942215
 30
0.0
 11
-4.4726922342
 21
3.7416262757
 31
0.0
  0
LINE
  5
B4
330
1B
100
AcDbEntity
 67
     1
  8
0
  6
Continuous
 62
     7
370
    25
100
AcDbLine
 10
-4.4726922342
 20
3.7416262757
 30
0.0
 11
-4.4675242884
 21
3.5054623413
 31
0.0
  0
LINE
  5
B5
330
1B
100
AcDbEntity
 67
     1
  8
0
  6
Continuous
 62
     7
370
    25
100
AcDbLine
 10
-4.4675242884
 20
3.5054623413
 30
0.0
 11
-4.7036882229
 21
3.5002943955
 31
0.0
  0
LINE
  5
B6
330
1B
100
AcDbEntity
 67
     1
  8
0
  6
Continuous
 62
     7
370
    25
100
AcDbLine
 10
-2.011099002
 20
1.9249665723
 30
0.0
 11
-1.9249665723
 21
-2.011099002
 31
0.0
  0
LINE
  5
B7
330
1B
100
AcDbEntity
 67
     1
  8
0
  6
Continuous
 62
     7
370
    25
100
AcDbLine
 10
-1.9249665723
 20
-2.011099002
 30
0.0
 11
2.011099002
 21
-1.9249665723
 31
0.0
  0
LINE
  5
B8
330
1B
100
AcDbEntity
 67
     1
  8
0
  6
Continuous
 62
     7
370
    25
100
AcDbLine
 10
2.011099002
 20
-1.9249665723
 30
0.0
 11
1.9249665723
 21
2.011099002
 31
0.0
  0
LINE
  5
B9
330
1B
100
AcDbEntity
 67
     1
  8
0
  6
Continuous
 62
     7
370
    25
100
AcDbLine
 10
1.9249665723
 20
2.011099002
 30
0.0
 11
-2.011099002
 21
1.9249665723
 31
0.0
  0
LINE
  5
BA
330
1B
100
AcDbEntity
 67
     1
  8
0
  6
Continuous
 62
     7
370
    25
100
AcDbLine
 10
4.0832125749
 20
3.2594025006
 30
0.0
 11
4.3193765093
 21
3.2645704464
 31
0.0
  0
LINE
  5
BB
330
1B
100
AcDbEntity
 67
     1
  8
0
  6
Continuous
 62
     7
370
    25
100
AcDbLine
 10
4.3055953206
 20
3.8943409383
 30
0.0
 11
4.0694313861
 21
3.8891729925
 31
0.0
  0
LINE
  5
BC
330
1B
100
AcDbEntity
 67
     1
  8
0
  6
Continuous
 62
     7
370
    25
100
AcDbLine
 10
-4.6591596214
 20
3.2649917854
 30
0.0
 11
-4.6643275672
 21
3.5011557198
 31
0.0
  0
LINE
  5
BD
330
1B
100
AcDbEntity
 67
     1
  8
0
  6
Continuous
 62
     7
370
    25
100
AcDbLine
 10
4.5118731666
 20
3.4656803466
 30
0.0
 11
4.5067052208
 21
3.701844281
 31
0.0
  0
LINE
  5
BE
330
1B
100
AcDbEntity
 67
     1
  8
0
  6
Continuous
 62
     7
370
    25
100
AcDbLine
 10
-4.4718309099
 20
3.70226562
 30
0.0
 11
-4.2356669755
 21
3.7074335658
 31
0.0
  0
LINE
  5
BF
330
1B
100
AcDbEntity
 67
     1
  8
0
  6
Continuous
 62
     7
370
    25
100
AcDbLine
 10
-4.2218857867
 20
3.0776630739
 30
0.0
 11
-4.4580497212
 21
3.0724951281
 31
0.0
  0
LINE
  5
C0
330
1B
100
AcDbEntity
 67
     1
  8
0
  6
Continuous
 62
     7
370
    25
100
AcDbLine
 10
-4.0345570753
 20
3.5149369086
 30
0.0
 11
-4.0293891295
 21
3.2787729741
 31
0.0
  0
LINE
  5
C1
330
1B
100
AcDbEntity
 67
     1
  8
0
  6
Continuous
 62
     7
370
    25
100
AcDbLine
 10
3.8769347289
 20
3.6880630923
 30
0.0
 11
3.8821026747
 21
3.4518991578
 31
0.0
  0
VIEWPORT
  5
103
330
1B
100
AcDbEntity
 67
     1
  8
0
100
AcDbViewport
 10
0.0
 20
0.0
 30
0.0
 40
8.4
 41
6.4
 68
     1
 69
     1
 12
0.0
 22
0.0
 13
0.0
 23
0.0
 14
0.5
 24
0.5
 15
0.5
 25
0.5
 16
0.0
 26
0.0
 36
1.0
 17
0.0
 27
0.0
 37
0.0
 42
50.0
 43
0.0
 44
0.0
 45
16.062992126
 50
0.0
 51
0.0
 72
   100
 90
   557152
  1

281
     0
 71
     1
 74
     0
110
0.0
120
0.0
130
0.0
111
1.0
121
0.0
131
0.0
112
0.0
122
1.0
132
0.0
 79
     0
146
0.0
  0
ENDSEC
  0
SECTION
  2
OBJECTS
  0
DICTIONARY
  5
C
330
0
100
AcDbDictionary
281
     1
  3
ACAD_GROUP
350
D
  3
ACAD_LAYOUT
350
1A
  3
ACAD_MLINESTYLE
350
17
  3
ACAD_PLOTSETTINGS
350
19
  3
ACAD_PLOTSTYLENAME
350
E
  3
ACAD_SCALELIST
350
47
  0
DICTIONARY
  5
D
102
{ACAD_REACTORS
330
C
102
}
330
C
100
AcDbDictionary
281
     1
  0
DICTIONARY
  5
1A
102
{ACAD_REACTORS
330
C
102
}
330
C
100
AcDbDictionary
281
     1
  3
_Back
350
1E
  3
_Isometric
350
DC
  3
_Left
350
26
  3
Model
350
22
  0
DICTIONARY
  5
17
102
{ACAD_REACTORS
330
C
102
}
330
C
100
AcDbDictionary
281
     1
  3
Standard
350
18
  0
DICTIONARY
  5
19
102
{ACAD_REACTORS
330
C
102
}
330
C
100
AcDbDictionary
281
     1
  0
ACDBDICTIONARYWDFLT
  5
E
102
{ACAD_REACTORS
330
C
102
}
330
C
100
AcDbDictionary
281
     1
  3
Normal
350
F
100
AcDbDictionaryWithDefault
340
F
  0
DICTIONARY
  5
47
102
{ACAD_REACTORS
330
C
102
}
330
C
100
AcDbDictionary
281
     1
  3
A0
350
48
  3
A1
350
49
  3
A2
350
4A
  3
A3
350
4B
  3
A4
350
4C
  3
A5
350
4D
  3
A6
350
4E
  3
A7
350
4F
  3
A8
350
50
  3
A9
350
51
  3
B0
350
52
  3
B1
350
53
  3
B2
350
54
  3
B3
350
55
  3
B4
350
56
  3
B5
350
57
  3
B6
350
58
  3
B7
350
59
  3
B8
350
5A
  3
B9
350
5B
  3
C0
350
5C
  3
C1
350
5D
  3
C2
350
5E
  3
C3
350
5F
  3
C4
350
60
  3
C5
350
61
  3
C6
350
62
  3
C7
350
63
  3
C8
350
64
  3
C9
350
65
  3
D0
350
66
  3
D1
350
67
  3
D2
350
68
  0
LAYOUT
  5
1E
102
{ACAD_REACTORS
330
1A
102
}
330
1A
100
AcDbPlotSettings
  1

  2
none_device
  4
Letter_(8.50_x_11.00_Inches)
  6

 40
6.35
 41
6.35
 42
6.35001
 43
6.35001
 44
215.9
 45
279.4
 46
0.0
 47
0.0
 48
0.0
 49
0.0
140
0.0
141
0.0
142
1.0
143
1.9685040339
 70
   688
 72
     0
 73
     1
 74
     1
  7

 75
     0
147
0.507999975
148
200.0
149
200.0
100
AcDbLayout
  1
_Back
 70
     1
 71
     1
 10
-8.3661425315
 20
-8.3661417565
 11
13.2874018412
 21
8.3661425315
 12
0.0
 22
0.0
 32
0.0
 14
-7.874015748
 24
-7.874015748
 34
0.0
 15
7.874015748
 25
7.874015748
 35
0.0
146
0.0
 13
0.0
 23
0.0
 33
0.0
 16
1.0
 26
0.0
 36
0.0
 17
0.0
 27
1.0
 37
0.0
 76
     0
330
1B
331
103
  0
LAYOUT
  5
DC
102
{ACAD_REACTORS
330
1A
102
}
330
1A
100
AcDbPlotSettings
  1

  2
none_device
  4
Letter_(8.50_x_11.00_Inches)
  6

 40
6.35
 41
6.35
 42
6.35001
 43
6.35001
 44
215.9
 45
279.4
 46
0.0
 47
0.0
 48
0.0
 49
0.0
140
0.0
141
0.0
142
1.0
143
1.9685040339
 70
   688
 72
     0
 73
     1
 74
     1
  7

 75
     0
147
0.507999975
148
200.0
149
200.0
100
AcDbLayout
  1
_Isometric
 70
     1
 71
     3
 10
0.0
 20
0.0
 11
0.0
 21
0.0
 12
0.0
 22
0.0
 32
0.0
 14
0.0
 24
0.0
 34
0.0
 15
0.0
 25
0.0
 35
0.0
146
0.0
 13
0.0
 23
0.0
 33
0.0
 16
1.0
 26
0.0
 36
0.0
 17
0.0
 27
1.0
 37
0.0
 76
     0
330
DB
331
107
  0
LAYOUT
  5
26
102
{ACAD_REACTORS
330
1A
102
}
330
1A
100
AcDbPlotSettings
  1

  2
none_device
  4
Letter_(8.50_x_11.00_Inches)
  6

 40
6.35
 41
6.35
 42
6.35001
 43
6.35001
 44
215.9
 45
279.4
 46
0.0
 47
0.0
 48
0.0
 49
0.0
140
0.0
141
0.0
142
1.0
143
1.9685040339
 70
   688
 72
     0
 73
     1
 74
     1
  7

 75
     0
147
0.507999975
148
200.0
149
200.0
100
AcDbLayout
  1
_Left
 70
     1
 71
     2
 10
0.0
 20
0.0
 11
0.0
 21
0.0
 12
0.0
 22
0.0
 32
0.0
 14
0.0
 24
0.0
 34
0.0
 15
0.0
 25
0.0
 35
0.0
146
0.0
 13
0.0
 23
0.0
 33
0.0
 16
1.0
 26
0.0
 36
0.0
 17
0.0
 27
1.0
 37
0.0
 76
     0
330
23
331
105
  0
LAYOUT
  5
22
102
{ACAD_REACTORS
330
1A
102
}
330
1A
100
AcDbPlotSettings
  1

  2
none_device
  4
ANSI_A_(11.00_x_8.50_Inches)
  6

 40
6.35
 41
19.05
 42
6.35000508
 43
19.05000254
 44
279.4
 45
215.9
 46
133.34999746
 47
88.89999873
 48
0.0
 49
0.0
140
0.0
141
0.0
142
0.5343525
143
1.0
 70
  1696
 72
     0
 73
     0
 74
     0
  7

 75
     0
147
0.5913241897
148
-39.4088153714
149
0.0
100
AcDbLayout
  1
Model
 70
     1
 71
     0
 10
0.0
 20
0.0
 11
12.0
 21
9.0
 12
0.0
 22
0.0
 32
0.0
 14
-7.874015748
 24
-7.874015748
 34
0.0
 15
7.874015748
 25
7.874015748
 35
0.0
146
0.0
 13
0.0
 23
0.0
 33
0.0
 16
1.0
 26
0.0
 36
0.0
 17
0.0
 27
1.0
 37
0.0
 76
     0
330
1F
331
29
  0
MLINESTYLE
  5
18
102
{ACAD_REACTORS
330
17
102
}
330
17
100
AcDbMlineStyle
  2
Standard
 70
     0
  3

 62
   256
 51
90.0
 52
90.0
 71
     2
 49
0.5
 62
   256
  6
BYLAYER
 49
-0.5
 62
   256
  6
BYLAYER
  0
ACDBPLACEHOLDER
  5
F
102
{ACAD_REACTORS
330
E
102
}
330
E
  0
SCALE
  5
48
102
{ACAD_REACTORS
330
47
102
}
330
47
100
AcDbScale
 70
     0
300
1:1
140
1.0
141
1.0
290
     1
  0
SCALE
  5
49
102
{ACAD_REACTORS
330
47
102
}
330
47
100
AcDbScale
 70
     0
300
1:2
140
1.0
141
2.0
290
     0
  0
SCALE
  5
4A
102
{ACAD_REACTORS
330
47
102
}
330
47
100
AcDbScale
 70
     0
300
1:4
140
1.0
141
4.0
290
     0
  0
SCALE
  5
4B
102
{ACAD_REACTORS
330
47
102
}
330
47
100
AcDbScale
 70
     0
300
1:5
140
1.0
141
5.0
290
     0
  0
SCALE
  5
4C
102
{ACAD_REACTORS
330
47
102
}
330
47
100
AcDbScale
 70
     0
300
1:8
140
1.0
141
8.0
290
     0
  0
SCALE
  5
4D
102
{ACAD_REACTORS
330
47
102
}
330
47
100
AcDbScale
 70
     0
300
1:10
140
1.0
141
10.0
290
     0
  0
SCALE
  5
4E
102
{ACAD_REACTORS
330
47
102
}
330
47
100
AcDbScale
 70
     0
300
1:16
140
1.0
141
16.0
290
     0
  0
SCALE
  5
4F
102
{ACAD_REACTORS
330
47
102
}
330
47
100
AcDbScale
 70
     0
300
1:20
140
1.0
141
20.0
290
     0
  0
SCALE
  5
50
102
{ACAD_REACTORS
330
47
102
}
330
47
100
AcDbScale
 70
     0
300
1:30
140
1.0
141
30.0
290
     0
  0
SCALE
  5
51
102
{ACAD_REACTORS
330
47
102
}
330
47
100
AcDbScale
 70
     0
300
1:40
140
1.0
141
40.0
290
     0
  0
SCALE
  5
52
102
{ACAD_REACTORS
330
47
102
}
330
47
100
AcDbScale
 70
     0
300
1:50
140
1.0
141
50.0
290
     0
  0
SCALE
  5
53
102
{ACAD_REACTORS
330
47
102
}
330
47
100
AcDbScale
 70
     0
300
1:100
140
1.0
141
100.0
290
     0
  0
SCALE
  5
54
102
{ACAD_REACTORS
330
47
102
}
330
47
100
AcDbScale
 70
     0
300
2:1
140
2.0
141
1.0
290
     0
  0
SCALE
  5
55
102
{ACAD_REACTORS
330
47
102
}
330
47
100
AcDbScale
 70
     0
300
4:1
140
4.0
141
1.0
290
     0
  0
SCALE
  5
56
102
{ACAD_REACTORS
330
47
102
}
330
47
100
AcDbScale
 70
     0
300
8:1
140
8.0
141
1.0
290
     0
  0
SCALE
  5
57
102
{ACAD_REACTORS
330
47
102
}
330
47
100
AcDbScale
 70
     0
300
10:1
140
10.0
141
1.0
290
     0
  0
SCALE
  5
58
102
{ACAD_REACTORS
330
47
102
}
330
47
100
AcDbScale
 70
     0
300
100:1
140
100.0
141
1.0
290
     0
  0
SCALE
  5
59
102
{ACAD_REACTORS
330
47
102
}
330
47
100
AcDbScale
 70
     0
300
1/128" = 1'-0"
140
0.0078125
141
12.0
290
     0
  0
SCALE
  5
5A
102
{ACAD_REACTORS
330
47
102
}
330
47
100
AcDbScale
 70
     0
300
1/64" = 1'-0"
140
0.015625
141
12.0
290
     0
  0
SCALE
  5
5B
102
{ACAD_REACTORS
330
47
102
}
330
47
100
AcDbScale
 70
     0
300
1/32" = 1'-0"
140
0.03125
141
12.0
290
     0
  0
SCALE
  5
5C
102
{ACAD_REACTORS
330
47
102
}
330
47
100
AcDbScale
 70
     0
300
1/16" = 1'-0"
140
0.0625
141
12.0
290
     0
  0
SCALE
  5
5D
102
{ACAD_REACTORS
330
47
102
}
330
47
100
AcDbScale
 70
     0
300
3/32" = 1'-0"
140
0.09375
141
12.0
290
     0
  0
SCALE
  5
5E
102
{ACAD_REACTORS
330
47
102
}
330
47
100
AcDbScale
 70
     0
300
1/8" = 1'-0"
140
0.125
141
12.0
290
     0
  0
SCALE
  5
5F
102
{ACAD_REACTORS
330
47
102
}
330
47
100
AcDbScale
 70
     0
300
3/16" = 1'-0"
140
0.1875
141
12.0
290
     0
  0
SCALE
  5
60
102
{ACAD_REACTORS
330
47
102
}
330
47
100
AcDbScale
 70
     0
300
1/4" = 1'-0"
140
0.25
141
12.0
290
     0
  0
SCALE
  5
61
102
{ACAD_REACTORS
330
47
102
}
330
47
100
AcDbScale
 70
     0
300
3/8" = 1'-0"
140
0.375
141
12.0
290
     0
  0
SCALE
  5
62
102
{ACAD_REACTORS
330
47
102
}
330
47
100
AcDbScale
 70
     0
300
1/2" = 1'-0"
140
0.5
141
12.0
290
     0
  0
SCALE
  5
63
102
{ACAD_REACTORS
330
47
102
}
330
47
100
AcDbScale
 70
     0
300
3/4" = 1'-0"
140
0.75
141
12.0
290
     0
  0
SCALE
  5
64
102
{ACAD_REACTORS
330
47
102
}
330
47
100
AcDbScale
 70
     0
300
1" = 1'-0"
140
1.0
141
12.0
290
     0
  0
SCALE
  5
65
102
{ACAD_REACTORS
330
47
102
}
330
47
100
AcDbScale
 70
     0
300
1-1/2" = 1'-0"
140
1.5
141
12.0
290
     0
  0
SCALE
  5
66
102
{ACAD_REACTORS
330
47
102
}
330
47
100
AcDbScale
 70
     0
300
3" = 1'-0"
140
3.0
141
12.0
290
     0
  0
SCALE
  5
67
102
{ACAD_REACTORS
330
47
102
}
330
47
100
AcDbScale
 70
     0
300
6" = 1'-0"
140
6.0
141
12.0
290
     0
  0
SCALE
  5
68
102
{ACAD_REACTORS
330
47
102
}
330
47
100
AcDbScale
 70
     0
300
1'-0" = 1'-0"
140
12.0
141
12.0
290
     0
  0
ENDSEC
  0
EOF
