  0
SECTION
  2
HEADER
  9
$ACADVER
  1
AC1015
  9
$ACADMAINTVER
 70
     6
  9
$DWGCODEPAGE
  3
ANSI_1252
  9
$INSBASE
 10
0.0
 20
0.0
 30
0.0
  9
$EXTMIN
 10
-17.7165354331
 20
-13.8779527559
 30
0.0
  9
$EXTMAX
 10
17.7165354331
 20
17.4803149606
 30
0.0
  9
$LIMMIN
 10
0.0
 20
0.0
  9
$LIMMAX
 10
12.0
 20
9.0
  9
$ORTHOMODE
 70
     0
  9
$REGENMODE
 70
     1
  9
$FILLMODE
 70
     1
  9
$QTEXTMODE
 70
     0
  9
$MIRRTEXT
 70
     1
  9
$LTSCALE
 40
1.0
  9
$ATTMODE
 70
     1
  9
$TEXTSIZE
 40
0.1377952756
  9
$TRACEWID
 40
0.05
  9
$TEXTSTYLE
  7
Standard
  9
$CLAYER
  8
0
  9
$CELTYPE
  6
ByLayer
  9
$CECOLOR
 62
   256
  9
$CELTSCALE
 40
1.0
  9
$DISPSILH
 70
     0
  9
$DIMSCALE
 40
1.0
  9
$DIMASZ
 40
0.13
  9
$DIMEXO
 40
0.0393700787
  9
$DIMDLI
 40
0.38
  9
$DIMRND
 40
0.0
  9
$DIMDLE
 40
0.0
  9
$DIMEXE
 40
0.0393700787
  9
$DIMTP
 40
0.0
  9
$DIMTM
 40
0.0
  9
$DIMTXT
 40
0.1377952756
  9
$DIMCEN
 40
0.09
  9
$DIMTSZ
 40
0.0
  9
$DIMTOL
 70
     0
  9
$DIMLIM
 70
     0
  9
$DIMTIH
 70
     1
  9
$DIMTOH
 70
     1
  9
$DIMSE1
 70
     0
  9
$DIMSE2
 70
     0
  9
$DIMTAD
 70
     1
  9
$DIMZIN
 70
     1
  9
$DIMBLK
  1

  9
$DIMASO
 70
     1
  9
$DIMSHO
 70
     1
  9
$DIMPOST
  1

  9
$DIMAPOST
  1

  9
$DIMALT
 70
     0
  9
$DIMALTD
 70
     2
  9
$DIMALTF
 40
25.4
  9
$DIMLFAC
 40
1.0
  9
$DIMTOFL
 70
     0
  9
$DIMTVP
 40
0.0
  9
$DIMTIX
 70
     0
  9
$DIMSOXD
 70
     0
  9
$DIMSAH
 70
     0
  9
$DIMBLK1
  1

  9
$DIMBLK2
  1

  9
$DIMSTYLE
  2
Standard
  9
$DIMCLRD
 70
     0
  9
$DIMCLRE
 70
     0
  9
$DIMCLRT
 70
     0
  9
$DIMTFAC
 40
1.0
  9
$DIMGAP
 40
0.06
  9
$DIMJUST
 70
     0
  9
$DIMSD1
 70
     0
  9
$DIMSD2
 70
     0
  9
$DIMTOLJ
 70
     1
  9
$DIMTZIN
 70
     1
  9
$DIMALTZ
 70
     0
  9
$DIMALTTZ
 70
     0
  9
$DIMUPT
 70
     0
  9
$DIMDEC
 70
     2
  9
$DIMTDEC
 70
     2
  9
$DIMALTU
 70
     2
  9
$DIMALTTD
 70
     2
  9
$DIMTXSTY
  7
Standard
  9
$DIMAUNIT
 70
     0
  9
$DIMADEC
 70
     2
  9
$DIMALTRND
 40
0.0
  9
$DIMAZIN
 70
     0
  9
$DIMDSEP
 70
    46
  9
$DIMATFIT
 70
     3
  9
$DIMFRAC
 70
     0
  9
$DIMLDRBLK
  1

  9
$DIMLUNIT
 70
     2
  9
$DIMLWD
 70
    -2
  9
$DIMLWE
 70
    -2
  9
$DIMTMOVE
 70
     0
  9
$LUNITS
 70
     2
  9
$LUPREC
 70
     2
  9
$SKETCHINC
 40
0.1
  9
$FILLETRAD
 40
0.5
  9
$AUNITS
 70
     0
  9
$AUPREC
 70
     2
  9
$MENU
  1
.
  9
$ELEVATION
 40
0.0
  9
$PELEVATION
 40
0.0
  9
$THICKNESS
 40
0.0
  9
$LIMCHECK
 70
     0
  9
$CHAMFERA
 40
0.0
  9
$CHAMFERB
 40
0.0
  9
$CHAMFERC
 40
0.0
  9
$CHAMFERD
 40
0.0
  9
$SKPOLY
 70
     0
  9
$TDCREATE
 40
2459657.472225335
  9
$TDUCREATE
 40
2459657.472225335
  9
$TDUPDATE
 40
2459657.47225772
  9
$TDUUPDATE
 40
2459657.47225772
  9
$TDINDWG
 40
0.0000000116
  9
$TDUSRTIMER
 40
0.0000000116
  9
$USRTIMER
 70
     1
  9
$ANGBASE
 50
0.0
  9
$ANGDIR
 70
     0
  9
$PDMODE
 70
     0
  9
$PDSIZE
 40
-1.0
  9
$PLINEWID
 40
0.0
  9
$SPLFRAME
 70
     0
  9
$SPLINETYPE
 70
     6
  9
$SPLINESEGS
 70
     8
  9
$HANDSEED
  5
4DA
  9
$SURFTAB1
 70
     6
  9
$SURFTAB2
 70
     6
  9
$SURFTYPE
 70
     6
  9
$SURFU
 70
     6
  9
$SURFV
 70
     6
  9
$UCSBASE
  2

  9
$UCSNAME
  2

  9
$UCSORG
 10
0.0
 20
0.0
 30
0.0
  9
$UCSXDIR
 10
1.0
 20
0.0
 30
0.0
  9
$UCSYDIR
 10
0.0
 20
1.0
 30
0.0
  9
$UCSORTHOREF
  2

  9
$UCSORTHOVIEW
 70
     0
  9
$UCSORGTOP
 10
0.0
 20
0.0
 30
0.0
  9
$UCSORGBOTTOM
 10
0.0
 20
0.0
 30
0.0
  9
$UCSORGLEFT
 10
0.0
 20
0.0
 30
0.0
  9
$UCSORGRIGHT
 10
0.0
 20
0.0
 30
0.0
  9
$UCSORGFRONT
 10
0.0
 20
0.0
 30
0.0
  9
$UCSORGBACK
 10
0.0
 20
0.0
 30
0.0
  9
$PUCSBASE
  2

  9
$PUCSNAME
  2

  9
$PUCSORG
 10
0.0
 20
0.0
 30
0.0
  9
$PUCSXDIR
 10
1.0
 20
0.0
 30
0.0
  9
$PUCSYDIR
 10
0.0
 20
1.0
 30
0.0
  9
$PUCSORTHOREF
  2

  9
$PUCSORTHOVIEW
 70
     0
  9
$PUCSORGTOP
 10
0.0
 20
0.0
 30
0.0
  9
$PUCSORGBOTTOM
 10
0.0
 20
0.0
 30
0.0
  9
$PUCSORGLEFT
 10
0.0
 20
0.0
 30
0.0
  9
$PUCSORGRIGHT
 10
0.0
 20
0.0
 30
0.0
  9
$PUCSORGFRONT
 10
0.0
 20
0.0
 30
0.0
  9
$PUCSORGBACK
 10
0.0
 20
0.0
 30
0.0
  9
$USERI1
 70
     0
  9
$USERI2
 70
     0
  9
$USERI3
 70
     0
  9
$USERI4
 70
     0
  9
$USERI5
 70
     0
  9
$USERR1
 40
0.0
  9
$USERR2
 40
0.0
  9
$USERR3
 40
0.0
  9
$USERR4
 40
0.0
  9
$USERR5
 40
0.0
  9
$WORLDVIEW
 70
     1
  9
$SHADEDGE
 70
     3
  9
$SHADEDIF
 70
    70
  9
$TILEMODE
 70
     1
  9
$MAXACTVP
 70
    64
  9
$PINSBASE
 10
0.0
 20
0.0
 30
0.0
  9
$PLIMCHECK
 70
     0
  9
$PEXTMIN
 10
-17.7165354331
 20
-13.8779527559
 30
0.0
  9
$PEXTMAX
 10
17.7165354331
 20
17.4803149606
 30
0.0
  9
$PLIMMIN
 10
-18.6964828907
 20
-14.8578986703
  9
$PLIMMAX
 10
24.4211373415
 20
18.4602624182
  9
$UNITMODE
 70
     0
  9
$VISRETAIN
 70
     1
  9
$PLINEGEN
 70
     0
  9
$PSLTSCALE
 70
     1
  9
$TREEDEPTH
 70
  3020
  9
$CMLSTYLE
  2
Standard
  9
$CMLJUST
 70
     0
  9
$CMLSCALE
 40
1.0
  9
$PROXYGRAPHICS
 70
     1
  9
$MEASUREMENT
 70
     0
  9
$CELWEIGHT
370
    -1
  9
$ENDCAPS
280
     0
  9
$JOINSTYLE
280
     0
  9
$LWDISPLAY
290
     1
  9
$INSUNITS
 70
     1
  9
$HYPERLINKBASE
  1

  9
$STYLESHEET
  1

  9
$XEDIT
290
     1
  9
$CEPSNTYPE
380
     0
  9
$PSTYLEMODE
290
     1
  9
$FINGERPRINTGUID
  2
{c8212268-a048-473c-91b7-045c1b86f6a7}
  9
$VERSIONGUID
  2
{FAEB1C32-E019-11D5-929B-00C0DF256EC4}
  9
$EXTNAMES
290
     1
  9
$PSVPSCALE
 40
0.0
  9
$OLESTARTUP
290
     0
  0
ENDSEC
  0
SECTION
  2
CLASSES
  0
CLASS
  1
ACDBDICTIONARYWDFLT
  2
AcDbDictionaryWithDefault
  3
ObjectDBX Classes
 90
        0
280
     0
281
     0
  0
CLASS
  1
VISUALSTYLE
  2
AcDbVisualStyle
  3
ObjectDBX Classes
 90
     4095
280
     0
281
     0
  0
CLASS
  1
MATERIAL
  2
AcDbMaterial
  3
ObjectDBX Classes
 90
     1153
280
     0
281
     0
  0
CLASS
  1
SCALE
  2
AcDbScale
  3
ObjectDBX Classes
 90
     1153
280
     0
281
     0
  0
CLASS
  1
TABLESTYLE
  2
AcDbTableStyle
  3
ObjectDBX Classes
 90
     4095
280
     0
281
     0
  0
CLASS
  1
MLEADERSTYLE
  2
AcDbMLeaderStyle
  3
ACDB_MLEADERSTYLE_CLASS
 90
     4095
280
     0
281
     0
  0
CLASS
  1
SUN
  2
AcDbSun
  3
SCENEOE
 90
     1153
280
     0
281
     0
  0
CLASS
  1
ACDBPLACEHOLDER
  2
AcDbPlaceHolder
  3
ObjectDBX Classes
 90
        0
280
     0
281
     0
  0
CLASS
  1
LAYOUT
  2
AcDbLayout
  3
ObjectDBX Classes
 90
        0
280
     0
281
     0
  0
ENDSEC
  0
SECTION
  2
TABLES
  0
TABLE
  2
VPORT
  5
8
330
0
100
AcDbSymbolTable
 70
     1
  0
VPORT
  5
29
330
8
100
AcDbSymbolTableRecord
100
AcDbViewportTableRecord
  2
*Active
 70
     0
 10
0.0
 20
0.0
 11
1.0
 21
1.0
 12
0.0
 22
1.8011811024
 13
0.0
 23
0.0
 14
0.5
 24
0.5
 15
0.5
 25
0.5
 16
0.0
 26
0.0
 36
1.0
 17
0.0
 27
0.0
 37
0.0
 40
31.9854330709
 41
1.1299435028
 42
50.0
 43
0.0
 44
0.0
 50
0.0
 51
0.0
 71
     0
 72
   100
 73
     1
 74
     3
 75
     0
 76
     0
 77
     0
 78
     0
281
     0
 65
     1
110
0.0
120
0.0
130
0.0
111
1.0
121
0.0
131
0.0
112
0.0
122
1.0
132
0.0
 79
     0
146
0.0
  0
ENDTAB
  0
TABLE
  2
LTYPE
  5
5
330
0
100
AcDbSymbolTable
 70
     6
  0
LTYPE
  5
14
330
5
100
AcDbSymbolTableRecord
100
AcDbLinetypeTableRecord
  2
ByBlock
 70
     0
  3

 72
    65
 73
     0
 40
0.0
  0
LTYPE
  5
15
330
5
100
AcDbSymbolTableRecord
100
AcDbLinetypeTableRecord
  2
ByLayer
 70
     0
  3

 72
    65
 73
     0
 40
0.0
  0
LTYPE
  5
16
330
5
100
AcDbSymbolTableRecord
100
AcDbLinetypeTableRecord
  2
Continuous
 70
     0
  3
Solid line
 72
    65
 73
     0
 40
0.0
  0
LTYPE
  5
6E
330
5
100
AcDbSymbolTableRecord
100
AcDbLinetypeTableRecord
  2
HIDDEN
 70
     0
  3
Hidden __ __ __ __ __ __ __ __ __ __ __ __ __ __
 72
    65
 73
     2
 40
0.075
 49
0.05
 74
     0
 49
-0.025
 74
     0
  0
LTYPE
  5
6F
330
5
100
AcDbSymbolTableRecord
100
AcDbLinetypeTableRecord
  2
PHANTOM
 70
     0
  3
Phantom ______  __  __  ______  __  __  ______
 72
    65
 73
     6
 40
0.5
 49
0.25
 74
     0
 49
-0.05
 74
     0
 49
0.05
 74
     0
 49
-0.05
 74
     0
 49
0.05
 74
     0
 49
-0.05
 74
     0
  0
LTYPE
  5
70
330
5
100
AcDbSymbolTableRecord
100
AcDbLinetypeTableRecord
  2
CENTER
 70
     0
  3
Center ____ _ ____ _ ____ _ ____ _ ____ _ ____
 72
    65
 73
     4
 40
0.4
 49
0.25
 74
     0
 49
-0.05
 74
     0
 49
0.05
 74
     0
 49
-0.05
 74
     0
  0
LTYPE
  5
71
330
5
100
AcDbSymbolTableRecord
100
AcDbLinetypeTableRecord
  2
CENTERX2
 70
     0
  3
Center (2x) ________  __  ________  __  _____
 72
    65
 73
     4
 40
0.8
 49
0.5
 74
     0
 49
-0.1
 74
     0
 49
0.1
 74
     0
 49
-0.1
 74
     0
  0
LTYPE
  5
72
330
5
100
AcDbSymbolTableRecord
100
AcDbLinetypeTableRecord
  2
DOT2
 70
     0
  3
Dot (.5x) ........................................
 72
    65
 73
     2
 40
0.025
 49
0.0
 74
     0
 49
-0.025
 74
     0
  0
ENDTAB
  0
TABLE
  2
LAYER
  5
2
330
0
100
AcDbSymbolTable
 70
     1
  0
LAYER
  5
10
330
2
100
AcDbSymbolTableRecord
100
AcDbLayerTableRecord
  2
0
 70
     0
 62
     7
  6
Continuous
370
    -3
390
F
  0
ENDTAB
  0
TABLE
  2
STYLE
  5
3
330
0
100
AcDbSymbolTable
 70
     1
  0
STYLE
  5
11
330
3
100
AcDbSymbolTableRecord
100
AcDbTextStyleTableRecord
  2
Standard
 70
     0
 40
0.0
 41
1.0
 50
0.0
 71
     0
 42
0.1377952756
  3
txt
  4

  0
ENDTAB
  0
TABLE
  2
VIEW
  5
6
330
0
100
AcDbSymbolTable
 70
     0
  0
ENDTAB
  0
TABLE
  2
UCS
  5
7
330
0
100
AcDbSymbolTable
 70
     0
  0
ENDTAB
  0
TABLE
  2
APPID
  5
9
330
0
100
AcDbSymbolTable
 70
     1
  0
APPID
  5
12
330
9
100
AcDbSymbolTableRecord
100
AcDbRegAppTableRecord
  2
ACAD
 70
     0
  0
ENDTAB
  0
TABLE
  2
DIMSTYLE
  5
A
330
0
100
AcDbSymbolTable
 70
     1
100
AcDbDimStyleTable
  0
DIMSTYLE
105
27
330
A
100
AcDbSymbolTableRecord
100
AcDbDimStyleTableRecord
  2
Standard
 70
     0
178
     0
340
11
  0
ENDTAB
  0
TABLE
  2
BLOCK_RECORD
  5
1
330
0
100
AcDbSymbolTable
 70
     3
  0
BLOCK_RECORD
  5
1F
330
1
100
AcDbSymbolTableRecord
100
AcDbBlockTableRecord
  2
*Model_Space
340
22
  0
BLOCK_RECORD
  5
1B
330
1
100
AcDbSymbolTableRecord
100
AcDbBlockTableRecord
  2
*Paper_Space
340
1E
  0
BLOCK_RECORD
  5
23
330
1
100
AcDbSymbolTableRecord
100
AcDbBlockTableRecord
  2
*Paper_Space0
340
26
  0
BLOCK_RECORD
  5
294
330
1
100
AcDbSymbolTableRecord
100
AcDbBlockTableRecord
  2
*Paper_Space1
340
295
  0
BLOCK_RECORD
  5
31A
330
1
100
AcDbSymbolTableRecord
100
AcDbBlockTableRecord
  2
*Paper_Space2
340
31B
  0
ENDTAB
  0
ENDSEC
  0
SECTION
  2
BLOCKS
  0
BLOCK
  5
20
330
1F
100
AcDbEntity
  8
0
100
AcDbBlockBegin
  2
*Model_Space
 70
     0
 10
0.0
 20
0.0
 30
0.0
  3
*Model_Space
  1

  0
ENDBLK
  5
21
330
1F
100
AcDbEntity
  8
0
100
AcDbBlockEnd
  0
BLOCK
  5
1C
330
1B
100
AcDbEntity
 67
     1
  8
0
100
AcDbBlockBegin
  2
*Paper_Space
 70
     0
 10
0.0
 20
0.0
 30
0.0
  3
*Paper_Space
  1

  0
ENDBLK
  5
1D
330
1B
100
AcDbEntity
 67
     1
  8
0
100
AcDbBlockEnd
  0
BLOCK
  5
24
330
23
100
AcDbEntity
  8
0
100
AcDbBlockBegin
  2
*Paper_Space0
 70
     0
 10
0.0
 20
0.0
 30
0.0
  3
*Paper_Space0
  1

  0
CIRCLE
  5
228
330
23
100
AcDbEntity
  8
0
  6
Continuous
 62
     7
370
    25
100
AcDbCircle
 10
-1.6141732283
 20
14.7834645669
 30
0.0
 40
0.1771653543307057
  0
CIRCLE
  5
233
330
23
100
AcDbEntity
  8
0
  6
Continuous
 62
     7
370
    25
100
AcDbCircle
 10
-1.6141732283
 20
14.7834645669
 30
0.0
 40
0.1574803149606332
  0
LINE
  5
26B
330
23
100
AcDbEntity
  8
0
  6
Continuous
 62
     7
370
    25
100
AcDbLine
 10
-2.4606299213
 20
-13.4645669291
 30
0.0
 11
2.4606299213
 21
-13.4645669291
 31
0.0
  0
LINE
  5
26C
330
23
100
AcDbEntity
  8
0
  6
Continuous
 62
     7
370
    25
100
AcDbLine
 10
-2.4606299213
 20
-13.3858267717
 30
0.0
 11
2.4606299213
 21
-13.3858267717
 31
0.0
  0
LINE
  5
26D
330
23
100
AcDbEntity
  8
0
  6
Continuous
 62
     7
370
    25
100
AcDbLine
 10
-1.3582677165
 20
14.7834645669
 30
0.0
 11
-1.3779527559
 21
14.7834645669
 31
0.0
  0
LINE
  5
26E
330
23
100
AcDbEntity
  8
0
  6
Continuous
 62
     7
370
    25
100
AcDbLine
 10
-1.6141732283
 20
15.0393700787
 30
0.0
 11
-1.6141732283
 21
15.0196850394
 31
0.0
  0
LINE
  5
26F
330
23
100
AcDbEntity
  8
0
  6
Continuous
 62
     7
370
    25
100
AcDbLine
 10
-1.3779527559
 20
13.4842519685
 30
0.0
 11
-1.3779527559
 21
14.7834645669
 31
0.0
  0
LINE
  5
270
330
23
100
AcDbEntity
  8
0
  6
Continuous
 62
     7
370
    25
100
AcDbLine
 10
-1.8503937008
 20
13.4842519685
 30
0.0
 11
-1.3779527559
 21
13.4842519685
 31
0.0
  0
LINE
  5
271
330
23
100
AcDbEntity
  8
0
  6
Continuous
 62
     7
370
    25
100
AcDbLine
 10
-1.8503937008
 20
14.7834645669
 30
0.0
 11
-1.8503937008
 21
13.4842519685
 31
0.0
  0
LINE
  5
272
330
23
100
AcDbEntity
  8
0
  6
Continuous
 62
     7
370
    25
100
AcDbLine
 10
-1.8503937008
 20
14.7834645669
 30
0.0
 11
-1.8700787402
 21
14.7834645669
 31
0.0
  0
LINE
  5
273
330
23
100
AcDbEntity
  8
0
  6
Continuous
 62
     7
370
    25
100
AcDbLine
 10
-1.8503937008
 20
13.4842519685
 30
0.0
 11
-1.8700787402
 21
13.4645669291
 31
0.0
  0
LINE
  5
274
330
23
100
AcDbEntity
  8
0
  6
Continuous
 62
     7
370
    25
100
AcDbLine
 10
-1.8700787402
 20
13.4645669291
 30
0.0
 11
-1.8700787402
 21
15.905511811
 31
0.0
  0
LINE
  5
275
330
23
100
AcDbEntity
  8
0
  6
Continuous
 62
     7
370
    25
100
AcDbLine
 10
-1.3582677165
 20
15.905511811
 30
0.0
 11
-1.3582677165
 21
13.4645669291
 31
0.0
  0
LINE
  5
276
330
23
100
AcDbEntity
  8
0
  6
Continuous
 62
     7
370
    25
100
AcDbLine
 10
-1.3582677165
 20
13.4645669291
 30
0.0
 11
-1.3779527559
 21
13.4842519685
 31
0.0
  0
LINE
  5
277
330
23
100
AcDbEntity
  8
0
  6
Continuous
 62
     7
370
    25
100
AcDbLine
 10
-2.4606299213
 20
13.8779527559
 30
0.0
 11
-3.2480314961
 21
13.8779527559
 31
0.0
  0
LINE
  5
278
330
23
100
AcDbEntity
  8
0
  6
Continuous
 62
     7
370
    25
100
AcDbLine
 10
-3.0511811024
 20
13.8779527559
 30
0.0
 11
-3.0511811024
 21
-13.8779527559
 31
0.0
  0
LINE
  5
279
330
23
100
AcDbEntity
  8
0
  6
Continuous
 62
     7
370
    25
100
AcDbLine
 10
-2.4606299213
 20
-13.8779527559
 30
0.0
 11
-3.2480314961
 21
-13.8779527559
 31
0.0
  0
LINE
  5
27A
330
23
100
AcDbEntity
  8
0
  6
Continuous
 62
     7
370
    25
100
AcDbLine
 10
-3.2480314961
 20
13.8779527559
 30
0.0
 11
-3.2480314961
 21
-13.8779527559
 31
0.0
  0
LINE
  5
27B
330
23
100
AcDbEntity
  8
0
  6
Continuous
 62
     7
370
    25
100
AcDbLine
 10
-2.4606299213
 20
13.8779527559
 30
0.0
 11
-2.4606299213
 21
-13.8779527559
 31
0.0
  0
LINE
  5
27C
330
23
100
AcDbEntity
  8
0
  6
Continuous
 62
     7
370
    25
100
AcDbLine
 10
-2.4409448819
 20
13.4645669291
 30
0.0
 11
-2.4409448819
 21
-13.4645669291
 31
0.0
  0
LINE
  5
27D
330
23
100
AcDbEntity
  8
0
  6
Continuous
 62
     7
370
    25
100
AcDbLine
 10
-2.4606299213
 20
13.4645669291
 30
0.0
 11
2.4606299213
 21
13.4645669291
 31
0.0
  0
LINE
  5
27E
330
23
100
AcDbEntity
  8
0
  6
Continuous
 62
     7
370
    25
100
AcDbLine
 10
2.4409448819
 20
-13.4645669291
 30
0.0
 11
2.4409448819
 21
13.4645669291
 31
0.0
  0
LINE
  5
27F
330
23
100
AcDbEntity
  8
0
  6
Continuous
 62
     7
370
    25
100
AcDbLine
 10
-2.4606299213
 20
13.3858267717
 30
0.0
 11
2.4606299213
 21
13.3858267717
 31
0.0
  0
LINE
  5
280
330
23
100
AcDbEntity
  8
0
  6
Continuous
 62
     7
370
    25
100
AcDbLine
 10
2.4606299213
 20
13.4645669291
 30
0.0
 11
2.4606299213
 21
-13.4645669291
 31
0.0
  0
LINE
  5
281
330
23
100
AcDbEntity
  8
0
  6
Continuous
 62
     7
370
    25
100
AcDbLine
 10
-1.3779527559
 20
15.8858267717
 30
0.0
 11
-1.3582677165
 21
15.905511811
 31
0.0
  0
LINE
  5
282
330
23
100
AcDbEntity
  8
0
  6
Continuous
 62
     7
370
    25
100
AcDbLine
 10
-1.3779527559
 20
15.8858267717
 30
0.0
 11
-1.8503937008
 21
15.8858267717
 31
0.0
  0
LINE
  5
283
330
23
100
AcDbEntity
  8
0
  6
Continuous
 62
     7
370
    25
100
AcDbLine
 10
-1.8503937008
 20
15.8858267717
 30
0.0
 11
-1.8700787402
 21
15.905511811
 31
0.0
  0
LINE
  5
284
330
23
100
AcDbEntity
  8
0
  6
Continuous
 62
     7
370
    25
100
AcDbLine
 10
-1.3582677165
 20
15.905511811
 30
0.0
 11
-1.8700787402
 21
15.905511811
 31
0.0
  0
LINE
  5
285
330
23
100
AcDbEntity
  8
0
  6
Continuous
 62
     7
370
    25
100
AcDbLine
 10
-1.8503937008
 20
17.4803149606
 30
0.0
 11
-1.8503937008
 21
15.905511811
 31
0.0
  0
LINE
  5
286
330
23
100
AcDbEntity
  8
0
  6
Continuous
 62
     7
370
    25
100
AcDbLine
 10
-1.8700787402
 20
15.9251968504
 30
0.0
 11
-1.8700787402
 21
17.4606299213
 31
0.0
  0
LINE
  5
287
330
23
100
AcDbEntity
  8
0
  6
Continuous
 62
     7
370
    25
100
AcDbLine
 10
-1.3779527559
 20
15.905511811
 30
0.0
 11
-1.3779527559
 21
17.4803149606
 31
0.0
  0
LINE
  5
288
330
23
100
AcDbEntity
  8
0
  6
Continuous
 62
     7
370
    25
100
AcDbLine
 10
-1.3582677165
 20
17.4606299213
 30
0.0
 11
-1.8700787402
 21
17.4606299213
 31
0.0
  0
LINE
  5
289
330
23
100
AcDbEntity
  8
0
  6
Continuous
 62
     7
370
    25
100
AcDbLine
 10
-1.3582677165
 20
17.4606299213
 30
0.0
 11
-1.3582677165
 21
15.9251968504
 31
0.0
  0
LINE
  5
28A
330
23
100
AcDbEntity
  8
0
  6
Continuous
 62
     7
370
    25
100
AcDbLine
 10
-1.8700787402
 20
15.9251968504
 30
0.0
 11
-1.3582677165
 21
15.9251968504
 31
0.0
  0
LINE
  5
28B
330
23
100
AcDbEntity
  8
0
  6
Continuous
 62
     7
370
    25
100
AcDbLine
 10
-1.8503937008
 20
17.4803149606
 30
0.0
 11
-1.3779527559
 21
17.4803149606
 31
0.0
  0
LINE
  5
28C
330
23
100
AcDbEntity
  8
0
  6
Continuous
 62
     8
370
    25
100
AcDbLine
 10
-1.3779527559
 20
14.8818897638
 30
0.0
 11
-1.3779527559
 21
15.8858267717
 31
0.0
  0
LINE
  5
28D
330
23
100
AcDbEntity
  8
0
  6
Continuous
 62
     8
370
    25
100
AcDbLine
 10
-1.8503937008
 20
15.8858267717
 30
0.0
 11
-1.8503937008
 21
14.8818897638
 31
0.0
  0
ARC
  5
28E
330
23
100
AcDbEntity
  8
0
  6
Continuous
 62
     7
370
    25
100
AcDbCircle
 10
-1.6141732283
 20
14.7834645669
 30
0.0
 40
0.2559055118110258
100
AcDbArc
 50
0.0
 51
180.0
  0
ARC
  5
28F
330
23
100
AcDbEntity
  8
0
  6
Continuous
 62
     7
370
    25
100
AcDbCircle
 10
-1.6141732283
 20
14.7834645669
 30
0.0
 40
0.2362204724409467
100
AcDbArc
 50
0.0
 51
180.0
  0
ARC
  5
290
330
23
100
AcDbEntity
  8
0
  6
Continuous
 62
     7
370
    25
100
AcDbCircle
 10
-1.8503937008
 20
17.4606299213
 30
0.0
 40
0.0196850393700829
100
AcDbArc
 50
90.0
 51
180.0
  0
ARC
  5
291
330
23
100
AcDbEntity
  8
0
  6
Continuous
 62
     7
370
    25
100
AcDbCircle
 10
-1.3779527559
 20
17.4606299213
 30
0.0
 40
0.019685039370076
100
AcDbArc
 50
360.0
 51
90.0
  0
ARC
  5
292
330
23
100
AcDbEntity
  8
0
  6
Continuous
 62
     7
370
    25
100
AcDbCircle
 10
-1.3779527559
 20
15.9251968504
 30
0.0
 40
0.0196850393700831
100
AcDbArc
 50
270.0
 51
360.0
  0
ARC
  5
293
330
23
100
AcDbEntity
  8
0
  6
Continuous
 62
     7
370
    25
100
AcDbCircle
 10
-1.8503937008
 20
15.9251968504
 30
0.0
 40
0.0196850393700796
100
AcDbArc
 50
180.0
 51
270.0
  0
VIEWPORT
  5
4D4
330
23
100
AcDbEntity
  8
0
100
AcDbViewport
 10
0.0
 20
0.0
 30
0.0
 40
8.4
 41
6.4
 68
     1
 69
     1
 12
0.0
 22
1.8011811024
 13
0.0
 23
0.0
 14
0.5
 24
0.5
 15
0.5
 25
0.5
 16
0.0
 26
0.0
 36
1.0
 17
0.0
 27
0.0
 37
0.0
 42
50.0
 43
0.0
 44
0.0
 45
31.9854330709
 50
0.0
 51
0.0
 72
   100
 90
   557152
  1

281
     0
 71
     1
 74
     0
110
0.0
120
0.0
130
0.0
111
1.0
121
0.0
131
0.0
112
0.0
122
1.0
132
0.0
 79
     0
146
0.0
  0
ENDBLK
  5
25
330
23
100
AcDbEntity
  8
0
100
AcDbBlockEnd
  0
BLOCK
  5
296
330
294
100
AcDbEntity
  8
0
100
AcDbBlockBegin
  2
*Paper_Space1
 70
     0
 10
0.0
 20
0.0
 30
0.0
  3
*Paper_Space1
  1

  0
CIRCLE
  5
2C4
330
294
100
AcDbEntity
  8
0
  6
Continuous
 62
     7
370
    25
100
AcDbCircle
 10
17.4212598425
 20
1.0826771654
 30
0.0
 40
0.0393700787401592
  0
CIRCLE
  5
2C5
330
294
100
AcDbEntity
  8
0
  6
Continuous
 62
     7
370
    25
100
AcDbCircle
 10
17.4212598425
 20
-1.4763779528
 30
0.0
 40
0.0393700787401592
  0
CIRCLE
  5
2C6
330
294
100
AcDbEntity
  8
0
  6
Continuous
 62
     7
370
    25
100
AcDbCircle
 10
-17.4212598425
 20
1.0826771654
 30
0.0
 40
0.0393700787401556
  0
CIRCLE
  5
2C7
330
294
100
AcDbEntity
  8
0
  6
Continuous
 62
     7
370
    25
100
AcDbCircle
 10
-17.4212598425
 20
-1.4763779528
 30
0.0
 40
0.0393700787401556
  0
LINE
  5
2F3
330
294
100
AcDbEntity
  8
0
  6
Continuous
 62
     7
370
    25
100
AcDbLine
 10
0.7874015748
 20
-2.4982231986
 30
0.0
 11
16.1417322835
 21
-2.4982231986
 31
0.0
  0
LINE
  5
2F4
330
294
100
AcDbEntity
  8
0
  6
Continuous
 62
     7
370
    25
100
AcDbLine
 10
16.1417322835
 20
-3.013587825
 30
0.0
 11
0.7874015748
 21
-3.013587825
 31
0.0
  0
LINE
  5
2F5
330
294
100
AcDbEntity
  8
0
  6
Continuous
 62
     7
370
    25
100
AcDbLine
 10
-16.9291338583
 20
-2.4982231986
 30
0.0
 11
-1.5748031496
 21
-2.4982231986
 31
0.0
  0
LINE
  5
2F6
330
294
100
AcDbEntity
  8
0
  6
Continuous
 62
     7
370
    25
100
AcDbLine
 10
-1.5748031496
 20
-3.013587825
 30
0.0
 11
-16.9291338583
 21
-3.013587825
 31
0.0
  0
LINE
  5
2F7
330
294
100
AcDbEntity
  8
0
  6
Continuous
 62
     7
370
    25
100
AcDbLine
 10
-17.7165354331
 20
-3.2480314961
 30
0.0
 11
17.7165354331
 21
-3.2480314961
 31
0.0
  0
LINE
  5
2F8
330
294
100
AcDbEntity
  8
0
  6
Continuous
 62
     7
370
    25
100
AcDbLine
 10
-17.7165354331
 20
-3.0511811024
 30
0.0
 11
17.7165354331
 21
-3.0511811024
 31
0.0
  0
LINE
  5
2F9
330
294
100
AcDbEntity
  8
0
  6
Continuous
 62
     7
370
    25
100
AcDbLine
 10
0.0
 20
-2.4606299213
 30
0.0
 11
0.0
 21
-3.2480314961
 31
0.0
  0
LINE
  5
2FA
330
294
100
AcDbEntity
  8
0
  6
Continuous
 62
     7
370
    25
100
AcDbLine
 10
17.7165354331
 20
-2.4606299213
 30
0.0
 11
17.7165354331
 21
-3.2480314961
 31
0.0
  0
LINE
  5
2FB
330
294
100
AcDbEntity
  8
0
  6
Continuous
 62
     7
370
    25
100
AcDbLine
 10
0.7874015748
 20
-2.4606299213
 30
0.0
 11
0.7874015748
 21
-3.0511811024
 31
0.0
  0
LINE
  5
2FC
330
294
100
AcDbEntity
  8
0
  6
Continuous
 62
     7
370
    25
100
AcDbLine
 10
0.7874015748
 20
-2.4785381593
 30
0.0
 11
16.1417322835
 21
-2.4785381593
 31
0.0
  0
LINE
  5
2FD
330
294
100
AcDbEntity
  8
0
  6
Continuous
 62
     7
370
    25
100
AcDbLine
 10
16.1417322835
 20
-3.0332728643
 30
0.0
 11
0.7874015748
 21
-3.0332728643
 31
0.0
  0
LINE
  5
2FE
330
294
100
AcDbEntity
  8
0
  6
Continuous
 62
     7
370
    25
100
AcDbLine
 10
16.1417322835
 20
-2.4606299213
 30
0.0
 11
16.1417322835
 21
-3.0511811024
 31
0.0
  0
LINE
  5
2FF
330
294
100
AcDbEntity
  8
0
  6
Continuous
 62
     7
370
    25
100
AcDbLine
 10
-17.7165354331
 20
-2.4606299213
 30
0.0
 11
-17.7165354331
 21
-3.2480314961
 31
0.0
  0
LINE
  5
300
330
294
100
AcDbEntity
  8
0
  6
Continuous
 62
     7
370
    25
100
AcDbLine
 10
-16.9291338583
 20
-2.4606299213
 30
0.0
 11
-16.9291338583
 21
-3.0511811024
 31
0.0
  0
LINE
  5
301
330
294
100
AcDbEntity
  8
0
  6
Continuous
 62
     7
370
    25
100
AcDbLine
 10
-17.7165354331
 20
-2.4606299213
 30
0.0
 11
17.7165354331
 21
-2.4606299213
 31
0.0
  0
LINE
  5
302
330
294
100
AcDbEntity
  8
0
  6
Continuous
 62
     7
370
    25
100
AcDbLine
 10
-16.9291338583
 20
-2.4785381593
 30
0.0
 11
-1.5748031496
 21
-2.4785381593
 31
0.0
  0
LINE
  5
303
330
294
100
AcDbEntity
  8
0
  6
Continuous
 62
     7
370
    25
100
AcDbLine
 10
-1.5748031496
 20
-3.0332728643
 30
0.0
 11
-16.9291338583
 21
-3.0332728643
 31
0.0
  0
LINE
  5
304
330
294
100
AcDbEntity
  8
0
  6
Continuous
 62
     7
370
    25
100
AcDbLine
 10
-1.5748031496
 20
-2.4606299213
 30
0.0
 11
-1.5748031496
 21
-3.0511811024
 31
0.0
  0
LINE
  5
305
330
294
100
AcDbEntity
  8
0
  6
Continuous
 62
     7
370
    25
100
AcDbLine
 10
17.6968503937
 20
2.4606299213
 30
0.0
 11
-17.6968503937
 21
2.4606299213
 31
0.0
  0
LINE
  5
306
330
294
100
AcDbEntity
  8
0
  6
Continuous
 62
     7
370
    25
100
AcDbLine
 10
17.7165354331
 20
-2.4409448819
 30
0.0
 11
17.7165354331
 21
2.4409448819
 31
0.0
  0
LINE
  5
307
330
294
100
AcDbEntity
  8
0
  6
Continuous
 62
     7
370
    25
100
AcDbLine
 10
-17.7165354331
 20
2.4409448819
 30
0.0
 11
-17.7165354331
 21
-2.4409448819
 31
0.0
  0
LINE
  5
308
330
294
100
AcDbEntity
  8
0
  6
Continuous
 62
     7
370
    25
100
AcDbLine
 10
-6.9094488189
 20
-1.8503937008
 30
0.0
 11
7.0669291339
 21
-1.8503937008
 31
0.0
  0
LINE
  5
309
330
294
100
AcDbEntity
  8
0
  6
Continuous
 62
     7
370
    25
100
AcDbLine
 10
-6.8307086614
 20
-1.3582677165
 30
0.0
 11
-6.8307086614
 21
-1.8700787402
 31
0.0
  0
LINE
  5
30A
330
294
100
AcDbEntity
  8
0
  6
Continuous
 62
     7
370
    25
100
AcDbLine
 10
7.0669291339
 20
-1.3779527559
 30
0.0
 11
-6.9094488189
 21
-1.3779527559
 31
0.0
  0
LINE
  5
30B
330
294
100
AcDbEntity
  8
0
  6
Continuous
 62
     7
370
    25
100
AcDbLine
 10
6.9881889764
 20
-1.8700787402
 30
0.0
 11
6.9881889764
 21
-1.3582677165
 31
0.0
  0
LINE
  5
30C
330
294
100
AcDbEntity
  8
0
  6
Continuous
 62
     7
370
    25
100
AcDbLine
 10
-6.8897637795
 20
-1.3582677165
 30
0.0
 11
7.0472440945
 21
-1.3582677165
 31
0.0
  0
LINE
  5
30D
330
294
100
AcDbEntity
  8
0
  6
Continuous
 62
     7
370
    25
100
AcDbLine
 10
7.0472440945
 20
-1.8700787402
 30
0.0
 11
-6.8897637795
 21
-1.8700787402
 31
0.0
  0
LINE
  5
30E
330
294
100
AcDbEntity
  8
0
  6
Continuous
 62
     7
370
    25
100
AcDbLine
 10
7.0472440945
 20
-1.8700787402
 30
0.0
 11
7.0472440945
 21
-1.3582677165
 31
0.0
  0
LINE
  5
30F
330
294
100
AcDbEntity
  8
0
  6
Continuous
 62
     7
370
    25
100
AcDbLine
 10
7.0669291339
 20
-1.3779527559
 30
0.0
 11
7.0669291339
 21
-1.8503937008
 31
0.0
  0
LINE
  5
310
330
294
100
AcDbEntity
  8
0
  6
Continuous
 62
     7
370
    25
100
AcDbLine
 10
-6.8897637795
 20
-1.3582677165
 30
0.0
 11
-6.8897637795
 21
-1.8700787402
 31
0.0
  0
LINE
  5
311
330
294
100
AcDbEntity
  8
0
  6
Continuous
 62
     7
370
    25
100
AcDbLine
 10
-6.9094488189
 20
-1.8503937008
 30
0.0
 11
-6.9094488189
 21
-1.3779527559
 31
0.0
  0
ARC
  5
312
330
294
100
AcDbEntity
  8
0
  6
Continuous
 62
     7
370
    25
100
AcDbCircle
 10
17.6968503937
 20
2.4409448819
 30
0.0
 40
0.0196850393700814
100
AcDbArc
 50
0.0
 51
90.0
  0
ARC
  5
313
330
294
100
AcDbEntity
  8
0
  6
Continuous
 62
     7
370
    25
100
AcDbCircle
 10
17.6968503937
 20
-2.4409448819
 30
0.0
 40
0.0196850393700814
100
AcDbArc
 50
270.0
 51
360.0
  0
ARC
  5
314
330
294
100
AcDbEntity
  8
0
  6
Continuous
 62
     7
370
    25
100
AcDbCircle
 10
-17.6968503937
 20
-2.4409448819
 30
0.0
 40
0.0196850393700814
100
AcDbArc
 50
180.0
 51
270.0
  0
ARC
  5
315
330
294
100
AcDbEntity
  8
0
  6
Continuous
 62
     7
370
    25
100
AcDbCircle
 10
-17.6968503937
 20
2.4409448819
 30
0.0
 40
0.0196850393700814
100
AcDbArc
 50
90.0
 51
180.0
  0
ARC
  5
316
330
294
100
AcDbEntity
  8
0
  6
Continuous
 62
     7
370
    25
100
AcDbCircle
 10
7.0472440945
 20
-1.3779527559
 30
0.0
 40
0.0196850393700805
100
AcDbArc
 50
0.0
 51
90.0
  0
ARC
  5
317
330
294
100
AcDbEntity
  8
0
  6
Continuous
 62
     7
370
    25
100
AcDbCircle
 10
7.0472440945
 20
-1.8503937008
 30
0.0
 40
0.0196850393700805
100
AcDbArc
 50
270.0
 51
360.0
  0
ARC
  5
318
330
294
100
AcDbEntity
  8
0
  6
Continuous
 62
     7
370
    25
100
AcDbCircle
 10
-6.8897637795
 20
-1.3779527559
 30
0.0
 40
0.0196850393700789
100
AcDbArc
 50
90.0
 51
180.0
  0
ARC
  5
319
330
294
100
AcDbEntity
  8
0
  6
Continuous
 62
     7
370
    25
100
AcDbCircle
 10
-6.8897637795
 20
-1.8503937008
 30
0.0
 40
0.0196850393700814
100
AcDbArc
 50
180.0
 51
270.0
  0
VIEWPORT
  5
4D6
330
294
100
AcDbEntity
  8
0
100
AcDbViewport
 10
0.0
 20
0.0
 30
0.0
 40
8.4
 41
6.4
 68
     1
 69
     1
 12
0.0
 22
1.8011811024
 13
0.0
 23
0.0
 14
0.5
 24
0.5
 15
0.5
 25
0.5
 16
0.0
 26
0.0
 36
1.0
 17
0.0
 27
0.0
 37
0.0
 42
50.0
 43
0.0
 44
0.0
 45
31.9854330709
 50
0.0
 51
0.0
 72
   100
 90
   557152
  1

281
     0
 71
     1
 74
     0
110
0.0
120
0.0
130
0.0
111
1.0
121
0.0
131
0.0
112
0.0
122
1.0
132
0.0
 79
     0
146
0.0
  0
ENDBLK
  5
297
330
294
100
AcDbEntity
  8
0
100
AcDbBlockEnd
  0
BLOCK
  5
31C
330
31A
100
AcDbEntity
  8
0
100
AcDbBlockBegin
  2
*Paper_Space2
 70
     0
 10
0.0
 20
0.0
 30
0.0
  3
*Paper_Space2
  1

  0
SPLINE
  5
31F
330
31A
100
AcDbEntity
  8
0
  6
Continuous
 62
     7
370
    25
100
AcDbSpline
210
0.0
220
0.0
230
1.0
 70
     8
 71
     3
 72
    14
 73
    10
 74
     0
 42
0.000000001
 43
0.00000001
 40
0.0
 40
0.0
 40
0.0
 40
0.0
 40
0.0599236890632095
 40
0.2211880805048058
 40
0.382098180564225
 40
0.5416686573751849
 40
0.6993645764865909
 40
0.8562696521967459
 40
1.0
 40
1.0
 40
1.0
 40
1.0
 10
-0.2205516536502133
 20
10.854736111161
 30
0.0
 10
-0.2184160719431458
 20
10.85972029496351
 30
0.0
 10
-0.2105332925960803
 20
10.87811772785519
 30
0.0
 10
-0.1901437476584151
 20
10.90746790189339
 30
0.0
 10
-0.1618151572944595
 20
10.93892830694017
 30
0.0
 10
-0.1313772812245925
 20
10.96180841894859
 30
0.0
 10
-0.102452003260379
 20
10.97447252976534
 30
0.0
 10
-0.078234646072112
 20
10.97741822786609
 30
0.0
 10
-0.0672476999269392
 20
10.97278670036467
 30
0.0
 10
-0.0619949669911917
 20
10.97057242018816
 30
0.0
  0
SPLINE
  5
320
330
31A
100
AcDbEntity
  8
0
  6
Continuous
 62
     7
370
    25
100
AcDbSpline
210
0.0
220
0.0
230
1.0
 70
     8
 71
     3
 72
    13
 73
     9
 74
     0
 42
0.000000001
 43
0.00000001
 40
0.0
 40
0.0
 40
0.0
 40
0.0
 40
0.1323392739777258
 40
0.3133240042585361
 40
0.5075544205467023
 40
0.6949992661627036
 40
0.8820403113784189
 40
1.0
 40
1.0
 40
1.0
 40
1.0
 10
-0.2165363194281972
 20
10.69793322335482
 30
0.0
 10
-0.2204294854514297
 20
10.70002570461757
 30
0.0
 10
-0.2296468729357211
 20
10.70497982434619
 30
0.0
 10
-0.2399506683133517
 20
10.72340228238858
 30
0.0
 10
-0.2460562237423522
 20
10.75269555955422
 30
0.0
 10
-0.2434424453124447
 20
10.7896853742475
 30
0.0
 10
-0.2349251891005407
 20
10.82493257680037
 30
0.0
 10
-0.2245602976653084
 20
10.84642418539602
 30
0.0
 10
-0.2205516536502133
 20
10.854736111161
 30
0.0
  0
SPLINE
  5
321
330
31A
100
AcDbEntity
  8
0
  6
Continuous
 62
     7
370
    25
100
AcDbSpline
210
0.0
220
0.0
230
1.0
 70
     8
 71
     3
 72
    11
 73
     7
 74
     0
 42
0.000000001
 43
0.00000001
 40
0.0
 40
0.0
 40
0.0
 40
0.0
 40
0.1525883764247169
 40
0.442987094779197
 40
0.7321192737029243
 40
1.0
 40
1.0
 40
1.0
 40
1.0
 10
0.0475238890231271
 20
10.93025932651145
 30
0.0
 10
0.047263393844097
 20
10.93854279300804
 30
0.0
 10
0.0465071370094255
 20
10.96259094689762
 30
0.0
 10
0.0377714298967478
 20
10.99810466139861
 30
0.0
 10
0.0190689161973699
 20
11.0330552557214
 30
0.0
 10
-0.0006082401526804
 20
11.04750272735112
 30
0.0
 10
-0.010071451660182
 20
11.05445085935497
 30
0.0
  0
SPLINE
  5
322
330
31A
100
AcDbEntity
  8
0
  6
Continuous
 62
     7
370
    25
100
AcDbSpline
210
0.0
220
0.0
230
1.0
 70
     8
 71
     3
 72
    12
 73
     8
 74
     0
 42
0.000000001
 43
0.00000001
 40
0.0
 40
0.0
 40
0.0
 40
0.0
 40
0.0423737301004326
 40
0.3261003834232951
 40
0.6103553452838115
 40
0.8957622462214414
 40
1.0
 40
1.0
 40
1.0
 40
1.0
 10
-0.4529639690887718
 20
11.01941997605329
 30
0.0
 10
-0.4545131051158623
 20
11.01708943948188
 30
0.0
 10
-0.4664349692333617
 20
10.99915406141348
 30
0.0
 10
-0.482755076099494
 20
10.96170384551074
 30
0.0
 10
-0.4998166975335932
 20
10.90990553717785
 30
0.0
 10
-0.5062522462384136
 20
10.86957587262753
 30
0.0
 10
-0.5067356011675929
 20
10.84771650373347
 30
0.0
 10
-0.5068649082977834
 20
10.8418686844834
 30
0.0
  0
SPLINE
  5
323
330
31A
100
AcDbEntity
  8
0
  6
Continuous
 62
     7
370
    25
100
AcDbSpline
210
0.0
220
0.0
230
1.0
 70
     8
 71
     3
 72
    11
 73
     7
 74
     0
 42
0.000000001
 43
0.00000001
 40
0.0
 40
0.0
 40
0.0
 40
0.0
 40
0.1568325838086871
 40
0.4530507418716133
 40
0.748840362098736
 40
1.0
 40
1.0
 40
1.0
 40
1.0
 10
-0.3299884908190319
 20
11.14822670172643
 30
0.0
 10
-0.337218098065278
 20
11.14375545216511
 30
0.0
 10
-0.3581026543660755
 20
11.13083911245015
 30
0.0
 10
-0.3913673073351759
 20
11.10193210502121
 30
0.0
 10
-0.4262013789682836
 20
11.06277752173895
 30
0.0
 10
-0.4445419574091626
 20
11.03306431146776
 30
0.0
 10
-0.4529639690887718
 20
11.01941997605329
 30
0.0
  0
SPLINE
  5
326
330
31A
100
AcDbEntity
  8
0
  6
Continuous
 62
     7
370
    25
100
AcDbSpline
210
0.0
220
0.0
230
1.0
 70
     8
 71
     3
 72
    11
 73
     7
 74
     0
 42
0.000000001
 43
0.00000001
 40
0.0
 40
0.0
 40
0.0
 40
0.0
 40
0.2510187155112413
 40
0.5208185794352086
 40
0.7976535550785232
 40
0.9999999999999999
 40
0.9999999999999999
 40
0.9999999999999999
 40
0.9999999999999999
 10
-0.1947375493526581
 20
11.16083542369262
 30
0.0
 10
-0.2047018574072818
 20
11.16525076896192
 30
0.0
 10
-0.225376000191793
 20
11.17441181436918
 30
0.0
 10
-0.2621134291991505
 20
11.17407279255007
 30
0.0
 10
-0.2976040105140542
 20
11.16520710308623
 30
0.0
 10
-0.3203734995733458
 20
11.15326820336194
 30
0.0
 10
-0.3299884908190319
 20
11.14822670172643
 30
0.0
  0
SPLINE
  5
328
330
31A
100
AcDbEntity
  8
0
  6
Continuous
 62
     7
370
    25
100
AcDbSpline
210
0.0
220
0.0
230
1.0
 70
     8
 71
     3
 72
     9
 73
     5
 74
     0
 42
0.000000001
 43
0.00000001
 40
0.0
 40
0.0
 40
0.0
 40
0.0
 40
0.5880489620827484
 40
0.9999999999999999
 40
0.9999999999999999
 40
0.9999999999999999
 40
0.9999999999999999
 10
-0.5068649082977839
 20
10.64898502813244
 30
0.0
 10
-0.5069598164859888
 20
10.64793786373866
 30
0.0
 10
-0.507121211530151
 20
10.64615712019297
 30
0.0
 10
-0.5071321836160587
 20
10.64624469420425
 30
0.0
 10
-0.5071367035782367
 20
10.6462807704091
 30
0.0
  0
SPLINE
  5
32A
330
31A
100
AcDbEntity
  8
0
  6
Continuous
 62
     7
370
    25
100
AcDbSpline
210
0.0
220
0.0
230
1.0
 70
     8
 71
     3
 72
    12
 73
     8
 74
     0
 42
0.000000001
 43
0.00000001
 40
0.0
 40
0.0
 40
0.0
 40
0.0
 40
0.0423737301004346
 40
0.3261003834232966
 40
0.6103553452838123
 40
0.8957622462214417
 40
1.0
 40
1.0
 40
1.0
 40
1.0
 10
-2.276408621361164
 20
12.07207216747826
 30
0.0
 10
-2.277957757388255
 20
12.06974163090684
 30
0.0
 10
-2.289879621505754
 20
12.05180625283843
 30
0.0
 10
-2.306199728371886
 20
12.01435603693569
 30
0.0
 10
-2.323261349805987
 20
11.96255772860281
 30
0.0
 10
-2.329696898510806
 20
11.92222806405248
 30
0.0
 10
-2.330180253439986
 20
11.90036869515842
 30
0.0
 10
-2.330309560570177
 20
11.89452087590836
 30
0.0
  0
SPLINE
  5
32B
330
31A
100
AcDbEntity
  8
0
  6
Continuous
 62
     7
370
    25
100
AcDbSpline
210
0.0
220
0.0
230
1.0
 70
     8
 71
     3
 72
    11
 73
     7
 74
     0
 42
0.000000001
 43
0.00000001
 40
0.0
 40
0.0
 40
0.0
 40
0.0
 40
0.1568325838086874
 40
0.4530507418716143
 40
0.7488403620987377
 40
1.0
 40
1.0
 40
1.0
 40
1.0
 10
-2.153433143091425
 20
12.20087889315139
 30
0.0
 10
-2.160662750337671
 20
12.19640764359007
 30
0.0
 10
-2.181547306638469
 20
12.18349130387511
 30
0.0
 10
-2.214811959607568
 20
12.15458429644617
 30
0.0
 10
-2.249646031240677
 20
12.1154297131639
 30
0.0
 10
-2.267986609681556
 20
12.08571650289272
 30
0.0
 10
-2.276408621361164
 20
12.07207216747826
 30
0.0
  0
SPLINE
  5
32D
330
31A
100
AcDbEntity
  8
0
  6
Continuous
 62
     7
370
    25
100
AcDbSpline
210
0.0
220
0.0
230
1.0
 70
     8
 71
     3
 72
     9
 73
     5
 74
     0
 42
0.000000001
 43
0.00000001
 40
0.0
 40
0.0
 40
0.0
 40
0.0
 40
0.0971240554130963
 40
0.9999999999999999
 40
0.9999999999999999
 40
0.9999999999999999
 40
0.9999999999999999
 10
-2.121518188172576
 20
12.21569754143226
 30
0.0
 10
-2.122544954063055
 20
12.21543825328866
 30
0.0
 10
-2.133116649057781
 20
12.2127685939288
 30
0.0
 10
-2.143793379767126
 20
12.20652031441734
 30
0.0
 10
-2.153433143091425
 20
12.20087889315139
 30
0.0
  0
SPLINE
  5
338
330
31A
100
AcDbEntity
  8
0
  6
Continuous
 62
     7
370
    25
100
AcDbSpline
210
0.0
220
0.0
230
1.0
 70
     8
 71
     3
 72
    12
 73
     8
 74
     0
 42
0.000000001
 43
0.00000001
 40
0.0
 40
0.0
 40
0.0
 40
0.0
 40
0.147798962396542
 40
0.4290827027425857
 40
0.7091396575491251
 40
0.9800763928277015
 40
1.0
 40
1.0
 40
1.0
 40
1.0
 10
-2.121518188172576
 20
11.77398818223378
 30
0.0
 10
-2.121251391659939
 20
11.76571664419089
 30
0.0
 10
-2.120476841102426
 20
11.74170312040338
 30
0.0
 10
-2.111974220115265
 20
11.70574817278722
 30
0.0
 10
-2.092050571216096
 20
11.67212655992448
 30
0.0
 10
-2.073460164757625
 20
11.65249178405745
 30
0.0
 10
-2.061058755185249
 20
11.6481698037094
 30
0.0
 10
-2.060209272541377
 20
11.64787375290394
 30
0.0
  0
LWPOLYLINE
  5
358
330
31A
100
AcDbEntity
  8
0
  6
Continuous
 62
     7
370
    25
100
AcDbPolyline
 90
       23
 70
   128
 43
0.0
 10
-0.1252748234
 20
10.6811349164
 10
-0.1605688198
 20
10.6666199835
 10
-0.1930035064
 20
10.6650006792
 10
-0.2199512179
 20
10.6764081899
 10
-0.2392288111
 20
10.6999183469
 10
-0.2492745298
 20
10.7336264971
 10
-0.2492745298
 20
10.7748018066
 10
-0.2392288111
 20
10.8201084968
 10
-0.2199512179
 20
10.8658760891
 10
-0.1930035064
 20
10.9083967652
 10
-0.1605688198
 20
10.944225753
 10
-0.1252748234
 20
10.9704604009
 10
-0.0899808271
 20
10.9849753338
 10
-0.0575461405
 20
10.9865946381
 10
-0.0305984289
 20
10.9751871274
 10
-0.0113208358
 20
10.9516769704
 10
-0.0012751171
 20
10.9179688202
 10
-0.0012751171
 20
10.8767935107
 10
-0.0113208358
 20
10.8314868205
 10
-0.0305984289
 20
10.7857192283
 10
-0.0575461405
 20
10.7431985521
 10
-0.0899808271
 20
10.7073695643
 10
-0.1252748234
 20
10.6811349164
  0
LWPOLYLINE
  5
35E
330
31A
100
AcDbEntity
  8
0
  6
Continuous
 62
     7
370
    25
100
AcDbPolyline
 90
        9
 70
   128
 43
0.0
 10
-0.2923079214
 20
9.6685113938
 10
-0.2952909243
 20
9.6639623319
 10
-0.2986942078
 20
9.6598968882
 10
-0.3023869855
 20
9.6564712953
 10
-0.3062273462
 20
9.6538171969
 10
-0.3100677069
 20
9.6520365885
 10
-0.3137604846
 20
9.6511978979
 10
-0.3171637681
 20
9.6513333555
 10
-0.320146771
 20
9.6524377558
  0
LWPOLYLINE
  5
3AE
330
31A
100
AcDbEntity
  8
0
  6
Continuous
 62
     7
370
    25
100
AcDbPolyline
 90
       17
 70
   128
 43
0.0
 10
13.1120981866
 20
4.3088216695
 10
13.1206325469
 20
4.3161951188
 10
13.1236294157
 20
4.3248926953
 10
13.1206325469
 20
4.3335902718
 10
13.1120981866
 20
4.3409637212
 10
13.0993256138
 20
4.3458905025
 10
13.0842593369
 20
4.347620558
 10
13.0691930601
 20
4.3458905025
 10
13.0564204873
 20
4.3409637212
 10
13.047886127
 20
4.3335902718
 10
13.0448892582
 20
4.3248926953
 10
13.047886127
 20
4.3161951188
 10
13.0564204873
 20
4.3088216695
 10
13.0691930601
 20
4.3038948882
 10
13.0842593369
 20
4.3021648327
 10
13.0993256138
 20
4.3038948882
 10
13.1120981866
 20
4.3088216695
  0
LWPOLYLINE
  5
3AF
330
31A
100
AcDbEntity
  8
0
  6
Continuous
 62
     7
370
    25
100
AcDbPolyline
 90
       17
 70
   128
 43
0.0
 10
11.3025729591
 20
3.264204991
 10
11.3111073194
 20
3.2715784403
 10
11.3141041882
 20
3.2802760168
 10
11.3111073194
 20
3.2889735933
 10
11.3025729591
 20
3.2963470427
 10
11.2898003863
 20
3.301273824
 10
11.2747341095
 20
3.3030038795
 10
11.2596678326
 20
3.301273824
 10
11.2468952598
 20
3.2963470427
 10
11.2383608995
 20
3.2889735933
 10
11.2353640307
 20
3.2802760168
 10
11.2383608995
 20
3.2715784403
 10
11.2468952598
 20
3.264204991
 10
11.2596678326
 20
3.2592782097
 10
11.2747341095
 20
3.2575481541
 10
11.2898003863
 20
3.2592782097
 10
11.3025729591
 20
3.264204991
  0
LWPOLYLINE
  5
3B0
330
31A
100
AcDbEntity
  8
0
  6
Continuous
 62
     7
370
    25
100
AcDbPolyline
 90
       17
 70
   128
 43
0.0
 10
-11.5809614557
 20
18.5638215748
 10
-11.5894958159
 20
18.5564481254
 10
-11.5924926847
 20
18.5477505489
 10
-11.5894958159
 20
18.5390529724
 10
-11.5809614557
 20
18.5316795231
 10
-11.5681888829
 20
18.5267527418
 10
-11.553122606
 20
18.5250226863
 10
-11.5380563291
 20
18.5267527418
 10
-11.5252837563
 20
18.5316795231
 10
-11.5167493961
 20
18.5390529724
 10
-11.5137525273
 20
18.5477505489
 10
-11.5167493961
 20
18.5564481254
 10
-11.5252837563
 20
18.5638215748
 10
-11.5380563291
 20
18.5687483561
 10
-11.553122606
 20
18.5704784116
 10
-11.5681888829
 20
18.5687483561
 10
-11.5809614557
 20
18.5638215748
  0
LWPOLYLINE
  5
3B1
330
31A
100
AcDbEntity
  8
0
  6
Continuous
 62
     7
370
    25
100
AcDbPolyline
 90
       17
 70
   128
 43
0.0
 10
-13.3904866831
 20
17.5192048963
 10
-13.3990210434
 20
17.5118314469
 10
-13.4020179122
 20
17.5031338704
 10
-13.3990210434
 20
17.4944362939
 10
-13.3904866831
 20
17.4870628446
 10
-13.3777141103
 20
17.4821360633
 10
-13.3626478334
 20
17.4804060078
 10
-13.3475815566
 20
17.4821360633
 10
-13.3348089838
 20
17.4870628446
 10
-13.3262746235
 20
17.4944362939
 10
-13.3232777547
 20
17.5031338704
 10
-13.3262746235
 20
17.5118314469
 10
-13.3348089838
 20
17.5192048963
 10
-13.3475815566
 20
17.5241316776
 10
-13.3626478334
 20
17.5258617331
 10
-13.3777141103
 20
17.5241316776
 10
-13.3904866831
 20
17.5192048963
  0
LWPOLYLINE
  5
3BF
330
31A
100
AcDbEntity
  8
0
  6
Continuous
 62
     7
370
    25
100
AcDbPolyline
 90
       10
 70
   128
 43
0.0
 10
-0.5010992938
 20
11.750027927
 10
-0.5037278438
 20
11.7515458103
 10
-0.5066994615
 20
11.7532617285
 10
-0.5099238555
 20
11.7551235442
 10
-0.5133030544
 20
11.7570746872
 10
-0.5167343828
 20
11.7590558729
 10
-0.5201135817
 20
11.761006904
 10
-0.5233379757
 20
11.7628684995
 10
-0.5263095933
 20
11.7645840957
 10
-0.5289381434
 20
11.7661015651
  0
LWPOLYLINE
  5
3C5
330
31A
100
AcDbEntity
  8
0
  6
Continuous
 62
     7
370
    25
100
AcDbPolyline
 90
        6
 70
   128
 43
0.0
 10
-2.1215181881
 20
12.6854776904
 10
-2.1215181882
 20
12.6854776903
 10
-2.1211399457
 20
12.6852596604
 10
-2.1200197538
 20
12.6846132288
 10
-2.1182006609
 20
12.6835632375
 10
-2.1157525736
 20
12.682150037
  0
LWPOLYLINE
  5
3F4
330
31A
100
AcDbEntity
  8
0
  6
Continuous
 62
     8
370
    25
100
AcDbPolyline
 90
        9
 70
   128
 43
0.0
 10
-0.1391942483
 20
10.7052440673
 10
-0.1063716683
 20
10.7299049925
 10
-0.0764655187
 20
10.7638003925
 10
-0.0521330919
 20
10.8039185122
 10
-0.0355364309
 20
10.8466946807
 10
-0.0281502219
 20
10.8883280477
 10
-0.030630762
 20
10.9251193058
 10
-0.0427576442
 20
10.9537993902
 10
-0.0604604898
 20
10.9702188192
  0
LINE
  5
41D
330
31A
100
AcDbEntity
  8
0
  6
Continuous
 62
     7
370
    25
100
AcDbLine
 10
-0.0112518907
 20
11.055459849
 30
0.0
 11
-0.1922044135
 21
11.1599215168
 31
0.0
  0
LINE
  5
41E
330
31A
100
AcDbEntity
  8
0
  6
Continuous
 62
     7
370
    25
100
AcDbLine
 10
-0.5068649083
 20
10.8418686845
 30
0.0
 11
-0.5068649083
 21
10.6489850281
 31
0.0
  0
LINE
  5
41F
330
31A
100
AcDbEntity
  8
0
  6
Continuous
 62
     7
370
    25
100
AcDbLine
 10
0.047523889
 20
9.8580334381
 30
0.0
 11
0.047523889
 21
10.9302593265
 31
0.0
  0
LINE
  5
420
330
31A
100
AcDbEntity
  8
0
  6
Continuous
 62
     7
370
    25
100
AcDbLine
 10
-0.3062289459
 20
9.6538162734
 30
0.0
 11
0.047523889
 21
9.858033438
 31
0.0
  0
LINE
  5
421
330
31A
100
AcDbEntity
  8
0
  6
Continuous
 62
     7
370
    25
100
AcDbLine
 10
-2.3303095606
 20
11.8945208759
 30
0.0
 11
-2.3303095606
 21
10.8222949875
 31
0.0
  0
LINE
  5
422
330
31A
100
AcDbEntity
  8
0
  6
Continuous
 62
     7
370
    25
100
AcDbLine
 10
9.2748454981
 20
3.5079279731
 30
0.0
 11
-1.5782290987
 21
9.7732745762
 31
0.0
  0
LINE
  5
423
330
31A
100
AcDbEntity
  8
0
  6
Continuous
 62
     7
370
    25
100
AcDbLine
 10
9.6659026085
 20
3.7336804376
 30
0.0
 11
-1.1872288153
 21
9.9990598462
 31
0.0
  0
LINE
  5
424
330
31A
100
AcDbEntity
  8
0
  6
Continuous
 62
     7
370
    25
100
AcDbLine
 10
-3.2526368457
 20
10.7398895936
 30
0.0
 11
-14.1057114426
 21
17.0052361966
 31
0.0
  0
LINE
  5
425
330
31A
100
AcDbEntity
  8
0
  6
Continuous
 62
     7
370
    25
100
AcDbLine
 10
-2.8615797354
 20
10.9656420581
 30
0.0
 11
-13.7147111591
 21
17.2310214667
 31
0.0
  0
LINE
  5
426
330
31A
100
AcDbEntity
  8
0
  6
Continuous
 62
     7
370
    25
100
AcDbLine
 10
14.2592566369
 20
-17.2218909185
 30
0.0
 11
14.2592566369
 21
4.7668459055
 31
0.0
  0
LINE
  5
427
330
31A
100
AcDbEntity
  8
0
  6
Continuous
 62
     7
370
    25
100
AcDbLine
 10
-0.1612674834
 20
11.1420620072
 30
0.0
 11
-0.1612674834
 21
11.5632647649
 31
0.0
  0
LINE
  5
428
330
31A
100
AcDbEntity
  8
0
  6
Continuous
 62
     7
370
    25
100
AcDbLine
 10
-2.0627424084
 20
11.6487876598
 30
0.0
 11
-0.5068649083
 21
10.7505986975
 31
0.0
  0
LINE
  5
429
330
31A
100
AcDbEntity
  8
0
  6
Continuous
 62
     7
370
    25
100
AcDbLine
 10
-2.1133630527
 20
12.6901855499
 30
0.0
 11
-2.1215181881
 21
12.6854776904
 31
0.0
  0
LINE
  5
42A
330
31A
100
AcDbEntity
  8
0
  6
Continuous
 62
     7
370
    25
100
AcDbLine
 10
-2.1215181882
 20
12.6854776903
 30
0.0
 11
-2.1215181882
 21
11.7739881822
 31
0.0
  0
LINE
  5
42B
330
31A
100
AcDbEntity
  8
0
  6
Continuous
 62
     7
370
    25
100
AcDbLine
 10
4.0186360698
 20
10.8351656117
 30
0.0
 11
-5.8363167073
 21
16.5243087532
 31
0.0
  0
LINE
  5
42C
330
31A
100
AcDbEntity
  8
0
  6
Continuous
 62
     7
370
    25
100
AcDbLine
 10
-6.1900663428
 20
15.0436162651
 30
0.0
 11
3.6648864344
 21
9.3544731236
 31
0.0
  0
LINE
  5
42D
330
31A
100
AcDbEntity
  8
0
  6
Continuous
 62
     7
370
    25
100
AcDbLine
 10
4.0284793894
 20
9.5643736395
 30
0.0
 11
4.0284793894
 21
10.8181174058
 31
0.0
  0
LINE
  5
42E
330
31A
100
AcDbEntity
  8
0
  6
Continuous
 62
     7
370
    25
100
AcDbLine
 10
3.684569874
 20
9.3544731236
 30
0.0
 11
4.0186360698
 21
9.5473254335
 31
0.0
  0
LINE
  5
42F
330
31A
100
AcDbEntity
  8
0
  6
Continuous
 62
     7
370
    25
100
AcDbLine
 10
-6.1999096623
 20
16.3144082373
 30
0.0
 11
-6.1999096623
 21
15.060664471
 31
0.0
  0
LINE
  5
430
330
31A
100
AcDbEntity
  8
0
  6
Continuous
 62
     7
370
    25
100
AcDbLine
 10
-5.8560001469
 20
16.5243087532
 30
0.0
 11
-6.1900663428
 21
16.3314564433
 31
0.0
  0
LINE
  5
431
330
31A
100
AcDbEntity
  8
0
  6
Continuous
 62
     7
370
    25
100
AcDbLine
 10
10.8014736654
 20
-19.1584390814
 30
0.0
 11
14.2534910223
 21
-17.1656318793
 31
0.0
  0
LINE
  5
432
330
31A
100
AcDbEntity
  8
0
  6
Continuous
 62
     7
370
    25
100
AcDbLine
 10
10.8014736654
 20
-19.2227336335
 30
0.0
 11
14.2534910223
 21
-17.2299264314
 31
0.0
  0
LINE
  5
433
330
31A
100
AcDbEntity
  8
0
  6
Continuous
 62
     7
370
    25
100
AcDbLine
 10
-0.320146771
 20
10.7293715037
 30
0.0
 11
-0.5010992938
 21
10.8338331716
 31
0.0
  0
LINE
  5
434
330
31A
100
AcDbEntity
  8
0
  6
Continuous
 62
     7
370
    25
100
AcDbLine
 10
-0.320146771
 20
11.1472521338
 30
0.0
 11
-0.1391942483
 21
11.042790466
 31
0.0
  0
LINE
  5
435
330
31A
100
AcDbEntity
  8
0
  6
Continuous
 62
     7
370
    25
100
AcDbLine
 10
0.0417582745
 20
9.8613637037
 30
0.0
 11
0.0417582745
 21
10.9222238136
 31
0.0
  0
LINE
  5
436
330
31A
100
AcDbEntity
  8
0
  6
Continuous
 62
     7
370
    25
100
AcDbLine
 10
-0.2923079214
 20
9.6685113938
 30
0.0
 11
0.0417582745
 21
9.8613637037
 31
0.0
  0
LINE
  5
437
330
31A
100
AcDbEntity
  8
0
  6
Continuous
 62
     7
370
    25
100
AcDbLine
 10
-0.2923079214
 20
10.7293715037
 30
0.0
 11
-0.2923079214
 21
9.6685113938
 31
0.0
  0
LINE
  5
438
330
31A
100
AcDbEntity
  8
0
  6
Continuous
 62
     7
370
    25
100
AcDbLine
 10
-0.0604604898
 20
10.9702188192
 30
0.0
 11
-0.0621553855
 21
10.9711560209
 31
0.0
  0
LINE
  5
439
330
31A
100
AcDbEntity
  8
0
  6
Continuous
 62
     7
370
    25
100
AcDbLine
 10
-0.320146771
 20
9.6524377558
 30
0.0
 11
-0.320146771
 21
10.7293715037
 31
0.0
  0
LINE
  5
43A
330
31A
100
AcDbEntity
  8
0
  6
Continuous
 62
     7
370
    25
100
AcDbLine
 10
-2.1435914233
 20
11.5891400388
 30
0.0
 11
-2.1435914233
 21
11.7820236951
 31
0.0
  0
LINE
  5
43B
330
31A
100
AcDbEntity
  8
0
  6
Continuous
 62
     7
370
    25
100
AcDbLine
 10
-0.5289381434
 20
10.624873265
 30
0.0
 11
-2.1157525736
 21
11.5409217369
 31
0.0
  0
LINE
  5
43C
330
31A
100
AcDbEntity
  8
0
  6
Continuous
 62
     7
370
    25
100
AcDbLine
 10
-0.5010992938
 20
10.8338331716
 30
0.0
 11
-0.5010992938
 21
10.6409495152
 31
0.0
  0
LINE
  5
43D
330
31A
100
AcDbEntity
  8
0
  6
Continuous
 62
     7
370
    25
100
AcDbLine
 10
-2.324543946
 20
10.809551615
 30
0.0
 11
-0.320146771
 21
9.6524377558
 31
0.0
  0
LINE
  5
43E
330
31A
100
AcDbEntity
  8
0
  6
Continuous
 62
     7
370
    25
100
AcDbLine
 10
-2.324543946
 20
11.886485363
 30
0.0
 11
-2.324543946
 21
10.809551615
 31
0.0
  0
LINE
  5
43F
330
31A
100
AcDbEntity
  8
0
  6
Continuous
 62
     7
370
    25
100
AcDbLine
 10
-2.1435914233
 20
11.7820236951
 30
0.0
 11
-2.324543946
 21
11.886485363
 31
0.0
  0
LINE
  5
440
330
31A
100
AcDbEntity
  8
0
  6
Continuous
 62
     7
370
    25
100
AcDbLine
 10
0.047523889
 20
9.8580334381
 30
0.0
 11
0.0417582745
 21
9.8613637037
 31
0.0
  0
LINE
  5
441
330
31A
100
AcDbEntity
  8
0
  6
Continuous
 62
     7
370
    25
100
AcDbLine
 10
-2.1018331488
 20
11.5650308879
 30
0.0
 11
-0.5150187186
 21
10.6489824159
 31
0.0
  0
LINE
  5
442
330
31A
100
AcDbEntity
  8
0
  6
Continuous
 62
     7
370
    25
100
AcDbLine
 10
-1.7399281033
 20
10.3274756967
 30
0.0
 11
-2.2967050964
 21
10.0060551802
 31
0.0
  0
LINE
  5
443
330
31A
100
AcDbEntity
  8
0
  6
Continuous
 62
     7
370
    25
100
AcDbLine
 10
-14.684993192
 20
17.3183719298
 30
0.0
 11
10.3699714957
 21
2.8544486888
 31
0.0
  0
LINE
  5
444
330
31A
100
AcDbEntity
  8
0
  6
Continuous
 62
     7
370
    25
100
AcDbLine
 10
10.7875542405
 20
3.0955140762
 30
0.0
 11
10.2307772475
 21
2.7740935597
 31
0.0
  0
LINE
  5
445
330
31A
100
AcDbEntity
  8
0
  6
Continuous
 62
     7
370
    25
100
AcDbLine
 10
-14.8241874402
 20
17.2380168007
 30
0.0
 11
10.2307772475
 21
2.7740935597
 31
0.0
  0
LINE
  5
446
330
31A
100
AcDbEntity
  8
0
  6
Continuous
 62
     7
370
    25
100
AcDbLine
 10
10.2307772475
 20
2.7740935597
 30
0.0
 11
10.2307772475
 21
-19.8897360615
 31
0.0
  0
LINE
  5
447
330
31A
100
AcDbEntity
  8
0
  6
Continuous
 62
     7
370
    25
100
AcDbLine
 10
10.2307772475
 20
-19.8897360615
 30
0.0
 11
-14.8241874402
 21
-5.4258128206
 31
0.0
  0
LINE
  5
448
330
31A
100
AcDbEntity
  8
0
  6
Continuous
 62
     7
370
    25
100
AcDbLine
 10
-2.2967050964
 20
10.0060551802
 30
0.0
 11
-2.2967050964
 21
-12.657774441
 31
0.0
  0
LINE
  5
449
330
31A
100
AcDbEntity
  8
0
  6
Continuous
 62
     7
370
    25
100
AcDbLine
 10
10.3699714957
 20
2.8544486888
 30
0.0
 11
10.3699714957
 21
-19.8093809324
 31
0.0
  0
LINE
  5
44A
330
31A
100
AcDbEntity
  8
0
  6
Continuous
 62
     7
370
    25
100
AcDbLine
 10
10.7875542405
 20
-19.5683155451
 30
0.0
 11
10.2307772475
 21
-19.8897360615
 31
0.0
  0
LINE
  5
44B
330
31A
100
AcDbEntity
  8
0
  6
Continuous
 62
     7
370
    25
100
AcDbLine
 10
-2.8534820894
 20
10.9703167296
 30
0.0
 11
-1.1831511103
 21
10.0060551802
 31
0.0
  0
LINE
  5
44C
330
31A
100
AcDbEntity
  8
0
  6
Continuous
 62
     7
370
    25
100
AcDbLine
 10
-1.1831511103
 20
10.0060551802
 30
0.0
 11
-1.600733855
 21
9.7649897928
 31
0.0
  0
LINE
  5
44D
330
31A
100
AcDbEntity
  8
0
  6
Continuous
 62
     7
370
    25
100
AcDbLine
 10
-1.1831511103
 20
10.0060551802
 30
0.0
 11
-1.1831511103
 21
9.9967058372
 31
0.0
  0
LINE
  5
44E
330
31A
100
AcDbEntity
  8
0
  6
Continuous
 62
     7
370
    25
100
AcDbLine
 10
9.2690805462
 20
3.5045999372
 30
0.0
 11
-1.5880708185
 21
9.7723000082
 31
0.0
  0
LINE
  5
44F
330
31A
100
AcDbEntity
  8
0
  6
Continuous
 62
     7
370
    25
100
AcDbLine
 10
9.6740002544
 20
3.7383551091
 30
0.0
 11
9.2564175096
 21
3.4972897218
 31
0.0
  0
LINE
  5
450
330
31A
100
AcDbEntity
  8
0
  6
Continuous
 62
     7
370
    25
100
AcDbLine
 10
-1.1958141468
 20
9.9987449648
 30
0.0
 11
9.6613372179
 21
3.7310448937
 31
0.0
  0
LINE
  5
451
330
31A
100
AcDbEntity
  8
0
  6
Continuous
 62
     7
370
    25
100
AcDbLine
 10
9.6740002544
 20
3.7383551091
 30
0.0
 11
10.7875542405
 21
3.0955140762
 31
0.0
  0
LINE
  5
452
330
31A
100
AcDbEntity
  8
0
  6
Continuous
 62
     7
370
    25
100
AcDbLine
 10
10.7875542405
 20
3.0955140762
 30
0.0
 11
10.7875542405
 21
-19.5683155451
 31
0.0
  0
LINE
  5
453
330
31A
100
AcDbEntity
  8
0
  6
Continuous
 62
     7
370
    25
100
AcDbLine
 10
-14.8241874402
 20
-5.4258128206
 30
0.0
 11
-14.8241874402
 21
17.2380168007
 31
0.0
  0
LINE
  5
454
330
31A
100
AcDbEntity
  8
0
  6
Continuous
 62
     7
370
    25
100
AcDbLine
 10
-14.2674104472
 20
17.5594373171
 30
0.0
 11
-14.8241874402
 21
17.2380168007
 31
0.0
  0
LINE
  5
455
330
31A
100
AcDbEntity
  8
0
  6
Continuous
 62
     7
370
    25
100
AcDbLine
 10
-14.2674104472
 20
17.5594373171
 30
0.0
 11
-13.7106334541
 21
17.2380168007
 31
0.0
  0
LINE
  5
456
330
31A
100
AcDbEntity
  8
0
  6
Continuous
 62
     7
370
    25
100
AcDbLine
 10
-13.7106334541
 20
17.2380168007
 30
0.0
 11
-14.1282161989
 21
16.9969514133
 31
0.0
  0
LINE
  5
457
330
31A
100
AcDbEntity
  8
0
  6
Continuous
 62
     7
370
    25
100
AcDbLine
 10
-13.7106334541
 20
17.2380168007
 30
0.0
 11
-13.7106334541
 21
17.2286674577
 31
0.0
  0
LINE
  5
458
330
31A
100
AcDbEntity
  8
0
  6
Continuous
 62
     7
370
    25
100
AcDbLine
 10
-3.2584017977
 20
10.7365615576
 30
0.0
 11
-14.1155531624
 21
17.0042616287
 31
0.0
  0
LINE
  5
459
330
31A
100
AcDbEntity
  8
0
  6
Continuous
 62
     7
370
    25
100
AcDbLine
 10
-2.8534820894
 20
10.9703167296
 30
0.0
 11
-3.2710648342
 21
10.7292513422
 31
0.0
  0
LINE
  5
45A
330
31A
100
AcDbEntity
  8
0
  6
Continuous
 62
     7
370
    25
100
AcDbLine
 10
-13.7232964906
 20
17.2307065853
 30
0.0
 11
-2.866145126
 21
10.9630065142
 31
0.0
  0
LINE
  5
45B
330
31A
100
AcDbEntity
  8
0
  6
Continuous
 62
     7
370
    25
100
AcDbLine
 10
14.2534910223
 20
4.7748814184
 30
0.0
 11
4.0284793894
 21
10.67765499
 31
0.0
  0
LINE
  5
45C
330
31A
100
AcDbEntity
  8
0
  6
Continuous
 62
     7
370
    25
100
AcDbLine
 10
-5.9776597488
 20
16.4540761599
 30
0.0
 11
-10.7736348157
 21
19.2227336335
 31
0.0
  0
LINE
  5
45D
330
31A
100
AcDbEntity
  8
0
  6
Continuous
 62
     7
370
    25
100
AcDbLine
 10
10.8014736654
 20
2.7660031905
 30
0.0
 11
14.2534910223
 21
4.7588103926
 31
0.0
  0
LINE
  5
45E
330
31A
100
AcDbEntity
  8
0
  6
Continuous
 62
     7
370
    25
100
AcDbLine
 10
-10.8014736654
 20
19.2227336335
 30
0.0
 11
-13.9750550137
 21
17.3906641178
 31
0.0
  0
LINE
  5
45F
330
31A
100
AcDbEntity
  8
0
  6
Continuous
 62
     7
370
    25
100
AcDbLine
 10
10.8014736654
 20
2.7660031905
 30
0.0
 11
10.8014736654
 21
-19.2227336335
 31
0.0
  0
LINE
  5
460
330
31A
100
AcDbEntity
  8
0
  6
Continuous
 62
     7
370
    25
100
AcDbLine
 10
14.2534910223
 20
-17.2299264314
 30
0.0
 11
14.2534910223
 21
4.7588103926
 31
0.0
  0
LINE
  5
461
330
31A
100
AcDbEntity
  8
0
  6
Continuous
 62
     7
370
    25
100
AcDbLine
 10
14.2534910223
 20
4.6945158405
 30
0.0
 11
10.8014736654
 21
2.7017086384
 31
0.0
  0
LINE
  5
462
330
31A
100
AcDbEntity
  8
0
  6
Continuous
 62
     7
370
    25
100
AcDbLine
 10
-0.5289381434
 20
10.8499041974
 30
0.0
 11
-0.5289381434
 21
11.7661015651
 31
0.0
  0
LINE
  5
463
330
31A
100
AcDbEntity
  8
0
  6
Continuous
 62
     7
370
    25
100
AcDbLine
 10
-0.5289381434
 20
11.7661015651
 30
0.0
 11
-2.1157525736
 21
12.682150037
 31
0.0
  0
LINE
  5
464
330
31A
100
AcDbEntity
  8
0
  6
Continuous
 62
     7
370
    25
100
AcDbLine
 10
-2.1157525736
 20
12.682150037
 30
0.0
 11
-2.1157525736
 21
11.7659526693
 31
0.0
  0
LINE
  5
465
330
31A
100
AcDbEntity
  8
0
  6
Continuous
 62
     7
370
    25
100
AcDbLine
 10
-2.1157525736
 20
11.7659526693
 30
0.0
 11
-0.5289381434
 21
10.8499041974
 31
0.0
  0
LINE
  5
466
330
31A
100
AcDbEntity
  8
0
  6
Continuous
 62
     7
370
    25
100
AcDbLine
 10
-6.180224623
 20
16.3304818754
 30
0.0
 11
3.6747281542
 21
10.6413387339
 31
0.0
  0
LINE
  5
467
330
31A
100
AcDbEntity
  8
0
  6
Continuous
 62
     7
370
    25
100
AcDbLine
 10
3.6608087294
 20
10.617229583
 30
0.0
 11
-6.1941440478
 21
16.3063727244
 31
0.0
  0
LINE
  5
468
330
31A
100
AcDbEntity
  8
0
  6
Continuous
 62
     7
370
    25
100
AcDbLine
 10
3.6190504549
 20
10.6413361217
 30
0.0
 11
3.6190504549
 21
9.3875923554
 31
0.0
  0
LINE
  5
469
330
31A
100
AcDbEntity
  8
0
  6
Continuous
 62
     7
370
    25
100
AcDbLine
 10
3.9670360756
 20
10.8582975825
 30
0.0
 11
3.6329698797
 21
10.6654452726
 31
0.0
  0
LINE
  5
46A
330
31A
100
AcDbEntity
  8
0
  6
Continuous
 62
     7
370
    25
100
AcDbLine
 10
-6.1941440478
 20
15.0526289581
 30
0.0
 11
3.6608087294
 21
9.3634858167
 31
0.0
  0
LINE
  5
46B
330
31A
100
AcDbEntity
  8
0
  6
Continuous
 62
     7
370
    25
100
AcDbLine
 10
-6.1523857733
 20
15.0285224194
 30
0.0
 11
-6.1523857733
 21
16.2822661857
 31
0.0
  0
LINE
  5
46C
330
31A
100
AcDbEntity
  8
0
  6
Continuous
 62
     7
370
    25
100
AcDbLine
 10
-6.1384663485
 20
16.3063753366
 30
0.0
 11
-5.8044001527
 21
16.4992276465
 31
0.0
  0
LINE
  5
46D
330
31A
100
AcDbEntity
  8
0
  6
Continuous
 62
     7
370
    25
100
AcDbLine
 10
4.00879435
 20
10.8341910438
 30
0.0
 11
-5.8461584271
 21
16.5233341852
 31
0.0
  0
LINE
  5
46E
330
31A
100
AcDbEntity
  8
0
  6
Continuous
 62
     7
370
    25
100
AcDbLine
 10
3.688647579
 20
10.617229583
 30
0.0
 11
3.688647579
 21
9.3634858167
 31
0.0
  0
LINE
  5
46F
330
31A
100
AcDbEntity
  8
0
  6
Continuous
 62
     7
370
    25
100
AcDbLine
 10
3.6608087294
 20
9.3634858167
 30
0.0
 11
3.6608087294
 21
10.617229583
 31
0.0
  0
LINE
  5
470
330
31A
100
AcDbEntity
  8
0
  6
Continuous
 62
     7
370
    25
100
AcDbLine
 10
3.6747281542
 20
10.6413387339
 30
0.0
 11
4.00879435
 21
10.8341910438
 31
0.0
  0
LINE
  5
471
330
31A
100
AcDbEntity
  8
0
  6
Continuous
 62
     7
370
    25
100
AcDbLine
 10
4.0227137749
 20
10.8100818928
 30
0.0
 11
3.688647579
 21
10.617229583
 31
0.0
  0
LINE
  5
472
330
31A
100
AcDbEntity
  8
0
  6
Continuous
 62
     7
370
    25
100
AcDbLine
 10
4.0227137749
 20
9.5563381266
 30
0.0
 11
4.0227137749
 21
10.8100818928
 31
0.0
  0
LINE
  5
473
330
31A
100
AcDbEntity
  8
0
  6
Continuous
 62
     7
370
    25
100
AcDbLine
 10
3.688647579
 20
9.3634858167
 30
0.0
 11
4.0227137749
 21
9.5563381266
 31
0.0
  0
LINE
  5
474
330
31A
100
AcDbEntity
  8
0
  6
Continuous
 62
     7
370
    25
100
AcDbLine
 10
-6.1941440478
 20
16.3063727244
 30
0.0
 11
-6.1941440478
 21
15.0526289581
 31
0.0
  0
LINE
  5
475
330
31A
100
AcDbEntity
  8
0
  6
Continuous
 62
     7
370
    25
100
AcDbLine
 10
-5.8461584271
 20
16.5233341852
 30
0.0
 11
-6.180224623
 21
16.3304818754
 31
0.0
  0
LINE
  5
476
330
31A
100
AcDbEntity
  8
0
  6
Continuous
 62
     8
370
    25
100
AcDbLine
 10
-0.5150187186
 20
10.6489824159
 30
0.0
 11
-0.5068649083
 21
10.6536895104
 31
0.0
  0
LINE
  5
477
330
31A
100
AcDbEntity
  8
0
  6
Continuous
 62
     8
370
    25
100
AcDbLine
 10
-2.0097444261
 20
11.6181925759
 30
0.0
 11
-2.1018331488
 21
11.5650308879
 31
0.0
  0
LINE
  5
478
330
31A
100
AcDbEntity
  8
0
  6
Continuous
 62
     8
370
    25
100
AcDbLine
 10
-2.1215181882
 20
12.1871617178
 30
0.0
 11
-2.1435914233
 21
12.1999043252
 31
0.0
  0
LINE
  5
479
330
31A
100
AcDbEntity
  8
0
  6
Continuous
 62
     8
370
    25
100
AcDbLine
 10
-2.1157525736
 20
11.5891400388
 30
0.0
 11
-2.0375855383
 21
11.6342649078
 31
0.0
  0
LINE
  5
47A
330
31A
100
AcDbEntity
  8
0
  6
Continuous
 62
     8
370
    25
100
AcDbLine
 10
-2.1157525736
 20
11.7304863572
 30
0.0
 11
-2.1157525736
 21
11.5891400388
 31
0.0
  0
LINE
  5
47B
330
31A
100
AcDbEntity
  8
0
  6
Continuous
 62
     8
370
    25
100
AcDbLine
 10
-2.1215181882
 20
12.2110864645
 30
0.0
 11
-2.1435914233
 21
12.1999043252
 31
0.0
  0
LINE
  5
47C
330
31A
100
AcDbEntity
  8
0
  6
Continuous
 62
     8
370
    25
100
AcDbLine
 10
9.6328581463
 20
3.7146042756
 30
0.0
 11
-1.2097182373
 21
9.9738903892
 31
0.0
  0
LINE
  5
47D
330
31A
100
AcDbEntity
  8
0
  6
Continuous
 62
     8
370
    25
100
AcDbLine
 10
-2.8946241976
 20
10.9465658961
 30
0.0
 11
-13.7372005812
 21
17.2058520097
 31
0.0
  0
LINE
  5
47E
330
31A
100
AcDbEntity
  8
0
  6
Continuous
 62
     8
370
    25
100
AcDbLine
 10
-0.4929425584
 20
11.7547367101
 30
0.0
 11
-0.5010992938
 21
11.750027927
 31
0.0
  0
LINE
  5
47F
330
31A
100
AcDbEntity
  8
0
  6
Continuous
 62
     8
370
    25
100
AcDbLine
 10
-0.5289381434
 20
11.7661015651
 30
0.0
 11
-0.5207836705
 21
11.7708090421
 31
0.0
  0
LINE
  5
480
330
31A
100
AcDbEntity
  8
0
  6
Continuous
 62
     8
370
    25
100
AcDbLine
 10
-0.5010992938
 20
11.750027927
 30
0.0
 11
-0.5010992938
 21
10.8923272534
 31
0.0
  0
LINE
  5
481
330
31A
100
AcDbEntity
  8
0
  6
Continuous
 62
     8
370
    25
100
AcDbLine
 10
-2.1075981007
 20
12.686857514
 30
0.0
 11
-2.1157525736
 21
12.682150037
 31
0.0
  0
LINE
  5
482
330
31A
100
AcDbEntity
  8
0
  6
Continuous
 62
     8
370
    25
100
AcDbLine
 10
-0.1670330979
 20
11.1453904256
 30
0.0
 11
-0.1670330979
 21
11.5665931833
 31
0.0
  0
ARC
  5
483
330
31A
100
AcDbEntity
  8
0
  6
Continuous
 62
     7
370
    25
100
AcDbCircle
 10
4.00879435
 20
10.8181174058
 30
0.0
 40
0.019685039370084
100
AcDbArc
 50
0.0
 51
60.0026882663
  0
ARC
  5
484
330
31A
100
AcDbEntity
  8
0
  6
Continuous
 62
     7
370
    25
100
AcDbCircle
 10
3.6747281542
 20
9.3715213296
 30
0.0
 40
0.0196850393700762
100
AcDbArc
 50
240.0026882663
 51
299.9973117337
  0
ARC
  5
485
330
31A
100
AcDbEntity
  8
0
  6
Continuous
 62
     7
370
    25
100
AcDbCircle
 10
4.00879435
 20
9.5643736395
 30
0.0
 40
0.0196850393700858
100
AcDbArc
 50
299.9973117337
 51
360.0
  0
ARC
  5
486
330
31A
100
AcDbEntity
  8
0
  6
Continuous
 62
     7
370
    25
100
AcDbCircle
 10
-6.180224623
 20
16.3144082373
 30
0.0
 40
0.0196850393700974
100
AcDbArc
 50
119.9973117337
 51
180.0
  0
ARC
  5
487
330
31A
100
AcDbEntity
  8
0
  6
Continuous
 62
     7
370
    25
100
AcDbCircle
 10
-5.8461584271
 20
16.5072605472
 30
0.0
 40
0.0196850393700744
100
AcDbArc
 50
60.0026882663
 51
119.9973117337
  0
ARC
  5
488
330
31A
100
AcDbEntity
  8
0
  6
Continuous
 62
     7
370
    25
100
AcDbCircle
 10
-6.180224623
 20
15.060664471
 30
0.0
 40
0.019685039370076
100
AcDbArc
 50
180.0
 51
240.0026882664
  0
ARC
  5
489
330
31A
100
AcDbEntity
  8
0
  6
Continuous
 62
     7
370
    25
100
AcDbCircle
 10
14.2494051199
 20
-17.1566139574
 30
0.0
 40
0.009900379497898
100
AcDbArc
 50
294.3746582935
 51
354.3052007488
  0
ARC
  5
48A
330
31A
100
AcDbEntity
  8
0
  6
Continuous
 62
     7
370
    25
100
AcDbCircle
 10
10.7881213732
 20
-19.1333695624
 30
0.0
 40
0.0284035999230933
100
AcDbArc
 50
268.8559032541
 51
298.0402391155
  0
ARC
  5
48B
330
31A
100
AcDbEntity
  8
0
  6
Continuous
 62
     7
370
    25
100
AcDbCircle
 10
10.7881213732
 20
-19.1976641145
 30
0.0
 40
0.0284035999232205
100
AcDbArc
 50
268.8559032541
 51
298.0402391154
  0
ARC
  5
48C
330
31A
100
AcDbEntity
  8
0
  6
Continuous
 62
     7
370
    25
100
AcDbCircle
 10
14.2494051199
 20
-17.2209085095
 30
0.0
 40
0.0099003794979047
100
AcDbArc
 50
294.3746582936
 51
354.3052007488
  0
ARC
  5
48D
330
31A
100
AcDbEntity
  8
0
  6
Continuous
 62
     7
370
    25
100
AcDbCircle
 10
0.0727234912
 20
10.7114937266
 30
0.0
 40
0.3932768208353755
100
AcDbArc
 50
122.60547834
 51
177.3945215143
  0
ARC
  5
48E
330
31A
100
AcDbEntity
  8
0
  6
Continuous
 62
     7
370
    25
100
AcDbCircle
 10
-0.1554956128
 20
11.0173061014
 30
0.0
 40
0.0302520631411827
100
AcDbArc
 50
2.6054784857
 51
57.39452166
  0
ARC
  5
48F
330
31A
100
AcDbEntity
  8
0
  6
Continuous
 62
     7
370
    25
100
AcDbCircle
 10
0.0703415514
 20
10.7128689402
 30
0.0
 40
0.3630247576941841
100
AcDbArc
 50
122.60547834
 51
177.3945215143
  0
ARC
  5
490
330
31A
100
AcDbEntity
  8
0
  6
Continuous
 62
     7
370
    25
100
AcDbCircle
 10
-0.3062273462
 20
10.7562358952
 30
0.0
 40
0.0302563367699317
100
AcDbArc
 50
242.6096722366
 51
297.3903277634
  0
ARC
  5
491
330
31A
100
AcDbEntity
  8
0
  6
Continuous
 62
     7
370
    25
100
AcDbCircle
 10
-0.1082290316
 20
10.8159553944
 30
0.0
 40
0.3932768208353647
100
AcDbArc
 50
122.60547834
 51
177.3945215143
  0
ARC
  5
492
330
31A
100
AcDbEntity
  8
0
  6
Continuous
 62
     7
370
    25
100
AcDbCircle
 10
-0.0600703163
 20
10.9387420491
 30
0.0
 40
0.1031596529358611
100
AcDbArc
 50
350.7859630095
 51
129.2032852357
  0
ARC
  5
493
330
31A
100
AcDbEntity
  8
0
  6
Continuous
 62
     7
370
    25
100
AcDbCircle
 10
-2.0831498445
 20
11.591890466
 30
0.0
 40
0.0605041262823889
100
AcDbArc
 50
182.6054784857
 51
237.39452166
  0
ARC
  5
494
330
31A
100
AcDbEntity
  8
0
  6
Continuous
 62
     7
370
    25
100
AcDbCircle
 10
-0.5180707255
 20
10.638196476
 30
0.0
 40
0.0171932754893117
100
AcDbArc
 50
230.7967147643
 51
9.2140369905
  0
ARC
  5
495
330
31A
100
AcDbEntity
  8
0
  6
Continuous
 62
     7
370
    25
100
AcDbCircle
 10
-0.498717354
 20
10.6234980514
 30
0.0
 40
0.0302520631411809
100
AcDbArc
 50
122.60547834
 51
177.3945215144
  0
ARC
  5
496
330
31A
100
AcDbEntity
  8
0
  6
Continuous
 62
     7
370
    25
100
AcDbCircle
 10
-2.0855317842
 20
11.5395465233
 30
0.0
 40
0.0302520631411812
100
AcDbArc
 50
122.60547834
 51
177.3945215144
  0
ARC
  5
497
330
31A
100
AcDbEntity
  8
0
  6
Continuous
 62
     7
370
    25
100
AcDbCircle
 10
-1.9316736839
 20
11.8686075858
 30
0.0
 40
0.3932768208353673
100
AcDbArc
 50
122.60547834
 51
177.3945215143
  0
ARC
  5
498
330
31A
100
AcDbEntity
  8
0
  6
Continuous
 62
     7
370
    25
100
AcDbCircle
 10
-2.1296719985
 20
11.6160044302
 30
0.0
 40
0.0302563367699509
100
AcDbArc
 50
242.6096722366
 51
297.3903277634
  0
ARC
  5
499
330
31A
100
AcDbEntity
  8
0
  6
Continuous
 62
     7
370
    25
100
AcDbCircle
 10
-2.0855317842
 20
11.5905152524
 30
0.0
 40
0.0302520631411845
100
AcDbArc
 50
182.6054784857
 51
237.39452166
  0
ARC
  5
49A
330
31A
100
AcDbEntity
  8
0
  6
Continuous
 62
     7
370
    25
100
AcDbCircle
 10
-2.3163753809
 20
10.8209233869
 30
0.0
 40
0.0140015231911143
100
AcDbArc
 50
174.3782427783
 51
234.3095769333
  0
ARC
  5
49B
330
31A
100
AcDbEntity
  8
0
  6
Continuous
 62
     7
370
    25
100
AcDbCircle
 10
-1.5823102547
 20
9.7643075029
 30
0.0
 40
0.009852118375265
100
AcDbArc
 50
65.5284427107
 51
125.7820157184
  0
ARC
  5
49C
330
31A
100
AcDbEntity
  8
0
  6
Continuous
 62
     7
370
    25
100
AcDbCircle
 10
-1.6027269406
 20
9.9792580941
 30
0.0
 40
0.3930453575330987
100
AcDbArc
 50
304.9969427746
 51
359.2175040595
  0
ARC
  5
49D
330
31A
100
AcDbEntity
  8
0
  6
Continuous
 62
     7
370
    25
100
AcDbCircle
 10
-1.1797028838
 20
9.9734156532
 30
0.0
 40
0.0300191075967842
100
AcDbArc
 50
122.459292794
 51
179.093860341
  0
ARC
  5
49E
330
31A
100
AcDbEntity
  8
0
  6
Continuous
 62
     7
370
    25
100
AcDbCircle
 10
-1.1912259697
 20
9.9908452044
 30
0.0
 40
0.0091355122551696
100
AcDbArc
 50
64.0529548176
 51
120.1479993895
  0
ARC
  5
49F
330
31A
100
AcDbEntity
  8
0
  6
Continuous
 62
     7
370
    25
100
AcDbCircle
 10
-14.1097925985
 20
16.9962691234
 30
0.0
 40
0.0098521183752619
100
AcDbArc
 50
65.5284427107
 51
125.7820157184
  0
ARC
  5
4A0
330
31A
100
AcDbEntity
  8
0
  6
Continuous
 62
     7
370
    25
100
AcDbCircle
 10
-14.1302092844
 20
17.2112197146
 30
0.0
 40
0.393045357532965
100
AcDbArc
 50
304.9969427746
 51
359.2175040595
  0
ARC
  5
4A1
330
31A
100
AcDbEntity
  8
0
  6
Continuous
 62
     7
370
    25
100
AcDbCircle
 10
-13.7071852277
 20
17.2053772737
 30
0.0
 40
0.0300191075967679
100
AcDbArc
 50
122.459292794
 51
179.093860341
  0
ARC
  5
4A2
330
31A
100
AcDbEntity
  8
0
  6
Continuous
 62
     7
370
    25
100
AcDbCircle
 10
-13.7187083136
 20
17.2228068248
 30
0.0
 40
0.0091355122552044
100
AcDbArc
 50
64.0529548178
 51
120.1479993894
  0
ARC
  5
4A3
330
31A
100
AcDbEntity
  8
0
  6
Continuous
 62
     7
370
    25
100
AcDbCircle
 10
14.2504412777
 20
4.7668459055
 30
0.0
 40
0.0085947897014621
100
AcDbArc
 50
290.7834207995
 51
69.2165792005
  0
ARC
  5
4A4
330
31A
100
AcDbEntity
  8
0
  6
Continuous
 62
     7
370
    25
100
AcDbCircle
 10
10.7881213732
 20
2.7910727095
 30
0.0
 40
0.0284035999232523
100
AcDbArc
 50
268.8559032542
 51
298.0402391154
  0
ARC
  5
4A5
330
31A
100
AcDbEntity
  8
0
  6
Continuous
 62
     7
370
    25
100
AcDbCircle
 10
-10.7875542405
 20
19.1958692421
 30
0.0
 40
0.0302563367698862
100
AcDbArc
 50
62.6096722366
 51
117.3903277634
  0
ARC
  5
4A6
330
31A
100
AcDbEntity
  8
0
  6
Continuous
 62
     7
370
    25
100
AcDbCircle
 10
10.7881213732
 20
2.7267781573
 30
0.0
 40
0.0284035999232584
100
AcDbArc
 50
268.8559032542
 51
298.0402391154
  0
ARC
  5
4A7
330
31A
100
AcDbEntity
  8
0
  6
Continuous
 62
     7
370
    25
100
AcDbCircle
 10
14.2494051199
 20
4.7035337624
 30
0.0
 40
0.0099003794979179
100
AcDbArc
 50
294.3746582936
 51
354.3052007488
  0
ARC
  5
4A8
330
31A
100
AcDbEntity
  8
0
  6
Continuous
 62
     7
370
    25
100
AcDbCircle
 10
-0.5150187186
 20
10.8767685888
 30
0.0
 40
0.0302563367699127
100
AcDbArc
 50
242.6096722366
 51
297.3903277634
  0
ARC
  5
4A9
330
31A
100
AcDbEntity
  8
0
  6
Continuous
 62
     7
370
    25
100
AcDbCircle
 10
3.6492712443
 20
10.6399609081
 30
0.0
 40
0.0302520631411806
100
AcDbArc
 50
122.60547834
 51
177.3945215143
  0
ARC
  5
4AA
330
31A
100
AcDbEntity
  8
0
  6
Continuous
 62
     7
370
    25
100
AcDbCircle
 10
-6.1221649839
 20
16.280890972
 30
0.0
 40
0.0302520631411699
100
AcDbArc
 50
122.60547834
 51
177.3945215144
  0
ARC
  5
4AB
330
31A
100
AcDbEntity
  8
0
  6
Continuous
 62
     7
370
    25
100
AcDbCircle
 10
3.6284143438
 20
9.3864001501
 30
0.0
 40
0.0094394792569436
100
AcDbArc
 50
172.7441704263
 51
235.9436491804
  0
ARC
  5
4AC
330
31A
100
AcDbEntity
  8
0
  6
Continuous
 62
     7
370
    25
100
AcDbCircle
 10
3.9728022184
 20
10.8502487375
 30
0.0
 40
0.0099011266909756
100
AcDbArc
 50
65.6928809539
 51
125.6175774752
  0
ARC
  5
4AD
330
31A
100
AcDbEntity
  8
0
  6
Continuous
 62
     7
370
    25
100
AcDbCircle
 10
-5.7986340098
 20
16.4911788014
 30
0.0
 40
0.0099011266909772
100
AcDbArc
 50
65.6928809539
 51
125.6175774752
  0
ARC
  5
4AE
330
31A
100
AcDbEntity
  8
0
  6
Continuous
 62
     7
370
    25
100
AcDbCircle
 10
-6.1427400666
 20
15.0274577198
 30
0.0
 40
0.009704289955334
100
AcDbArc
 50
173.7011524629
 51
234.9866671437
  0
ARC
  5
4AF
330
31A
100
AcDbEntity
  8
0
  6
Continuous
 62
     7
370
    25
100
AcDbCircle
 10
3.6584267896
 20
10.6158543693
 30
0.0
 40
0.0302520631411765
100
AcDbArc
 50
2.6054784856
 51
57.39452166
  0
ARC
  5
4B0
330
31A
100
AcDbEntity
  8
0
  6
Continuous
 62
     7
370
    25
100
AcDbCircle
 10
3.6747281542
 20
10.6440939744
 30
0.0
 40
0.0302563367699065
100
AcDbArc
 50
242.6096722366
 51
297.3903277634
  0
ARC
  5
4B1
330
31A
100
AcDbEntity
  8
0
  6
Continuous
 62
     7
370
    25
100
AcDbCircle
 10
3.6910295188
 20
10.6158543693
 30
0.0
 40
0.0302520631411743
100
AcDbArc
 50
122.60547834
 51
177.3945215144
  0
ARC
  5
4B2
330
31A
100
AcDbEntity
  8
0
  6
Continuous
 62
     7
370
    25
100
AcDbCircle
 10
3.6747281542
 20
9.3903502081
 30
0.0
 40
0.0302563367699112
100
AcDbArc
 50
242.6096722366
 51
297.3903277634
  0
ARC
  5
4B3
330
31A
100
AcDbEntity
  8
0
  6
Continuous
 62
     7
370
    25
100
AcDbCircle
 10
3.9924929855
 20
10.8087066792
 30
0.0
 40
0.0302520631411839
100
AcDbArc
 50
2.6054784857
 51
57.39452166
  0
ARC
  5
4B4
330
31A
100
AcDbEntity
  8
0
  6
Continuous
 62
     7
370
    25
100
AcDbCircle
 10
3.6286961616
 20
9.3865276559
 30
0.0
 40
0.0097042899573413
100
AcDbArc
 50
173.7011524699
 51
234.9866671367
  0
ARC
  5
4B5
330
31A
100
AcDbEntity
  8
0
  6
Continuous
 62
     7
370
    25
100
AcDbCircle
 10
-6.1430218844
 20
15.0273302141
 30
0.0
 40
0.0094394792549509
100
AcDbArc
 50
172.7441704188
 51
235.9436491878
  0
ARC
  5
4B6
330
31A
100
AcDbEntity
  8
0
  6
Continuous
 62
     7
370
    25
100
AcDbCircle
 10
-6.1639232584
 20
16.3049975108
 30
0.0
 40
0.0302520631411772
100
AcDbArc
 50
122.60547834
 51
177.3945215144
  0
ARC
  5
4B7
330
31A
100
AcDbEntity
  8
0
  6
Continuous
 62
     8
370
    25
100
AcDbCircle
 10
-0.185248938
 20
10.7677853673
 30
0.0
 40
0.0776688395744666
100
AcDbArc
 50
246.0404657448
 51
306.3675013196
  0
ARC
  5
4B8
330
31A
100
AcDbEntity
  8
0
  6
Continuous
 62
     8
370
    25
100
AcDbCircle
 10
-0.0650571418
 20
10.945569216
 30
0.0
 40
0.1222631669810765
100
AcDbArc
 50
63.2982853459
 51
127.3277204138
  0
ARC
  5
4B9
330
31A
100
AcDbEntity
  8
0
  6
Continuous
 62
     8
370
    25
100
AcDbCircle
 10
0.0376718101
 20
10.9312423996
 30
0.0
 40
0.0099012163211289
100
AcDbArc
 50
294.3760343132
 51
354.2894134824
  0
ARC
  5
4BA
330
31A
100
AcDbEntity
  8
0
  6
Continuous
 62
     8
370
    25
100
AcDbCircle
 10
-0.4974520203
 20
10.8425361842
 30
0.0
 40
0.0094363675036076
100
AcDbArc
 50
184.0427192428
 51
247.2623335072
  0
ARC
  5
4BB
330
31A
100
AcDbEntity
  8
0
  6
Continuous
 62
     8
370
    25
100
AcDbCircle
 10
-0.3258595708
 20
11.139740405
 30
0.0
 40
0.0094372745056999
100
AcDbArc
 50
52.7463827554
 51
115.9586504149
  0
ARC
  5
4BC
330
31A
100
AcDbEntity
  8
0
  6
Continuous
 62
     8
370
    25
100
AcDbCircle
 10
-0.2451869145
 20
11.042617148
 30
0.0
 40
0.1287146469827493
100
AcDbArc
 50
65.6928809539
 51
125.6175774752
  0
ARC
  5
4BD
330
31A
100
AcDbEntity
  8
0
  6
Continuous
 62
     8
370
    25
100
AcDbCircle
 10
-0.4970133913
 20
10.6499674371
 30
0.0
 40
0.0099003794979158
100
AcDbArc
 50
185.6947992512
 51
245.6253417064
  0
ARC
  5
4BE
330
31A
100
AcDbEntity
  8
0
  6
Continuous
 62
     8
370
    25
100
AcDbCircle
 10
-0.5089786556
 20
10.6577977195
 30
0.0
 40
0.0106860627604777
100
AcDbArc
 50
235.5818676064
 51
281.5028190562
  0
ARC
  5
4BF
330
31A
100
AcDbEntity
  8
0
  6
Continuous
 62
     8
370
    25
100
AcDbCircle
 10
-2.1295415782
 20
11.8097039185
 30
0.0
 40
0.0310417929600565
100
AcDbArc
 50
243.0886977759
 51
284.6204344308
  0
ARC
  5
4C0
330
31A
100
AcDbEntity
  8
0
  6
Continuous
 62
     8
370
    25
100
AcDbCircle
 10
-1.809223404
 20
11.7751059316
 30
0.0
 40
0.3344395726356142
100
AcDbArc
 50
159.0327927054
 51
178.8147726705
  0
ARC
  5
4C1
330
31A
100
AcDbEntity
  8
0
  6
Continuous
 62
     8
370
    25
100
AcDbCircle
 10
-2.3208966726
 20
11.8951883756
 30
0.0
 40
0.0094363675034042
100
AcDbArc
 50
184.042719242
 51
247.262333508
  0
ARC
  5
4C2
330
31A
100
AcDbEntity
  8
0
  6
Continuous
 62
     8
370
    25
100
AcDbCircle
 10
-2.1493042231
 20
12.1923925965
 30
0.0
 40
0.0094372745003035
100
AcDbArc
 50
52.7463827352
 51
115.9586504351
  0
ARC
  5
4C3
330
31A
100
AcDbEntity
  8
0
  6
Continuous
 62
     8
370
    25
100
AcDbCircle
 10
-0.3727354209
 20
10.8429854482
 30
0.0
 40
0.1563558748389672
100
AcDbArc
 50
177.4638330164
 51
210.9242537808
  0
ARC
  5
4C4
330
31A
100
AcDbEntity
  8
0
  6
Continuous
 62
     8
370
    25
100
AcDbCircle
 10
-1.994022018
 20
11.7504540006
 30
0.0
 40
0.1227132303826575
100
AcDbArc
 50
172.7441704384
 51
235.9436491682
  0
ARC
  5
4C5
330
31A
100
AcDbEntity
  8
0
  6
Continuous
 62
     8
370
    25
100
AcDbCircle
 10
-2.1116666712
 20
11.7749705912
 30
0.0
 40
0.0099003794979075
100
AcDbArc
 50
185.6947992512
 51
245.6253417064
  0
ARC
  5
4C6
330
31A
100
AcDbEntity
  8
0
  6
Continuous
 62
     8
370
    25
100
AcDbCircle
 10
4.0186278724
 20
10.8190998148
 30
0.0
 40
0.0099003794979091
100
AcDbArc
 50
294.3746582936
 51
354.3052007488
  0
ARC
  5
4C7
330
31A
100
AcDbEntity
  8
0
  6
Continuous
 62
     8
370
    25
100
AcDbCircle
 10
4.0145604928
 20
10.8261421987
 30
0.0
 40
0.0099011266909919
100
AcDbArc
 50
65.692880954
 51
125.6175774752
  0
ARC
  5
4C8
330
31A
100
AcDbEntity
  8
0
  6
Continuous
 62
     8
370
    25
100
AcDbCircle
 10
4.0186278724
 20
9.5653560485
 30
0.0
 40
0.0099003794979107
100
AcDbArc
 50
294.3746582936
 51
354.3052007488
  0
ARC
  5
4C9
330
31A
100
AcDbEntity
  8
0
  6
Continuous
 62
     8
370
    25
100
AcDbCircle
 10
3.6792836901
 20
9.3622936114
 30
0.0
 40
0.0094394792579372
100
AcDbArc
 50
304.0563508233
 51
7.25582957
  0
ARC
  5
4CA
330
31A
100
AcDbEntity
  8
0
  6
Continuous
 62
     8
370
    25
100
AcDbCircle
 10
3.6701726183
 20
9.3622936114
 30
0.0
 40
0.0094394792569434
100
AcDbArc
 50
172.7441704262
 51
235.9436491804
  0
ARC
  5
4CB
330
31A
100
AcDbEntity
  8
0
  6
Continuous
 62
     8
370
    25
100
AcDbCircle
 10
4.013349886
 20
9.5551459213
 30
0.0
 40
0.0094394792618389
100
AcDbArc
 50
304.0563508379
 51
7.2558295555
  0
ARC
  5
4CC
330
31A
100
AcDbEntity
  8
0
  6
Continuous
 62
     8
370
    25
100
AcDbCircle
 10
-6.1900581454
 20
16.3153906463
 30
0.0
 40
0.0099003794979003
100
AcDbArc
 50
185.6947992512
 51
245.6253417065
  0
ARC
  5
4CD
330
31A
100
AcDbEntity
  8
0
  6
Continuous
 62
     8
370
    25
100
AcDbCircle
 10
-6.1859907658
 20
16.3224330303
 30
0.0
 40
0.0099011266910056
100
AcDbArc
 50
54.3824225249
 51
114.307119046
  0
ARC
  5
4CE
330
31A
100
AcDbEntity
  8
0
  6
Continuous
 62
     8
370
    25
100
AcDbCircle
 10
-6.1900581454
 20
15.06164688
 30
0.0
 40
0.0099003794979313
100
AcDbArc
 50
185.6947992513
 51
245.6253417063
  0
ARC
  5
4CF
330
31A
100
AcDbEntity
  8
0
  6
Continuous
 62
     8
370
    25
100
AcDbCircle
 10
-5.8519245699
 20
16.5152853402
 30
0.0
 40
0.0099011266909999
100
AcDbArc
 50
54.3824225249
 51
114.307119046
  0
ARC
  5
4D0
330
31A
100
AcDbEntity
  8
0
  6
Continuous
 62
     8
370
    25
100
AcDbCircle
 10
-5.8403922843
 20
16.5152853402
 30
0.0
 40
0.0099011266909937
100
AcDbArc
 50
65.6928809539
 51
125.6175774751
  0
ARC
  5
4D1
330
31A
100
AcDbEntity
  8
0
  6
Continuous
 62
     8
370
    25
100
AcDbCircle
 10
-6.1844983411
 20
15.0515642586
 30
0.0
 40
0.0097042899573447
100
AcDbArc
 50
173.7011524699
 51
234.9866671367
  0
VIEWPORT
  5
4D8
330
31A
100
AcDbEntity
  8
0
100
AcDbViewport
 10
0.0
 20
0.0
 30
0.0
 40
8.4
 41
6.4
 68
     1
 69
     1
 12
0.0
 22
1.8011811024
 13
0.0
 23
0.0
 14
0.5
 24
0.5
 15
0.5
 25
0.5
 16
0.0
 26
0.0
 36
1.0
 17
0.0
 27
0.0
 37
0.0
 42
50.0
 43
0.0
 44
0.0
 45
31.9854330709
 50
0.0
 51
0.0
 72
   100
 90
   557152
  1

281
     0
 71
     1
 74
     0
110
0.0
120
0.0
130
0.0
111
1.0
121
0.0
131
0.0
112
0.0
122
1.0
132
0.0
 79
     0
146
0.0
  0
ENDBLK
  5
31D
330
31A
100
AcDbEntity
  8
0
100
AcDbBlockEnd
  0
ENDSEC
  0
SECTION
  2
ENTITIES
  0
LINE
  5
D4
330
1F
100
AcDbEntity
  8
0
  6
Continuous
 62
     7
370
    25
100
AcDbLine
 10
-1.1614173228
 20
14.5472440945
 30
0.0
 11
-1.1417322835
 21
14.5472440945
 31
0.0
  0
LINE
  5
D5
330
1F
100
AcDbEntity
  8
0
  6
Continuous
 62
     7
370
    25
100
AcDbLine
 10
1.1614173228
 20
14.5472440945
 30
0.0
 11
1.1417322835
 21
14.5472440945
 31
0.0
  0
LINE
  5
D6
330
1F
100
AcDbEntity
  8
0
  6
Continuous
 62
     7
370
    25
100
AcDbLine
 10
1.1614173228
 20
15.0393700787
 30
0.0
 11
1.1614173228
 21
14.5472440945
 31
0.0
  0
LINE
  5
D7
330
1F
100
AcDbEntity
  8
0
  6
Continuous
 62
     7
370
    25
100
AcDbLine
 10
1.1417322835
 20
15.8858267717
 30
0.0
 11
1.1417322835
 21
14.5472440945
 31
0.0
  0
LINE
  5
D8
330
1F
100
AcDbEntity
  8
0
  6
Continuous
 62
     7
370
    25
100
AcDbLine
 10
1.4173228346
 20
13.8779527559
 30
0.0
 11
1.4173228346
 21
15.0393700787
 31
0.0
  0
LINE
  5
D9
330
1F
100
AcDbEntity
  8
0
  6
Continuous
 62
     7
370
    25
100
AcDbLine
 10
1.437007874
 20
15.0196850394
 30
0.0
 11
1.437007874
 21
13.8779527559
 31
0.0
  0
LINE
  5
DA
330
1F
100
AcDbEntity
  8
0
  6
Continuous
 62
     7
370
    25
100
AcDbLine
 10
-1.4173228346
 20
15.0393700787
 30
0.0
 11
-1.4173228346
 21
13.8779527559
 31
0.0
  0
LINE
  5
DB
330
1F
100
AcDbEntity
  8
0
  6
Continuous
 62
     7
370
    25
100
AcDbLine
 10
-1.437007874
 20
13.8779527559
 30
0.0
 11
-1.437007874
 21
15.0196850394
 31
0.0
  0
LINE
  5
DC
330
1F
100
AcDbEntity
  8
0
  6
Continuous
 62
     7
370
    25
100
AcDbLine
 10
-1.1614173228
 20
14.5472440945
 30
0.0
 11
-1.1614173228
 21
15.0393700787
 31
0.0
  0
LINE
  5
DD
330
1F
100
AcDbEntity
  8
0
  6
Continuous
 62
     7
370
    25
100
AcDbLine
 10
-1.1614173228
 20
15.0393700787
 30
0.0
 11
-1.4173228346
 21
15.0393700787
 31
0.0
  0
LINE
  5
DE
330
1F
100
AcDbEntity
  8
0
  6
Continuous
 62
     7
370
    25
100
AcDbLine
 10
1.1614173228
 20
15.0393700787
 30
0.0
 11
1.4173228346
 21
15.0393700787
 31
0.0
  0
LINE
  5
DF
330
1F
100
AcDbEntity
  8
0
  6
Continuous
 62
     7
370
    25
100
AcDbLine
 10
1.1220472441
 20
14.5078740157
 30
0.0
 11
-1.1220472441
 21
14.5078740157
 31
0.0
  0
LINE
  5
E0
330
1F
100
AcDbEntity
  8
0
  6
Continuous
 62
     7
370
    25
100
AcDbLine
 10
-1.1220472441
 20
14.5275590551
 30
0.0
 11
1.1220472441
 21
14.5275590551
 31
0.0
  0
LINE
  5
E1
330
1F
100
AcDbEntity
  8
0
  6
Continuous
 62
     7
370
    25
100
AcDbLine
 10
-1.1417322835
 20
14.5472440945
 30
0.0
 11
-1.1417322835
 21
15.8858267717
 31
0.0
  0
LINE
  5
E2
330
1F
100
AcDbEntity
  8
0
  6
Continuous
 62
     7
370
    25
100
AcDbLine
 10
17.7165354331
 20
-13.8779527559
 30
0.0
 11
-17.7165354331
 21
-13.8779527559
 31
0.0
  0
LINE
  5
E3
330
1F
100
AcDbEntity
  8
0
  6
Continuous
 62
     7
370
    25
100
AcDbLine
 10
-17.7165354331
 20
13.8779527559
 30
0.0
 11
17.7165354331
 21
13.8779527559
 31
0.0
  0
LINE
  5
E4
330
1F
100
AcDbEntity
  8
0
  6
Continuous
 62
     7
370
    25
100
AcDbLine
 10
0.0
 20
13.8779527559
 30
0.0
 11
0.0
 21
-13.8779527559
 31
0.0
  0
LINE
  5
E5
330
1F
100
AcDbEntity
  8
0
  6
Continuous
 62
     7
370
    25
100
AcDbLine
 10
17.7165354331
 20
13.8779527559
 30
0.0
 11
17.7165354331
 21
-13.8779527559
 31
0.0
  0
LINE
  5
E6
330
1F
100
AcDbEntity
  8
0
  6
Continuous
 62
     7
370
    25
100
AcDbLine
 10
-17.7165354331
 20
-13.8779527559
 30
0.0
 11
-17.7165354331
 21
13.8779527559
 31
0.0
  0
LINE
  5
E7
330
1F
100
AcDbEntity
  8
0
  6
Continuous
 62
     7
370
    25
100
AcDbLine
 10
-1.1220472441
 20
15.905511811
 30
0.0
 11
-1.1220472441
 21
14.5078740157
 31
0.0
  0
LINE
  5
E8
330
1F
100
AcDbEntity
  8
0
  6
Continuous
 62
     7
370
    25
100
AcDbLine
 10
7.0472440945
 20
15.905511811
 30
0.0
 11
-6.8897637795
 21
15.905511811
 31
0.0
  0
LINE
  5
E9
330
1F
100
AcDbEntity
  8
0
  6
Continuous
 62
     7
370
    25
100
AcDbLine
 10
1.1220472441
 20
14.5078740157
 30
0.0
 11
1.1220472441
 21
15.905511811
 31
0.0
  0
LINE
  5
EA
330
1F
100
AcDbEntity
  8
0
  6
Continuous
 62
     7
370
    25
100
AcDbLine
 10
-1.437007874
 20
14.7834645669
 30
0.0
 11
1.437007874
 21
14.7834645669
 31
0.0
  0
LINE
  5
EB
330
1F
100
AcDbEntity
  8
0
  6
Continuous
 62
     7
370
    25
100
AcDbLine
 10
-6.8307086614
 20
17.4803149606
 30
0.0
 11
-6.8307086614
 21
15.905511811
 31
0.0
  0
LINE
  5
EC
330
1F
100
AcDbEntity
  8
0
  6
Continuous
 62
     7
370
    25
100
AcDbLine
 10
6.9881889764
 20
17.4803149606
 30
0.0
 11
6.9881889764
 21
15.905511811
 31
0.0
  0
LINE
  5
ED
330
1F
100
AcDbEntity
  8
0
  6
Continuous
 62
     7
370
    25
100
AcDbLine
 10
-6.8897637795
 20
17.4803149606
 30
0.0
 11
7.0472440945
 21
17.4803149606
 31
0.0
  0
LINE
  5
EE
330
1F
100
AcDbEntity
  8
0
  6
Continuous
 62
     7
370
    25
100
AcDbLine
 10
7.0669291339
 20
17.4606299213
 30
0.0
 11
7.0669291339
 21
15.9251968504
 31
0.0
  0
LINE
  5
EF
330
1F
100
AcDbEntity
  8
0
  6
Continuous
 62
     7
370
    25
100
AcDbLine
 10
-6.9094488189
 20
15.9251968504
 30
0.0
 11
7.0669291339
 21
15.9251968504
 31
0.0
  0
LINE
  5
F0
330
1F
100
AcDbEntity
  8
0
  6
Continuous
 62
     7
370
    25
100
AcDbLine
 10
7.0472440945
 20
15.905511811
 30
0.0
 11
7.0472440945
 21
17.4803149606
 31
0.0
  0
LINE
  5
F1
330
1F
100
AcDbEntity
  8
0
  6
Continuous
 62
     7
370
    25
100
AcDbLine
 10
7.0669291339
 20
17.4606299213
 30
0.0
 11
-6.9094488189
 21
17.4606299213
 31
0.0
  0
LINE
  5
F2
330
1F
100
AcDbEntity
  8
0
  6
Continuous
 62
     7
370
    25
100
AcDbLine
 10
-6.8897637795
 20
17.4803149606
 30
0.0
 11
-6.8897637795
 21
15.905511811
 31
0.0
  0
LINE
  5
F3
330
1F
100
AcDbEntity
  8
0
  6
Continuous
 62
     7
370
    25
100
AcDbLine
 10
-6.9094488189
 20
15.9251968504
 30
0.0
 11
-6.9094488189
 21
17.4606299213
 31
0.0
  0
ARC
  5
F4
330
1F
100
AcDbEntity
  8
0
  6
Continuous
 62
     7
370
    25
100
AcDbCircle
 10
-1.1220472441
 20
14.5472440945
 30
0.0
 40
0.0393700787401574
100
AcDbArc
 50
180.0
 51
270.0
  0
ARC
  5
F5
330
1F
100
AcDbEntity
  8
0
  6
Continuous
 62
     7
370
    25
100
AcDbCircle
 10
-1.1220472441
 20
14.5472440945
 30
0.0
 40
0.01968503937008
100
AcDbArc
 50
180.0
 51
270.0
  0
ARC
  5
F6
330
1F
100
AcDbEntity
  8
0
  6
Continuous
 62
     7
370
    25
100
AcDbCircle
 10
1.1220472441
 20
14.5472440945
 30
0.0
 40
0.0393700787401559
100
AcDbArc
 50
270.0
 51
0.0
  0
ARC
  5
F7
330
1F
100
AcDbEntity
  8
0
  6
Continuous
 62
     7
370
    25
100
AcDbCircle
 10
1.1220472441
 20
14.5472440945
 30
0.0
 40
0.0196850393700814
100
AcDbArc
 50
270.0
 51
360.0
  0
ARC
  5
F8
330
1F
100
AcDbEntity
  8
0
  6
Continuous
 62
     7
370
    25
100
AcDbCircle
 10
1.4173228346
 20
15.0196850394
 30
0.0
 40
0.0196850393700778
100
AcDbArc
 50
0.0
 51
90.0
  0
ARC
  5
F9
330
1F
100
AcDbEntity
  8
0
  6
Continuous
 62
     7
370
    25
100
AcDbCircle
 10
-1.4173228346
 20
15.0196850394
 30
0.0
 40
0.0196850393700796
100
AcDbArc
 50
90.0
 51
180.0
  0
ARC
  5
FA
330
1F
100
AcDbEntity
  8
0
  6
Continuous
 62
     7
370
    25
100
AcDbCircle
 10
-1.1614173228
 20
15.0196850394
 30
0.0
 40
0.0196850393700796
100
AcDbArc
 50
0.0
 51
90.0
  0
ARC
  5
FB
330
1F
100
AcDbEntity
  8
0
  6
Continuous
 62
     7
370
    25
100
AcDbCircle
 10
1.1614173228
 20
15.0196850394
 30
0.0
 40
0.019685039370078
100
AcDbArc
 50
90.0
 51
180.0
  0
ARC
  5
FC
330
1F
100
AcDbEntity
  8
0
  6
Continuous
 62
     7
370
    25
100
AcDbCircle
 10
1.1220472441
 20
15.8858267717
 30
0.0
 40
0.0196850393700778
100
AcDbArc
 50
0.0
 51
90.0
  0
ARC
  5
FD
330
1F
100
AcDbEntity
  8
0
  6
Continuous
 62
     7
370
    25
100
AcDbCircle
 10
-1.1220472441
 20
15.8858267717
 30
0.0
 40
0.0196850393700778
100
AcDbArc
 50
90.0
 51
180.0
  0
ARC
  5
FE
330
1F
100
AcDbEntity
  8
0
  6
Continuous
 62
     7
370
    25
100
AcDbCircle
 10
7.0472440945
 20
17.4606299213
 30
0.0
 40
0.0196850393700831
100
AcDbArc
 50
0.0
 51
90.0
  0
ARC
  5
FF
330
1F
100
AcDbEntity
  8
0
  6
Continuous
 62
     7
370
    25
100
AcDbCircle
 10
7.0472440945
 20
15.9251968504
 30
0.0
 40
0.0196850393700796
100
AcDbArc
 50
270.0
 51
0.0
  0
ARC
  5
100
330
1F
100
AcDbEntity
  8
0
  6
Continuous
 62
     7
370
    25
100
AcDbCircle
 10
-6.8897637795
 20
17.4606299213
 30
0.0
 40
0.0196850393700778
100
AcDbArc
 50
90.0
 51
180.0
  0
ARC
  5
101
330
1F
100
AcDbEntity
  8
0
  6
Continuous
 62
     7
370
    25
100
AcDbCircle
 10
-6.8897637795
 20
15.9251968504
 30
0.0
 40
0.019685039370076
100
AcDbArc
 50
180.0
 51
270.0
  0
SPLINE
  5
146
330
1B
100
AcDbEntity
 67
     1
  8
0
  6
Continuous
 62
     7
370
    25
100
AcDbSpline
210
0.0
220
0.0
230
1.0
 70
     8
 71
     3
 72
    15
 73
    11
 74
     0
 42
0.000000001
 43
0.00000001
 40
0.0
 40
0.0
 40
0.0
 40
0.0
 40
0.1902673946798896
 40
0.337886576535056
 40
0.4407229955364455
 40
0.5000793854095591
 40
0.6292874768988016
 40
0.749894675422712
 40
0.8598079853317383
 40
1.0
 40
1.0
 40
1.0
 40
1.0
 10
-0.8070866141732236
 20
-13.87795275590564
 30
0.0
 10
-0.8053140246035726
 20
-13.87794562071196
 30
0.0
 10
-0.8021661693323177
 20
-13.87793294966986
 30
0.0
 10
-0.7981448423221187
 20
-13.87717484460033
 30
0.0
 10
-0.7952958720074971
 20
-13.87610225702046
 30
0.0
 10
-0.7926715854899578
 20
-13.87467040517643
 30
0.0
 10
-0.7902844531765738
 20
-13.87229581384952
 30
0.0
 10
-0.7883347009075069
 20
-13.86825047019098
 30
0.0
 10
-0.787508997553038
 20
-13.86344176279887
 30
0.0
 10
-0.7874401602871208
 20
-13.86012619697267
 30
0.0
 10
-0.7874015748031471
 20
-13.85826771653557
 30
0.0
  0
SPLINE
  5
148
330
1B
100
AcDbEntity
 67
     1
  8
0
  6
Continuous
 62
     7
370
    25
100
AcDbSpline
210
0.0
220
0.0
230
1.0
 70
     8
 71
     3
 72
    14
 73
    10
 74
     0
 42
0.000000001
 43
0.00000001
 40
0.0
 40
0.0
 40
0.0
 40
0.0
 40
0.1404610327763008
 40
0.2506011865122368
 40
0.3709672142027808
 40
0.4999185002217619
 40
0.588631518989698
 40
0.7555780689476628
 40
1.0
 40
1.0
 40
1.0
 40
1.0
 10
-16.14173228346455
 20
-13.85826771653557
 30
0.0
 10
-16.14169353527713
 20
-13.8601294387535
 30
0.0
 10
-16.141624403351
 20
-13.86345099910052
 30
0.0
 10
-16.1407954981727
 20
-13.8682610903689
 30
0.0
 10
-16.13884604448928
 20
-13.87230119295448
 30
0.0
 10
-16.1362330195135
 20
-13.87489022915903
 30
0.0
 10
-16.13270577993326
 20
-13.87663600698451
 30
0.0
 10
-16.12813966920895
 20
-13.8779089222124
 30
0.0
 10
-16.12431797310162
 20
-13.877936418497
 30
0.0
 10
-16.12204724409449
 20
-13.87795275590564
 30
0.0
  0
SPLINE
  5
15E
330
1B
100
AcDbEntity
 67
     1
  8
0
  6
Continuous
 62
     7
370
    25
100
AcDbSpline
210
0.0
220
0.0
230
1.0
 70
     8
 71
     3
 72
    15
 73
    11
 74
     0
 42
0.000000001
 43
0.00000001
 40
0.0
 40
0.0
 40
0.0
 40
0.0
 40
0.1902673946798758
 40
0.3378865765350799
 40
0.4407229955365086
 40
0.5000793854096157
 40
0.6292874768989247
 40
0.7498946754226908
 40
0.859807985331768
 40
1.0
 40
1.0
 40
1.0
 40
1.0
 10
16.90944881889763
 20
-13.87795275590557
 30
0.0
 10
16.91122140846727
 20
-13.87794562071188
 30
0.0
 10
16.91436926373854
 20
-13.87793294966978
 30
0.0
 10
16.91839059074873
 20
-13.87717484460027
 30
0.0
 10
16.92123956106336
 20
-13.87610225702039
 30
0.0
 10
16.92386384758088
 20
-13.87467040517635
 30
0.0
 10
16.92625097989427
 20
-13.87229581384945
 30
0.0
 10
16.92820073216335
 20
-13.86825047019092
 30
0.0
 10
16.9290264355178
 20
-13.8634417627988
 30
0.0
 10
16.92909527278373
 20
-13.86012619697259
 30
0.0
 10
16.9291338582677
 20
-13.8582677165355
 30
0.0
  0
SPLINE
  5
160
330
1B
100
AcDbEntity
 67
     1
  8
0
  6
Continuous
 62
     7
370
    25
100
AcDbSpline
210
0.0
220
0.0
230
1.0
 70
     8
 71
     3
 72
    14
 73
    10
 74
     0
 42
0.000000001
 43
0.00000001
 40
0.0
 40
0.0
 40
0.0
 40
0.0
 40
0.1404610327761954
 40
0.2506011865121622
 40
0.3709672142028459
 40
0.499918500221748
 40
0.5886315189897052
 40
0.7555780689476469
 40
0.9999999999999999
 40
0.9999999999999999
 40
0.9999999999999999
 40
0.9999999999999999
 10
1.574803149606303
 20
-13.8582677165355
 30
0.0
 10
1.574841897793722
 20
-13.86012943875343
 30
0.0
 10
1.574911029719855
 20
-13.86345099910045
 30
0.0
 10
1.575739934898139
 20
-13.86826109036885
 30
0.0
 10
1.577689388581583
 20
-13.8723011929544
 30
0.0
 10
1.580302413557355
 20
-13.87489022915897
 30
0.0
 10
1.583829653137594
 20
-13.87663600698444
 30
0.0
 10
1.588395763861905
 20
-13.87790892221233
 30
0.0
 10
1.592217459969231
 20
-13.87793641849693
 30
0.0
 10
1.594488188976358
 20
-13.87795275590558
 30
0.0
  0
CIRCLE
  5
174
330
1B
100
AcDbEntity
 67
     1
  8
0
  6
Continuous
 62
     7
370
    25
100
AcDbCircle
 10
-15.5511811024
 20
11.6141732283
 30
0.0
 40
0.2755905511811019
  0
CIRCLE
  5
175
330
1B
100
AcDbEntity
 67
     1
  8
0
  6
Continuous
 62
     7
370
    25
100
AcDbCircle
 10
-15.5511811024
 20
11.6141732283
 30
0.0
 40
0.3149606299212646
  0
CIRCLE
  5
176
330
1B
100
AcDbEntity
 67
     1
  8
0
  6
Continuous
 62
     7
370
    25
100
AcDbCircle
 10
-15.5511811024
 20
11.6141732283
 30
0.0
 40
0.2362204724409445
  0
CIRCLE
  5
177
330
1B
100
AcDbEntity
 67
     1
  8
0
  6
Continuous
 62
     7
370
    25
100
AcDbCircle
 10
-15.5511811024
 20
11.6141732283
 30
0.0
 40
0.3543307086614167
  0
CIRCLE
  5
178
330
1B
100
AcDbEntity
 67
     1
  8
0
  6
Continuous
 62
     7
370
    25
100
AcDbCircle
 10
-15.5511811024
 20
11.6141732283
 30
0.0
 40
0.3740157480314945
  0
CIRCLE
  5
185
330
1B
100
AcDbEntity
 67
     1
  8
0
  6
Continuous
 62
     7
370
    25
100
AcDbCircle
 10
-15.5511811024
 20
11.6141732283
 30
0.0
 40
0.3346456692913407
  0
LINE
  5
1C3
330
1B
100
AcDbEntity
 67
     1
  8
0
  6
Continuous
 62
     7
370
    25
100
AcDbLine
 10
17.6968503937
 20
13.4645669291
 30
0.0
 11
17.6968503937
 21
-13.4645669291
 31
0.0
  0
LINE
  5
1C4
330
1B
100
AcDbEntity
 67
     1
  8
0
  6
Continuous
 62
     7
370
    25
100
AcDbLine
 10
17.125984252
 20
-13.3858267717
 30
0.0
 11
17.7165354331
 21
-13.3858267717
 31
0.0
  0
LINE
  5
1C5
330
1B
100
AcDbEntity
 67
     1
  8
0
  6
Continuous
 62
     7
370
    25
100
AcDbLine
 10
-17.7165354331
 20
-13.4645669291
 30
0.0
 11
17.7165354331
 21
-13.4645669291
 31
0.0
  0
LINE
  5
1C6
330
1B
100
AcDbEntity
 67
     1
  8
0
  6
Continuous
 62
     7
370
    25
100
AcDbLine
 10
-17.7165354331
 20
-13.3858267717
 30
0.0
 11
-17.125984252
 21
-13.3858267717
 31
0.0
  0
LINE
  5
1C7
330
1B
100
AcDbEntity
 67
     1
  8
0
  6
Continuous
 62
     7
370
    25
100
AcDbLine
 10
17.125984252
 20
-12.4015748031
 30
0.0
 11
-17.125984252
 21
-12.4015748031
 31
0.0
  0
LINE
  5
1C8
330
1B
100
AcDbEntity
 67
     1
  8
0
  6
Continuous
 62
     7
370
    25
100
AcDbLine
 10
17.125984252
 20
13.3858267717
 30
0.0
 11
17.125984252
 21
-13.3858267717
 31
0.0
  0
LINE
  5
1C9
330
1B
100
AcDbEntity
 67
     1
  8
0
  6
Continuous
 62
     7
370
    25
100
AcDbLine
 10
-1.1417322835
 20
14.5472440945
 30
0.0
 11
-1.1614173228
 21
14.5472440945
 31
0.0
  0
LINE
  5
1CA
330
1B
100
AcDbEntity
 67
     1
  8
0
  6
Continuous
 62
     7
370
    25
100
AcDbLine
 10
-1.1220472441
 20
15.905511811
 30
0.0
 11
-1.1220472441
 21
14.5078740157
 31
0.0
  0
LINE
  5
1CB
330
1B
100
AcDbEntity
 67
     1
  8
0
  6
Continuous
 62
     7
370
    25
100
AcDbLine
 10
-1.1220472441
 20
14.5275590551
 30
0.0
 11
1.1220472441
 21
14.5275590551
 31
0.0
  0
LINE
  5
1CC
330
1B
100
AcDbEntity
 67
     1
  8
0
  6
Continuous
 62
     7
370
    25
100
AcDbLine
 10
1.1220472441
 20
14.5078740157
 30
0.0
 11
-1.1220472441
 21
14.5078740157
 31
0.0
  0
LINE
  5
1CD
330
1B
100
AcDbEntity
 67
     1
  8
0
  6
Continuous
 62
     7
370
    25
100
AcDbLine
 10
-1.4173228346
 20
15.0393700787
 30
0.0
 11
-1.4173228346
 21
13.4645669291
 31
0.0
  0
LINE
  5
1CE
330
1B
100
AcDbEntity
 67
     1
  8
0
  6
Continuous
 62
     7
370
    25
100
AcDbLine
 10
-1.437007874
 20
13.4842519685
 30
0.0
 11
-1.437007874
 21
15.0196850394
 31
0.0
  0
LINE
  5
1CF
330
1B
100
AcDbEntity
 67
     1
  8
0
  6
Continuous
 62
     7
370
    25
100
AcDbLine
 10
1.4173228346
 20
13.4645669291
 30
0.0
 11
1.4173228346
 21
15.0393700787
 31
0.0
  0
LINE
  5
1D0
330
1B
100
AcDbEntity
 67
     1
  8
0
  6
Continuous
 62
     7
370
    25
100
AcDbLine
 10
1.437007874
 20
15.0196850394
 30
0.0
 11
1.437007874
 21
13.4842519685
 31
0.0
  0
LINE
  5
1D1
330
1B
100
AcDbEntity
 67
     1
  8
0
  6
Continuous
 62
     7
370
    25
100
AcDbLine
 10
-1.1417322835
 20
14.5472440945
 30
0.0
 11
-1.1417322835
 21
15.8858267717
 31
0.0
  0
LINE
  5
1D2
330
1B
100
AcDbEntity
 67
     1
  8
0
  6
Continuous
 62
     7
370
    25
100
AcDbLine
 10
-1.1614173228
 20
14.5472440945
 30
0.0
 11
-1.1614173228
 21
15.0393700787
 31
0.0
  0
LINE
  5
1D3
330
1B
100
AcDbEntity
 67
     1
  8
0
  6
Continuous
 62
     7
370
    25
100
AcDbLine
 10
1.1614173228
 20
15.0393700787
 30
0.0
 11
1.1614173228
 21
14.5472440945
 31
0.0
  0
LINE
  5
1D4
330
1B
100
AcDbEntity
 67
     1
  8
0
  6
Continuous
 62
     7
370
    25
100
AcDbLine
 10
-1.437007874
 20
14.7834645669
 30
0.0
 11
1.437007874
 21
14.7834645669
 31
0.0
  0
LINE
  5
1D5
330
1B
100
AcDbEntity
 67
     1
  8
0
  6
Continuous
 62
     7
370
    25
100
AcDbLine
 10
1.1417322835
 20
14.5472440945
 30
0.0
 11
1.1614173228
 21
14.5472440945
 31
0.0
  0
LINE
  5
1D6
330
1B
100
AcDbEntity
 67
     1
  8
0
  6
Continuous
 62
     7
370
    25
100
AcDbLine
 10
1.1614173228
 20
15.0393700787
 30
0.0
 11
1.4173228346
 21
15.0393700787
 31
0.0
  0
LINE
  5
1D7
330
1B
100
AcDbEntity
 67
     1
  8
0
  6
Continuous
 62
     7
370
    25
100
AcDbLine
 10
-1.1614173228
 20
15.0393700787
 30
0.0
 11
-1.4173228346
 21
15.0393700787
 31
0.0
  0
LINE
  5
1D8
330
1B
100
AcDbEntity
 67
     1
  8
0
  6
Continuous
 62
     7
370
    25
100
AcDbLine
 10
1.1417322835
 20
15.8858267717
 30
0.0
 11
1.1417322835
 21
14.5472440945
 31
0.0
  0
LINE
  5
1D9
330
1B
100
AcDbEntity
 67
     1
  8
0
  6
Continuous
 62
     7
370
    25
100
AcDbLine
 10
17.7165354331
 20
13.3858267717
 30
0.0
 11
17.125984252
 21
13.3858267717
 31
0.0
  0
LINE
  5
1DA
330
1B
100
AcDbEntity
 67
     1
  8
0
  6
Continuous
 62
     7
370
    25
100
AcDbLine
 10
-17.7165354331
 20
-13.8779527559
 30
0.0
 11
-16.1289374016
 21
-13.8779527559
 31
0.0
  0
LINE
  5
1DB
330
1B
100
AcDbEntity
 67
     1
  8
0
  6
Continuous
 62
     7
370
    25
100
AcDbLine
 10
-0.7874015748
 20
-13.4645669291
 30
0.0
 11
-0.7874015748
 21
-13.8779527559
 31
0.0
  0
LINE
  5
1DC
330
1B
100
AcDbEntity
 67
     1
  8
0
  6
Continuous
 62
     7
370
    25
100
AcDbLine
 10
0.0
 20
-13.8779527559
 30
0.0
 11
0.0
 21
-13.4645669291
 31
0.0
  0
LINE
  5
1DD
330
1B
100
AcDbEntity
 67
     1
  8
0
  6
Continuous
 62
     7
370
    25
100
AcDbLine
 10
-1.437007874
 20
13.8779527559
 30
0.0
 11
-17.7165354331
 21
13.8779527559
 31
0.0
  0
LINE
  5
1DE
330
1B
100
AcDbEntity
 67
     1
  8
0
  6
Continuous
 62
     7
370
    25
100
AcDbLine
 10
-16.1417322835
 20
13.4645669291
 30
0.0
 11
-16.1417322835
 21
13.8779527559
 31
0.0
  0
LINE
  5
1DF
330
1B
100
AcDbEntity
 67
     1
  8
0
  6
Continuous
 62
     7
370
    25
100
AcDbLine
 10
-16.1417322835
 20
-13.8582677165
 30
0.0
 11
-0.7874015748
 21
-13.8582677165
 31
0.0
  0
LINE
  5
1E0
330
1B
100
AcDbEntity
 67
     1
  8
0
  6
Continuous
 62
     7
370
    25
100
AcDbLine
 10
-16.1417322835
 20
-13.8779527559
 30
0.0
 11
-16.1417322835
 21
-13.4645669291
 31
0.0
  0
LINE
  5
1E1
330
1B
100
AcDbEntity
 67
     1
  8
0
  6
Continuous
 62
     7
370
    25
100
AcDbLine
 10
-0.8070866142
 20
-13.8779527559
 30
0.0
 11
-16.1220472441
 21
-13.8779527559
 31
0.0
  0
LINE
  5
1E2
330
1B
100
AcDbEntity
 67
     1
  8
0
  6
Continuous
 62
     7
370
    25
100
AcDbLine
 10
-17.7165354331
 20
-13.8779527559
 30
0.0
 11
-17.7165354331
 21
13.8779527559
 31
0.0
  0
LINE
  5
1E3
330
1B
100
AcDbEntity
 67
     1
  8
0
  6
Continuous
 62
     7
370
    25
100
AcDbLine
 10
-0.7874015748
 20
-13.8779527559
 30
0.0
 11
1.5875980315
 21
-13.8779527559
 31
0.0
  0
LINE
  5
1E4
330
1B
100
AcDbEntity
 67
     1
  8
0
  6
Continuous
 62
     7
370
    25
100
AcDbLine
 10
16.9163389764
 20
-13.8779527559
 30
0.0
 11
17.7165354331
 21
-13.8779527559
 31
0.0
  0
LINE
  5
1E5
330
1B
100
AcDbEntity
 67
     1
  8
0
  6
Continuous
 62
     7
370
    25
100
AcDbLine
 10
17.7165354331
 20
-13.8779527559
 30
0.0
 11
17.7165354331
 21
13.8779527559
 31
0.0
  0
LINE
  5
1E6
330
1B
100
AcDbEntity
 67
     1
  8
0
  6
Continuous
 62
     7
370
    25
100
AcDbLine
 10
17.7165354331
 20
13.8779527559
 30
0.0
 11
1.437007874
 21
13.8779527559
 31
0.0
  0
LINE
  5
1E7
330
1B
100
AcDbEntity
 67
     1
  8
0
  6
Continuous
 62
     7
370
    25
100
AcDbLine
 10
16.9291338583
 20
13.8779527559
 30
0.0
 11
16.9291338583
 21
13.4645669291
 31
0.0
  0
LINE
  5
1E8
330
1B
100
AcDbEntity
 67
     1
  8
0
  6
Continuous
 62
     7
370
    25
100
AcDbLine
 10
16.9291338583
 20
-13.4645669291
 30
0.0
 11
16.9291338583
 21
-13.8779527559
 31
0.0
  0
LINE
  5
1E9
330
1B
100
AcDbEntity
 67
     1
  8
0
  6
Continuous
 62
     7
370
    25
100
AcDbLine
 10
1.5748031496
 20
13.4645669291
 30
0.0
 11
1.5748031496
 21
13.8779527559
 31
0.0
  0
LINE
  5
1EA
330
1B
100
AcDbEntity
 67
     1
  8
0
  6
Continuous
 62
     7
370
    25
100
AcDbLine
 10
16.9291338583
 20
13.8583480689
 30
0.0
 11
1.5748031496
 21
13.8583480689
 31
0.0
  0
LINE
  5
1EB
330
1B
100
AcDbEntity
 67
     1
  8
0
  6
Continuous
 62
     7
370
    25
100
AcDbLine
 10
1.5748031496
 20
-13.8582677165
 30
0.0
 11
16.9291338583
 21
-13.8582677165
 31
0.0
  0
LINE
  5
1EC
330
1B
100
AcDbEntity
 67
     1
  8
0
  6
Continuous
 62
     7
370
    25
100
AcDbLine
 10
1.5748031496
 20
-13.8779527559
 30
0.0
 11
1.5748031496
 21
-13.4645669291
 31
0.0
  0
LINE
  5
1ED
330
1B
100
AcDbEntity
 67
     1
  8
0
  6
Continuous
 62
     7
370
    25
100
AcDbLine
 10
16.9094488189
 20
-13.8779527559
 30
0.0
 11
1.594488189
 21
-13.8779527559
 31
0.0
  0
LINE
  5
1EE
330
1B
100
AcDbEntity
 67
     1
  8
0
  6
Continuous
 62
     7
370
    25
100
AcDbLine
 10
-17.6968503937
 20
13.4645669291
 30
0.0
 11
-17.6968503937
 21
-13.4645669291
 31
0.0
  0
LINE
  5
1EF
330
1B
100
AcDbEntity
 67
     1
  8
0
  6
Continuous
 62
     7
370
    25
100
AcDbLine
 10
-17.7165354331
 20
13.4645669291
 30
0.0
 11
17.7165354331
 21
13.4645669291
 31
0.0
  0
LINE
  5
1F0
330
1B
100
AcDbEntity
 67
     1
  8
0
  6
Continuous
 62
     7
370
    25
100
AcDbLine
 10
-17.125984252
 20
13.3858267717
 30
0.0
 11
-17.125984252
 21
-13.3858267717
 31
0.0
  0
LINE
  5
1F1
330
1B
100
AcDbEntity
 67
     1
  8
0
  6
Continuous
 62
     7
370
    25
100
AcDbLine
 10
-17.7165354331
 20
13.3858267717
 30
0.0
 11
-17.125984252
 21
13.3858267717
 31
0.0
  0
LINE
  5
1F2
330
1B
100
AcDbEntity
 67
     1
  8
0
  6
Continuous
 62
     7
370
    25
100
AcDbLine
 10
17.125984252
 20
12.4015748031
 30
0.0
 11
-17.125984252
 21
12.4015748031
 31
0.0
  0
LINE
  5
1F3
330
1B
100
AcDbEntity
 67
     1
  8
0
  6
Continuous
 62
     7
370
    25
100
AcDbLine
 10
-15.561023622
 20
12.0630971581
 30
0.0
 11
-15.9350393701
 21
11.8471590653
 31
0.0
  0
LINE
  5
1F4
330
1B
100
AcDbEntity
 67
     1
  8
0
  6
Continuous
 62
     7
370
    25
100
AcDbLine
 10
-15.5413385827
 20
11.1652492986
 30
0.0
 11
-15.1673228346
 21
11.3811873914
 31
0.0
  0
LINE
  5
1F5
330
1B
100
AcDbEntity
 67
     1
  8
0
  6
Continuous
 62
     7
370
    25
100
AcDbLine
 10
-15.157480315
 20
11.3982351355
 30
0.0
 11
-15.157480315
 21
11.8301113212
 31
0.0
  0
LINE
  5
1F6
330
1B
100
AcDbEntity
 67
     1
  8
0
  6
Continuous
 62
     7
370
    25
100
AcDbLine
 10
-15.9448818898
 20
11.8301113212
 30
0.0
 11
-15.9448818898
 21
11.3982351355
 31
0.0
  0
LINE
  5
1F7
330
1B
100
AcDbEntity
 67
     1
  8
0
  6
Continuous
 62
     7
370
    25
100
AcDbLine
 10
-15.9350393701
 20
11.3811873914
 30
0.0
 11
-15.561023622
 21
11.1652492986
 31
0.0
  0
LINE
  5
1F8
330
1B
100
AcDbEntity
 67
     1
  8
0
  6
Continuous
 62
     7
370
    25
100
AcDbLine
 10
-15.1673228346
 20
11.8471590653
 30
0.0
 11
-15.5413385827
 21
12.0630971581
 31
0.0
  0
LINE
  5
1F9
330
1B
100
AcDbEntity
 67
     1
  8
0
  6
Continuous
 62
     7
370
    25
100
AcDbLine
 10
1.1220472441
 20
14.5078740157
 30
0.0
 11
1.1220472441
 21
15.905511811
 31
0.0
  0
LINE
  5
1FA
330
1B
100
AcDbEntity
 67
     1
  8
0
  6
Continuous
 62
     7
370
    25
100
AcDbLine
 10
6.8897637795
 20
15.905511811
 30
0.0
 11
-7.0472440945
 21
15.905511811
 31
0.0
  0
LINE
  5
1FB
330
1B
100
AcDbEntity
 67
     1
  8
0
  6
Continuous
 62
     7
370
    25
100
AcDbLine
 10
6.8307086614
 20
17.4803149606
 30
0.0
 11
6.8307086614
 21
15.905511811
 31
0.0
  0
LINE
  5
1FC
330
1B
100
AcDbEntity
 67
     1
  8
0
  6
Continuous
 62
     7
370
    25
100
AcDbLine
 10
-6.9881889764
 20
17.4803149606
 30
0.0
 11
-6.9881889764
 21
15.905511811
 31
0.0
  0
LINE
  5
1FD
330
1B
100
AcDbEntity
 67
     1
  8
0
  6
Continuous
 62
     7
370
    25
100
AcDbLine
 10
-7.0472440945
 20
17.4803149606
 30
0.0
 11
6.8897637795
 21
17.4803149606
 31
0.0
  0
LINE
  5
1FE
330
1B
100
AcDbEntity
 67
     1
  8
0
  6
Continuous
 62
     7
370
    25
100
AcDbLine
 10
-7.0472440945
 20
17.4803149606
 30
0.0
 11
-7.0472440945
 21
15.905511811
 31
0.0
  0
LINE
  5
1FF
330
1B
100
AcDbEntity
 67
     1
  8
0
  6
Continuous
 62
     7
370
    25
100
AcDbLine
 10
-7.0669291339
 20
15.9251968504
 30
0.0
 11
-7.0669291339
 21
17.4606299213
 31
0.0
  0
LINE
  5
200
330
1B
100
AcDbEntity
 67
     1
  8
0
  6
Continuous
 62
     7
370
    25
100
AcDbLine
 10
6.9094488189
 20
17.4606299213
 30
0.0
 11
6.9094488189
 21
15.9251968504
 31
0.0
  0
LINE
  5
201
330
1B
100
AcDbEntity
 67
     1
  8
0
  6
Continuous
 62
     7
370
    25
100
AcDbLine
 10
-7.0669291339
 20
15.9251968504
 30
0.0
 11
6.9094488189
 21
15.9251968504
 31
0.0
  0
LINE
  5
202
330
1B
100
AcDbEntity
 67
     1
  8
0
  6
Continuous
 62
     7
370
    25
100
AcDbLine
 10
6.8897637795
 20
15.905511811
 30
0.0
 11
6.8897637795
 21
17.4803149606
 31
0.0
  0
LINE
  5
203
330
1B
100
AcDbEntity
 67
     1
  8
0
  6
Continuous
 62
     7
370
    25
100
AcDbLine
 10
6.9094488189
 20
17.4606299213
 30
0.0
 11
-7.0669291339
 21
17.4606299213
 31
0.0
  0
LINE
  5
204
330
1B
100
AcDbEntity
 67
     1
  8
0
  6
Continuous
 62
     8
370
    25
100
AcDbLine
 10
-1.437007874
 20
13.8583480689
 30
0.0
 11
-16.1417322835
 21
13.8583480689
 31
0.0
  0
ARC
  5
205
330
1B
100
AcDbEntity
 67
     1
  8
0
  6
Continuous
 62
     7
370
    25
100
AcDbCircle
 10
-1.1220472441
 20
14.5472440945
 30
0.0
 40
0.0393700787401559
100
AcDbArc
 50
180.0
 51
270.0
  0
ARC
  5
206
330
1B
100
AcDbEntity
 67
     1
  8
0
  6
Continuous
 62
     7
370
    25
100
AcDbCircle
 10
-1.1220472441
 20
14.5472440945
 30
0.0
 40
0.0196850393700814
100
AcDbArc
 50
180.0
 51
270.0
  0
ARC
  5
207
330
1B
100
AcDbEntity
 67
     1
  8
0
  6
Continuous
 62
     7
370
    25
100
AcDbCircle
 10
-1.4173228346
 20
15.0196850394
 30
0.0
 40
0.0196850393700778
100
AcDbArc
 50
90.0
 51
180.0
  0
ARC
  5
208
330
1B
100
AcDbEntity
 67
     1
  8
0
  6
Continuous
 62
     7
370
    25
100
AcDbCircle
 10
-1.4173228346
 20
13.4842519685
 30
0.0
 40
0.0196850393700778
100
AcDbArc
 50
180.0
 51
270.0
  0
ARC
  5
209
330
1B
100
AcDbEntity
 67
     1
  8
0
  6
Continuous
 62
     7
370
    25
100
AcDbCircle
 10
1.4173228346
 20
15.0196850394
 30
0.0
 40
0.0196850393700796
100
AcDbArc
 50
0.0
 51
90.0
  0
ARC
  5
20A
330
1B
100
AcDbEntity
 67
     1
  8
0
  6
Continuous
 62
     7
370
    25
100
AcDbCircle
 10
1.1614173228
 20
15.0196850394
 30
0.0
 40
0.0196850393700796
100
AcDbArc
 50
90.0
 51
180.0
  0
ARC
  5
20B
330
1B
100
AcDbEntity
 67
     1
  8
0
  6
Continuous
 62
     7
370
    25
100
AcDbCircle
 10
1.1220472441
 20
14.5472440945
 30
0.0
 40
0.0393700787401559
100
AcDbArc
 50
270.0
 51
0.0
  0
ARC
  5
20C
330
1B
100
AcDbEntity
 67
     1
  8
0
  6
Continuous
 62
     7
370
    25
100
AcDbCircle
 10
1.1220472441
 20
14.5472440945
 30
0.0
 40
0.0196850393700796
100
AcDbArc
 50
270.0
 51
0.0
  0
ARC
  5
20D
330
1B
100
AcDbEntity
 67
     1
  8
0
  6
Continuous
 62
     7
370
    25
100
AcDbCircle
 10
-1.1614173228
 20
15.0196850394
 30
0.0
 40
0.019685039370078
100
AcDbArc
 50
0.0
 51
90.0
  0
ARC
  5
20E
330
1B
100
AcDbEntity
 67
     1
  8
0
  6
Continuous
 62
     7
370
    25
100
AcDbCircle
 10
1.4173228346
 20
13.4842519685
 30
0.0
 40
0.0196850393700778
100
AcDbArc
 50
270.0
 51
0.0
  0
ARC
  5
20F
330
1B
100
AcDbEntity
 67
     1
  8
0
  6
Continuous
 62
     7
370
    25
100
AcDbCircle
 10
-15.9251968504
 20
11.3982351355
 30
0.0
 40
0.0196850393700707
100
AcDbArc
 50
180.0
 51
240.0
  0
ARC
  5
210
330
1B
100
AcDbEntity
 67
     1
  8
0
  6
Continuous
 62
     7
370
    25
100
AcDbCircle
 10
-15.9251968504
 20
11.8301113212
 30
0.0
 40
0.0196850393700931
100
AcDbArc
 50
120.0
 51
180.0
  0
ARC
  5
211
330
1B
100
AcDbEntity
 67
     1
  8
0
  6
Continuous
 62
     7
370
    25
100
AcDbCircle
 10
-15.5511811024
 20
12.046049414
 30
0.0
 40
0.0196850393700693
100
AcDbArc
 50
60.0
 51
120.0
  0
ARC
  5
212
330
1B
100
AcDbEntity
 67
     1
  8
0
  6
Continuous
 62
     7
370
    25
100
AcDbCircle
 10
-15.1771653543
 20
11.8301113212
 30
0.0
 40
0.0196850393700831
100
AcDbArc
 50
0.0
 51
60.0
  0
ARC
  5
213
330
1B
100
AcDbEntity
 67
     1
  8
0
  6
Continuous
 62
     7
370
    25
100
AcDbCircle
 10
-15.5511811024
 20
11.1822970427
 30
0.0
 40
0.0196850393700715
100
AcDbArc
 50
240.0
 51
300.0
  0
ARC
  5
214
330
1B
100
AcDbEntity
 67
     1
  8
0
  6
Continuous
 62
     7
370
    25
100
AcDbCircle
 10
-15.1771653543
 20
11.3982351355
 30
0.0
 40
0.0196850393700867
100
AcDbArc
 50
300.0
 51
360.0
  0
ARC
  5
215
330
1B
100
AcDbEntity
 67
     1
  8
0
  6
Continuous
 62
     7
370
    25
100
AcDbCircle
 10
1.1220472441
 20
15.8858267717
 30
0.0
 40
0.0196850393700765
100
AcDbArc
 50
360.0
 51
90.0
  0
ARC
  5
216
330
1B
100
AcDbEntity
 67
     1
  8
0
  6
Continuous
 62
     7
370
    25
100
AcDbCircle
 10
-1.1220472441
 20
15.8858267717
 30
0.0
 40
0.0196850393700796
100
AcDbArc
 50
90.0
 51
180.0
  0
ARC
  5
217
330
1B
100
AcDbEntity
 67
     1
  8
0
  6
Continuous
 62
     7
370
    25
100
AcDbCircle
 10
-7.0472440945
 20
15.9251968504
 30
0.0
 40
0.0196850393700743
100
AcDbArc
 50
180.0
 51
270.0
  0
ARC
  5
218
330
1B
100
AcDbEntity
 67
     1
  8
0
  6
Continuous
 62
     7
370
    25
100
AcDbCircle
 10
-7.0472440945
 20
17.4606299213
 30
0.0
 40
0.0196850393700778
100
AcDbArc
 50
90.0
 51
180.0
  0
ARC
  5
219
330
1B
100
AcDbEntity
 67
     1
  8
0
  6
Continuous
 62
     7
370
    25
100
AcDbCircle
 10
6.8897637795
 20
15.9251968504
 30
0.0
 40
0.0196850393700778
100
AcDbArc
 50
270.0
 51
0.0
  0
ARC
  5
21A
330
1B
100
AcDbEntity
 67
     1
  8
0
  6
Continuous
 62
     7
370
    25
100
AcDbCircle
 10
6.8897637795
 20
17.4606299213
 30
0.0
 40
0.0196850393700814
100
AcDbArc
 50
0.0
 51
90.0
  0
VIEWPORT
  5
4D2
330
1B
100
AcDbEntity
 67
     1
  8
0
100
AcDbViewport
 10
0.0
 20
0.0
 30
0.0
 40
8.4
 41
6.4
 68
     1
 69
     1
 12
0.0
 22
1.8011811024
 13
0.0
 23
0.0
 14
0.5
 24
0.5
 15
0.5
 25
0.5
 16
0.0
 26
0.0
 36
1.0
 17
0.0
 27
0.0
 37
0.0
 42
50.0
 43
0.0
 44
0.0
 45
31.9854330709
 50
0.0
 51
0.0
 72
   100
 90
   557152
  1

281
     0
 71
     1
 74
     0
110
0.0
120
0.0
130
0.0
111
1.0
121
0.0
131
0.0
112
0.0
122
1.0
132
0.0
 79
     0
146
0.0
  0
ENDSEC
  0
SECTION
  2
OBJECTS
  0
DICTIONARY
  5
C
330
0
100
AcDbDictionary
281
     1
  3
ACAD_GROUP
350
D
  3
ACAD_LAYOUT
350
1A
  3
ACAD_MLINESTYLE
350
17
  3
ACAD_PLOTSETTINGS
350
19
  3
ACAD_PLOTSTYLENAME
350
E
  3
ACAD_SCALELIST
350
47
  0
DICTIONARY
  5
D
102
{ACAD_REACTORS
330
C
102
}
330
C
100
AcDbDictionary
281
     1
  0
DICTIONARY
  5
1A
102
{ACAD_REACTORS
330
C
102
}
330
C
100
AcDbDictionary
281
     1
  3
_Back
350
1E
  3
_Isometric
350
31B
  3
_Right
350
26
  3
_Top
350
295
  3
Model
350
22
  0
DICTIONARY
  5
17
102
{ACAD_REACTORS
330
C
102
}
330
C
100
AcDbDictionary
281
     1
  3
Standard
350
18
  0
DICTIONARY
  5
19
102
{ACAD_REACTORS
330
C
102
}
330
C
100
AcDbDictionary
281
     1
  0
ACDBDICTIONARYWDFLT
  5
E
102
{ACAD_REACTORS
330
C
102
}
330
C
100
AcDbDictionary
281
     1
  3
Normal
350
F
100
AcDbDictionaryWithDefault
340
F
  0
DICTIONARY
  5
47
102
{ACAD_REACTORS
330
C
102
}
330
C
100
AcDbDictionary
281
     1
  3
A0
350
48
  3
A1
350
49
  3
A2
350
4A
  3
A3
350
4B
  3
A4
350
4C
  3
A5
350
4D
  3
A6
350
4E
  3
A7
350
4F
  3
A8
350
50
  3
A9
350
51
  3
B0
350
52
  3
B1
350
53
  3
B2
350
54
  3
B3
350
55
  3
B4
350
56
  3
B5
350
57
  3
B6
350
58
  3
B7
350
59
  3
B8
350
5A
  3
B9
350
5B
  3
C0
350
5C
  3
C1
350
5D
  3
C2
350
5E
  3
C3
350
5F
  3
C4
350
60
  3
C5
350
61
  3
C6
350
62
  3
C7
350
63
  3
C8
350
64
  3
C9
350
65
  3
D0
350
66
  3
D1
350
67
  3
D2
350
68
  0
LAYOUT
  5
1E
102
{ACAD_REACTORS
330
1A
102
}
330
1A
100
AcDbPlotSettings
  1

  2
none_device
  4
Letter_(8.50_x_11.00_Inches)
  6

 40
6.35
 41
6.35
 42
6.35001
 43
6.35001
 44
215.9
 45
279.4
 46
0.0
 47
0.0
 48
0.0
 49
0.0
140
0.0
141
0.0
142
1.0
143
3.9197836575
 70
   688
 72
     0
 73
     1
 74
     1
  7

 75
     0
147
0.2551161205
148
450.0
149
352.5
100
AcDbLayout
  1
_Back
 70
     1
 71
     1
 10
-18.6964828907
 20
-14.8578986703
 11
24.4211373415
 21
18.4602624182
 12
0.0
 22
0.0
 32
0.0
 14
-17.7165354331
 24
-13.8779527559
 34
0.0
 15
17.7165354331
 25
17.4803149606
 35
0.0
146
0.0
 13
0.0
 23
0.0
 33
0.0
 16
1.0
 26
0.0
 36
0.0
 17
0.0
 27
1.0
 37
0.0
 76
     0
330
1B
331
4D2
  0
LAYOUT
  5
31B
102
{ACAD_REACTORS
330
1A
102
}
330
1A
100
AcDbPlotSettings
  1

  2
none_device
  4
Letter_(8.50_x_11.00_Inches)
  6

 40
6.35
 41
6.35
 42
6.35001
 43
6.35001
 44
215.9
 45
279.4
 46
0.0
 47
0.0
 48
0.0
 49
0.0
140
0.0
141
0.0
142
1.0
143
3.9197836575
 70
   688
 72
     0
 73
     1
 74
     1
  7

 75
     0
147
0.2551161205
148
450.0
149
352.5
100
AcDbLayout
  1
_Isometric
 70
     1
 71
     4
 10
0.0
 20
0.0
 11
0.0
 21
0.0
 12
0.0
 22
0.0
 32
0.0
 14
0.0
 24
0.0
 34
0.0
 15
0.0
 25
0.0
 35
0.0
146
0.0
 13
0.0
 23
0.0
 33
0.0
 16
1.0
 26
0.0
 36
0.0
 17
0.0
 27
1.0
 37
0.0
 76
     0
330
31A
331
4D8
  0
LAYOUT
  5
26
102
{ACAD_REACTORS
330
1A
102
}
330
1A
100
AcDbPlotSettings
  1

  2
none_device
  4
Letter_(8.50_x_11.00_Inches)
  6

 40
6.35
 41
6.35
 42
6.35001
 43
6.35001
 44
215.9
 45
279.4
 46
0.0
 47
0.0
 48
0.0
 49
0.0
140
0.0
141
0.0
142
1.0
143
3.9197836575
 70
   688
 72
     0
 73
     1
 74
     1
  7

 75
     0
147
0.2551161205
148
450.0
149
352.5
100
AcDbLayout
  1
_Right
 70
     1
 71
     2
 10
0.0
 20
0.0
 11
0.0
 21
0.0
 12
0.0
 22
0.0
 32
0.0
 14
0.0
 24
0.0
 34
0.0
 15
0.0
 25
0.0
 35
0.0
146
0.0
 13
0.0
 23
0.0
 33
0.0
 16
1.0
 26
0.0
 36
0.0
 17
0.0
 27
1.0
 37
0.0
 76
     0
330
23
331
4D4
  0
LAYOUT
  5
295
102
{ACAD_REACTORS
330
1A
102
}
330
1A
100
AcDbPlotSettings
  1

  2
none_device
  4
Letter_(8.50_x_11.00_Inches)
  6

 40
6.35
 41
6.35
 42
6.35001
 43
6.35001
 44
215.9
 45
279.4
 46
0.0
 47
0.0
 48
0.0
 49
0.0
140
0.0
141
0.0
142
1.0
143
3.9197836575
 70
   688
 72
     0
 73
     1
 74
     1
  7

 75
     0
147
0.2551161205
148
450.0
149
352.5
100
AcDbLayout
  1
_Top
 70
     1
 71
     3
 10
0.0
 20
0.0
 11
0.0
 21
0.0
 12
0.0
 22
0.0
 32
0.0
 14
0.0
 24
0.0
 34
0.0
 15
0.0
 25
0.0
 35
0.0
146
0.0
 13
0.0
 23
0.0
 33
0.0
 16
1.0
 26
0.0
 36
0.0
 17
0.0
 27
1.0
 37
0.0
 76
     0
330
294
331
4D6
  0
LAYOUT
  5
22
102
{ACAD_REACTORS
330
1A
102
}
330
1A
100
AcDbPlotSettings
  1

  2
none_device
  4
ANSI_A_(11.00_x_8.50_Inches)
  6

 40
6.35
 41
19.05
 42
6.35000508
 43
19.05000254
 44
279.4
 45
215.9
 46
133.34999746
 47
76.6229733063
 48
0.0
 49
0.0
140
0.0
141
0.0
142
0.2683502825
143
1.0
 70
  1696
 72
     0
 73
     0
 74
     0
  7

 75
     0
147
0.5913241897
148
-39.4088153714
149
0.0
100
AcDbLayout
  1
Model
 70
     1
 71
     0
 10
0.0
 20
0.0
 11
12.0
 21
9.0
 12
0.0
 22
0.0
 32
0.0
 14
-17.7165354331
 24
-13.8779527559
 34
0.0
 15
17.7165354331
 25
17.4803149606
 35
0.0
146
0.0
 13
0.0
 23
0.0
 33
0.0
 16
1.0
 26
0.0
 36
0.0
 17
0.0
 27
1.0
 37
0.0
 76
     0
330
1F
331
29
  0
MLINESTYLE
  5
18
102
{ACAD_REACTORS
330
17
102
}
330
17
100
AcDbMlineStyle
  2
Standard
 70
     0
  3

 62
   256
 51
90.0
 52
90.0
 71
     2
 49
0.5
 62
   256
  6
BYLAYER
 49
-0.5
 62
   256
  6
BYLAYER
  0
ACDBPLACEHOLDER
  5
F
102
{ACAD_REACTORS
330
E
102
}
330
E
  0
SCALE
  5
48
102
{ACAD_REACTORS
330
47
102
}
330
47
100
AcDbScale
 70
     0
300
1:1
140
1.0
141
1.0
290
     1
  0
SCALE
  5
49
102
{ACAD_REACTORS
330
47
102
}
330
47
100
AcDbScale
 70
     0
300
1:2
140
1.0
141
2.0
290
     0
  0
SCALE
  5
4A
102
{ACAD_REACTORS
330
47
102
}
330
47
100
AcDbScale
 70
     0
300
1:4
140
1.0
141
4.0
290
     0
  0
SCALE
  5
4B
102
{ACAD_REACTORS
330
47
102
}
330
47
100
AcDbScale
 70
     0
300
1:5
140
1.0
141
5.0
290
     0
  0
SCALE
  5
4C
102
{ACAD_REACTORS
330
47
102
}
330
47
100
AcDbScale
 70
     0
300
1:8
140
1.0
141
8.0
290
     0
  0
SCALE
  5
4D
102
{ACAD_REACTORS
330
47
102
}
330
47
100
AcDbScale
 70
     0
300
1:10
140
1.0
141
10.0
290
     0
  0
SCALE
  5
4E
102
{ACAD_REACTORS
330
47
102
}
330
47
100
AcDbScale
 70
     0
300
1:16
140
1.0
141
16.0
290
     0
  0
SCALE
  5
4F
102
{ACAD_REACTORS
330
47
102
}
330
47
100
AcDbScale
 70
     0
300
1:20
140
1.0
141
20.0
290
     0
  0
SCALE
  5
50
102
{ACAD_REACTORS
330
47
102
}
330
47
100
AcDbScale
 70
     0
300
1:30
140
1.0
141
30.0
290
     0
  0
SCALE
  5
51
102
{ACAD_REACTORS
330
47
102
}
330
47
100
AcDbScale
 70
     0
300
1:40
140
1.0
141
40.0
290
     0
  0
SCALE
  5
52
102
{ACAD_REACTORS
330
47
102
}
330
47
100
AcDbScale
 70
     0
300
1:50
140
1.0
141
50.0
290
     0
  0
SCALE
  5
53
102
{ACAD_REACTORS
330
47
102
}
330
47
100
AcDbScale
 70
     0
300
1:100
140
1.0
141
100.0
290
     0
  0
SCALE
  5
54
102
{ACAD_REACTORS
330
47
102
}
330
47
100
AcDbScale
 70
     0
300
2:1
140
2.0
141
1.0
290
     0
  0
SCALE
  5
55
102
{ACAD_REACTORS
330
47
102
}
330
47
100
AcDbScale
 70
     0
300
4:1
140
4.0
141
1.0
290
     0
  0
SCALE
  5
56
102
{ACAD_REACTORS
330
47
102
}
330
47
100
AcDbScale
 70
     0
300
8:1
140
8.0
141
1.0
290
     0
  0
SCALE
  5
57
102
{ACAD_REACTORS
330
47
102
}
330
47
100
AcDbScale
 70
     0
300
10:1
140
10.0
141
1.0
290
     0
  0
SCALE
  5
58
102
{ACAD_REACTORS
330
47
102
}
330
47
100
AcDbScale
 70
     0
300
100:1
140
100.0
141
1.0
290
     0
  0
SCALE
  5
59
102
{ACAD_REACTORS
330
47
102
}
330
47
100
AcDbScale
 70
     0
300
1/128" = 1'-0"
140
0.0078125
141
12.0
290
     0
  0
SCALE
  5
5A
102
{ACAD_REACTORS
330
47
102
}
330
47
100
AcDbScale
 70
     0
300
1/64" = 1'-0"
140
0.015625
141
12.0
290
     0
  0
SCALE
  5
5B
102
{ACAD_REACTORS
330
47
102
}
330
47
100
AcDbScale
 70
     0
300
1/32" = 1'-0"
140
0.03125
141
12.0
290
     0
  0
SCALE
  5
5C
102
{ACAD_REACTORS
330
47
102
}
330
47
100
AcDbScale
 70
     0
300
1/16" = 1'-0"
140
0.0625
141
12.0
290
     0
  0
SCALE
  5
5D
102
{ACAD_REACTORS
330
47
102
}
330
47
100
AcDbScale
 70
     0
300
3/32" = 1'-0"
140
0.09375
141
12.0
290
     0
  0
SCALE
  5
5E
102
{ACAD_REACTORS
330
47
102
}
330
47
100
AcDbScale
 70
     0
300
1/8" = 1'-0"
140
0.125
141
12.0
290
     0
  0
SCALE
  5
5F
102
{ACAD_REACTORS
330
47
102
}
330
47
100
AcDbScale
 70
     0
300
3/16" = 1'-0"
140
0.1875
141
12.0
290
     0
  0
SCALE
  5
60
102
{ACAD_REACTORS
330
47
102
}
330
47
100
AcDbScale
 70
     0
300
1/4" = 1'-0"
140
0.25
141
12.0
290
     0
  0
SCALE
  5
61
102
{ACAD_REACTORS
330
47
102
}
330
47
100
AcDbScale
 70
     0
300
3/8" = 1'-0"
140
0.375
141
12.0
290
     0
  0
SCALE
  5
62
102
{ACAD_REACTORS
330
47
102
}
330
47
100
AcDbScale
 70
     0
300
1/2" = 1'-0"
140
0.5
141
12.0
290
     0
  0
SCALE
  5
63
102
{ACAD_REACTORS
330
47
102
}
330
47
100
AcDbScale
 70
     0
300
3/4" = 1'-0"
140
0.75
141
12.0
290
     0
  0
SCALE
  5
64
102
{ACAD_REACTORS
330
47
102
}
330
47
100
AcDbScale
 70
     0
300
1" = 1'-0"
140
1.0
141
12.0
290
     0
  0
SCALE
  5
65
102
{ACAD_REACTORS
330
47
102
}
330
47
100
AcDbScale
 70
     0
300
1-1/2" = 1'-0"
140
1.5
141
12.0
290
     0
  0
SCALE
  5
66
102
{ACAD_REACTORS
330
47
102
}
330
47
100
AcDbScale
 70
     0
300
3" = 1'-0"
140
3.0
141
12.0
290
     0
  0
SCALE
  5
67
102
{ACAD_REACTORS
330
47
102
}
330
47
100
AcDbScale
 70
     0
300
6" = 1'-0"
140
6.0
141
12.0
290
     0
  0
SCALE
  5
68
102
{ACAD_REACTORS
330
47
102
}
330
47
100
AcDbScale
 70
     0
300
1'-0" = 1'-0"
140
12.0
141
12.0
290
     0
  0
ENDSEC
  0
EOF
