  0
SECTION
  2
HEADER
  9
$ACADVER
  1
AC1015
  9
$ACADMAINTVER
 70
     6
  9
$DWGCODEPAGE
  3
ANSI_1252
  9
$INSBASE
 10
0.0
 20
0.0
 30
0.0
  9
$EXTMIN
 10
-249.7310993736
 20
-420.0
 30
0.0
  9
$EXTMAX
 10
249.7310993736
 20
429.0
 30
0.0
  9
$LIMMIN
 10
0.0
 20
0.0
  9
$LIMMAX
 10
420.0
 20
297.0
  9
$ORTHOMODE
 70
     0
  9
$REGENMODE
 70
     1
  9
$FILLMODE
 70
     1
  9
$QTEXTMODE
 70
     0
  9
$MIRRTEXT
 70
     1
  9
$LTSCALE
 40
1.0
  9
$ATTMODE
 70
     1
  9
$TEXTSIZE
 40
3.5
  9
$TRACEWID
 40
1.0
  9
$TEXTSTYLE
  7
Standard
  9
$CLAYER
  8
0
  9
$CELTYPE
  6
ByLayer
  9
$CECOLOR
 62
   256
  9
$CELTSCALE
 40
1.0
  9
$DISPSILH
 70
     0
  9
$DIMSCALE
 40
1.0
  9
$DIMASZ
 40
3.302
  9
$DIMEXO
 40
1.0
  9
$DIMDLI
 40
3.75
  9
$DIMRND
 40
0.0
  9
$DIMDLE
 40
0.0
  9
$DIMEXE
 40
1.0
  9
$DIMTP
 40
0.0
  9
$DIMTM
 40
0.0
  9
$DIMTXT
 40
3.5
  9
$DIMCEN
 40
2.5
  9
$DIMTSZ
 40
0.0
  9
$DIMTOL
 70
     0
  9
$DIMLIM
 70
     0
  9
$DIMTIH
 70
     1
  9
$DIMTOH
 70
     1
  9
$DIMSE1
 70
     0
  9
$DIMSE2
 70
     0
  9
$DIMTAD
 70
     1
  9
$DIMZIN
 70
     1
  9
$DIMBLK
  1

  9
$DIMASO
 70
     1
  9
$DIMSHO
 70
     1
  9
$DIMPOST
  1

  9
$DIMAPOST
  1

  9
$DIMALT
 70
     0
  9
$DIMALTD
 70
     3
  9
$DIMALTF
 40
0.0393700787
  9
$DIMLFAC
 40
1.0
  9
$DIMTOFL
 70
     1
  9
$DIMTVP
 40
0.0
  9
$DIMTIX
 70
     0
  9
$DIMSOXD
 70
     0
  9
$DIMSAH
 70
     0
  9
$DIMBLK1
  1

  9
$DIMBLK2
  1

  9
$DIMSTYLE
  2
ISO-25
  9
$DIMCLRD
 70
     0
  9
$DIMCLRE
 70
     0
  9
$DIMCLRT
 70
     0
  9
$DIMTFAC
 40
1.0
  9
$DIMGAP
 40
1.524
  9
$DIMJUST
 70
     0
  9
$DIMSD1
 70
     0
  9
$DIMSD2
 70
     0
  9
$DIMTOLJ
 70
     0
  9
$DIMTZIN
 70
     1
  9
$DIMALTZ
 70
     0
  9
$DIMALTTZ
 70
     0
  9
$DIMUPT
 70
     0
  9
$DIMDEC
 70
     2
  9
$DIMTDEC
 70
     2
  9
$DIMALTU
 70
     2
  9
$DIMALTTD
 70
     3
  9
$DIMTXSTY
  7
Standard
  9
$DIMAUNIT
 70
     0
  9
$DIMADEC
 70
     2
  9
$DIMALTRND
 40
0.0
  9
$DIMAZIN
 70
     0
  9
$DIMDSEP
 70
    44
  9
$DIMATFIT
 70
     3
  9
$DIMFRAC
 70
     0
  9
$DIMLDRBLK
  1

  9
$DIMLUNIT
 70
     2
  9
$DIMLWD
 70
    -2
  9
$DIMLWE
 70
    -2
  9
$DIMTMOVE
 70
     0
  9
$LUNITS
 70
     2
  9
$LUPREC
 70
     2
  9
$SKETCHINC
 40
1.0
  9
$FILLETRAD
 40
10.0
  9
$AUNITS
 70
     0
  9
$AUPREC
 70
     2
  9
$MENU
  1
.
  9
$ELEVATION
 40
0.0
  9
$PELEVATION
 40
0.0
  9
$THICKNESS
 40
0.0
  9
$LIMCHECK
 70
     0
  9
$CHAMFERA
 40
0.0
  9
$CHAMFERB
 40
0.0
  9
$CHAMFERC
 40
0.0
  9
$CHAMFERD
 40
0.0
  9
$SKPOLY
 70
     0
  9
$TDCREATE
 40
2458862.43674647
  9
$TDUCREATE
 40
2458862.43674647
  9
$TDUPDATE
 40
2458862.436781076
  9
$TDUUPDATE
 40
2458862.436781076
  9
$TDINDWG
 40
0.0000000116
  9
$TDUSRTIMER
 40
0.0000000116
  9
$USRTIMER
 70
     1
  9
$ANGBASE
 50
0.0
  9
$ANGDIR
 70
     0
  9
$PDMODE
 70
     0
  9
$PDSIZE
 40
-1.0
  9
$PLINEWID
 40
0.0
  9
$SPLFRAME
 70
     0
  9
$SPLINETYPE
 70
     6
  9
$SPLINESEGS
 70
     8
  9
$HANDSEED
  5
5AA
  9
$SURFTAB1
 70
     6
  9
$SURFTAB2
 70
     6
  9
$SURFTYPE
 70
     6
  9
$SURFU
 70
     6
  9
$SURFV
 70
     6
  9
$UCSBASE
  2

  9
$UCSNAME
  2

  9
$UCSORG
 10
0.0
 20
0.0
 30
0.0
  9
$UCSXDIR
 10
1.0
 20
0.0
 30
0.0
  9
$UCSYDIR
 10
0.0
 20
1.0
 30
0.0
  9
$UCSORTHOREF
  2

  9
$UCSORTHOVIEW
 70
     0
  9
$UCSORGTOP
 10
0.0
 20
0.0
 30
0.0
  9
$UCSORGBOTTOM
 10
0.0
 20
0.0
 30
0.0
  9
$UCSORGLEFT
 10
0.0
 20
0.0
 30
0.0
  9
$UCSORGRIGHT
 10
0.0
 20
0.0
 30
0.0
  9
$UCSORGFRONT
 10
0.0
 20
0.0
 30
0.0
  9
$UCSORGBACK
 10
0.0
 20
0.0
 30
0.0
  9
$PUCSBASE
  2

  9
$PUCSNAME
  2

  9
$PUCSORG
 10
0.0
 20
0.0
 30
0.0
  9
$PUCSXDIR
 10
1.0
 20
0.0
 30
0.0
  9
$PUCSYDIR
 10
0.0
 20
1.0
 30
0.0
  9
$PUCSORTHOREF
  2

  9
$PUCSORTHOVIEW
 70
     0
  9
$PUCSORGTOP
 10
0.0
 20
0.0
 30
0.0
  9
$PUCSORGBOTTOM
 10
0.0
 20
0.0
 30
0.0
  9
$PUCSORGLEFT
 10
0.0
 20
0.0
 30
0.0
  9
$PUCSORGRIGHT
 10
0.0
 20
0.0
 30
0.0
  9
$PUCSORGFRONT
 10
0.0
 20
0.0
 30
0.0
  9
$PUCSORGBACK
 10
0.0
 20
0.0
 30
0.0
  9
$USERI1
 70
     0
  9
$USERI2
 70
     0
  9
$USERI3
 70
     0
  9
$USERI4
 70
     0
  9
$USERI5
 70
     0
  9
$USERR1
 40
0.0
  9
$USERR2
 40
0.0
  9
$USERR3
 40
0.0
  9
$USERR4
 40
0.0
  9
$USERR5
 40
0.0
  9
$WORLDVIEW
 70
     1
  9
$SHADEDGE
 70
     3
  9
$SHADEDIF
 70
    70
  9
$TILEMODE
 70
     1
  9
$MAXACTVP
 70
    64
  9
$PINSBASE
 10
0.0
 20
0.0
 30
0.0
  9
$PLIMCHECK
 70
     0
  9
$PEXTMIN
 10
-249.7310993736
 20
-420.0
 30
0.0
  9
$PEXTMAX
 10
249.7310993736
 20
429.0
 30
0.0
  9
$PLIMMIN
 10
-336.8080224505
 20
-452.6538461538
  9
$PLIMMAX
 10
956.2842852418
 20
461.6538461538
  9
$UNITMODE
 70
     0
  9
$VISRETAIN
 70
     1
  9
$PLINEGEN
 70
     0
  9
$PSLTSCALE
 70
     1
  9
$TREEDEPTH
 70
  3020
  9
$CMLSTYLE
  2
Standard
  9
$CMLJUST
 70
     0
  9
$CMLSCALE
 40
20.0
  9
$PROXYGRAPHICS
 70
     1
  9
$MEASUREMENT
 70
     1
  9
$CELWEIGHT
370
    -1
  9
$ENDCAPS
280
     0
  9
$JOINSTYLE
280
     0
  9
$LWDISPLAY
290
     1
  9
$INSUNITS
 70
     4
  9
$HYPERLINKBASE
  1

  9
$STYLESHEET
  1

  9
$XEDIT
290
     1
  9
$CEPSNTYPE
380
     0
  9
$PSTYLEMODE
290
     1
  9
$FINGERPRINTGUID
  2
{c28e3518-14ab-4c81-9cd7-4d0dc8179a4d}
  9
$VERSIONGUID
  2
{FAEB1C32-E019-11D5-929B-00C0DF256EC4}
  9
$EXTNAMES
290
     1
  9
$PSVPSCALE
 40
0.0
  9
$OLESTARTUP
290
     0
  0
ENDSEC
  0
SECTION
  2
CLASSES
  0
CLASS
  1
ACDBDICTIONARYWDFLT
  2
AcDbDictionaryWithDefault
  3
ObjectDBX Classes
 90
        0
280
     0
281
     0
  0
CLASS
  1
VISUALSTYLE
  2
AcDbVisualStyle
  3
ObjectDBX Classes
 90
     4095
280
     0
281
     0
  0
CLASS
  1
MATERIAL
  2
AcDbMaterial
  3
ObjectDBX Classes
 90
     1153
280
     0
281
     0
  0
CLASS
  1
SCALE
  2
AcDbScale
  3
ObjectDBX Classes
 90
     1153
280
     0
281
     0
  0
CLASS
  1
TABLESTYLE
  2
AcDbTableStyle
  3
ObjectDBX Classes
 90
     4095
280
     0
281
     0
  0
CLASS
  1
MLEADERSTYLE
  2
AcDbMLeaderStyle
  3
ACDB_MLEADERSTYLE_CLASS
 90
     4095
280
     0
281
     0
  0
CLASS
  1
SUN
  2
AcDbSun
  3
SCENEOE
 90
     1153
280
     0
281
     0
  0
CLASS
  1
ACDBPLACEHOLDER
  2
AcDbPlaceHolder
  3
ObjectDBX Classes
 90
        0
280
     0
281
     0
  0
CLASS
  1
LAYOUT
  2
AcDbLayout
  3
ObjectDBX Classes
 90
        0
280
     0
281
     0
  0
ENDSEC
  0
SECTION
  2
TABLES
  0
TABLE
  2
VPORT
  5
8
330
0
100
AcDbSymbolTable
 70
     1
  0
VPORT
  5
29
330
8
100
AcDbSymbolTableRecord
100
AcDbViewportTableRecord
  2
*Active
 70
     0
 10
0.0
 20
0.0
 11
1.0
 21
1.0
 12
0.0
 22
4.5
 13
0.0
 23
0.0
 14
10.0
 24
10.0
 15
10.0
 25
10.0
 16
0.0
 26
0.0
 36
1.0
 17
0.0
 27
0.0
 37
0.0
 40
865.98
 41
0.5882946982
 42
50.0
 43
0.0
 44
0.0
 50
0.0
 51
0.0
 71
     0
 72
   100
 73
     1
 74
     3
 75
     0
 76
     0
 77
     0
 78
     0
281
     0
 65
     1
110
0.0
120
0.0
130
0.0
111
1.0
121
0.0
131
0.0
112
0.0
122
1.0
132
0.0
 79
     0
146
0.0
  0
ENDTAB
  0
TABLE
  2
LTYPE
  5
5
330
0
100
AcDbSymbolTable
 70
     6
  0
LTYPE
  5
14
330
5
100
AcDbSymbolTableRecord
100
AcDbLinetypeTableRecord
  2
ByBlock
 70
     0
  3

 72
    65
 73
     0
 40
0.0
  0
LTYPE
  5
15
330
5
100
AcDbSymbolTableRecord
100
AcDbLinetypeTableRecord
  2
ByLayer
 70
     0
  3

 72
    65
 73
     0
 40
0.0
  0
LTYPE
  5
16
330
5
100
AcDbSymbolTableRecord
100
AcDbLinetypeTableRecord
  2
Continuous
 70
     0
  3
Solid line
 72
    65
 73
     0
 40
0.0
  0
LTYPE
  5
6E
330
5
100
AcDbSymbolTableRecord
100
AcDbLinetypeTableRecord
  2
HIDDEN
 70
     0
  3
Hidden __ __ __ __ __ __ __ __ __ __ __ __ __ __
 72
    65
 73
     2
 40
1.905
 49
1.27
 74
     0
 49
-0.635
 74
     0
  0
LTYPE
  5
6F
330
5
100
AcDbSymbolTableRecord
100
AcDbLinetypeTableRecord
  2
PHANTOM
 70
     0
  3
Phantom ______  __  __  ______  __  __  ______
 72
    65
 73
     6
 40
12.7
 49
6.35
 74
     0
 49
-1.27
 74
     0
 49
1.27
 74
     0
 49
-1.27
 74
     0
 49
1.27
 74
     0
 49
-1.27
 74
     0
  0
LTYPE
  5
70
330
5
100
AcDbSymbolTableRecord
100
AcDbLinetypeTableRecord
  2
CENTER
 70
     0
  3
Center ____ _ ____ _ ____ _ ____ _ ____ _ ____
 72
    65
 73
     4
 40
10.16
 49
6.35
 74
     0
 49
-1.27
 74
     0
 49
1.27
 74
     0
 49
-1.27
 74
     0
  0
LTYPE
  5
71
330
5
100
AcDbSymbolTableRecord
100
AcDbLinetypeTableRecord
  2
CENTERX2
 70
     0
  3
Center (2x) ________  __  ________  __  _____
 72
    65
 73
     4
 40
20.32
 49
12.7
 74
     0
 49
-2.54
 74
     0
 49
2.54
 74
     0
 49
-2.54
 74
     0
  0
LTYPE
  5
72
330
5
100
AcDbSymbolTableRecord
100
AcDbLinetypeTableRecord
  2
DOT2
 70
     0
  3
Dot (.5x) ........................................
 72
    65
 73
     2
 40
0.635
 49
0.0
 74
     0
 49
-0.635
 74
     0
  0
ENDTAB
  0
TABLE
  2
LAYER
  5
2
330
0
100
AcDbSymbolTable
 70
     1
  0
LAYER
  5
10
330
2
100
AcDbSymbolTableRecord
100
AcDbLayerTableRecord
  2
0
 70
     0
 62
     7
  6
Continuous
370
    -3
390
F
  0
ENDTAB
  0
TABLE
  2
STYLE
  5
3
330
0
100
AcDbSymbolTable
 70
     1
  0
STYLE
  5
11
330
3
100
AcDbSymbolTableRecord
100
AcDbTextStyleTableRecord
  2
Standard
 70
     0
 40
0.0
 41
1.0
 50
0.0
 71
     0
 42
3.5
  3
txt
  4

  0
ENDTAB
  0
TABLE
  2
VIEW
  5
6
330
0
100
AcDbSymbolTable
 70
     0
  0
ENDTAB
  0
TABLE
  2
UCS
  5
7
330
0
100
AcDbSymbolTable
 70
     0
  0
ENDTAB
  0
TABLE
  2
APPID
  5
9
330
0
100
AcDbSymbolTable
 70
     1
  0
APPID
  5
12
330
9
100
AcDbSymbolTableRecord
100
AcDbRegAppTableRecord
  2
ACAD
 70
     0
  0
ENDTAB
  0
TABLE
  2
DIMSTYLE
  5
A
330
0
100
AcDbSymbolTable
 70
     1
100
AcDbDimStyleTable
  0
DIMSTYLE
105
27
330
A
100
AcDbSymbolTableRecord
100
AcDbDimStyleTableRecord
  2
ISO-25
 70
     0
 41
2.5
 42
0.625
 43
3.75
 44
1.25
 73
     0
 74
     0
 77
     1
 78
     8
140
2.5
141
2.5
143
0.0393700787
147
0.625
171
     3
172
     1
178
     0
271
     2
272
     2
274
     3
278
    44
283
     0
284
     8
340
11
  0
ENDTAB
  0
TABLE
  2
BLOCK_RECORD
  5
1
330
0
100
AcDbSymbolTable
 70
     7
  0
BLOCK_RECORD
  5
1F
330
1
100
AcDbSymbolTableRecord
100
AcDbBlockTableRecord
  2
*Model_Space
340
22
  0
BLOCK_RECORD
  5
1B
330
1
100
AcDbSymbolTableRecord
100
AcDbBlockTableRecord
  2
*Paper_Space
340
1E
  0
BLOCK_RECORD
  5
23
330
1
100
AcDbSymbolTableRecord
100
AcDbBlockTableRecord
  2
*Paper_Space0
340
26
  0
BLOCK_RECORD
  5
1CA
330
1
100
AcDbSymbolTableRecord
100
AcDbBlockTableRecord
  2
*Paper_Space1
340
1CB
  0
BLOCK_RECORD
  5
20C
330
1
100
AcDbSymbolTableRecord
100
AcDbBlockTableRecord
  2
*Paper_Space2
340
20D
  0
BLOCK_RECORD
  5
28D
330
1
100
AcDbSymbolTableRecord
100
AcDbBlockTableRecord
  2
*Paper_Space3
340
28E
  0
BLOCK_RECORD
  5
310
330
1
100
AcDbSymbolTableRecord
100
AcDbBlockTableRecord
  2
*Paper_Space4
340
311
  0
BLOCK_RECORD
  5
3FA
330
1
100
AcDbSymbolTableRecord
100
AcDbBlockTableRecord
  2
*Paper_Space5
340
3FB
  0
BLOCK_RECORD
  5
4DA
330
1
100
AcDbSymbolTableRecord
100
AcDbBlockTableRecord
  2
*Paper_Space6
340
4DB
  0
ENDTAB
  0
ENDSEC
  0
SECTION
  2
BLOCKS
  0
BLOCK
  5
20
330
1F
100
AcDbEntity
  8
0
100
AcDbBlockBegin
  2
*Model_Space
 70
     0
 10
0.0
 20
0.0
 30
0.0
  3
*Model_Space
  1

  0
ENDBLK
  5
21
330
1F
100
AcDbEntity
  8
0
100
AcDbBlockEnd
  0
BLOCK
  5
1C
330
1B
100
AcDbEntity
 67
     1
  8
0
100
AcDbBlockBegin
  2
*Paper_Space
 70
     0
 10
0.0
 20
0.0
 30
0.0
  3
*Paper_Space
  1

  0
ENDBLK
  5
1D
330
1B
100
AcDbEntity
 67
     1
  8
0
100
AcDbBlockEnd
  0
BLOCK
  5
24
330
23
100
AcDbEntity
  8
0
100
AcDbBlockBegin
  2
*Paper_Space0
 70
     0
 10
0.0
 20
0.0
 30
0.0
  3
*Paper_Space0
  1

  0
LINE
  5
1B4
330
23
100
AcDbEntity
  8
0
  6
Continuous
 62
     7
370
    25
100
AcDbLine
 10
134.5
 20
318.0
 30
0.0
 11
134.5
 21
-368.0
 31
0.0
  0
LINE
  5
1B5
330
23
100
AcDbEntity
  8
0
  6
Continuous
 62
     7
370
    25
100
AcDbLine
 10
124.859601858
 20
318.0
 30
0.0
 11
124.859601858
 21
-368.0
 31
0.0
  0
LINE
  5
1B6
330
23
100
AcDbEntity
  8
0
  6
Continuous
 62
     7
370
    25
100
AcDbLine
 10
124.0346340601
 20
318.0
 30
0.0
 11
134.5
 21
318.0
 31
0.0
  0
LINE
  5
1B7
330
23
100
AcDbEntity
  8
0
  6
Continuous
 62
     7
370
    25
100
AcDbLine
 10
134.5
 20
-368.0
 30
0.0
 11
124.0346340601
 21
-368.0
 31
0.0
  0
LINE
  5
1B8
330
23
100
AcDbEntity
  8
0
  6
Continuous
 62
     7
370
    25
100
AcDbLine
 10
134.5
 20
370.0
 30
0.0
 11
134.5
 21
320.0
 31
0.0
  0
LINE
  5
1B9
330
23
100
AcDbEntity
  8
0
  6
Continuous
 62
     7
370
    25
100
AcDbLine
 10
124.0346340601
 20
370.0
 30
0.0
 11
124.0346340601
 21
-420.0
 31
0.0
  0
LINE
  5
1BA
330
23
100
AcDbEntity
  8
0
  6
Continuous
 62
     7
370
    25
100
AcDbLine
 10
134.5
 20
320.0
 30
0.0
 11
124.0346340601
 21
320.0
 31
0.0
  0
LINE
  5
1BB
330
23
100
AcDbEntity
  8
0
  6
Continuous
 62
     7
370
    25
100
AcDbLine
 10
-137.5
 20
370.0
 30
0.0
 11
134.5
 21
370.0
 31
0.0
  0
LINE
  5
1BC
330
23
100
AcDbEntity
  8
0
  6
Continuous
 62
     7
370
    25
100
AcDbLine
 10
94.5
 20
-420.0
 30
0.0
 11
94.5
 21
370.0
 31
0.0
  0
LINE
  5
1BD
330
23
100
AcDbEntity
  8
0
  6
Continuous
 62
     7
370
    25
100
AcDbLine
 10
-137.5
 20
-420.0
 30
0.0
 11
134.5
 21
-420.0
 31
0.0
  0
LINE
  5
1BE
330
23
100
AcDbEntity
  8
0
  6
Continuous
 62
     7
370
    25
100
AcDbLine
 10
124.0346340601
 20
-370.0
 30
0.0
 11
134.5
 21
-370.0
 31
0.0
  0
LINE
  5
1BF
330
23
100
AcDbEntity
  8
0
  6
Continuous
 62
     7
370
    25
100
AcDbLine
 10
134.5
 20
-370.0
 30
0.0
 11
134.5
 21
-420.0
 31
0.0
  0
LINE
  5
1C0
330
23
100
AcDbEntity
  8
0
  6
Continuous
 62
     7
370
    25
100
AcDbLine
 10
117.5
 20
370.0
 30
0.0
 11
117.5
 21
370.0247137535
 31
0.0
  0
LINE
  5
1C1
330
23
100
AcDbEntity
  8
0
  6
Continuous
 62
     7
370
    25
100
AcDbLine
 10
-137.5
 20
429.0
 30
0.0
 11
137.2310993736
 21
429.0
 31
0.0
  0
LINE
  5
1C2
330
23
100
AcDbEntity
  8
0
  6
Continuous
 62
     7
370
    25
100
AcDbLine
 10
97.5
 20
370.0247137535
 30
0.0
 11
97.5
 21
429.0
 31
0.0
  0
LINE
  5
1C3
330
23
100
AcDbEntity
  8
0
  6
Continuous
 62
     7
370
    25
100
AcDbLine
 10
142.2242470474
 20
423.7383202188
 30
0.0
 11
-137.5
 21
423.7383202188
 31
0.0
  0
LINE
  5
1C4
330
23
100
AcDbEntity
  8
0
  6
Continuous
 62
     7
370
    25
100
AcDbLine
 10
-137.5
 20
-420.0
 30
0.0
 11
-137.5
 21
429.0
 31
0.0
  0
LINE
  5
1C5
330
23
100
AcDbEntity
  8
0
  6
Continuous
 62
     7
370
    25
100
AcDbLine
 10
-137.5
 20
373.790656175
 30
0.0
 11
139.6066008945
 21
373.790656175
 31
0.0
  0
LINE
  5
1C6
330
23
100
AcDbEntity
  8
0
  6
Continuous
 62
     7
370
    25
100
AcDbLine
 10
139.6066008945
 20
373.790656175
 30
0.0
 11
142.2242470474
 21
423.7383202188
 31
0.0
  0
LINE
  5
1C7
330
23
100
AcDbEntity
  8
0
  6
Continuous
 62
     7
370
    25
100
AcDbLine
 10
136.0560413777
 20
370.0247137535
 30
0.0
 11
-137.5
 21
370.0247137535
 31
0.0
  0
ARC
  5
1C8
330
23
100
AcDbEntity
  8
0
  6
Continuous
 62
     7
370
    25
100
AcDbCircle
 10
137.2310993736
 20
424.0
 30
0.0
 40
5.0
100
AcDbArc
 50
357.0
 51
90.0
  0
ARC
  5
1C9
330
23
100
AcDbEntity
  8
0
  6
Continuous
 62
     7
370
    25
100
AcDbCircle
 10
135.6120827554
 20
374.0
 30
0.0
 40
4.000000000000005
100
AcDbArc
 50
276.3723680084
 51
357.0
  0
VIEWPORT
  5
59C
330
23
100
AcDbEntity
  8
0
100
AcDbViewport
 10
0.0
 20
0.0
 30
0.0
 40
205.6
 41
156.0
 68
     1
 69
     1
 12
0.0
 22
4.5
 13
0.0
 23
0.0
 14
10.0
 24
10.0
 15
10.0
 25
10.0
 16
0.0
 26
0.0
 36
1.0
 17
0.0
 27
0.0
 37
0.0
 42
50.0
 43
0.0
 44
0.0
 45
865.98
 50
0.0
 51
0.0
 72
   100
 90
   557152
  1

281
     0
 71
     1
 74
     0
110
0.0
120
0.0
130
0.0
111
1.0
121
0.0
131
0.0
112
0.0
122
1.0
132
0.0
 79
     0
146
0.0
  0
ENDBLK
  5
25
330
23
100
AcDbEntity
  8
0
100
AcDbBlockEnd
  0
BLOCK
  5
1CC
330
1CA
100
AcDbEntity
  8
0
100
AcDbBlockBegin
  2
*Paper_Space1
 70
     0
 10
0.0
 20
0.0
 30
0.0
  3
*Paper_Space1
  1

  0
LINE
  5
1F6
330
1CA
100
AcDbEntity
  8
0
  6
Continuous
 62
     7
370
    25
100
AcDbLine
 10
-124.0346340601
 20
370.0
 30
0.0
 11
-124.0346340601
 21
-420.0
 31
0.0
  0
LINE
  5
1F7
330
1CA
100
AcDbEntity
  8
0
  6
Continuous
 62
     7
370
    25
100
AcDbLine
 10
-134.5
 20
320.0
 30
0.0
 11
-134.5
 21
370.0
 31
0.0
  0
LINE
  5
1F8
330
1CA
100
AcDbEntity
  8
0
  6
Continuous
 62
     7
370
    25
100
AcDbLine
 10
-134.5
 20
370.0
 30
0.0
 11
137.5
 21
370.0
 31
0.0
  0
LINE
  5
1F9
330
1CA
100
AcDbEntity
  8
0
  6
Continuous
 62
     7
370
    25
100
AcDbLine
 10
-124.0346340601
 20
320.0
 30
0.0
 11
-134.5
 21
320.0
 31
0.0
  0
LINE
  5
1FA
330
1CA
100
AcDbEntity
  8
0
  6
Continuous
 62
     7
370
    25
100
AcDbLine
 10
-94.5
 20
370.0
 30
0.0
 11
-94.5
 21
-420.0
 31
0.0
  0
LINE
  5
1FB
330
1CA
100
AcDbEntity
  8
0
  6
Continuous
 62
     7
370
    25
100
AcDbLine
 10
-134.5
 20
-420.0
 30
0.0
 11
137.5
 21
-420.0
 31
0.0
  0
LINE
  5
1FC
330
1CA
100
AcDbEntity
  8
0
  6
Continuous
 62
     7
370
    25
100
AcDbLine
 10
-134.5
 20
-420.0
 30
0.0
 11
-134.5
 21
-370.0
 31
0.0
  0
LINE
  5
1FD
330
1CA
100
AcDbEntity
  8
0
  6
Continuous
 62
     7
370
    25
100
AcDbLine
 10
-134.5
 20
-370.0
 30
0.0
 11
-124.0346340601
 21
-370.0
 31
0.0
  0
LINE
  5
1FE
330
1CA
100
AcDbEntity
  8
0
  6
Continuous
 62
     7
370
    25
100
AcDbLine
 10
-117.5
 20
370.0
 30
0.0
 11
-117.5
 21
370.0247137535
 31
0.0
  0
LINE
  5
1FF
330
1CA
100
AcDbEntity
  8
0
  6
Continuous
 62
     7
370
    25
100
AcDbLine
 10
137.5
 20
423.7383202188
 30
0.0
 11
-142.2242470474
 21
423.7383202188
 31
0.0
  0
LINE
  5
200
330
1CA
100
AcDbEntity
  8
0
  6
Continuous
 62
     7
370
    25
100
AcDbLine
 10
-97.5
 20
370.0247137535
 30
0.0
 11
-97.5
 21
429.0
 31
0.0
  0
LINE
  5
201
330
1CA
100
AcDbEntity
  8
0
  6
Continuous
 62
     7
370
    25
100
AcDbLine
 10
-137.2310993736
 20
429.0
 30
0.0
 11
137.5
 21
429.0
 31
0.0
  0
LINE
  5
202
330
1CA
100
AcDbEntity
  8
0
  6
Continuous
 62
     7
370
    25
100
AcDbLine
 10
137.5
 20
-420.0
 30
0.0
 11
137.5
 21
429.0
 31
0.0
  0
LINE
  5
203
330
1CA
100
AcDbEntity
  8
0
  6
Continuous
 62
     7
370
    25
100
AcDbLine
 10
-139.6066008945
 20
373.790656175
 30
0.0
 11
137.5
 21
373.790656175
 31
0.0
  0
LINE
  5
204
330
1CA
100
AcDbEntity
  8
0
  6
Continuous
 62
     7
370
    25
100
AcDbLine
 10
-139.6066008945
 20
373.790656175
 30
0.0
 11
-142.2242470474
 21
423.7383202188
 31
0.0
  0
LINE
  5
205
330
1CA
100
AcDbEntity
  8
0
  6
Continuous
 62
     7
370
    25
100
AcDbLine
 10
137.5
 20
370.0247137535
 30
0.0
 11
-136.0560413777
 21
370.0247137535
 31
0.0
  0
LINE
  5
206
330
1CA
100
AcDbEntity
  8
0
  6
Continuous
 62
     7
370
    25
100
AcDbLine
 10
-124.859601858
 20
-368.0
 30
0.0
 11
-124.859601858
 21
318.0
 31
0.0
  0
LINE
  5
207
330
1CA
100
AcDbEntity
  8
0
  6
Continuous
 62
     7
370
    25
100
AcDbLine
 10
-124.0346340601
 20
-368.0
 30
0.0
 11
-134.5
 21
-368.0
 31
0.0
  0
LINE
  5
208
330
1CA
100
AcDbEntity
  8
0
  6
Continuous
 62
     7
370
    25
100
AcDbLine
 10
-134.5
 20
318.0
 30
0.0
 11
-124.0346340601
 21
318.0
 31
0.0
  0
LINE
  5
209
330
1CA
100
AcDbEntity
  8
0
  6
Continuous
 62
     7
370
    25
100
AcDbLine
 10
-134.5
 20
-368.0
 30
0.0
 11
-134.5
 21
318.0
 31
0.0
  0
ARC
  5
20A
330
1CA
100
AcDbEntity
  8
0
  6
Continuous
 62
     7
370
    25
100
AcDbCircle
 10
-137.2310993736
 20
424.0
 30
0.0
 40
5.0
100
AcDbArc
 50
90.0
 51
183.0
  0
ARC
  5
20B
330
1CA
100
AcDbEntity
  8
0
  6
Continuous
 62
     7
370
    25
100
AcDbCircle
 10
-135.6120827554
 20
374.0
 30
0.0
 40
4.000000000000075
100
AcDbArc
 50
183.0
 51
263.6276319916
  0
VIEWPORT
  5
59E
330
1CA
100
AcDbEntity
  8
0
100
AcDbViewport
 10
0.0
 20
0.0
 30
0.0
 40
205.6
 41
156.0
 68
     1
 69
     1
 12
0.0
 22
4.5
 13
0.0
 23
0.0
 14
10.0
 24
10.0
 15
10.0
 25
10.0
 16
0.0
 26
0.0
 36
1.0
 17
0.0
 27
0.0
 37
0.0
 42
50.0
 43
0.0
 44
0.0
 45
865.98
 50
0.0
 51
0.0
 72
   100
 90
   557152
  1

281
     0
 71
     1
 74
     0
110
0.0
120
0.0
130
0.0
111
1.0
121
0.0
131
0.0
112
0.0
122
1.0
132
0.0
 79
     0
146
0.0
  0
ENDBLK
  5
1CD
330
1CA
100
AcDbEntity
  8
0
100
AcDbBlockEnd
  0
BLOCK
  5
20E
330
20C
100
AcDbEntity
  8
0
100
AcDbBlockBegin
  2
*Paper_Space2
 70
     0
 10
0.0
 20
0.0
 30
0.0
  3
*Paper_Space2
  1

  0
SPLINE
  5
21D
330
20C
100
AcDbEntity
  8
0
  6
Continuous
 62
     7
370
    25
100
AcDbSpline
210
0.0
220
0.0
230
1.0
 70
     8
 71
     3
 72
    44
 73
    40
 74
     0
 42
0.000000001
 43
0.00000001
 40
0.0
 40
0.0
 40
0.0
 40
0.0
 40
0.0624999999999997
 40
0.0624999999999997
 40
0.1249999999999994
 40
0.1249999999999994
 40
0.1562499999999983
 40
0.1562499999999983
 40
0.1874999999999973
 40
0.1874999999999973
 40
0.2499999999999971
 40
0.2499999999999971
 40
0.3124999999999968
 40
0.3124999999999968
 40
0.3437499999999973
 40
0.3437499999999973
 40
0.3749999999999978
 40
0.3749999999999978
 40
0.4999999999999962
 40
0.4999999999999962
 40
0.5624999999999961
 40
0.5624999999999961
 40
0.624999999999996
 40
0.624999999999996
 40
0.6562499999999959
 40
0.6562499999999959
 40
0.6874999999999957
 40
0.6874999999999957
 40
0.7499999999999954
 40
0.7499999999999954
 40
0.8124999999999951
 40
0.8124999999999951
 40
0.8437499999999954
 40
0.8437499999999954
 40
0.8749999999999959
 40
0.8749999999999959
 40
0.9374999999999979
 40
0.9374999999999979
 40
1.0
 40
1.0
 40
1.0
 40
1.0
 10
187.9861668820938
 20
-133.1154789227348
 30
0.0
 10
189.2531481481394
 20
-133.1217975766411
 30
0.0
 10
190.5054579962913
 20
-133.0439258229119
 30
0.0
 10
192.9814154101232
 20
-132.7236383560868
 30
0.0
 10
194.2054394039456
 20
-132.4834073678289
 30
0.0
 10
196.0199831072406
 20
-131.9997585680455
 30
0.0
 10
196.621244918844
 20
-131.817967966492
 30
0.0
 10
197.8163829841717
 20
-131.412013295563
 30
0.0
 10
198.4104603656117
 20
-131.1876296108254
 30
0.0
 10
200.1535663221412
 20
-130.4624276809971
 30
0.0
 10
201.2729134908415
 20
-129.9059219254851
 30
0.0
 10
203.4287654611301
 20
-128.6512899272286
 30
0.0
 10
204.4650209866627
 20
-127.9527375777322
 30
0.0
 10
205.9559013010838
 20
-126.7963540689297
 30
0.0
 10
206.4440560513061
 20
-126.3909786644297
 30
0.0
 10
207.3879537178743
 20
-125.5518799295085
 30
0.0
 10
207.843321688226
 20
-125.1187493821251
 30
0.0
 10
210.039742046648
 20
-122.8872301956624
 30
0.0
 10
211.542933185133
 20
-120.8940329051992
 30
0.0
 10
213.411120575047
 20
-117.5879290690538
 30
0.0
 10
213.9529652631704
 20
-116.4555839659301
 30
0.0
 10
214.8860889220976
 20
-114.1406252761084
 30
0.0
 10
215.2786898323024
 20
-112.957413199901
 30
0.0
 10
215.7506514321176
 20
-111.1422670009466
 30
0.0
 10
215.8893191021667
 20
-110.5307375222693
 30
0.0
 10
216.1293545796191
 20
-109.2947663433862
 30
0.0
 10
216.2306658740807
 20
-108.6695953486752
 30
0.0
 10
216.4740398942551
 20
-106.8009094184162
 30
0.0
 10
216.5561363691584
 20
-105.5557876149294
 30
0.0
 10
216.5751903322102
 20
-103.0665842811908
 30
0.0
 10
216.5115781749435
 20
-101.8226088721099
 30
0.0
 10
216.3087159118474
 20
-99.95788003569696
 30
0.0
 10
216.2230718965052
 20
-99.33533612651365
 30
0.0
 10
216.0174499076406
 20
-98.09591462588381
 30
0.0
 10
215.8979609753915
 20
-97.48149597093943
 30
0.0
 10
215.4920402801434
 20
-95.65332464758289
 30
0.0
 10
215.1574026686125
 20
-94.45514235519268
 30
0.0
 10
214.3706708454738
 20
-92.09598388478818
 30
0.0
 10
213.9184929540793
 20
-90.93519404459276
 30
0.0
 10
213.4089919447783
 20
-89.79258054318059
 30
0.0
  0
SPLINE
  5
21F
330
20C
100
AcDbEntity
  8
0
  6
Continuous
 62
     7
370
    25
100
AcDbSpline
210
0.0
220
0.0
230
1.0
 70
     8
 71
     3
 72
    46
 73
    42
 74
     0
 42
0.000000001
 43
0.00000001
 40
0.0
 40
0.0
 40
0.0
 40
0.0
 40
0.1249999999999995
 40
0.1249999999999995
 40
0.1562499999999996
 40
0.1562499999999996
 40
0.1874999999999996
 40
0.1874999999999996
 40
0.2499999999999998
 40
0.2499999999999998
 40
0.3124999999999999
 40
0.3124999999999999
 40
0.3437500000000003
 40
0.3437500000000003
 40
0.3750000000000007
 40
0.3750000000000007
 40
0.4375000000000018
 40
0.4375000000000018
 40
0.5000000000000029
 40
0.5000000000000029
 40
0.5312500000000034
 40
0.5312500000000034
 40
0.562500000000004
 40
0.562500000000004
 40
0.6250000000000048
 40
0.6250000000000048
 40
0.6562500000000048
 40
0.6562500000000048
 40
0.6875000000000048
 40
0.6875000000000048
 40
0.7500000000000046
 40
0.7500000000000046
 40
0.8125000000000044
 40
0.8125000000000044
 40
0.8437500000000041
 40
0.8437500000000041
 40
0.8750000000000038
 40
0.8750000000000038
 40
0.9375000000000019
 40
0.9375000000000019
 40
1.0
 40
1.0
 40
1.0
 40
1.0
 10
217.9167153296819
 20
-87.96147844656424
 30
0.0
 10
218.9764353180942
 20
-90.57024864132299
 30
0.0
 10
219.7423580471367
 20
-93.25223255319762
 30
0.0
 10
220.3278403783572
 20
-96.69739446739037
 30
0.0
 10
220.4261578531671
 20
-97.39110653910583
 30
0.0
 10
220.5840261765847
 20
-98.78819125190385
 30
0.0
 10
220.6432701121867
 20
-99.48991904360133
 30
0.0
 10
220.7603691977919
 20
-101.5863578799307
 30
0.0
 10
220.7586000898098
 20
-102.9793612901848
 30
0.0
 10
220.5958742234267
 20
-105.75615109673
 30
0.0
 10
220.4345222646902
 20
-107.1399146107999
 30
0.0
 10
220.0669538617433
 20
-109.2082910503456
 30
0.0
 10
219.923102567865
 20
-109.8987019468736
 30
0.0
 10
219.5952820208847
 20
-111.2654249553553
 30
0.0
 10
219.4116787578117
 20
-111.9408833290478
 30
0.0
 10
218.8014441489365
 20
-113.9434102626527
 30
0.0
 10
218.3154158636698
 20
-115.2466418238832
 30
0.0
 10
217.1883486302134
 20
-117.7908965396319
 30
0.0
 10
216.5460621361915
 20
-119.0314190328602
 30
0.0
 10
215.4579389089261
 20
-120.8421611629208
 30
0.0
 10
215.0771104725357
 20
-121.4332110989378
 30
0.0
 10
214.2835545883656
 20
-122.5848558579301
 30
0.0
 10
213.8702155677622
 20
-123.1463735528219
 30
0.0
 10
212.5802738971376
 20
-124.7878040967557
 30
0.0
 10
211.6544242629752
 20
-125.8251797055389
 30
0.0
 10
210.1661977164761
 20
-127.2953410529561
 30
0.0
 10
209.6534207257925
 20
-127.770968882754
 30
0.0
 10
208.5935883249847
 20
-128.6926164477865
 30
0.0
 10
208.0458302556933
 20
-129.1389524485032
 30
0.0
 10
206.3744215890418
 20
-130.4144317161007
 30
0.0
 10
205.2155125461063
 20
-131.1872025367526
 30
0.0
 10
202.8097739745913
 20
-132.5799969076585
 30
0.0
 10
201.5631774857542
 20
-133.2004253258382
 30
0.0
 10
199.6258641634139
 20
-134.0139393296554
 30
0.0
 10
198.9664832417607
 20
-134.2665065553642
 30
0.0
 10
197.6384427472671
 20
-134.7267408821052
 30
0.0
 10
196.970230020874
 20
-134.9343708398891
 30
0.0
 10
194.9533242346196
 20
-135.491460933997
 30
0.0
 10
193.5923775259483
 20
-135.7751961590433
 30
0.0
 10
190.8387243748772
 20
-136.172316886019
 30
0.0
 10
189.4457346224242
 20
-136.2841827974692
 30
0.0
 10
188.0359931169349
 20
-136.3061973104355
 30
0.0
  0
SPLINE
  5
221
330
20C
100
AcDbEntity
  8
0
  6
Continuous
 62
     7
370
    25
100
AcDbSpline
210
0.0
220
0.0
230
1.0
 70
     8
 71
     3
 72
    10
 73
     6
 74
     0
 42
0.000000001
 43
0.00000001
 40
0.0
 40
0.0
 40
0.0
 40
0.0
 40
0.5
 40
0.5
 40
1.0
 40
1.0
 40
1.0
 40
1.0
 10
213.4089919447783
 20
-89.79258054318065
 30
0.0
 10
213.085345657316
 20
-89.06676722586529
 30
0.0
 10
212.7406354916526
 20
-88.3521193953134
 30
0.0
 10
212.0097080495588
 20
-86.94531960106316
 30
0.0
 10
211.6228307355259
 20
-86.25190697418381
 30
0.0
 10
211.2167226554423
 20
-85.57158951225958
 30
0.0
  0
SPLINE
  5
224
330
20C
100
AcDbEntity
  8
0
  6
Continuous
 62
     7
370
    25
100
AcDbSpline
210
0.0
220
0.0
230
1.0
 70
     8
 71
     3
 72
    19
 73
    15
 74
     0
 42
0.000000001
 43
0.00000001
 40
0.0
 40
0.0
 40
0.0
 40
0.0
 40
0.4999999999999999
 40
0.7499999999999998
 40
0.8749999999999998
 40
0.9374999999999999
 40
0.9687499999999999
 40
0.9726562499999999
 40
0.9726562499999999
 40
0.9765624999999999
 40
0.9765624999999999
 40
0.9843749999999999
 40
0.9843749999999999
 40
1.0
 40
1.0
 40
1.0
 40
1.0
 10
112.6169405770197
 20
94.80910821041891
 30
0.0
 10
130.2213411927255
 20
64.37864432590722
 30
0.0
 10
156.6279420682721
 20
18.73294847136415
 30
0.0
 10
187.4356431257522
 20
-34.52036333810454
 30
0.0
 10
202.8394936504913
 20
-61.14701924515322
 30
0.0
 10
210.5414189128608
 20
-74.46034719867778
 30
0.0
 10
213.9797784049901
 20
-80.40379717792977
 30
0.0
 10
215.2175878221566
 20
-82.54343917046063
 30
0.0
 10
215.4926565815269
 20
-83.01891516880077
 30
0.0
 10
215.630555234856
 20
-83.25644371987273
 30
0.0
 10
216.034394476048
 20
-83.9746967361734
 30
0.0
 10
216.2936000695962
 20
-84.459293652158
 30
0.0
 10
217.0410955466925
 20
-85.93040338498878
 30
0.0
 10
217.4994021097087
 20
-86.93415584998189
 30
0.0
 10
217.9167153296823
 20
-87.96147844656407
 30
0.0
  0
SPLINE
  5
225
330
20C
100
AcDbEntity
  8
0
  6
Continuous
 62
     7
370
    25
100
AcDbSpline
210
0.0
220
0.0
230
1.0
 70
     8
 71
     3
 72
    11
 73
     7
 74
     0
 42
0.000000001
 43
0.00000001
 40
-0.0000000599772586
 40
-0.0000000599772586
 40
-0.0000000599772586
 40
-0.0000000599772586
 40
0.0
 40
0.0
 40
0.0
 40
0.0004696305880343
 40
0.0004696305880343
 40
0.0004696305880343
 40
0.0004696305880343
 10
187.5165874525644
 20
-133.1093276775841
 30
0.0
 10
187.5166074374059
 20
-133.1093281004205
 30
0.0
 10
187.5166274222469
 20
-133.109328523261
 30
0.0
 10
187.5166474070888
 20
-133.1093289460689
 30
0.0
 10
187.6731316024653
 20
-133.1126395926452
 30
0.0
 10
187.8296481230381
 20
-133.114698336711
 30
0.0
 10
187.9861668820938
 20
-133.1154789227346
 30
0.0
  0
SPLINE
  5
226
330
20C
100
AcDbEntity
  8
0
  6
Continuous
 62
     7
370
    25
100
AcDbSpline
210
0.0
220
0.0
230
1.0
 70
     8
 71
     3
 72
    25
 73
    21
 74
     0
 42
0.000000001
 43
0.00000001
 40
0.0
 40
0.0
 40
0.0
 40
0.0
 40
0.00390625
 40
0.00390625
 40
0.0078124999999999
 40
0.0156250000000001
 40
0.0312500000000001
 40
0.0625000000000003
 40
0.1250000000000003
 40
0.2500000000000004
 40
0.5000000000000006
 40
0.7500000000000004
 40
0.8750000000000004
 40
0.9375000000000007
 40
0.9687500000000006
 40
0.9843750000000004
 40
0.9921875000000004
 40
0.9960937500000002
 40
0.9960937500000002
 40
1.0
 40
1.0
 40
1.0
 40
1.0
 10
188.0359931169349
 20
-136.3061973104356
 30
0.0
 10
187.5463162866934
 20
-136.31384410021
 30
0.0
 10
187.0566391098578
 20
-136.3102496759066
 30
0.0
 10
186.0772849778361
 20
-136.3102496759065
 30
0.0
 10
184.6082537798039
 20
-136.3102496759064
 30
0.0
 10
181.1805143177281
 20
-136.310249675906
 30
0.0
 10
174.3250353935775
 20
-136.3102496759056
 30
0.0
 10
160.6140775452755
 20
-136.3102496759053
 30
0.0
 10
133.1921618486716
 20
-136.310249675905
 30
0.0
 10
78.34833045546394
 20
-136.3102496759065
 30
0.0
 10
-0.0000001062611342
 20
-136.3102496759066
 30
0.0
 10
-78.3483306679865
 20
-136.3102496759067
 30
0.0
 10
-133.1921620611941
 20
-136.3102496759066
 30
0.0
 10
-160.6140777577978
 20
-136.3102496759066
 30
0.0
 10
-174.3250356060999
 20
-136.3102496759066
 30
0.0
 10
-181.1805145302507
 20
-136.3102496759066
 30
0.0
 10
-184.6082539923261
 20
-136.3102496759069
 30
0.0
 10
-186.0772851903587
 20
-136.3102496759066
 30
0.0
 10
-187.0566393223803
 20
-136.3102496759066
 30
0.0
 10
-187.5463166860627
 20
-136.313844094001
 30
0.0
 10
-188.0359931188051
 20
-136.3061973104063
 30
0.0
  0
SPLINE
  5
228
330
20C
100
AcDbEntity
  8
0
  6
Continuous
 62
     7
370
    25
100
AcDbSpline
210
0.0
220
0.0
230
1.0
 70
     8
 71
     3
 72
    11
 73
     7
 74
     0
 42
0.000000001
 43
0.00000001
 40
0.0
 40
0.0
 40
0.0
 40
0.0
 40
0.0004696305669835
 40
0.0004696305669835
 40
0.0004696305669835
 40
0.0004696905669834
 40
0.0004696905669834
 40
0.0004696905669834
 40
0.0004696905669834
 10
-187.9861668837834
 20
-133.1154789227434
 30
0.0
 10
-187.8296481317435
 20
-133.1146983367642
 30
0.0
 10
-187.6731316181864
 20
-133.1126395928567
 30
0.0
 10
-187.5166474298215
 20
-133.1093289465497
 30
0.0
 10
-187.516627437402
 20
-133.1093285235815
 30
0.0
 10
-187.5166074449834
 20
-133.1093281005807
 30
0.0
 10
-187.5165874525644
 20
-133.1093276775842
 30
0.0
  0
SPLINE
  5
22A
330
20C
100
AcDbEntity
  8
0
  6
Continuous
 62
     7
370
    25
100
AcDbSpline
210
0.0
220
0.0
230
1.0
 70
     8
 71
     3
 72
    30
 73
    26
 74
     0
 42
0.000000001
 43
0.00000001
 40
0.0
 40
0.0
 40
0.0
 40
0.0
 40
0.0078125000000003
 40
0.0078125000000003
 40
0.0156250000000007
 40
0.0312500000000002
 40
0.0625000000000005
 40
0.0625000000000005
 40
0.1249999999999998
 40
0.1249999999999998
 40
0.2499999999999984
 40
0.2499999999999984
 40
0.3124999999999982
 40
0.3124999999999982
 40
0.3749999999999981
 40
0.3749999999999981
 40
0.4999999999999987
 40
0.4999999999999987
 40
0.6249999999999993
 40
0.6249999999999993
 40
0.6874999999999997
 40
0.6874999999999997
 40
0.75
 40
0.75
 40
1.0
 40
1.0
 40
1.0
 40
1.0
 10
108.306767089273
 20
92.31561939497604
 30
0.0
 10
108.266564196548
 20
92.38511296537135
 30
0.0
 10
108.224938293905
 20
92.45639030012184
 30
0.0
 10
108.142319518133
 20
92.59650595586741
 30
0.0
 10
108.0176031841991
 20
92.80602458530498
 30
0.0
 10
107.7211091742872
 20
93.29034063981052
 30
0.0
 10
107.457651286473
 20
93.69772499347306
 30
0.0
 10
106.9184872741169
 20
94.50231720954525
 30
0.0
 10
106.5427358665873
 20
95.0251618514215
 30
0.0
 10
105.3671761943685
 20
96.55356102961204
 30
0.0
 10
104.5191783632606
 20
97.51907710523399
 30
0.0
 10
103.1499577299555
 20
98.88657245984253
 30
0.0
 10
102.6772235155114
 20
99.32883862680075
 30
0.0
 10
101.6981723058687
 20
100.1854686237136
 30
0.0
 10
101.1943315512756
 20
100.5975713808253
 30
0.0
 10
99.65394226228887
 20
101.775775446779
 30
0.0
 10
98.5835130952133
 20
102.4887206476762
 30
0.0
 10
96.35736900802743
 20
103.7724304549087
 30
0.0
 10
95.20145913457367
 20
104.3428700536958
 30
0.0
 10
93.4009321760073
 20
105.0873964522121
 30
0.0
 10
92.78991619896694
 20
105.3166797448972
 30
0.0
 10
91.56468226468274
 20
105.73123953326
 30
0.0
 10
90.94811606097889
 20
105.9175403977078
 30
0.0
 10
87.8459883453659
 20
106.7465374616793
 30
0.0
 10
85.30345833501346
 20
107.0866071557716
 30
0.0
 10
82.69691068839617
 20
107.0866071572921
 30
0.0
  0
SPLINE
  5
22C
330
20C
100
AcDbEntity
  8
0
  6
Continuous
 62
     7
370
    25
100
AcDbSpline
210
0.0
220
0.0
230
1.0
 70
     8
 71
     3
 72
    26
 73
    22
 74
     0
 42
0.000000001
 43
0.00000001
 40
0.0
 40
0.0
 40
0.0
 40
0.0
 40
0.1249999999999996
 40
0.1249999999999996
 40
0.2499999999999992
 40
0.2499999999999992
 40
0.3124999999999991
 40
0.3124999999999991
 40
0.3749999999999991
 40
0.3749999999999991
 40
0.4999999999999993
 40
0.4999999999999993
 40
0.6249999999999996
 40
0.6249999999999996
 40
0.6874999999999994
 40
0.6874999999999994
 40
0.7499999999999992
 40
0.7499999999999992
 40
0.8749999999999996
 40
0.8749999999999996
 40
1.0
 40
1.0
 40
1.0
 40
1.0
 10
82.69691069130181
 20
112.0660731896306
 30
0.0
 10
84.21951521172262
 20
112.0660731887422
 30
0.0
 10
85.72321388389234
 20
111.9656379353779
 30
0.0
 10
88.6945878225053
 20
111.5733970229886
 30
0.0
 10
90.16224994154005
 20
111.2815215197929
 30
0.0
 10
92.336773812124
 20
110.7004367640911
 30
0.0
 10
93.05710413613632
 20
110.4827778307168
 30
0.0
 10
94.48853577176932
 20
109.9984318443434
 30
0.0
 10
95.20237959324014
 20
109.7305490459108
 30
0.0
 10
97.30593539815997
 20
108.8607047515354
 30
0.0
 10
98.656422152928
 20
108.1943069396462
 30
0.0
 10
101.2573021476332
 20
106.69463352786
 30
0.0
 10
102.5078896568343
 20
105.8616818173287
 30
0.0
 10
104.3074954159583
 20
104.4850862974307
 30
0.0
 10
104.8961244767152
 20
104.003579726256
 30
0.0
 10
106.0399122802087
 20
103.0027404707377
 30
0.0
 10
106.592208196638
 20
102.4860369142409
 30
0.0
 10
108.1918946039116
 20
100.8883977584302
 30
0.0
 10
109.1826117168172
 20
99.76037235714257
 30
0.0
 10
111.0138377787874
 20
97.37951387682993
 30
0.0
 10
111.8545910559379
 20
96.12688380954685
 30
0.0
 10
112.6169405770197
 20
94.80910821041888
 30
0.0
  0
SPLINE
  5
22D
330
20C
100
AcDbEntity
  8
0
  6
Continuous
 62
     7
370
    25
100
AcDbSpline
210
0.0
220
0.0
230
1.0
 70
     8
 71
     3
 72
    46
 73
    42
 74
     0
 42
0.000000001
 43
0.00000001
 40
0.0
 40
0.0
 40
0.0
 40
0.0
 40
0.0624999999999996
 40
0.0624999999999996
 40
0.1249999999999993
 40
0.1249999999999993
 40
0.1874999999999989
 40
0.1874999999999989
 40
0.2187499999999988
 40
0.2187499999999988
 40
0.2499999999999988
 40
0.2499999999999988
 40
0.3124999999999993
 40
0.3124999999999993
 40
0.3749999999999999
 40
0.3749999999999999
 40
0.4062500000000004
 40
0.4062500000000004
 40
0.437500000000001
 40
0.437500000000001
 40
0.5000000000000016
 40
0.5000000000000016
 40
0.5625000000000022
 40
0.5625000000000022
 40
0.6250000000000027
 40
0.6250000000000027
 40
0.6875000000000032
 40
0.6875000000000032
 40
0.7187500000000036
 40
0.7187500000000036
 40
0.7500000000000039
 40
0.7500000000000039
 40
0.8125000000000029
 40
0.8125000000000029
 40
0.8750000000000019
 40
0.8750000000000019
 40
0.9062500000000018
 40
0.9062500000000018
 40
0.9375000000000017
 40
0.9375000000000017
 40
1.0
 40
1.0
 40
1.0
 40
1.0
 10
-213.4089919449732
 20
-89.7925805436163
 30
0.0
 10
-213.9186406613818
 20
-90.93552529492084
 30
0.0
 10
-214.3703041434392
 20
-92.09525324766629
 30
0.0
 10
-215.155531779748
 20
-94.4491642191433
 30
0.0
 10
-215.4891829848208
 20
-95.64316557651931
 30
0.0
 10
-216.0289272145652
 20
-98.06866352277699
 30
0.0
 10
-216.2359900555902
 20
-99.29964185943449
 30
0.0
 10
-216.4418166711926
 20
-101.1763965505654
 30
0.0
 10
-216.4924143088007
 20
-101.8032746166075
 30
0.0
 10
-216.5565070037713
 20
-103.0522544495113
 30
0.0
 10
-216.5702577200521
 20
-103.6755049024497
 30
0.0
 10
-216.5567804000998
 20
-105.5414404481862
 30
0.0
 10
-216.4753271570276
 20
-106.7802843687791
 30
0.0
 10
-216.1568070230999
 20
-109.2471596052345
 30
0.0
 10
-215.9217704779136
 20
-110.4752551121633
 30
0.0
 10
-215.4485360472946
 20
-112.3083710043867
 30
0.0
 10
-215.2698127770195
 20
-112.915974222469
 30
0.0
 10
-214.8765926825909
 20
-114.1085832212074
 30
0.0
 10
-214.6616413386876
 20
-114.6959997982261
 30
0.0
 10
-213.9634688190928
 20
-116.4323416287969
 30
0.0
 10
-213.4267698453386
 20
-117.5552566514538
 30
0.0
 10
-212.2041587631253
 20
-119.7286345163279
 30
0.0
 10
-211.520819266815
 20
-120.7803721499151
 30
0.0
 10
-209.9993334145364
 20
-122.8081206364392
 30
0.0
 10
-209.1800490044494
 20
-123.7585933835031
 30
0.0
 10
-207.4309290879792
 20
-125.5397464073502
 30
0.0
 10
-206.5005818282783
 20
-126.3698756381878
 30
0.0
 10
-205.0206583188481
 20
-127.5236030995778
 30
0.0
 10
-204.5133004810482
 20
-127.8929529388904
 30
0.0
 10
-203.469781325158
 20
-128.6004334792531
 30
0.0
 10
-202.9317496046031
 20
-128.9394104042589
 30
0.0
 10
-201.2982273852659
 20
-129.8933323692864
 30
0.0
 10
-200.1775585738485
 20
-130.4506305634934
 30
0.0
 10
-197.8746727910626
 20
-131.4123003359584
 30
0.0
 10
-196.6927155066742
 20
-131.8173171280298
 30
0.0
 10
-194.872385763479
 20
-132.3070842272094
 30
0.0
 10
-194.2565668644132
 20
-132.4509181980371
 30
0.0
 10
-193.0137431982594
 20
-132.697339423193
 30
0.0
 10
-192.3902534646114
 20
-132.799619482719
 30
0.0
 10
-190.513577412452
 20
-133.0438329191925
 30
0.0
 10
-189.2540527043003
 20
-133.1218020877451
 30
0.0
 10
-187.9861668837834
 20
-133.1154789227434
 30
0.0
  0
SPLINE
  5
22E
330
20C
100
AcDbEntity
  8
0
  6
Continuous
 62
     7
370
    25
100
AcDbSpline
210
0.0
220
0.0
230
1.0
 70
     8
 71
     3
 72
    10
 73
     6
 74
     0
 42
0.000000001
 43
0.00000001
 40
0.0
 40
0.0
 40
0.0
 40
0.0
 40
0.5
 40
0.5
 40
1.0
 40
1.0
 40
1.0
 40
1.0
 10
-211.2167226554424
 20
-85.57158951225965
 30
0.0
 10
-211.6228307355004
 20
-86.25190697195279
 30
0.0
 10
-212.0097080497232
 20
-86.94531960136972
 30
0.0
 10
-212.740635491705
 20
-88.35211939542368
 30
0.0
 10
-213.0853456574074
 20
-89.06676722604549
 30
0.0
 10
-213.4089919449732
 20
-89.79258054361661
 30
0.0
  0
SPLINE
  5
230
330
20C
100
AcDbEntity
  8
0
  6
Continuous
 62
     7
370
    25
100
AcDbSpline
210
0.0
220
0.0
230
1.0
 70
     8
 71
     3
 72
    32
 73
    28
 74
     0
 42
0.000000001
 43
0.00000001
 40
0.0
 40
0.0
 40
0.0
 40
0.0
 40
0.007812500000001
 40
0.007812500000001
 40
0.0156250000000019
 40
0.0312500000000025
 40
0.0625000000000024
 40
0.0625000000000024
 40
0.1250000000000022
 40
0.1250000000000022
 40
0.2500000000000017
 40
0.2500000000000017
 40
0.3125000000000008
 40
0.3125000000000008
 40
0.3749999999999999
 40
0.3749999999999999
 40
0.5
 40
0.5
 40
0.625
 40
0.625
 40
0.6875
 40
0.6875
 40
0.7499999999999999
 40
0.7499999999999999
 40
0.875
 40
0.875
 40
1.0
 40
1.0
 40
1.0
 40
1.0
 10
-82.69691067119301
 20
107.086607157292
 30
0.0
 10
-82.77720705521376
 20
107.086607156663
 30
0.0
 10
-82.85976271824966
 20
107.0862697515488
 30
0.0
 10
-83.02244352450174
 20
107.0849229652073
 30
0.0
 10
-83.26629286317461
 20
107.0818947890154
 30
0.0
 10
-83.8340763587491
 20
107.0678012157845
 30
0.0
 10
-84.31870911418231
 20
107.0437636484999
 30
0.0
 10
-85.28528827127367
 20
106.9799333705568
 30
0.0
 10
-85.92609509305252
 20
106.9163877832656
 30
0.0
 10
-87.83793011463666
 20
106.6636684502031
 30
0.0
 10
-89.09841102963723
 20
106.4126359232814
 30
0.0
 10
-90.96794721149064
 20
105.9118378388457
 30
0.0
 10
-91.587582036788
 20
105.7241204619845
 30
0.0
 10
-92.81957171676285
 20
105.3059892358776
 30
0.0
 10
-93.42872518575751
 20
105.0765260818231
 30
0.0
 10
-95.22026843685093
 20
104.3338084095946
 30
0.0
 10
-96.3733323441962
 20
103.7641183621697
 30
0.0
 10
-98.59873955496768
 20
102.4790344864665
 30
0.0
 10
-99.67127511785542
 20
101.7639876935498
 30
0.0
 10
-101.2177457290598
 20
100.5789045317546
 30
0.0
 10
-101.7223453040969
 20
100.1651114539455
 30
0.0
 10
-102.6948889310386
 20
99.31255402697843
 30
0.0
 10
-103.1648469739757
 20
98.87223817991146
 30
0.0
 10
-104.5269684258231
 20
97.5102019654345
 30
0.0
 10
-105.3718519077553
 20
96.54779970605287
 30
0.0
 10
-106.9353684459602
 20
94.5143632860657
 30
0.0
 10
-107.6542495565201
 20
93.44354255780523
 30
0.0
 10
-108.3067670840285
 20
92.31561940404157
 30
0.0
  0
SPLINE
  5
232
330
20C
100
AcDbEntity
  8
0
  6
Continuous
 62
     7
370
    25
100
AcDbSpline
210
0.0
220
0.0
230
1.0
 70
     8
 71
     3
 72
    31
 73
    27
 74
     0
 42
0.000000001
 43
0.00000001
 40
0.0
 40
0.0
 40
0.0
 40
0.0
 40
0.0156249999999998
 40
0.0156249999999998
 40
0.0312499999999995
 40
0.0624999999999973
 40
0.0624999999999973
 40
0.1249999999999958
 40
0.1249999999999958
 40
0.2499999999999953
 40
0.2499999999999953
 40
0.3124999999999958
 40
0.3124999999999958
 40
0.3749999999999963
 40
0.3749999999999963
 40
0.4999999999999973
 40
0.4999999999999973
 40
0.6249999999999983
 40
0.6249999999999983
 40
0.6874999999999984
 40
0.6874999999999984
 40
0.7499999999999986
 40
0.7499999999999986
 40
0.8749999999999993
 40
0.8749999999999993
 40
1.0
 40
1.0
 40
1.0
 40
1.0
 10
-100.1518320233015
 20
87.59788837116025
 30
0.0
 10
-100.0971939536133
 20
87.69233385232994
 30
0.0
 10
-100.0402657900829
 20
87.788914459971
 30
0.0
 10
-99.9265732837699
 20
87.97817454290518
 30
0.0
 10
-99.75391438154728
 20
88.26030264576711
 30
0.0
 10
-99.57494468569213
 20
88.53718593600267
 30
0.0
 10
-99.20869075296568
 20
89.08404242012169
 30
0.0
 10
-98.95344397681288
 20
89.43940706771747
 30
0.0
 10
-98.15490872025907
 20
90.47824562889812
 30
0.0
 10
-97.57893816687566
 20
91.13455795846036
 30
0.0
 10
-96.6490857448311
 20
92.06426080930952
 30
0.0
 10
-96.3281288052954
 20
92.36501473262584
 30
0.0
 10
-95.66367197704429
 20
92.94778748876456
 30
0.0
 10
-95.32160041017059
 20
93.22842840754491
 30
0.0
 10
-94.27596594870055
 20
94.03074104791791
 30
0.0
 10
-93.54927231961258
 20
94.5162658476958
 30
0.0
 10
-92.03789625145234
 20
95.39064722988586
 30
0.0
 10
-91.25328878891858
 20
95.77962879923331
 30
0.0
 10
-90.03144260101755
 20
96.2881938433579
 30
0.0
 10
-89.61652644611547
 20
96.44509955828028
 30
0.0
 10
-88.78128201400216
 20
96.7298028996724
 30
0.0
 10
-88.35974632786858
 20
96.85810698965855
 30
0.0
 10
-87.08349067558012
 20
97.2012061507666
 30
0.0
 10
-86.21365422905882
 20
97.37494402689279
 30
0.0
 10
-84.46276218746218
 20
97.60679218900252
 30
0.0
 10
-83.58236438244437
 20
97.66535713644674
 30
0.0
 10
-82.69691068627192
 20
97.66535713708316
 30
0.0
  0
SPLINE
  5
235
330
20C
100
AcDbEntity
  8
0
  6
Continuous
 62
     7
370
    25
100
AcDbSpline
210
0.0
220
0.0
230
1.0
 70
     8
 71
     3
 72
    46
 73
    42
 74
     0
 42
0.000000001
 43
0.00000001
 40
0.0
 40
0.0
 40
0.0
 40
0.0
 40
0.0312499999999992
 40
0.0312499999999992
 40
0.0624999999999985
 40
0.0624999999999985
 40
0.1249999999999974
 40
0.1249999999999974
 40
0.2500000000000032
 40
0.2500000000000032
 40
0.3750000000000089
 40
0.3750000000000089
 40
0.4375000000000089
 40
0.4375000000000089
 40
0.5000000000000088
 40
0.5000000000000088
 40
0.5625000000000087
 40
0.5625000000000087
 40
0.6250000000000085
 40
0.6250000000000085
 40
0.7500000000000024
 40
0.7500000000000024
 40
0.8124999999999996
 40
0.8124999999999996
 40
0.8749999999999966
 40
0.8749999999999966
 40
0.9374999999999936
 40
0.9374999999999936
 40
0.9531249999999953
 40
0.9531249999999953
 40
0.9687499999999972
 40
0.9687499999999972
 40
0.984374999999999
 40
0.984374999999999
 40
0.9921874999999967
 40
0.9921874999999967
 40
0.9960937499999969
 40
0.9980468749999984
 40
0.9990234374999992
 40
0.9990234374999992
 40
1.0
 40
1.0
 40
1.0
 40
1.0
 10
-143.6024028158576
 20
-3.056268928966327
 30
0.0
 10
-143.7038026641633
 20
-3.05140864511354
 30
0.0
 10
-143.8073476190277
 20
-3.042987848757783
 30
0.0
 10
-144.0105711142971
 20
-3.021678893708575
 30
0.0
 10
-144.1116640588853
 20
-3.008598095182378
 30
0.0
 10
-144.4132662314338
 20
-2.961570242936538
 30
0.0
 10
-144.6120116558382
 20
-2.919461829549831
 30
0.0
 10
-145.2017540414892
 20
-2.762960941613303
 30
0.0
 10
-145.5898296663557
 20
-2.614563849056379
 30
0.0
 10
-146.3158560846927
 20
-2.244777478004514
 30
0.0
 10
-146.6566219964685
 20
-2.023446197225648
 30
0.0
 10
-147.1338164053761
 20
-1.635895546352548
 30
0.0
 10
-147.2868765405502
 20
-1.497439196521597
 30
0.0
 10
-147.5742521042778
 20
-1.208445708450318
 30
0.0
 10
-147.7096540512647
 20
-1.057232578828198
 30
0.0
 10
-147.9639490292863
 20
-0.7414967848847465
 30
0.0
 10
-148.0830166580012
 20
-0.5771348613913472
 30
0.0
 10
-148.3045473703504
 20
-0.2351980545710264
 30
0.0
 10
-148.4073479705225
 20
-0.0568240616589566
 30
0.0
 10
-148.6832499363591
 20
0.4846645898520293
 30
0.0
 10
-148.8269564361242
 20
0.8576812297151739
 30
0.0
 10
-148.9764263536503
 20
1.433466626752522
 30
0.0
 10
-149.0156017182606
 20
1.629652756132149
 30
0.0
 10
-149.0638224798169
 20
2.018953070147418
 30
0.0
 10
-149.076466258665
 20
2.209525882343263
 30
0.0
 10
-149.0674208834685
 20
2.586452372576799
 30
0.0
 10
-149.0473567434634
 20
2.772679166729519
 30
0.0
 10
-148.9999349394404
 20
2.990382546351137
 30
0.0
 10
-148.9892417959124
 20
3.033366180924891
 30
0.0
 10
-148.9647851932759
 20
3.119021257501289
 30
0.0
 10
-148.9507592018852
 20
3.162078568112327
 30
0.0
 10
-148.9228654823023
 20
3.244061320412073
 30
0.0
 10
-148.9083016116742
 20
3.283657012759789
 30
0.0
 10
-148.8838054753844
 20
3.342779565730957
 30
0.0
 10
-148.8752117930602
 20
3.36243545532697
 30
0.0
 10
-148.8615822817119
 20
3.391991769969696
 30
0.0
 10
-148.8545839694765
 20
3.406787108209019
 30
0.0
 10
-148.8460880703405
 20
3.424101786416328
 30
0.0
 10
-148.8423755261876
 20
3.431535772300231
 30
0.0
 10
-148.8398845785459
 20
3.436494948269322
 30
0.0
 10
-148.8390458552618
 20
3.438159738012777
 30
0.0
 10
-148.8373701788493
 20
3.441458130856319
 30
0.0
  0
SPLINE
  5
239
330
20C
100
AcDbEntity
  8
0
  6
Continuous
 62
     7
370
    25
100
AcDbSpline
210
0.0
220
0.0
230
1.0
 70
     8
 71
     3
 72
    38
 73
    34
 74
     0
 42
0.000000001
 43
0.00000001
 40
0.0
 40
0.0
 40
0.0
 40
0.0
 40
0.0312499999999881
 40
0.0312499999999881
 40
0.0468749999999868
 40
0.0468749999999868
 40
0.0624999999999855
 40
0.0624999999999855
 40
0.0937499999999845
 40
0.0937499999999845
 40
0.1249999999999835
 40
0.1249999999999835
 40
0.1874999999999816
 40
0.1874999999999816
 40
0.2499999999999796
 40
0.2499999999999796
 40
0.3749999999999816
 40
0.3749999999999816
 40
0.4999999999999837
 40
0.4999999999999837
 40
0.6249999999999858
 40
0.6249999999999858
 40
0.7499999999999878
 40
0.7499999999999878
 40
0.8749999999999899
 40
0.8749999999999899
 40
0.937499999999991
 40
0.937499999999991
 40
0.9687499999999912
 40
0.9687499999999912
 40
0.9843749999999956
 40
0.9843749999999956
 40
1.0
 40
1.0
 40
1.0
 40
1.0
 10
148.8373701788489
 20
3.441458130856773
 30
0.0
 10
148.8766554956218
 20
3.364128662545638
 30
0.0
 10
148.9084466722728
 20
3.286227565976342
 30
0.0
 10
148.949913600585
 20
3.164665917421358
 30
0.0
 10
148.9637966248144
 20
3.122161480298471
 30
0.0
 10
148.9881291498106
 20
3.037558360480258
 30
0.0
 10
148.9987845217593
 20
2.995140206525802
 30
0.0
 10
149.0271471605104
 20
2.866411759028839
 30
0.0
 10
149.0416045047685
 20
2.778345664569235
 30
0.0
 10
149.0620785593562
 20
2.597729141508791
 30
0.0
 10
149.0690706488762
 20
2.503919976116511
 30
0.0
 10
149.0767756050166
 20
2.221760028326683
 30
0.0
 10
149.0648114902167
 20
2.031780168077212
 30
0.0
 10
149.0179708188663
 20
1.644303300855007
 30
0.0
 10
148.9799220287557
 20
1.449592785215887
 30
0.0
 10
148.8317035703572
 20
0.8709495048653801
 30
0.0
 10
148.6852671439198
 20
0.4891626370469122
 30
0.0
 10
148.3165521370783
 20
-0.2355555125648327
 30
0.0
 10
148.0932604528879
 20
-0.5806506213030315
 30
0.0
 10
147.5837102648755
 20
-1.213895522761223
 30
0.0
 10
147.2925930980636
 20
-1.506738973041251
 30
0.0
 10
146.6604227576194
 20
-2.020565294516405
 30
0.0
 10
146.3181439383457
 20
-2.243619296179475
 30
0.0
 10
145.5873837110118
 20
-2.615802555136391
 30
0.0
 10
145.2077103311996
 20
-2.760974527130274
 30
0.0
 10
144.6170963382816
 20
-2.918311265713662
 30
0.0
 10
144.4160241175746
 20
-2.961098327285008
 30
0.0
 10
144.1122706778393
 20
-3.008524245980968
 30
0.0
 10
144.0107087701924
 20
-3.0216657586408
 30
0.0
 10
143.8579440141399
 20
-3.037681924536617
 30
0.0
 10
143.8069641875496
 20
-3.04247995712392
 30
0.0
 10
143.7048230969836
 20
-3.050542930988481
 30
0.0
 10
143.6529203539667
 20
-3.053847529858845
 30
0.0
 10
143.6024028158576
 20
-3.056268928966354
 30
0.0
  0
SPLINE
  5
23C
330
20C
100
AcDbEntity
  8
0
  6
Continuous
 62
     7
370
    25
100
AcDbSpline
210
0.0
220
0.0
230
1.0
 70
     8
 71
     3
 72
    31
 73
    27
 74
     0
 42
0.000000001
 43
0.00000001
 40
0.0
 40
0.0
 40
0.0
 40
0.0
 40
0.0156249999999995
 40
0.0156249999999995
 40
0.0312499999999991
 40
0.0624999999999982
 40
0.0624999999999982
 40
0.1249999999999984
 40
0.1249999999999984
 40
0.2499999999999987
 40
0.2499999999999987
 40
0.312499999999999
 40
0.312499999999999
 40
0.3749999999999994
 40
0.3749999999999994
 40
0.4999999999999993
 40
0.4999999999999993
 40
0.6249999999999992
 40
0.6249999999999992
 40
0.6874999999999999
 40
0.6874999999999999
 40
0.7500000000000004
 40
0.7500000000000004
 40
0.8750000000000001
 40
0.8750000000000001
 40
1.0
 40
1.0
 40
1.0
 40
1.0
 10
82.69691067191006
 20
97.66535713708319
 30
0.0
 10
82.80602153833757
 20
97.66535697324488
 30
0.0
 10
82.91812128691915
 20
97.66443751092922
 30
0.0
 10
83.13886569535327
 20
97.66077729154927
 30
0.0
 10
83.46951671947149
 20
97.65255507160819
 30
0.0
 10
83.79878413809587
 20
97.63621439576094
 30
0.0
 10
84.45550228053268
 20
97.59287338544657
 30
0.0
 10
84.89089457372394
 20
97.5497809227999
 30
0.0
 10
86.18994801876532
 20
97.37870596328167
 30
0.0
 10
87.04653113769135
 20
97.20919229419249
 30
0.0
 10
88.31701805019168
 20
96.87049982196778
 30
0.0
 10
88.73809887914838
 20
96.74343315025509
 30
0.0
 10
89.57529090641351
 20
96.46013985295549
 30
0.0
 10
89.98946933350436
 20
96.30449915925098
 30
0.0
 10
91.2073963721558
 20
95.80088365359221
 30
0.0
 10
91.99146109416444
 20
95.41482486207379
 30
0.0
 10
93.50508317973791
 20
94.54436109264543
 30
0.0
 10
94.23457924459625
 20
94.05984551557279
 30
0.0
 10
95.28645115720724
 20
93.25662113141439
 30
0.0
 10
95.62997444587967
 20
92.97598155969207
 30
0.0
 10
96.29469108483089
 20
92.3955717736796
 30
0.0
 10
96.61694304807702
 20
92.09503249468084
 30
0.0
 10
97.55350093881921
 20
91.16253528765807
 30
0.0
 10
98.13981380072936
 20
90.49684019585864
 30
0.0
 10
99.21719731484504
 20
89.09730844669241
 30
0.0
 10
99.70843300111002
 20
88.36433525237682
 30
0.0
 10
100.1518320207781
 20
87.59788837552202
 30
0.0
  0
SPLINE
  5
241
330
20C
100
AcDbEntity
  8
0
  6
Continuous
 62
     7
370
    25
100
AcDbSpline
210
0.0
220
0.0
230
1.0
 70
     8
 71
     3
 72
    19
 73
    15
 74
     0
 42
0.000000001
 43
0.00000001
 40
0.0
 40
0.0
 40
0.0
 40
0.0
 40
0.0156250000000008
 40
0.0156250000000008
 40
0.0234375000000011
 40
0.0234375000000011
 40
0.0273437500000011
 40
0.0273437500000011
 40
0.0312500000000012
 40
0.0625000000000011
 40
0.1250000000000009
 40
0.2500000000000008
 40
0.5000000000000006
 40
1.0
 40
1.0
 40
1.0
 40
1.0
 10
-217.9167153298875
 20
-87.96147844706833
 30
0.0
 10
-217.499543607815
 20
-86.93450418350551
 30
0.0
 10
-217.0413619000079
 20
-85.93097537571785
 30
0.0
 10
-216.2939915122869
 20
-84.46004015993778
 30
0.0
 10
-216.0348172760296
 20
-83.97547446015983
 30
0.0
 10
-215.6310048839088
 20
-83.2572306059912
 30
0.0
 10
-215.4931092958607
 20
-83.01969771786345
 30
0.0
 10
-215.2180393260321
 20
-82.54421962715958
 30
0.0
 10
-213.980224461803
 20
-80.40456821899225
 30
0.0
 10
-210.5418498389446
 20
-74.4610920851941
 30
0.0
 10
-202.8398906837418
 20
-61.14770554548612
 30
0.0
 10
-187.4359723733358
 20
-34.52093246607045
 30
0.0
 10
-156.6281357471012
 20
18.73261368962383
 30
0.0
 10
-130.2214186598176
 20
64.37851040660551
 30
0.0
 10
-112.6169405799362
 20
94.80910820537756
 30
0.0
  0
CIRCLE
  5
243
330
20C
100
AcDbEntity
  8
0
  6
Continuous
 62
     7
370
    25
100
AcDbCircle
 10
180.0
 20
62.5
 30
0.0
 40
17.49999999999998
  0
CIRCLE
  5
244
330
20C
100
AcDbEntity
  8
0
  6
Continuous
 62
     7
370
    25
100
AcDbCircle
 10
180.0
 20
62.5
 30
0.0
 40
19.49999999999999
  0
SPLINE
  5
245
330
20C
100
AcDbEntity
  8
0
  6
Continuous
 62
     7
370
    25
100
AcDbSpline
210
0.0
220
0.0
230
1.0
 70
     8
 71
     3
 72
    46
 73
    42
 74
     0
 42
0.000000001
 43
0.00000001
 40
0.0
 40
0.0
 40
0.0
 40
0.0
 40
0.0625000000000004
 40
0.0625000000000004
 40
0.0937500000000005
 40
0.0937500000000005
 40
0.1250000000000006
 40
0.1250000000000006
 40
0.1875000000000008
 40
0.1875000000000008
 40
0.250000000000001
 40
0.250000000000001
 40
0.2812500000000013
 40
0.2812500000000013
 40
0.3125000000000017
 40
0.3125000000000017
 40
0.3750000000000023
 40
0.3750000000000023
 40
0.4062500000000026
 40
0.4062500000000026
 40
0.4375000000000029
 40
0.4375000000000029
 40
0.5000000000000028
 40
0.5000000000000028
 40
0.5625000000000027
 40
0.5625000000000027
 40
0.5937500000000023
 40
0.5937500000000023
 40
0.625000000000002
 40
0.625000000000002
 40
0.6875000000000017
 40
0.6875000000000017
 40
0.7500000000000013
 40
0.7500000000000013
 40
0.7812500000000012
 40
0.7812500000000012
 40
0.8125000000000011
 40
0.8125000000000011
 40
0.8750000000000007
 40
0.8750000000000007
 40
1.0
 40
1.0
 40
1.0
 40
1.0
 10
-188.0359931188051
 20
-136.3061973104062
 30
0.0
 10
-189.447066348307
 20
-136.284162001168
 30
0.0
 10
-190.8477605797718
 20
-136.1719859531134
 30
0.0
 10
-192.9333745998432
 20
-135.8697368219977
 30
0.0
 10
-193.6260428397104
 20
-135.7469583967415
 30
0.0
 10
-195.0062137934116
 20
-135.4565393801882
 30
0.0
 10
-195.6897200779386
 20
-135.2894987940616
 30
0.0
 10
-197.7121387776844
 20
-134.7263504010215
 30
0.0
 10
-199.0267180879302
 20
-134.2673433044584
 30
0.0
 10
-201.590462578313
 20
-133.1871034784744
 30
0.0
 10
-202.8393626242001
 20
-132.5652132218265
 30
0.0
 10
-204.6619380587007
 20
-131.5064578380154
 30
0.0
 10
-205.2618235644374
 20
-131.1316105570191
 30
0.0
 10
-206.427140776126
 20
-130.3503835375431
 30
0.0
 10
-206.9947900532977
 20
-129.9428878680613
 30
0.0
 10
-208.653781509764
 20
-128.6709597046166
 30
0.0
 10
-209.7011334702984
 20
-127.7570479889998
 30
0.0
 10
-211.1847961648257
 20
-126.2879139257233
 30
0.0
 10
-211.6648036324999
 20
-125.7818406942157
 30
0.0
 10
-212.5953873754105
 20
-124.7365906792024
 30
0.0
 10
-213.0468888217098
 20
-124.1962140307407
 30
0.0
 10
-214.3496159673641
 20
-122.5316825773849
 30
0.0
 10
-215.1381408474547
 20
-121.379082697564
 30
0.0
 10
-216.5657568337341
 20
-118.993685990281
 30
0.0
 10
-217.2035078013148
 20
-117.7601699477247
 30
0.0
 10
-218.0475628266703
 20
-115.8494819324621
 30
0.0
 10
-218.3102993858357
 20
-115.2025957127099
 30
0.0
 10
-218.7979723134047
 20
-113.8885369628204
 30
0.0
 10
-219.0235752589289
 20
-113.2188109118155
 30
0.0
 10
-219.6340725689859
 20
-111.2017755670544
 30
0.0
 10
-219.9552925546126
 20
-109.845601639665
 30
0.0
 10
-220.4378675221708
 20
-107.1118515999479
 30
0.0
 10
-220.5980085136705
 20
-105.7341129626948
 30
0.0
 10
-220.7187789349176
 20
-103.6515146416667
 30
0.0
 10
-220.7391577075531
 20
-102.9546539974361
 30
0.0
 10
-220.7398751121552
 20
-101.5555722706312
 30
0.0
 10
-220.7200509299252
 20
-100.8513813652812
 30
0.0
 10
-220.6001175758999
 20
-98.74480491626566
 30
0.0
 10
-220.4408760002324
 20
-97.35794582993216
 30
0.0
 10
-219.7398459734947
 20
-93.24672750734209
 30
0.0
 10
-218.9768477757548
 20
-90.57126401082962
 30
0.0
 10
-217.9167153298872
 20
-87.96147844706832
 30
0.0
  0
SPLINE
  5
246
330
20C
100
AcDbEntity
  8
0
  6
Continuous
 62
     7
370
    25
100
AcDbSpline
210
0.0
220
0.0
230
1.0
 70
     8
 71
     3
 72
    26
 73
    22
 74
     0
 42
0.000000001
 43
0.00000001
 40
0.0
 40
0.0
 40
0.0
 40
0.0
 40
0.1250000000000003
 40
0.1250000000000003
 40
0.2500000000000006
 40
0.2500000000000006
 40
0.3125000000000003
 40
0.3125000000000003
 40
0.3750000000000001
 40
0.3750000000000001
 40
0.5000000000000004
 40
0.5000000000000004
 40
0.6250000000000008
 40
0.6250000000000008
 40
0.687500000000001
 40
0.687500000000001
 40
0.7500000000000011
 40
0.7500000000000011
 40
0.8750000000000006
 40
0.8750000000000006
 40
1.0
 40
1.0
 40
1.0
 40
1.0
 10
-112.6169405799362
 20
94.80910820537758
 30
0.0
 10
-111.8545931159315
 20
96.12688024921646
 30
0.0
 10
-111.0147445277106
 20
97.37796313618878
 30
0.0
 10
-109.1880655483485
 20
99.75365213175617
 30
0.0
 10
-108.2009841212484
 20
100.8780422257243
 30
0.0
 10
-106.6095868774303
 20
102.4693061915736
 30
0.0
 10
-106.0605320051221
 20
102.9837317064485
 30
0.0
 10
-104.9243415697351
 20
103.9798145772062
 30
0.0
 10
-104.3348469517504
 20
104.4632782930196
 30
0.0
 10
-102.5281302740903
 20
105.8479162219138
 30
0.0
 10
-101.2750794020356
 20
106.6833252038835
 30
0.0
 10
-98.6750592672696
 20
108.1846039433956
 30
0.0
 10
-97.32789673694066
 20
108.8501248188738
 30
0.0
 10
-95.23483279109888
 20
109.7178555326305
 30
0.0
 10
-94.52316068437989
 20
109.9859493983039
 30
0.0
 10
-93.08383804778887
 20
110.474466621344
 30
0.0
 10
-92.35992366367815
 20
110.6937799664931
 30
0.0
 10
-90.17575392940627
 20
111.278835073749
 30
0.0
 10
-88.70313130736822
 20
111.5720397756162
 30
0.0
 10
-85.72501107170031
 20
111.9656293505977
 30
0.0
 10
-84.21952351139232
 20
112.0660731888925
 30
0.0
 10
-82.696910687897
 20
112.0660731896306
 30
0.0
  0
SPLINE
  5
249
330
20C
100
AcDbEntity
  8
0
  6
Continuous
 62
     7
370
    25
100
AcDbSpline
210
0.0
220
0.0
230
1.0
 70
     8
 71
     3
 72
    20
 73
    16
 74
     0
 42
0.000000001
 43
0.00000001
 40
0.0
 40
0.0
 40
0.0
 40
0.0
 40
0.2500000000000013
 40
0.2500000000000013
 40
0.3125000000000018
 40
0.3125000000000018
 40
0.3750000000000023
 40
0.3750000000000023
 40
0.5000000000000011
 40
0.5000000000000011
 40
0.6250000000000001
 40
0.6250000000000001
 40
0.749999999999999
 40
0.749999999999999
 40
1.0
 40
1.0
 40
1.0
 40
1.0
 10
-82.69691068483996
 20
95.67357072414775
 30
0.0
 10
-84.29780013290394
 20
95.67357072299683
 30
0.0
 10
-85.85937075982565
 20
95.46458432732547
 30
0.0
 10
-87.76482967909597
 20
94.95617252220035
 30
0.0
 10
-88.14353564960211
 20
94.84180914696621
 30
0.0
 10
-88.89605323901557
 20
94.5870680638089
 30
0.0
 10
-89.27131370052699
 20
94.44608842883075
 30
0.0
 10
-90.37708774395148
 20
93.98838653702866
 30
0.0
 10
-91.08708407685754
 20
93.63793200884257
 30
0.0
 10
-92.45466032405999
 20
92.84964426783556
 30
0.0
 10
-93.11216624492236
 20
92.41168770723348
 30
0.0
 10
-94.37352012901452
 20
91.44632624364907
 30
0.0
 10
-94.97890468912193
 20
90.91643269889126
 30
0.0
 10
-96.661673237752
 20
89.23686912398301
 30
0.0
 10
-97.62606186616594
 20
87.98628987557328
 30
0.0
 10
-98.42776262194197
 20
86.6004928558054
 30
0.0
  0
SPLINE
  5
24B
330
20C
100
AcDbEntity
  8
0
  6
Continuous
 62
     7
370
    25
100
AcDbSpline
210
0.0
220
0.0
230
1.0
 70
     8
 71
     3
 72
    22
 73
    18
 74
     0
 42
0.000000001
 43
0.00000001
 40
0.0
 40
0.0
 40
0.0
 40
0.0
 40
0.2500000000000028
 40
0.2500000000000028
 40
0.3125000000000032
 40
0.3125000000000032
 40
0.3750000000000034
 40
0.3750000000000034
 40
0.5000000000000028
 40
0.5000000000000028
 40
0.6250000000000021
 40
0.6250000000000021
 40
0.7500000000000013
 40
0.7500000000000013
 40
0.8750000000000007
 40
0.8750000000000007
 40
1.0
 40
1.0
 40
1.0
 40
1.0
 10
98.42776262205955
 20
86.6004928556022
 30
0.0
 10
97.62783427343128
 20
87.9832261439453
 30
0.0
 10
96.66777845192105
 20
89.22816033045059
 30
0.0
 10
95.27663681959855
 20
90.61989950181513
 30
0.0
 10
94.98872009971679
 20
90.88990990412135
 30
0.0
 10
94.39311752139828
 20
91.41291820308474
 30
0.0
 10
94.08418546551906
 20
91.66683876095256
 30
0.0
 10
93.1370814091047
 20
92.39436315579117
 30
0.0
 10
92.48015225971537
 20
92.83332409639452
 30
0.0
 10
91.1169751567396
 20
93.62226400503886
 30
0.0
 10
90.41079176168488
 20
93.97235945087365
 30
0.0
 10
88.94813922393283
 20
94.58182379128485
 30
0.0
 10
88.18895085326074
 20
94.84119854402633
 30
0.0
 10
86.6538305335934
 20
95.25433162897589
 30
0.0
 10
85.87367455185503
 20
95.41050128197493
 30
0.0
 10
84.2906373544741
 20
95.62064019461016
 30
0.0
 10
83.49557354002928
 20
95.67357072359009
 30
0.0
 10
82.69691068446832
 20
95.67357072414778
 30
0.0
  0
SPLINE
  5
24F
330
20C
100
AcDbEntity
  8
0
  6
Continuous
 62
     7
370
    25
100
AcDbSpline
210
0.0
220
0.0
230
1.0
 70
     8
 71
     3
 72
    38
 73
    34
 74
     0
 42
0.000000001
 43
0.00000001
 40
0.0
 40
0.0
 40
0.0
 40
0.0
 40
0.1250000000000122
 40
0.1875000000000158
 40
0.2187500000000153
 40
0.2187500000000153
 40
0.2500000000000147
 40
0.2500000000000147
 40
0.3125000000000134
 40
0.3125000000000134
 40
0.3750000000000122
 40
0.3750000000000122
 40
0.437500000000011
 40
0.437500000000011
 40
0.5000000000000098
 40
0.5000000000000098
 40
0.5625000000000085
 40
0.5625000000000085
 40
0.6250000000000073
 40
0.6250000000000073
 40
0.6875000000000061
 40
0.6875000000000061
 40
0.7500000000000048
 40
0.7500000000000048
 40
0.8125000000000037
 40
0.8125000000000037
 40
0.8750000000000024
 40
0.8750000000000024
 40
0.9375000000000012
 40
0.9375000000000012
 40
0.9687500000000006
 40
0.9687500000000006
 40
1.0
 40
1.0
 40
1.0
 40
1.0
 10
-146.161580530948
 20
4.089179041666463
 30
0.0
 10
-146.3406541582637
 20
3.779637485877896
 30
0.0
 10
-146.6092645992372
 20
3.315325152195049
 30
0.0
 10
-146.9226434470397
 20
2.773627429565022
 30
0.0
 10
-147.0569486675265
 20
2.54147126272358
 30
0.0
 10
-147.1464854811844
 20
2.386700484829295
 30
0.0
 10
-147.1848728830382
 20
2.305006596733099
 30
0.0
 10
-147.2720794825318
 20
2.053347261675599
 30
0.0
 10
-147.3006297252462
 20
1.875594338265522
 30
0.0
 10
-147.3175165641076
 20
1.52104617271522
 30
0.0
 10
-147.3056797593568
 20
1.344796805048718
 30
0.0
 10
-147.2482461133817
 20
0.9940038900808539
 30
0.0
 10
-147.2027427017294
 20
0.8214435444165021
 30
0.0
 10
-147.0848724218967
 20
0.4897148031586876
 30
0.0
 10
-147.0122785812238
 20
0.3291129050753926
 30
0.0
 10
-146.8415593584552
 20
0.0177459915037801
 30
0.0
 10
-146.7442061288213
 20
-0.1311862341410778
 30
0.0
 10
-146.5315361652561
 20
-0.4107544589558704
 30
0.0
 10
-146.4156544489454
 20
-0.5424004113160366
 30
0.0
 10
-146.1652230441431
 20
-0.7897787128090948
 30
0.0
 10
-146.0294717533616
 20
-0.9063604731613409
 30
0.0
 10
-145.7462495954013
 20
-1.117406991926716
 30
0.0
 10
-145.5987071056992
 20
-1.212250361841869
 30
0.0
 10
-145.2922196003697
 20
-1.381406114652553
 30
0.0
 10
-145.1331932976202
 20
-1.455572134815635
 30
0.0
 10
-144.8034872307499
 20
-1.582921362587958
 30
0.0
 10
-144.6326053983541
 20
-1.635465775039625
 30
0.0
 10
-144.2903314911509
 20
-1.715921409825058
 30
0.0
 10
-144.1174706728761
 20
-1.744028023607092
 30
0.0
 10
-143.8556228065394
 20
-1.768211161379529
 30
0.0
 10
-143.7679243311576
 20
-1.773348171425731
 30
0.0
 10
-143.5915734882855
 20
-1.776914982620228
 30
0.0
 10
-143.5030001014934
 20
-1.77590012963736
 30
0.0
 10
-143.414571046012
 20
-1.775900129637361
 30
0.0
  0
SPLINE
  5
252
330
20C
100
AcDbEntity
  8
0
  6
Continuous
 62
     7
370
    25
100
AcDbSpline
210
0.0
220
0.0
230
1.0
 70
     8
 71
     3
 72
    36
 73
    32
 74
     0
 42
0.000000001
 43
0.00000001
 40
0.0
 40
0.0
 40
0.0
 40
0.0
 40
0.0312500000000017
 40
0.0312500000000017
 40
0.0625000000000034
 40
0.0625000000000034
 40
0.1249999999999971
 40
0.1249999999999971
 40
0.249999999999994
 40
0.249999999999994
 40
0.3749999999999909
 40
0.3749999999999909
 40
0.4374999999999894
 40
0.4374999999999894
 40
0.4999999999999878
 40
0.4999999999999878
 40
0.6249999999999801
 40
0.6249999999999801
 40
0.6874999999999756
 40
0.6874999999999756
 40
0.7187499999999734
 40
0.7187499999999734
 40
0.7499999999999711
 40
0.7499999999999711
 40
0.7656249999999718
 40
0.7656249999999718
 40
0.7812499999999725
 40
0.7812499999999725
 40
0.8124999999999785
 40
0.8749999999999857
 40
1.0
 40
1.0
 40
1.0
 40
1.0
 10
143.4145710446314
 20
-1.775900129637366
 30
0.0
 10
143.5035874683083
 20
-1.775900129637367
 30
0.0
 10
143.5926686635207
 20
-1.776936855652316
 30
0.0
 10
143.7704712748474
 20
-1.773251723334861
 30
0.0
 10
143.859159232939
 20
-1.767994339603299
 30
0.0
 10
144.1246554176392
 20
-1.743135812025072
 30
0.0
 10
144.3016045342307
 20
-1.713814837326181
 30
0.0
 10
144.8177020129788
 20
-1.590810314269482
 30
0.0
 10
145.1471328468242
 20
-1.463022513204004
 30
0.0
 10
145.7700403938335
 20
-1.116081785042024
 30
0.0
 10
146.0519065613591
 20
-0.9041134210921811
 30
0.0
 10
146.4295374861628
 20
-0.5273899753381031
 30
0.0
 10
146.5468051164609
 20
-0.3925247182559977
 30
0.0
 10
146.7588319002328
 20
-0.1098394446340297
 30
0.0
 10
146.854424919849
 20
0.0387480845906599
 30
0.0
 10
147.1073740267428
 20
0.5080313638446852
 30
0.0
 10
147.2289128484805
 20
0.8498799448188555
 30
0.0
 10
147.3089717919881
 20
1.379883856492321
 30
0.0
 10
147.3181305094527
 20
1.556079280779971
 30
0.0
 10
147.3017976031971
 20
1.819561699660337
 30
0.0
 10
147.2911669805261
 20
1.907249348751084
 30
0.0
 10
147.2569769222998
 20
2.082276084474644
 30
0.0
 10
147.233573755463
 20
2.169540538106319
 30
0.0
 10
147.187370557208
 20
2.293537048446037
 30
0.0
 10
147.1701812959774
 20
2.333998810152706
 30
0.0
 10
147.1318167386666
 20
2.412982121251611
 30
0.0
 10
147.1093575649514
 20
2.450878740031961
 30
0.0
 10
147.043233585845
 20
2.565178761058749
 30
0.0
 10
146.9109856276322
 20
2.793778803112358
 30
0.0
 10
146.6024070584692
 20
3.327178901237213
 30
0.0
 10
146.3379111420435
 20
3.784378985344469
 30
0.0
 10
146.1615805310931
 20
4.089179041415903
 30
0.0
  0
CIRCLE
  5
258
330
20C
100
AcDbEntity
  8
0
  6
Continuous
 62
     7
370
    25
100
AcDbCircle
 10
0.0
 20
37.5
 30
0.0
 40
32.50000000000006
  0
CIRCLE
  5
259
330
20C
100
AcDbEntity
  8
0
  6
Continuous
 62
     7
370
    25
100
AcDbCircle
 10
0.0
 20
37.5
 30
0.0
 40
22.5
  0
LINE
  5
25F
330
20C
100
AcDbEntity
  8
0
  6
Continuous
 62
     7
370
    25
100
AcDbLine
 10
249.7310993736
 20
-97.5
 30
0.0
 11
249.7310993736
 21
137.5
 31
0.0
  0
LINE
  5
260
330
20C
100
AcDbEntity
  8
0
  6
Continuous
 62
     7
370
    25
100
AcDbLine
 10
-205.0
 20
-142.2310993736
 30
0.0
 11
205.0
 21
-142.2310993736
 31
0.0
  0
LINE
  5
261
330
20C
100
AcDbEntity
  8
0
  6
Continuous
 62
     7
370
    25
100
AcDbLine
 10
-249.7310993736
 20
137.5
 30
0.0
 11
-249.7310993736
 21
-97.5
 31
0.0
  0
LINE
  5
262
330
20C
100
AcDbEntity
  8
0
  6
Continuous
 62
     7
370
    25
100
AcDbLine
 10
164.9916689802
 20
71.5
 30
0.0
 11
195.0083310198
 21
71.5
 31
0.0
  0
LINE
  5
263
330
20C
100
AcDbEntity
  8
0
  6
Continuous
 62
     7
370
    25
100
AcDbLine
 10
244.7310993736
 20
-97.5
 30
0.0
 11
244.7310993736
 21
137.5
 31
0.0
  0
LINE
  5
264
330
20C
100
AcDbEntity
  8
0
  6
Continuous
 62
     7
370
    25
100
AcDbLine
 10
-205.0
 20
-137.2310993736
 30
0.0
 11
205.0
 21
-137.2310993736
 31
0.0
  0
LINE
  5
265
330
20C
100
AcDbEntity
  8
0
  6
Continuous
 62
     7
370
    25
100
AcDbLine
 10
-244.7310993736
 20
137.5
 30
0.0
 11
-244.7310993736
 21
-97.5
 31
0.0
  0
LINE
  5
266
330
20C
100
AcDbEntity
  8
0
  6
Continuous
 62
     7
370
    25
100
AcDbLine
 10
249.7310993736
 20
137.5
 30
0.0
 11
-249.7310993736
 21
137.5
 31
0.0
  0
LINE
  5
267
330
20C
100
AcDbEntity
  8
0
  6
Continuous
 62
     7
370
    25
100
AcDbLine
 10
213.4089919448
 20
-89.7925805432
 30
0.0
 11
217.9167153297
 21
-87.9614784466
 31
0.0
  0
LINE
  5
268
330
20C
100
AcDbEntity
  8
0
  6
Continuous
 62
     7
370
    25
100
AcDbLine
 10
188.0359931169
 20
-136.3061973104
 30
0.0
 11
187.9861668821
 21
-133.1154789227
 31
0.0
  0
LINE
  5
269
330
20C
100
AcDbEntity
  8
0
  6
Continuous
 62
     7
370
    25
100
AcDbLine
 10
211.2167226554
 20
-85.5715895123
 30
0.0
 11
108.3067670815
 21
92.3156194084
 31
0.0
  0
LINE
  5
26A
330
20C
100
AcDbEntity
  8
0
  6
Continuous
 62
     7
370
    25
100
AcDbLine
 10
108.3067670815
 20
92.3156194084
 30
0.0
 11
112.616940577
 21
94.8091082104
 31
0.0
  0
LINE
  5
26B
330
20C
100
AcDbEntity
  8
0
  6
Continuous
 62
     7
370
    25
100
AcDbLine
 10
-188.0359931188
 20
-136.3061973104
 30
0.0
 11
-187.9861668838
 21
-133.1154789227
 31
0.0
  0
LINE
  5
26C
330
20C
100
AcDbEntity
  8
0
  6
Continuous
 62
     7
370
    25
100
AcDbLine
 10
-187.5165874526
 20
-133.1093276776
 30
0.0
 11
187.5165874526
 21
-133.1093276776
 31
0.0
  0
LINE
  5
26D
330
20C
100
AcDbEntity
  8
0
  6
Continuous
 62
     7
370
    25
100
AcDbLine
 10
82.6969106884
 20
107.0866071573
 30
0.0
 11
82.6969106913
 21
112.0660731896
 31
0.0
  0
LINE
  5
26E
330
20C
100
AcDbEntity
  8
0
  6
Continuous
 62
     7
370
    25
100
AcDbLine
 10
-108.306767084
 20
92.315619404
 30
0.0
 11
-211.2167226554
 21
-85.5715895123
 31
0.0
  0
LINE
  5
26F
330
20C
100
AcDbEntity
  8
0
  6
Continuous
 62
     7
370
    25
100
AcDbLine
 10
82.6969106884
 20
107.0866071573
 30
0.0
 11
-82.6969106855
 21
107.0866071573
 31
0.0
  0
LINE
  5
270
330
20C
100
AcDbEntity
  8
0
  6
Continuous
 62
     7
370
    25
100
AcDbLine
 10
-148.8373701788
 20
3.4414581309
 30
0.0
 11
-100.1518320204
 21
87.5978883762
 31
0.0
  0
LINE
  5
271
330
20C
100
AcDbEntity
  8
0
  6
Continuous
 62
     7
370
    25
100
AcDbLine
 10
143.6024028159
 20
-3.056268929
 30
0.0
 11
-143.6024028159
 21
-3.056268929
 31
0.0
  0
LINE
  5
272
330
20C
100
AcDbEntity
  8
0
  6
Continuous
 62
     7
370
    25
100
AcDbLine
 10
100.1518320208
 20
87.5978883755
 30
0.0
 11
148.8373701788
 21
3.4414581309
 31
0.0
  0
LINE
  5
273
330
20C
100
AcDbEntity
  8
0
  6
Continuous
 62
     7
370
    25
100
AcDbLine
 10
-82.6969106863
 20
97.6653571371
 30
0.0
 11
82.6969106859
 21
97.6653571371
 31
0.0
  0
LINE
  5
274
330
20C
100
AcDbEntity
  8
0
  6
Continuous
 62
     7
370
    25
100
AcDbLine
 10
-82.6969106855
 20
107.0866071573
 30
0.0
 11
-82.6969106879
 21
112.0660731896
 31
0.0
  0
LINE
  5
275
330
20C
100
AcDbEntity
  8
0
  6
Continuous
 62
     7
370
    25
100
AcDbLine
 10
-82.6969106879
 20
112.0660731896
 30
0.0
 11
82.6969106913
 21
112.0660731896
 31
0.0
  0
LINE
  5
276
330
20C
100
AcDbEntity
  8
0
  6
Continuous
 62
     7
370
    25
100
AcDbLine
 10
-217.9167153299
 20
-87.9614784471
 30
0.0
 11
-213.408991945
 21
-89.7925805436
 31
0.0
  0
LINE
  5
277
330
20C
100
AcDbEntity
  8
0
  6
Continuous
 62
     7
370
    25
100
AcDbLine
 10
-112.6169405799
 20
94.8091082054
 30
0.0
 11
-108.306767084
 21
92.315619404
 31
0.0
  0
LINE
  5
278
330
20C
100
AcDbEntity
  8
0
  6
Continuous
 62
     7
370
    25
100
AcDbLine
 10
-82.6969106863
 20
97.6653571371
 30
0.0
 11
-82.6969106848
 21
95.6735707241
 31
0.0
  0
LINE
  5
279
330
20C
100
AcDbEntity
  8
0
  6
Continuous
 62
     7
370
    25
100
AcDbLine
 10
-100.1518320204
 20
87.5978883762
 30
0.0
 11
-98.4277626219
 21
86.6004928558
 31
0.0
  0
LINE
  5
27A
330
20C
100
AcDbEntity
  8
0
  6
Continuous
 62
     7
370
    25
100
AcDbLine
 10
82.6969106859
 20
97.6653571371
 30
0.0
 11
82.6969106845
 21
95.6735707241
 31
0.0
  0
LINE
  5
27B
330
20C
100
AcDbEntity
  8
0
  6
Continuous
 62
     7
370
    25
100
AcDbLine
 10
98.4277626221
 20
86.6004928556
 30
0.0
 11
100.1518320208
 21
87.5978883755
 31
0.0
  0
LINE
  5
27C
330
20C
100
AcDbEntity
  8
0
  6
Continuous
 62
     7
370
    25
100
AcDbLine
 10
-147.8856499297
 20
5.0865745616
 30
0.0
 11
-146.1615805309
 21
4.0891790417
 31
0.0
  0
LINE
  5
27D
330
20C
100
AcDbEntity
  8
0
  6
Continuous
 62
     7
370
    25
100
AcDbLine
 10
-143.414571046
 20
-1.7759001296
 30
0.0
 11
-143.414571046
 21
-3.056268929
 31
0.0
  0
LINE
  5
27E
330
20C
100
AcDbEntity
  8
0
  6
Continuous
 62
     7
370
    25
100
AcDbLine
 10
143.4145710446
 20
-1.7759001296
 30
0.0
 11
143.4145710446
 21
-3.056268929
 31
0.0
  0
LINE
  5
27F
330
20C
100
AcDbEntity
  8
0
  6
Continuous
 62
     7
370
    25
100
AcDbLine
 10
146.1615805311
 20
4.0891790414
 30
0.0
 11
147.8856499298
 21
5.0865745613
 31
0.0
  0
LINE
  5
280
330
20C
100
AcDbEntity
  8
0
  6
Continuous
 62
     7
370
    25
100
AcDbLine
 10
146.1615805311
 20
4.0891790414
 30
0.0
 11
98.4277626221
 21
86.6004928556
 31
0.0
  0
LINE
  5
281
330
20C
100
AcDbEntity
  8
0
  6
Continuous
 62
     7
370
    25
100
AcDbLine
 10
-98.4277626219
 20
86.6004928558
 30
0.0
 11
-146.1615805309
 21
4.0891790417
 31
0.0
  0
LINE
  5
282
330
20C
100
AcDbEntity
  8
0
  6
Continuous
 62
     7
370
    25
100
AcDbLine
 10
82.6969106845
 20
95.6735707241
 30
0.0
 11
-82.6969106848
 21
95.6735707241
 31
0.0
  0
LINE
  5
283
330
20C
100
AcDbEntity
  8
0
  6
Continuous
 62
     7
370
    25
100
AcDbLine
 10
-143.414571046
 20
-1.7759001296
 30
0.0
 11
143.4145710446
 21
-1.7759001296
 31
0.0
  0
LINE
  5
284
330
20C
100
AcDbEntity
  8
0
  6
Continuous
 62
     8
370
    25
100
AcDbLine
 10
195.5643824163
 20
70.5
 30
0.0
 11
164.4356175837
 21
70.5
 31
0.0
  0
LINE
  5
285
330
20C
100
AcDbEntity
  8
0
  6
Continuous
 62
     8
370
    25
100
AcDbLine
 10
249.7310993736
 20
-97.5
 30
0.0
 11
244.7310993736
 21
-97.5
 31
0.0
  0
LINE
  5
286
330
20C
100
AcDbEntity
  8
0
  6
Continuous
 62
     8
370
    25
100
AcDbLine
 10
205.0
 20
-142.2310993736
 30
0.0
 11
205.0
 21
-137.2310993736
 31
0.0
  0
LINE
  5
287
330
20C
100
AcDbEntity
  8
0
  6
Continuous
 62
     8
370
    25
100
AcDbLine
 10
-205.0
 20
-142.2310993736
 30
0.0
 11
-205.0
 21
-137.2310993736
 31
0.0
  0
LINE
  5
288
330
20C
100
AcDbEntity
  8
0
  6
Continuous
 62
     8
370
    25
100
AcDbLine
 10
-249.7310993736
 20
-97.5
 30
0.0
 11
-244.7310993736
 21
-97.5
 31
0.0
  0
ARC
  5
289
330
20C
100
AcDbEntity
  8
0
  6
Continuous
 62
     7
370
    25
100
AcDbCircle
 10
205.0
 20
-97.5
 30
0.0
 40
44.73109937359528
100
AcDbArc
 50
270.0
 51
0.0
  0
ARC
  5
28A
330
20C
100
AcDbEntity
  8
0
  6
Continuous
 62
     7
370
    25
100
AcDbCircle
 10
-205.0
 20
-97.5
 30
0.0
 40
44.73109937359524
100
AcDbArc
 50
180.0
 51
270.0
  0
ARC
  5
28B
330
20C
100
AcDbEntity
  8
0
  6
Continuous
 62
     7
370
    25
100
AcDbCircle
 10
205.0
 20
-97.5
 30
0.0
 40
39.73109937359524
100
AcDbArc
 50
270.0
 51
0.0
  0
ARC
  5
28C
330
20C
100
AcDbEntity
  8
0
  6
Continuous
 62
     7
370
    25
100
AcDbCircle
 10
-205.0
 20
-97.5
 30
0.0
 40
39.73109937359517
100
AcDbArc
 50
180.0
 51
270.0
  0
VIEWPORT
  5
5A0
330
20C
100
AcDbEntity
  8
0
100
AcDbViewport
 10
0.0
 20
0.0
 30
0.0
 40
205.6
 41
156.0
 68
     1
 69
     1
 12
0.0
 22
4.5
 13
0.0
 23
0.0
 14
10.0
 24
10.0
 15
10.0
 25
10.0
 16
0.0
 26
0.0
 36
1.0
 17
0.0
 27
0.0
 37
0.0
 42
50.0
 43
0.0
 44
0.0
 45
865.98
 50
0.0
 51
0.0
 72
   100
 90
   557152
  1

281
     0
 71
     1
 74
     0
110
0.0
120
0.0
130
0.0
111
1.0
121
0.0
131
0.0
112
0.0
122
1.0
132
0.0
 79
     0
146
0.0
  0
ENDBLK
  5
20F
330
20C
100
AcDbEntity
  8
0
100
AcDbBlockEnd
  0
BLOCK
  5
28F
330
28D
100
AcDbEntity
  8
0
100
AcDbBlockBegin
  2
*Paper_Space3
 70
     0
 10
0.0
 20
0.0
 30
0.0
  3
*Paper_Space3
  1

  0
SPLINE
  5
2B3
330
28D
100
AcDbEntity
  8
0
  6
Continuous
 62
     7
370
    25
100
AcDbSpline
210
0.0
220
0.0
230
1.0
 70
     8
 71
     3
 72
    44
 73
    40
 74
     0
 42
0.000000001
 43
0.00000001
 40
0.0
 40
0.0
 40
0.0
 40
0.0
 40
0.0624999999999996
 40
0.0937499999999992
 40
0.0937499999999992
 40
0.1093749999999993
 40
0.1093749999999993
 40
0.1249999999999994
 40
0.1249999999999994
 40
0.1874999999999995
 40
0.1874999999999995
 40
0.2187499999999995
 40
0.2187499999999995
 40
0.2343749999999994
 40
0.2343749999999994
 40
0.2499999999999994
 40
0.2499999999999994
 40
0.3124999999999995
 40
0.3124999999999995
 40
0.3749999999999996
 40
0.3749999999999996
 40
0.3906249999999995
 40
0.3906249999999995
 40
0.4062499999999994
 40
0.4062499999999994
 40
0.4374999999999996
 40
0.4374999999999996
 40
0.4999999999999993
 40
0.4999999999999993
 40
0.5312499999999992
 40
0.5312499999999992
 40
0.5468749999999991
 40
0.5468749999999991
 40
0.562499999999999
 40
0.562499999999999
 40
0.6249999999999992
 40
0.6249999999999992
 40
0.7499999999999997
 40
1.0
 40
1.0
 40
1.0
 40
1.0
 10
123.6127058580948
 20
-87.50000001906855
 30
0.0
 10
122.5862006339031
 20
-89.25687610959436
 30
0.0
 10
121.0464427921446
 20
-91.89219024221525
 30
0.0
 10
119.506684960295
 20
-94.5275043833651
 30
0.0
 10
118.7368060663814
 20
-95.84516146974994
 30
0.0
 10
118.480180130825
 20
-96.28438076074349
 30
0.0
 10
117.9669269306943
 20
-97.16281838121752
 30
0.0
 10
117.7127521487582
 20
-97.60381102362682
 30
0.0
 10
116.4101676713305
 20
-99.7858323932084
 30
0.0
 10
115.2426297129958
 20
-101.4406746521618
 30
0.0
 10
113.3054681702068
 20
-103.7884766487306
 30
0.0
 10
112.6284860491144
 20
-104.5484602843467
 30
0.0
 10
111.5655550566323
 20
-105.6541011390083
 30
0.0
 10
111.203324861294
 20
-106.0169182567287
 30
0.0
 10
110.4627966450191
 20
-106.7309278020477
 30
0.0
 10
110.0839843319092
 20
-107.0825240012955
 30
0.0
 10
108.1664412910462
 20
-108.7957654780778
 30
0.0
 10
106.5458555196198
 20
-110.0359898708097
 30
0.0
 10
103.1364079127194
 20
-112.262971211904
 30
0.0
 10
101.3478524465485
 20
-113.2501896319843
 30
0.0
 10
99.00336189491252
 20
-114.3203373030742
 30
0.0
 10
98.52868866280254
 20
-114.5262020439818
 30
0.0
 10
97.57650907739806
 20
-114.9178964421099
 30
0.0
 10
97.09801318990647
 20
-115.1041981921276
 30
0.0
 10
95.65540556099907
 20
-115.6348571415385
 30
0.0
 10
94.68418506574821
 20
-115.951012522859
 30
0.0
 10
91.74244981242094
 20
-116.7881045351323
 30
0.0
 10
89.74405212264892
 20
-117.1984241176884
 30
0.0
 10
86.68877455431013
 20
-117.5850715392756
 30
0.0
 10
85.65783254253958
 20
-117.6756977093547
 30
0.0
 10
84.10915303133523
 20
-117.7509700697303
 30
0.0
 10
83.59254399018175
 20
-117.7658911707788
 30
0.0
 10
82.5585809831402
 20
-117.775929688121
 30
0.0
 10
82.04130194289607
 20
-117.7727218331602
 30
0.0
 10
79.45549765713348
 20
-117.7727188167078
 30
0.0
 10
77.38685422852339
 20
-117.7727272999375
 30
0.0
 10
71.18092394269313
 20
-117.7727273818405
 30
0.0
 10
58.76906337103271
 20
-117.7727272640537
 30
0.0
 10
46.35720279937215
 20
-117.7727272761032
 30
0.0
 10
38.08262908493174
 20
-117.7727272761032
 30
0.0
  0
SPLINE
  5
2B5
330
28D
100
AcDbEntity
  8
0
  6
Continuous
 62
     7
370
    25
100
AcDbSpline
210
0.0
220
0.0
230
1.0
 70
     8
 71
     3
 72
    39
 73
    35
 74
     0
 42
0.000000001
 43
0.00000001
 40
0.0
 40
0.0
 40
0.0
 40
0.0
 40
0.2499999999999992
 40
0.3124999999999988
 40
0.3124999999999988
 40
0.3437499999999987
 40
0.3437499999999987
 40
0.3593749999999986
 40
0.3593749999999986
 40
0.3749999999999985
 40
0.3749999999999985
 40
0.4374999999999987
 40
0.4374999999999987
 40
0.4687499999999985
 40
0.4687499999999985
 40
0.4999999999999983
 40
0.4999999999999983
 40
0.5624999999999984
 40
0.5624999999999984
 40
0.6249999999999986
 40
0.6249999999999986
 40
0.6562499999999987
 40
0.6562499999999987
 40
0.6874999999999988
 40
0.6874999999999988
 40
0.7499999999999992
 40
0.7499999999999992
 40
0.8124999999999998
 40
0.8124999999999998
 40
0.8437499999999999
 40
0.8437499999999999
 40
0.875
 40
0.875
 40
1.0
 40
1.0
 40
1.0
 40
1.0
 10
-52.81945396868522
 20
-117.7727272727214
 30
0.0
 10
-59.84605159206343
 20
-117.7727272588661
 30
0.0
 10
-68.62929862128627
 20
-117.7726965998891
 30
0.0
 10
-77.4125456505089
 20
-117.7727160343746
 30
0.0
 10
-80.0475197592757
 20
-117.7727261423799
 30
0.0
 10
-80.92584446219465
 20
-117.7726839029573
 30
0.0
 10
-82.24333151658203
 20
-117.7727364064976
 30
0.0
 10
-82.68283046754988
 20
-117.7751428472923
 30
0.0
 10
-83.5599135385236
 20
-117.7658843142063
 30
0.0
 10
-83.99744246846785
 20
-117.7538338305715
 30
0.0
 10
-86.1802622142242
 20
-117.6582204961674
 30
0.0
 10
-87.91102148984679
 20
-117.4681584116088
 30
0.0
 10
-90.48439121436613
 20
-117.0161936977428
 30
0.0
 10
-91.33837246788875
 20
-116.8376257985754
 30
0.0
 10
-93.03864842155149
 20
-116.4241565328291
 30
0.0
 10
-93.88755062970112
 20
-116.1883095983784
 30
0.0
 10
-96.39156588570546
 20
-115.4045714137522
 30
0.0
 10
-98.0107757231551
 20
-114.7799685367557
 30
0.0
 10
-101.1526004903333
 20
-113.3340211612215
 30
0.0
 10
-102.6752693642712
 20
-112.5127865346377
 30
0.0
 10
-104.8859273418635
 20
-111.1315470116142
 30
0.0
 10
-105.6105395395173
 20
-110.6461349386404
 30
0.0
 10
-107.0345149904635
 20
-109.6238844973206
 30
0.0
 10
-107.7292724577813
 20
-109.0901823671511
 30
0.0
 10
-109.7479941614546
 20
-107.4339695645001
 30
0.0
 10
-111.0130807004366
 20
-106.2520300054335
 30
0.0
 10
-113.3841015681375
 20
-103.7347755388048
 30
0.0
 10
-114.4900200319526
 20
-102.3994453421988
 30
0.0
 10
-116.0252364911868
 20
-100.2772774312736
 30
0.0
 10
-116.5164354710382
 20
-99.54932942002411
 30
0.0
 10
-117.4466869839347
 20
-98.06830128355422
 30
0.0
 10
-117.8810108039664
 20
-97.30987094666482
 30
0.0
 10
-120.0855031262636
 20
-93.5368403158879
 30
0.0
 10
-121.8491065854406
 20
-90.51842139598594
 30
0.0
 10
-123.6127057868247
 20
-87.49999999949412
 30
0.0
  0
SPLINE
  5
2B6
330
28D
100
AcDbEntity
  8
0
  6
Continuous
 62
     7
370
    25
100
AcDbSpline
210
0.0
220
0.0
230
1.0
 70
     8
 71
     3
 72
    96
 73
    92
 74
     0
 42
0.000000001
 43
0.00000001
 40
0.7390233707204807
 40
0.7390233707204807
 40
0.7390233707204807
 40
0.7390233707204807
 40
0.7461719633701063
 40
0.7461719633701063
 40
0.7500782133701063
 40
0.7500782133701063
 40
0.7520313383701063
 40
0.7520313383701063
 40
0.7530079008701063
 40
0.7530079008701063
 40
0.7534961821201063
 40
0.7534961821201063
 40
0.7537403227451063
 40
0.7537403227451063
 40
0.7539844633701063
 40
0.7539844633701063
 40
0.7542286039951063
 40
0.7542286039951063
 40
0.7544727446201063
 40
0.7544727446201063
 40
0.7549610258701063
 40
0.7549610258701063
 40
0.7559375883701063
 40
0.7559375883701063
 40
0.7578907133701063
 40
0.7578907133701063
 40
0.7617969633701063
 40
0.7617969633701063
 40
0.7696094633701063
 40
0.7696094633701063
 40
0.7774219633701063
 40
0.7774219633701063
 40
0.7813282133701063
 40
0.7813282133701063
 40
0.7818164946201063
 40
0.7818164946201063
 40
0.7823047758701063
 40
0.7823047758701063
 40
0.7825489164951063
 40
0.7825489164951063
 40
0.7827930571201063
 40
0.7827930571201063
 40
0.7832813383701063
 40
0.7832813383701063
 40
0.7852344633701063
 40
0.7852344633701063
 40
0.8164844633701063
 40
0.8164844633701063
 40
0.8789844633701063
 40
0.8789844633701063
 40
0.9414844633701063
 40
0.9414844633701063
 40
0.9571094633701063
 40
0.9571094633701063
 40
0.9649219633701063
 40
0.9649219633701063
 40
0.9688282133701063
 40
0.9688282133701063
 40
0.9707813383701063
 40
0.9707813383701063
 40
0.9712696196201063
 40
0.9712696196201063
 40
0.9715137602451063
 40
0.9715137602451063
 40
0.9717579008701063
 40
0.9717579008701063
 40
0.9727344633701063
 40
0.9727344633701063
 40
0.9883594633701063
 40
0.9883594633701063
 40
0.9961719633701063
 40
0.9961719633701063
 40
0.9981250883701063
 40
0.9981250883701063
 40
0.9991016508701063
 40
0.9991016508701063
 40
0.9995899321201063
 40
0.9995899321201063
 40
0.9998340727451063
 40
0.9998340727451063
 40
1.000078213370106
 40
1.000078213370106
 40
1.000566494620106
 40
1.000566494620106
 40
1.001054775870106
 40
1.001054775870106
 40
1.002031338370106
 40
1.002031338370106
 40
1.003984463370106
 40
1.003984463370106
 40
1.014961092649626
 40
1.014961092649626
 40
1.014961092649626
 40
1.014961092649626
 10
-129.0689012149376
 20
-87.50000051904163
 30
0.0
 10
-127.9068177314628
 20
-89.50874483139623
 30
0.0
 10
-126.7449498110525
 20
-91.51711654740636
 30
0.0
 10
-124.948510436503
 20
-94.62239027532355
 30
0.0
 10
-124.3138160355002
 20
-95.71950513624816
 30
0.0
 10
-123.3618144358129
 20
-97.36510754669531
 30
0.0
 10
-123.0446003370591
 20
-97.91343612995514
 30
0.0
 10
-122.5685226298812
 20
-98.73636859659801
 30
0.0
 10
-122.4103999754169
 20
-99.00970198517491
 30
0.0
 10
-122.1716919873984
 20
-99.42231609137663
 30
0.0
 10
-122.0918093676446
 20
-99.5603901040955
 30
0.0
 10
-121.974229630864
 20
-99.76365312059413
 30
0.0
 10
-121.9352040420311
 20
-99.83112295090062
 30
0.0
 10
-121.8529834432803
 20
-99.97321238024072
 30
0.0
 10
-121.8287945054809
 20
-100.0152290615113
 30
0.0
 10
-121.7177497402644
 20
-100.2067967475591
 30
0.0
 10
-121.6291872890632
 20
-100.3586794889392
 30
0.0
 10
-121.4870796804564
 20
-100.5988147380981
 30
0.0
 10
-121.4136311957885
 20
-100.7217108525553
 30
0.0
 10
-121.19041607328
 20
-101.0910929505908
 30
0.0
 10
-121.0407305279487
 20
-101.3333324446332
 30
0.0
 10
-120.5860198002927
 20
-102.0538757676674
 30
0.0
 10
-120.2727647358648
 20
-102.5300079647079
 30
0.0
 10
-119.3107889649851
 20
-103.9331381185853
 30
0.0
 10
-118.6350916689085
 20
-104.8423650171195
 30
0.0
 10
-116.518711117004
 20
-107.4778003157322
 30
0.0
 10
-114.9876817241474
 20
-109.1130477674269
 30
0.0
 10
-110.1075093991032
 20
-113.6184675137262
 30
0.0
 10
-106.4947261869532
 20
-116.0714669374258
 30
0.0
 10
-98.84249629305539
 20
-119.852928240102
 30
0.0
 10
-94.81064403416417
 20
-121.1753755960816
 30
0.0
 10
-88.64877746519548
 20
-122.2960330071541
 30
0.0
 10
-86.57271156597953
 20
-122.525790427424
 30
0.0
 10
-84.23842947098805
 20
-122.6206408778732
 30
0.0
 10
-83.97856663292129
 20
-122.62893138953
 30
0.0
 10
-83.4552611755286
 20
-122.6409095554582
 30
0.0
 10
-83.20897453103623
 20
-122.6446164216031
 30
0.0
 10
-82.7986090180751
 20
-122.6467050552965
 30
0.0
 10
-82.6815535181945
 20
-122.6466854908663
 30
0.0
 10
-82.54157176754585
 20
-122.6466147565269
 30
0.0
 10
-82.47157756065943
 20
-122.6466375918759
 30
0.0
 10
-82.25574929023297
 20
-122.6466768129674
 30
0.0
 10
-82.1114587716143
 20
-122.6466597870865
 30
0.0
 10
-81.39383619014252
 20
-122.6466145334641
 30
0.0
 10
-80.82045151159937
 20
-122.6466533529581
 30
0.0
 10
-71.06823831462991
 20
-122.6466090347153
 30
0.0
 10
-61.93024378562576
 20
-122.6466507453909
 30
0.0
 10
-34.5807860568647
 20
-122.646650747377
 30
0.0
 10
-16.42450823882586
 20
-122.6466507460529
 30
0.0
 10
19.89803438184926
 20
-122.6466507460529
 30
0.0
 10
38.05746097207413
 20
-122.6466507536488
 30
0.0
 10
60.86326492365016
 20
-122.646650744154
 30
0.0
 10
65.4304204745305
 20
-122.6466507725316
 30
0.0
 10
72.29368771682282
 20
-122.6466507328136
 30
0.0
 10
74.58345663797841
 20
-122.6466508846633
 30
0.0
 10
78.0218544973179
 20
-122.6466506767477
 30
0.0
 10
79.16941025499044
 20
-122.6466487017567
 30
0.0
 10
80.8890530041637
 20
-122.6466517681894
 30
0.0
 10
81.46945455290319
 20
-122.6466365403629
 30
0.0
 10
82.17912568681689
 20
-122.6466542955687
 30
0.0
 10
82.32002847639896
 20
-122.6466609404954
 30
0.0
 10
82.54223544274292
 20
-122.6466456314791
 30
0.0
 10
82.59088678713023
 20
-122.6466963425326
 30
0.0
 10
82.78009523801286
 20
-122.6466039885215
 30
0.0
 10
82.93429536230792
 20
-122.6462211046935
 30
0.0
 10
83.57814960356194
 20
-122.640807062945
 30
0.0
 10
84.10363532971756
 20
-122.627398937062
 30
0.0
 10
92.92888514583564
 20
-122.2441640217751
 30
0.0
 10
101.1973866208697
 20
-119.5534096033104
 30
0.0
 10
111.9088236999169
 20
-112.1689852634269
 30
0.0
 10
115.2022249104603
 20
-109.1385612747539
 30
0.0
 10
118.7174377266279
 20
-104.7340725789245
 30
0.0
 10
119.3905897927706
 20
-103.8224745032536
 30
0.0
 10
120.3484081611243
 20
-102.4162540203652
 30
0.0
 10
120.6594843029397
 20
-101.9404402747333
 30
0.0
 10
121.1138888650553
 20
-101.2152947977037
 30
0.0
 10
121.2631597355269
 20
-100.9719443766337
 30
0.0
 10
121.4829725285489
 20
-100.6057935157507
 30
0.0
 10
121.5557116633234
 20
-100.4832981766752
 30
0.0
 10
121.701537949415
 20
-100.2349915292912
 30
0.0
 10
121.7775899497064
 20
-100.1035614683528
 30
0.0
 10
121.8859299089896
 20
-99.9162621967644
 30
0.0
 10
121.9728629684933
 20
-99.76601114602063
 30
0.0
 10
122.1301815701489
 20
-99.49407138773974
 30
0.0
 10
122.2099669186421
 20
-99.35615792779129
 30
0.0
 10
122.4484583327508
 20
-98.94390981957076
 30
0.0
 10
122.6067187264333
 20
-98.67034444878803
 30
0.0
 10
123.0827636485282
 20
-97.84746705339825
 30
0.0
 10
123.4000021567842
 20
-97.29909744525348
 30
0.0
 10
125.5007581939943
 20
-93.6677906887793
 30
0.0
 10
127.284591935021
 20
-90.58430671011442
 30
0.0
 10
129.0689015148688
 20
-87.50000018637108
 30
0.0
  0
LINE
  5
2E1
330
28D
100
AcDbEntity
  8
0
  6
Continuous
 62
     7
370
    25
100
AcDbLine
 10
249.7310993736
 20
-137.5
 30
0.0
 11
249.7310993736
 21
97.5
 31
0.0
  0
LINE
  5
2E2
330
28D
100
AcDbEntity
  8
0
  6
Continuous
 62
     7
370
    25
100
AcDbLine
 10
-249.7310993736
 20
97.5
 30
0.0
 11
-249.7310993736
 21
-137.5
 31
0.0
  0
LINE
  5
2E3
330
28D
100
AcDbEntity
  8
0
  6
Continuous
 62
     7
370
    25
100
AcDbLine
 10
205.0
 20
142.2310993736
 30
0.0
 11
-205.0
 21
142.2310993736
 31
0.0
  0
LINE
  5
2E4
330
28D
100
AcDbEntity
  8
0
  6
Continuous
 62
     7
370
    25
100
AcDbLine
 10
-230.0
 20
124.859601858
 30
0.0
 11
-229.6563228307
 21
124.3234882793
 31
0.0
  0
LINE
  5
2E5
330
28D
100
AcDbEntity
  8
0
  6
Continuous
 62
     7
370
    25
100
AcDbLine
 10
-243.0
 20
-137.5
 30
0.0
 11
-243.0
 21
94.5
 31
0.0
  0
LINE
  5
2E6
330
28D
100
AcDbEntity
  8
0
  6
Continuous
 62
     7
370
    25
100
AcDbLine
 10
-229.9760151048
 20
124.0346340601
 30
0.0
 11
-224.0
 21
115.5
 31
0.0
  0
LINE
  5
2E7
330
28D
100
AcDbEntity
  8
0
  6
Continuous
 62
     7
370
    25
100
AcDbLine
 10
-224.0
 20
115.5
 30
0.0
 11
-224.0
 21
-137.5
 31
0.0
  0
LINE
  5
2E8
330
28D
100
AcDbEntity
  8
0
  6
Continuous
 62
     7
370
    25
100
AcDbLine
 10
243.0
 20
94.5
 30
0.0
 11
243.0
 21
-137.5
 31
0.0
  0
LINE
  5
2E9
330
28D
100
AcDbEntity
  8
0
  6
Continuous
 62
     7
370
    25
100
AcDbLine
 10
224.0
 20
-137.5
 30
0.0
 11
224.0
 21
115.5
 31
0.0
  0
LINE
  5
2EA
330
28D
100
AcDbEntity
  8
0
  6
Continuous
 62
     7
370
    25
100
AcDbLine
 10
224.0
 20
115.5
 30
0.0
 11
229.9760151048
 21
124.0346340601
 31
0.0
  0
LINE
  5
2EB
330
28D
100
AcDbEntity
  8
0
  6
Continuous
 62
     7
370
    25
100
AcDbLine
 10
224.0
 20
114.5
 30
0.0
 11
-224.0
 21
114.5
 31
0.0
  0
LINE
  5
2EC
330
28D
100
AcDbEntity
  8
0
  6
Continuous
 62
     7
370
    25
100
AcDbLine
 10
-224.0
 20
98.5
 30
0.0
 11
224.0
 21
98.5
 31
0.0
  0
LINE
  5
2ED
330
28D
100
AcDbEntity
  8
0
  6
Continuous
 62
     7
370
    25
100
AcDbLine
 10
224.0
 20
115.5
 30
0.0
 11
-224.0
 21
115.5
 31
0.0
  0
LINE
  5
2EE
330
28D
100
AcDbEntity
  8
0
  6
Continuous
 62
     7
370
    25
100
AcDbLine
 10
-203.0
 20
134.5
 30
0.0
 11
203.0
 21
134.5
 31
0.0
  0
LINE
  5
2EF
330
28D
100
AcDbEntity
  8
0
  6
Continuous
 62
     7
370
    25
100
AcDbLine
 10
-224.0
 20
-87.5
 30
0.0
 11
224.0
 21
-87.5
 31
0.0
  0
LINE
  5
2F0
330
28D
100
AcDbEntity
  8
0
  6
Continuous
 62
     7
370
    25
100
AcDbLine
 10
-208.0
 20
-87.5
 30
0.0
 11
-208.0
 21
-137.5
 31
0.0
  0
LINE
  5
2F1
330
28D
100
AcDbEntity
  8
0
  6
Continuous
 62
     7
370
    25
100
AcDbLine
 10
208.0
 20
-137.5
 30
0.0
 11
208.0
 21
-87.5
 31
0.0
  0
LINE
  5
2F2
330
28D
100
AcDbEntity
  8
0
  6
Continuous
 62
     7
370
    25
100
AcDbLine
 10
38.0826290849
 20
-117.7727272761
 30
0.0
 11
-52.8194539687
 21
-117.7727272727
 31
0.0
  0
LINE
  5
2F3
330
28D
100
AcDbEntity
  8
0
  6
Continuous
 62
     7
370
    25
100
AcDbLine
 10
249.7310993736
 20
-137.5
 30
0.0
 11
-249.7310993736
 21
-137.5
 31
0.0
  0
LINE
  5
2F4
330
28D
100
AcDbEntity
  8
0
  6
Continuous
 62
     7
370
    25
100
AcDbLine
 10
243.5560413777
 20
-137.5
 30
0.0
 11
243.5560413777
 21
97.5
 31
0.0
  0
LINE
  5
2F5
330
28D
100
AcDbEntity
  8
0
  6
Continuous
 62
     7
370
    25
100
AcDbLine
 10
249.7310993736
 20
97.5
 30
0.0
 11
242.8873413504
 21
97.5
 31
0.0
  0
LINE
  5
2F6
330
28D
100
AcDbEntity
  8
0
  6
Continuous
 62
     7
370
    25
100
AcDbLine
 10
247.1066008945
 20
97.5
 30
0.0
 11
247.1066008945
 21
-137.5
 31
0.0
  0
LINE
  5
2F7
330
28D
100
AcDbEntity
  8
0
  6
Continuous
 62
     7
370
    25
100
AcDbLine
 10
205.0
 20
142.2310993736
 30
0.0
 11
205.0
 21
134.4863711536
 31
0.0
  0
LINE
  5
2F8
330
28D
100
AcDbEntity
  8
0
  6
Continuous
 62
     7
370
    25
100
AcDbLine
 10
205.0
 20
136.0560413777
 30
0.0
 11
-205.0
 21
136.0560413777
 31
0.0
  0
LINE
  5
2F9
330
28D
100
AcDbEntity
  8
0
  6
Continuous
 62
     7
370
    25
100
AcDbLine
 10
-205.0
 20
142.2310993736
 30
0.0
 11
-205.0
 21
134.4499687109
 31
0.0
  0
LINE
  5
2FA
330
28D
100
AcDbEntity
  8
0
  6
Continuous
 62
     7
370
    25
100
AcDbLine
 10
-205.0
 20
139.6066008945
 30
0.0
 11
205.0
 21
139.6066008945
 31
0.0
  0
LINE
  5
2FB
330
28D
100
AcDbEntity
  8
0
  6
Continuous
 62
     7
370
    25
100
AcDbLine
 10
-243.5560413777
 20
97.5
 30
0.0
 11
-243.5560413777
 21
-137.5
 31
0.0
  0
LINE
  5
2FC
330
28D
100
AcDbEntity
  8
0
  6
Continuous
 62
     7
370
    25
100
AcDbLine
 10
-249.7310993736
 20
97.5
 30
0.0
 11
-242.8873413504
 21
97.5
 31
0.0
  0
LINE
  5
2FD
330
28D
100
AcDbEntity
  8
0
  6
Continuous
 62
     7
370
    25
100
AcDbLine
 10
-247.1066008945
 20
-137.5
 30
0.0
 11
-247.1066008945
 21
97.5
 31
0.0
  0
LINE
  5
2FE
330
28D
100
AcDbEntity
  8
0
  6
Continuous
 62
     7
370
    25
100
AcDbLine
 10
-249.7242470474
 20
97.5
 30
0.0
 11
-249.7242470474
 21
-137.5
 31
0.0
  0
LINE
  5
2FF
330
28D
100
AcDbEntity
  8
0
  6
Continuous
 62
     7
370
    25
100
AcDbLine
 10
205.0
 20
142.2242470474
 30
0.0
 11
-205.0
 21
142.2242470474
 31
0.0
  0
LINE
  5
300
330
28D
100
AcDbEntity
  8
0
  6
Continuous
 62
     7
370
    25
100
AcDbLine
 10
249.7242470474
 20
-137.5
 30
0.0
 11
249.7242470474
 21
97.5
 31
0.0
  0
LINE
  5
301
330
28D
100
AcDbEntity
  8
0
  6
Continuous
 62
     7
370
    25
100
AcDbLine
 10
230.0
 20
124.859601858
 30
0.0
 11
229.6563228307
 21
124.3234882793
 31
0.0
  0
ARC
  5
302
330
28D
100
AcDbEntity
  8
0
  6
Continuous
 62
     7
370
    25
100
AcDbCircle
 10
-205.0
 20
97.5
 30
0.0
 40
44.73109937359528
100
AcDbArc
 50
90.0
 51
180.0
  0
ARC
  5
303
330
28D
100
AcDbEntity
  8
0
  6
Continuous
 62
     7
370
    25
100
AcDbCircle
 10
205.0
 20
97.5
 30
0.0
 40
44.73109937359524
100
AcDbArc
 50
0.0
 51
90.0
  0
ARC
  5
304
330
28D
100
AcDbEntity
  8
0
  6
Continuous
 62
     7
370
    25
100
AcDbCircle
 10
-203.9559109389
 20
94.5
 30
0.0
 40
39.9999999999995
100
AcDbArc
 50
90.0
 51
130.6247566679
  0
ARC
  5
305
330
28D
100
AcDbEntity
  8
0
  6
Continuous
 62
     7
370
    25
100
AcDbCircle
 10
-203.0
 20
94.5
 30
0.0
 40
40.00000000000004
100
AcDbArc
 50
90.0
 51
180.0
  0
ARC
  5
306
330
28D
100
AcDbEntity
  8
0
  6
Continuous
 62
     7
370
    25
100
AcDbCircle
 10
203.0
 20
94.5
 30
0.0
 40
40.00000000000006
100
AcDbArc
 50
0.0
 51
90.0
  0
ARC
  5
307
330
28D
100
AcDbEntity
  8
0
  6
Continuous
 62
     7
370
    25
100
AcDbCircle
 10
-223.0
 20
114.5
 30
0.0
 40
1.000000000000014
100
AcDbArc
 50
90.0
 51
180.0
  0
ARC
  5
308
330
28D
100
AcDbEntity
  8
0
  6
Continuous
 62
     7
370
    25
100
AcDbCircle
 10
223.0
 20
114.5
 30
0.0
 40
1.0
100
AcDbArc
 50
0.0
 51
90.0
  0
ARC
  5
309
330
28D
100
AcDbEntity
  8
0
  6
Continuous
 62
     7
370
    25
100
AcDbCircle
 10
205.0
 20
97.5
 30
0.0
 40
38.55604137772053
100
AcDbArc
 50
0.0
 51
90.0
  0
ARC
  5
30A
330
28D
100
AcDbEntity
  8
0
  6
Continuous
 62
     7
370
    25
100
AcDbCircle
 10
205.0
 20
97.5
 30
0.0
 40
42.10660089445943
100
AcDbArc
 50
0.0
 51
90.0
  0
ARC
  5
30B
330
28D
100
AcDbEntity
  8
0
  6
Continuous
 62
     7
370
    25
100
AcDbCircle
 10
-205.0
 20
97.5
 30
0.0
 40
38.55604137772053
100
AcDbArc
 50
90.0
 51
180.0
  0
ARC
  5
30C
330
28D
100
AcDbEntity
  8
0
  6
Continuous
 62
     7
370
    25
100
AcDbCircle
 10
-205.0
 20
97.5
 30
0.0
 40
42.1066008944595
100
AcDbArc
 50
90.0
 51
180.0
  0
ARC
  5
30D
330
28D
100
AcDbEntity
  8
0
  6
Continuous
 62
     7
370
    25
100
AcDbCircle
 10
205.0
 20
97.5
 30
0.0
 40
44.72424704736815
100
AcDbArc
 50
0.0
 51
90.0
  0
ARC
  5
30E
330
28D
100
AcDbEntity
  8
0
  6
Continuous
 62
     7
370
    25
100
AcDbCircle
 10
-205.0
 20
97.5
 30
0.0
 40
44.7242470473681
100
AcDbArc
 50
90.0
 51
180.0
  0
ARC
  5
30F
330
28D
100
AcDbEntity
  8
0
  6
Continuous
 62
     7
370
    25
100
AcDbCircle
 10
203.9559109389
 20
94.5
 30
0.0
 40
39.99999999999947
100
AcDbArc
 50
49.3752433321
 51
90.0
  0
VIEWPORT
  5
5A2
330
28D
100
AcDbEntity
  8
0
100
AcDbViewport
 10
0.0
 20
0.0
 30
0.0
 40
205.6
 41
156.0
 68
     1
 69
     1
 12
0.0
 22
4.5
 13
0.0
 23
0.0
 14
10.0
 24
10.0
 15
10.0
 25
10.0
 16
0.0
 26
0.0
 36
1.0
 17
0.0
 27
0.0
 37
0.0
 42
50.0
 43
0.0
 44
0.0
 45
865.98
 50
0.0
 51
0.0
 72
   100
 90
   557152
  1

281
     0
 71
     1
 74
     0
110
0.0
120
0.0
130
0.0
111
1.0
121
0.0
131
0.0
112
0.0
122
1.0
132
0.0
 79
     0
146
0.0
  0
ENDBLK
  5
290
330
28D
100
AcDbEntity
  8
0
100
AcDbBlockEnd
  0
BLOCK
  5
312
330
310
100
AcDbEntity
  8
0
100
AcDbBlockBegin
  2
*Paper_Space4
 70
     0
 10
0.0
 20
0.0
 30
0.0
  3
*Paper_Space4
  1

  0
SPLINE
  5
316
330
310
100
AcDbEntity
  8
0
  6
Continuous
 62
     7
370
    25
100
AcDbSpline
210
0.0
220
0.0
230
1.0
 70
     8
 71
     3
 72
    21
 73
    17
 74
     0
 42
0.000000001
 43
0.00000001
 40
0.0
 40
0.0
 40
0.0
 40
0.0
 40
0.0581347456827237
 40
0.1413122153725496
 40
0.2225562777833861
 40
0.3024258819006845
 40
0.3805920292722876
 40
0.4575148932704939
 40
0.5350759441670748
 40
0.6128501038055411
 40
0.6902357778900604
 40
0.7668582827072628
 40
0.8424643784727898
 40
0.9169649650656883
 40
0.9905564872184708
 40
1.0
 40
1.0
 40
1.0
 40
1.0
 10
87.83286229157821
 20
224.3048738839863
 30
0.0
 10
87.58045610193928
 20
223.964581420629
 30
0.0
 10
86.96691462321186
 20
223.1374085946905
 30
0.0
 10
85.67866138363665
 20
221.8389112442657
 30
0.0
 10
84.0097003295579
 20
220.4482696801803
 30
0.0
 10
82.10632974811311
 20
219.1508843870856
 30
0.0
 10
79.98430630354598
 20
217.9622131020346
 30
0.0
 10
77.66087845438776
 20
216.8864282269555
 30
0.0
 10
75.1473814547451
 20
215.9312437233035
 30
0.0
 10
72.45897808351276
 20
215.1091820949735
 30
0.0
 10
69.63839263434163
 20
214.4385180030491
 30
0.0
 10
66.73071569434708
 20
213.9347091661577
 30
0.0
 10
63.77673588719666
 20
213.5991977367689
 30
0.0
 10
60.81619932827215
 20
213.4602854797189
 30
0.0
 10
58.71446941549316
 20
213.4398772075119
 30
0.0
 10
57.61967228202811
 20
213.5115523515165
 30
0.0
 10
57.49516181808676
 20
213.5197039123493
 30
0.0
  0
SPLINE
  5
317
330
310
100
AcDbEntity
  8
0
  6
Continuous
 62
     7
370
    25
100
AcDbSpline
210
0.0
220
0.0
230
1.0
 70
     8
 71
     3
 72
    25
 73
    21
 74
     0
 42
0.000000001
 43
0.00000001
 40
0.0
 40
0.0
 40
0.0
 40
0.0
 40
0.0307378251387367
 40
0.0883917199491872
 40
0.1459720606178499
 40
0.2034667247606051
 40
0.2608636940704881
 40
0.3181684347041206
 40
0.3753963785500198
 40
0.4325683378273079
 40
0.4897079120140759
 40
0.5468401271423105
 40
0.603988006776933
 40
0.661171892841712
 40
0.7184181708596838
 40
0.7757529016316295
 40
0.8332007673867655
 40
0.890782974921605
 40
0.9485133675882895
 40
1.0
 40
1.0
 40
1.0
 40
1.0
 10
47.06482935076606
 20
162.8828345225628
 30
0.0
 10
47.54828175739177
 20
162.6116886627421
 30
0.0
 10
48.9385294259351
 20
161.8319637212904
 30
0.0
 10
51.39357851860231
 20
160.6651620355879
 30
0.0
 10
54.47048552313735
 20
159.4411688490713
 30
0.0
 10
57.70654328010698
 20
158.3913809876723
 30
0.0
 10
61.07357711939775
 20
157.5184699548113
 30
0.0
 10
64.5476010419134
 20
156.8274914924358
 30
0.0
 10
68.1031001994976
 20
156.3216405391653
 30
0.0
 10
71.71464556751819
 20
156.0034222008902
 30
0.0
 10
75.35650376147487
 20
155.8743569742101
 30
0.0
 10
79.00279567986453
 20
155.9350550470466
 30
0.0
 10
82.6275509961189
 20
156.1851671629011
 30
0.0
 10
86.2049691372268
 20
156.6234200163493
 30
0.0
 10
89.70979516343016
 20
157.2475674130745
 30
0.0
 10
93.11694458948797
 20
158.0549038301023
 30
0.0
 10
96.40359641032634
 20
159.0408206518275
 30
0.0
 10
99.5412429815326
 20
160.2045835025859
 30
0.0
 10
102.4153231464884
 20
161.4792109475108
 30
0.0
 10
104.1468564353451
 20
162.4331381548397
 30
0.0
 10
104.9631286043408
 20
162.8828345225627
 30
0.0
  0
SPLINE
  5
318
330
310
100
AcDbEntity
  8
0
  6
Continuous
 62
     7
370
    25
100
AcDbSpline
210
0.0
220
0.0
230
1.0
 70
     8
 71
     3
 72
    20
 73
    16
 74
     0
 42
0.000000001
 43
0.00000001
 40
0.0
 40
0.0
 40
0.0
 40
0.0
 40
0.0123231804641402
 40
0.0288267185698011
 40
0.0488090410995677
 40
0.0751237011345493
 40
0.5918458863368187
 40
0.8502069789379529
 40
0.9147972520882365
 40
0.9632399569509487
 40
0.9698035250983711
 40
0.976057798881524
 40
0.9822198686672587
 40
0.9997210466064638
 40
1.0
 40
1.0
 40
1.0
 40
1.0
 10
142.0806862000217
 20
340.8897526475145
 30
0.0
 10
141.9022474974911
 20
340.4641662615601
 30
0.0
 10
141.4848388362467
 20
339.4686230241023
 30
0.0
 10
140.5555383270326
 20
337.6023788657948
 30
0.0
 10
139.3562445191134
 20
335.0471856739956
 30
0.0
 10
129.3088683608333
 20
313.2429992246787
 30
0.0
 10
114.6416640999036
 20
281.6166959956437
 30
0.0
 10
99.52802635596284
 20
248.9322727087813
 30
0.0
 10
92.76383965752126
 20
234.30088554938
 30
0.0
 10
90.65390748455441
 20
229.7487201083863
 30
0.0
 10
89.49669280911237
 20
227.2380546499658
 30
0.0
 10
89.22160556727802
 20
226.655530893951
 30
0.0
 10
88.69678296492067
 20
225.7113111052616
 30
0.0
 10
88.25378620637217
 20
224.9506518308282
 30
0.0
 10
87.77411043358333
 20
224.3905514415823
 30
0.0
 10
87.7665847757514
 20
224.3817639978128
 30
0.0
  0
SPLINE
  5
31B
330
310
100
AcDbEntity
  8
0
  6
Continuous
 62
     7
370
    25
100
AcDbSpline
210
0.0
220
0.0
230
1.0
 70
     8
 71
     3
 72
    32
 73
    28
 74
     0
 42
0.000000001
 43
0.00000001
 40
0.0
 40
0.0
 40
0.0
 40
0.0
 40
0.0234698222702372
 40
0.0661263456492307
 40
0.106576966446011
 40
0.1495924494423997
 40
0.1912344605758935
 40
0.2323124844444263
 40
0.2732750920535811
 40
0.3142665125676101
 40
0.3553810907260637
 40
0.3966344445545671
 40
0.4380062999530862
 40
0.4794611961766245
 40
0.5209578312150582
 40
0.5624515706993188
 40
0.6038848785584607
 40
0.6452135112147637
 40
0.6863951516842829
 40
0.7273947793180916
 40
0.7681972417024246
 40
0.8088334389582461
 40
0.8494178324958499
 40
0.890150199010333
 40
0.9315334789579299
 40
0.974446126851603
 40
0.9999999999999999
 40
0.9999999999999999
 40
0.9999999999999999
 40
0.9999999999999999
 10
188.9366244832106
 20
300.6280216796251
 30
0.0
 10
188.9403292607785
 20
300.4326629150916
 30
0.0
 10
188.9507674907397
 20
299.8822385854821
 30
0.0
 10
188.6798652167755
 20
298.9813545087276
 30
0.0
 10
188.137278448546
 20
297.8867654823649
 30
0.0
 10
187.2943541455125
 20
296.79127002286
 30
0.0
 10
186.1512615712179
 20
295.7182527159067
 30
0.0
 10
184.7533290735479
 20
294.7257762690861
 30
0.0
 10
183.1196787783024
 20
293.831163893533
 30
0.0
 10
181.2740633217133
 20
293.0533432959829
 30
0.0
 10
179.2473307436732
 20
292.4104226161382
 30
0.0
 10
177.0746361128982
 20
291.9177473931637
 30
0.0
 10
174.7955075229696
 20
291.5874195111881
 30
0.0
 10
172.4523783213745
 20
291.4276934027349
 30
0.0
 10
170.0894031997347
 20
291.4427172703789
 30
0.0
 10
167.7516359493528
 20
291.6323956647285
 30
0.0
 10
165.4837982750543
 20
291.9922659958119
 30
0.0
 10
163.3292603164419
 20
292.5134614899531
 30
0.0
 10
161.3288467672697
 20
293.1827689846027
 30
0.0
 10
159.5198980491843
 20
293.9826030253691
 30
0.0
 10
157.9349633561398
 20
294.8911727253225
 30
0.0
 10
156.5996914131016
 20
295.8830113694079
 30
0.0
 10
155.5331696108729
 20
296.9298334173877
 30
0.0
 10
154.7385076106677
 20
298.004208622571
 30
0.0
 10
154.2262682520426
 20
299.0874196262648
 30
0.0
 10
153.9739434056593
 20
300.0126758957372
 30
0.0
 10
154.0001080821935
 20
300.5827467760151
 30
0.0
 10
154.0098735677908
 20
300.7955152756921
 30
0.0
  0
SPLINE
  5
31C
330
310
100
AcDbEntity
  8
0
  6
Continuous
 62
     7
370
    25
100
AcDbSpline
210
0.0
220
0.0
230
1.0
 70
     8
 71
     3
 72
    11
 73
     7
 74
     0
 42
0.000000001
 43
0.00000001
 40
0.0
 40
0.0
 40
0.0
 40
0.0
 40
0.511809092127696
 40
0.8231356406617087
 40
0.9909027002666978
 40
1.0
 40
1.0
 40
1.0
 40
1.0
 10
142.7652903349746
 20
343.3278060652955
 30
0.0
 10
142.7130781549159
 20
342.9519628790201
 30
0.0
 10
142.6291060118961
 20
342.3474993658046
 30
0.0
 10
142.3361210162539
 20
341.524404028406
 30
0.0
 10
142.2092663889109
 20
341.2066718084273
 30
0.0
 10
142.1241718735867
 20
341.0225081084146
 30
0.0
 10
142.1197949017962
 20
341.0130353554796
 30
0.0
  0
SPLINE
  5
31D
330
310
100
AcDbEntity
  8
0
  6
Continuous
 62
     7
370
    25
100
AcDbSpline
210
0.0
220
0.0
230
1.0
 70
     8
 71
     3
 72
    18
 73
    14
 74
     0
 42
0.000000001
 43
0.00000001
 40
0.0
 40
0.0
 40
0.0
 40
0.0
 40
0.0553498573646638
 40
0.15927806381932
 40
0.26325642346047
 40
0.3668127142719561
 40
0.469479325260905
 40
0.5707494996647212
 40
0.6702186522662731
 40
0.767730054619734
 40
0.8634452238324641
 40
0.9578125251511423
 40
1.0
 40
1.0
 40
1.0
 40
1.0
 10
-244.4937279315864
 20
410.6438804720509
 30
0.0
 10
-244.9857225549553
 20
410.351719153154
 30
0.0
 10
-246.4015157430648
 20
409.510978247713
 30
0.0
 10
-248.5699721742845
 20
407.9986475058324
 30
0.0
 10
-250.9025177003377
 20
406.0649099840086
 30
0.0
 10
-252.9620509369103
 20
403.9898938823289
 30
0.0
 10
-254.7279404053066
 20
401.7947323221621
 30
0.0
 10
-256.1800774752747
 20
399.5010668249033
 30
0.0
 10
-257.3033064218421
 20
397.1353173775982
 30
0.0
 10
-258.0979490700125
 20
394.7243701925576
 30
0.0
 10
-258.540984681159
 20
392.2953186582681
 30
0.0
 10
-258.6914330660492
 20
390.306057271041
 30
0.0
 10
-258.5792386677692
 20
389.1427543011346
 30
0.0
 10
-258.5445771312893
 20
388.7833614174736
 30
0.0
  0
SPLINE
  5
31F
330
310
100
AcDbEntity
  8
0
  6
Continuous
 62
     7
370
    25
100
AcDbSpline
210
0.0
220
0.0
230
1.0
 70
     8
 71
     3
 72
    16
 73
    12
 74
     0
 42
0.000000001
 43
0.00000001
 40
0.0
 40
0.0
 40
0.0
 40
0.0
 40
0.0885511309302804
 40
0.1979572992416315
 40
0.308194255935341
 40
0.4198974169545008
 40
0.5334208284995591
 40
0.6487921860217
 40
0.7657516265913513
 40
0.8838682051688782
 40
0.9999999999999999
 40
0.9999999999999999
 40
0.9999999999999999
 40
0.9999999999999999
 10
-255.9327162612488
 20
347.9145787632182
 30
0.0
 10
-255.8722562562537
 20
347.296534530096
 30
0.0
 10
-255.7370970643244
 20
345.9148879501437
 30
0.0
 10
-255.1545206610133
 20
343.8072658073045
 30
0.0
 10
-254.2640806355427
 20
341.607371080004
 30
0.0
 10
-253.0649255429407
 20
339.4700835049906
 30
0.0
 10
-251.5720321280305
 20
337.4060538565177
 30
0.0
 10
-249.7889150392974
 20
335.4284887783739
 30
0.0
 10
-247.7215891664652
 20
333.5571237938969
 30
0.0
 10
-245.4218846576892
 20
331.8085769321273
 30
0.0
 10
-243.7017372466988
 20
330.7642410596164
 30
0.0
 10
-242.848950935718
 20
330.2464974462184
 30
0.0
  0
LWPOLYLINE
  5
323
330
310
100
AcDbEntity
  8
0
  6
Continuous
 62
     7
370
    25
100
AcDbPolyline
 90
        9
 70
   128
 43
0.0
 10
-250.923630843
 20
302.5787151414
 10
-250.4969861248
 20
300.5476760143
 10
-249.7606039531
 20
298.5464093421
 10
-248.7202649592
 20
296.5906251529
 10
-247.384135848
 20
294.6956764354
 10
-245.7627052898
 20
292.8764386173
 10
-243.8687015831
 20
291.1471927925
 10
-241.7169927372
 20
289.5215136139
 10
-239.3244697576
 20
288.0121627319
  0
LWPOLYLINE
  5
329
330
310
100
AcDbEntity
  8
0
  6
Continuous
 62
     7
370
    25
100
AcDbPolyline
 90
        9
 70
   128
 43
0.0
 10
-239.3244697576
 20
-272.1348342217
 10
-241.7169927372
 20
-270.6254833397
 10
-243.8687015831
 20
-268.9998041611
 10
-245.7627052898
 20
-267.2705583363
 10
-247.384135848
 20
-265.4513205182
 10
-248.7202649592
 20
-263.5563718007
 10
-249.7606039531
 20
-261.6005876115
 10
-250.4969861248
 20
-259.5993209393
 10
-250.923630843
 20
-257.5682818123
  0
LWPOLYLINE
  5
32F
330
310
100
AcDbEntity
  8
0
  6
Continuous
 62
     7
370
    25
100
AcDbPolyline
 90
        9
 70
   128
 43
0.0
 10
-238.6485386505
 20
289.2550376334
 10
-241.1406734358
 20
290.833382107
 10
-243.3695570497
 20
292.5378916307
 10
-245.3161243609
 20
294.3539863951
 10
-246.9637250779
 20
296.2661321278
 10
-248.2982661707
 20
298.2579729684
 10
-249.3083324172
 20
300.3124713708
 10
-249.9852840458
 20
302.412053837
 10
-250.3233306368
 20
304.5387612347
  0
LWPOLYLINE
  5
339
330
310
100
AcDbEntity
  8
0
  6
Continuous
 62
     7
370
    25
100
AcDbPolyline
 90
        8
 70
   128
 43
0.0
 10
-249.9393656897
 20
-261.1867578567
 10
-249.3083324172
 20
-263.1006888304
 10
-248.2982661707
 20
-265.1551872328
 10
-246.9637250779
 20
-267.1470280733
 10
-245.3161243609
 20
-269.0591738061
 10
-243.3695570497
 20
-270.8752685705
 10
-241.1406734358
 20
-272.5797780941
 10
-238.6485386505
 20
-274.1581225678
  0
LWPOLYLINE
  5
340
330
310
100
AcDbEntity
  8
0
  6
Continuous
 62
     7
370
    25
100
AcDbPolyline
 90
        9
 70
   128
 43
0.0
 10
-238.6485386505
 20
-314.9851631621
 10
-241.1406734358
 20
-313.4068186884
 10
-243.3695570497
 20
-311.7023091648
 10
-245.3161243609
 20
-309.8862144004
 10
-246.9637250779
 20
-307.9740686676
 10
-248.2982661707
 20
-305.982227827
 10
-249.3083324172
 20
-303.9277294246
 10
-249.9852840458
 20
-301.8281469585
 10
-250.3233306368
 20
-299.7014395607
  0
LWPOLYLINE
  5
341
330
310
100
AcDbEntity
  8
0
  6
Continuous
 62
     7
370
    25
100
AcDbPolyline
 90
       18
 70
   128
 43
0.0
 10
107.6387973482
 20
204.261286063
 10
104.585921339
 20
202.654657293
 10
101.2892795917
 20
201.2174947496
 10
97.7769978913
 20
199.9620597971
 10
94.0790417871
 20
198.8990633638
 10
90.2269609365
 20
198.0375745605
 10
86.2536199352
 20
197.3849433058
 10
82.1929179276
 20
196.9467376196
 10
78.0794993915
 20
196.7266961183
 10
73.9484585636
 20
196.7266961183
 10
69.8350400275
 20
196.9467376196
 10
65.77433802
 20
197.3849433058
 10
61.8009970186
 20
198.0375745605
 10
57.948916168
 20
198.8990633638
 10
54.2509600638
 20
199.9620597971
 10
50.7386783635
 20
201.2174947496
 10
47.4420366162
 20
202.654657293
 10
44.3891606069
 20
204.261286063
  0
LWPOLYLINE
  5
343
330
310
100
AcDbEntity
  8
0
  6
Continuous
 62
     7
370
    25
100
AcDbPolyline
 90
       17
 70
   128
 43
0.0
 10
47.9198491865
 20
210.5958854757
 10
50.8088363625
 20
209.0843006971
 10
53.9405628404
 20
207.7434653247
 10
57.2848683823
 20
206.5862923362
 10
60.8095454976
 20
205.6239259399
 10
64.4806496189
 20
204.8656342505
 10
68.2628260067
 20
204.3187200313
 10
72.1196502348
 20
203.9884503652
 10
76.0139789776
 20
203.8780059298
 10
79.9083077203
 20
203.9884503652
 10
83.7651319484
 20
204.3187200313
 10
87.5473083362
 20
204.8656342505
 10
91.2184124575
 20
205.6239259399
 10
94.7430895728
 20
206.5862923362
 10
98.0873951147
 20
207.7434653247
 10
101.2191215926
 20
209.0843006971
 10
104.1081087686
 20
210.5958854757
  0
LWPOLYLINE
  5
346
330
310
100
AcDbEntity
  8
0
  6
Continuous
 62
     7
370
    25
100
AcDbPolyline
 90
       18
 70
   128
 43
0.0
 10
46.2401159524
 20
164.5455136895
 10
49.1143114993
 20
163.0329186013
 10
52.2180055245
 20
161.6798711242
 10
55.5247184051
 20
160.4979149822
 10
59.0062384325
 20
159.4971342084
 10
62.6328625055
 20
158.6860671114
 10
66.3736495462
 20
158.0716334298
 10
70.1966844786
 20
157.6590752951
 10
74.0693505164
 20
157.4519125078
 10
77.9586074387
 20
157.4519125078
 10
81.8312734765
 20
157.6590752951
 10
85.6543084089
 20
158.0716334298
 10
89.3950954496
 20
158.6860671114
 10
93.0217195226
 20
159.4971342084
 10
96.50323955
 20
160.4979149822
 10
99.8099524306
 20
161.6798711242
 10
102.9136464558
 20
163.0329186013
 10
105.7878420027
 20
164.5455136895
  0
LWPOLYLINE
  5
34A
330
310
100
AcDbEntity
  8
0
  6
Continuous
 62
     7
370
    25
100
AcDbPolyline
 90
       17
 70
   128
 43
0.0
 10
-241.9939311
 20
410.3963402196
 10
-244.6123564483
 20
408.7285634225
 10
-246.9350031014
 20
406.9206562092
 10
-248.9395027024
 20
404.9900297144
 10
-250.6065508244
 20
402.9552769266
 10
-251.9200928825
 20
400.8359936276
 10
-252.8674787488
 20
398.652589674
 10
-253.4395845794
 20
396.4260924395
 10
-253.6309006825
 20
394.1779443095
 10
-253.4395845794
 20
391.9297961794
 10
-252.8674787488
 20
389.7032989449
 10
-251.9200928825
 20
387.5198949913
 10
-250.6065508244
 20
385.4006116923
 10
-248.9395027024
 20
383.3658589045
 10
-246.9350031014
 20
381.4352324098
 10
-244.6123564483
 20
379.6273251964
 10
-241.9939311
 20
377.9595483993
  0
SPLINE
  5
34D
330
310
100
AcDbEntity
  8
0
  6
Continuous
 62
     7
370
    25
100
AcDbSpline
210
0.0
220
0.0
230
1.0
 70
     8
 71
     3
 72
    46
 73
    42
 74
     0
 42
0.000000001
 43
0.00000001
 40
0.0
 40
0.0
 40
0.0
 40
0.0
 40
0.0625000000000004
 40
0.0625000000000004
 40
0.0937500000000005
 40
0.0937500000000005
 40
0.1250000000000006
 40
0.1250000000000006
 40
0.1875000000000008
 40
0.1875000000000008
 40
0.250000000000001
 40
0.250000000000001
 40
0.2812500000000013
 40
0.2812500000000013
 40
0.3125000000000017
 40
0.3125000000000017
 40
0.3750000000000023
 40
0.3750000000000023
 40
0.4062500000000026
 40
0.4062500000000026
 40
0.4375000000000029
 40
0.4375000000000029
 40
0.5000000000000028
 40
0.5000000000000028
 40
0.5625000000000027
 40
0.5625000000000027
 40
0.5937500000000023
 40
0.5937500000000023
 40
0.625000000000002
 40
0.625000000000002
 40
0.6875000000000017
 40
0.6875000000000017
 40
0.7500000000000013
 40
0.7500000000000013
 40
0.7812500000000012
 40
0.7812500000000012
 40
0.8125000000000011
 40
0.8125000000000011
 40
0.8750000000000007
 40
0.8750000000000007
 40
1.0
 40
1.0
 40
1.0
 40
1.0
 10
-229.3445622773938
 20
371.4123207594416
 30
0.0
 10
-230.3267604101375
 20
371.9973214775165
 30
0.0
 10
-231.2378803553091
 20
372.6148812616836
 30
0.0
 10
-232.4989097616196
 20
373.5896166849595
 30
0.0
 10
-232.9018827140601
 20
373.9224853210426
 30
0.0
 10
-233.6724536986286
 20
374.6044269226652
 30
0.0
 10
-234.0376500962178
 20
374.951623605009
 30
0.0
 10
-235.0695100256736
 20
376.0070625791151
 30
0.0
 10
-235.6744909397634
 20
376.7310477438837
 30
0.0
 10
-236.7234871478817
 20
378.2185369215018
 30
0.0
 10
-237.1668500217231
 20
378.9822011107561
 30
0.0
 10
-237.7069523591718
 20
380.1583720372134
 30
0.0
 10
-237.866078413912
 20
380.5562619141878
 30
0.0
 10
-238.1376711934127
 20
381.35084916436
 30
0.0
 10
-238.2509168954417
 20
381.7489072866854
 30
0.0
 10
-238.5246119746857
 20
382.9453205630834
 30
0.0
 10
-238.6189684767501
 20
383.7459163503999
 30
0.0
 10
-238.6292417704289
 20
384.9512599632173
 30
0.0
 10
-238.6108104920656
 20
385.3537821040791
 30
0.0
 10
-238.5297291934883
 20
386.1603254578703
 30
0.0
 10
-238.4668849353599
 20
386.5652141191213
 30
0.0
 10
-238.2110506559218
 20
387.7764611141751
 30
0.0
 10
-237.9536107547519
 20
388.5688361142011
 30
0.0
 10
-237.2763575120406
 20
390.1253233609546
 30
0.0
 10
-236.8550879875312
 20
390.8891821441855
 30
0.0
 10
-236.1008645673306
 20
392.0136794263594
 30
0.0
 10
-235.8292297373392
 20
392.384991134063
 30
0.0
 10
-235.2448867184999
 20
393.1204653124656
 30
0.0
 10
-234.9308442589329
 20
393.4859422402242
 30
0.0
 10
-233.9362716765968
 20
394.5585117269604
 30
0.0
 10
-233.2044487261606
 20
395.2432307256141
 30
0.0
 10
-231.612627566999
 20
396.556147638713
 30
0.0
 10
-230.7516560149299
 20
397.1839163406738
 30
0.0
 10
-229.3644342034738
 20
398.0833403979388
 30
0.0
 10
-228.8860892847192
 20
398.3761204369629
 30
0.0
 10
-227.8972963899202
 20
398.9475241198646
 30
0.0
 10
-227.385340411811
 20
399.2268853919725
 30
0.0
 10
-225.8109602317026
 20
400.0378411609957
 30
0.0
 10
-224.7177019692047
 20
400.5389596079572
 30
0.0
 10
-221.3149285286412
 20
401.9310123017455
 30
0.0
 10
-218.8835689477851
 20
402.7116883934946
 30
0.0
 10
-216.2885450367779
 20
403.3442630814745
 30
0.0
  0
SPLINE
  5
34E
330
310
100
AcDbEntity
  8
0
  6
Continuous
 62
     7
370
    25
100
AcDbSpline
210
0.0
220
0.0
230
1.0
 70
     8
 71
     3
 72
    25
 73
    21
 74
     0
 42
0.000000001
 43
0.00000001
 40
0.0
 40
0.0
 40
0.0
 40
0.0
 40
0.00390625
 40
0.00390625
 40
0.0078124999999999
 40
0.0156250000000001
 40
0.0312500000000001
 40
0.0625000000000003
 40
0.1250000000000003
 40
0.2500000000000004
 40
0.5000000000000006
 40
0.7500000000000004
 40
0.8750000000000004
 40
0.9375000000000007
 40
0.9687500000000006
 40
0.9843750000000004
 40
0.9921875000000004
 40
0.9960937500000002
 40
0.9960937500000002
 40
1.0
 40
1.0
 40
1.0
 40
1.0
 10
36.57848940417069
 20
217.8982106633612
 30
0.0
 10
36.22682850001324
 20
218.094977280951
 30
0.0
 10
35.88311608947989
 20
218.2963327492017
 30
0.0
 10
35.1906081415444
 20
218.6961090780664
 30
0.0
 10
34.15184621964124
 20
219.2957735713638
 30
0.0
 10
31.728068401867
 20
220.6949907223905
 30
0.0
 10
26.8805127663189
 20
223.4934250244437
 30
0.0
 10
17.18540149522188
 20
229.0902936285506
 30
0.0
 10
-2.20482104697231
 20
240.2840308367636
 30
0.0
 10
-40.9852661313621
 20
262.6715052531889
 30
0.0
 10
-96.38590196620311
 20
294.6536115623684
 30
0.0
 10
-151.7865378010443
 20
326.6357178715484
 30
0.0
 10
-190.5669828854329
 20
349.0231922879746
 30
0.0
 10
-209.9572054276272
 20
360.2169294961872
 30
0.0
 10
-219.6523166987245
 20
365.8137981002938
 30
0.0
 10
-224.499872334273
 20
368.6122324023472
 30
0.0
 10
-226.9236501520475
 20
370.0114495533733
 30
0.0
 10
-227.9624120739506
 20
370.6111140466707
 30
0.0
 10
-228.6549200218862
 20
371.0108903755354
 30
0.0
 10
-229.0037158437486
 20
371.2093114054341
 30
0.0
 10
-229.3445622773939
 20
371.4123207594415
 30
0.0
  0
SPLINE
  5
34F
330
310
100
AcDbEntity
  8
0
  6
Continuous
 62
     7
370
    25
100
AcDbSpline
210
0.0
220
0.0
230
1.0
 70
     8
 71
     3
 72
    46
 73
    42
 74
     0
 42
0.000000001
 43
0.00000001
 40
0.0
 40
0.0
 40
0.0
 40
0.0
 40
0.1249999999999995
 40
0.1249999999999995
 40
0.1562499999999996
 40
0.1562499999999996
 40
0.1874999999999996
 40
0.1874999999999996
 40
0.2499999999999998
 40
0.2499999999999998
 40
0.3124999999999999
 40
0.3124999999999999
 40
0.3437500000000003
 40
0.3437500000000003
 40
0.3750000000000007
 40
0.3750000000000007
 40
0.4375000000000018
 40
0.4375000000000018
 40
0.5000000000000029
 40
0.5000000000000029
 40
0.5312500000000034
 40
0.5312500000000034
 40
0.562500000000004
 40
0.562500000000004
 40
0.6250000000000048
 40
0.6250000000000048
 40
0.6562500000000048
 40
0.6562500000000048
 40
0.6875000000000048
 40
0.6875000000000048
 40
0.7500000000000046
 40
0.7500000000000046
 40
0.8125000000000044
 40
0.8125000000000044
 40
0.8437500000000041
 40
0.8437500000000041
 40
0.8750000000000038
 40
0.8750000000000038
 40
0.9375000000000019
 40
0.9375000000000019
 40
1.0
 40
1.0
 40
1.0
 40
1.0
 10
91.8922292507563
 20
225.4352889846837
 30
0.0
 10
90.79688534545025
 20
223.9377964128425
 30
0.0
 10
89.44202548990131
 20
222.5303469376165
 30
0.0
 10
87.41992666476094
 20
220.8850216087028
 30
0.0
 10
86.99891910780717
 20
220.5617119354092
 30
0.0
 10
86.12266079551875
 20
219.9269737992742
 30
0.0
 10
85.66835610407077
 20
219.6163420537569
 30
0.0
 10
84.26875154406163
 20
218.7127668961098
 30
0.0
 10
83.28249843820421
 20
218.1448594111992
 30
0.0
 10
81.20394697247242
 20
217.0777879084135
 30
0.0
 10
80.11138534393481
 20
216.5787945535338
 30
0.0
 10
78.38891222721182
 20
215.8845178146676
 30
0.0
 10
77.79899977508799
 20
215.6614099680683
 30
0.0
 10
76.60077653600487
 20
215.237325769587
 30
0.0
 10
75.9933282271908
 20
215.0365485185118
 30
0.0
 10
74.14582682287961
 20
214.468209144543
 30
0.0
 10
72.88062905211666
 20
214.1346234527905
 30
0.0
 10
70.2846124059147
 20
213.556121774532
 30
0.0
 10
68.95326540335115
 20
213.3119194132637
 30
0.0
 10
66.90345805143917
 20
213.0169434462645
 30
0.0
 10
66.21623626382134
 20
212.9311301774771
 30
0.0
 10
64.84077169827285
 20
212.7849568463979
 30
0.0
 10
64.15144390406088
 20
212.7244697105538
 30
0.0
 10
62.07865073296479
 20
212.5809905268613
 30
0.0
 10
60.69044085068134
 20
212.5354651716817
 30
0.0
 10
58.59854470951302
 20
212.5428394592177
 30
0.0
 10
57.89963695839297
 20
212.5580038973648
 30
0.0
 10
56.49851903776205
 20
212.6144115077936
 30
0.0
 10
55.79558837972198
 20
212.6558124075451
 30
0.0
 10
53.71182393801769
 20
212.8174323940935
 30
0.0
 10
52.34592000739354
 20
212.9750555825717
 30
0.0
 10
49.65995160524718
 20
213.3885435136722
 30
0.0
 10
48.33976563285152
 20
213.6441478597968
 30
0.0
 10
46.39463697665229
 20
214.1028872996485
 30
0.0
 10
45.74979225756204
 20
214.2689503003333
 30
0.0
 10
44.48529100484193
 20
214.6231922977548
 30
0.0
 10
43.8659767036078
 20
214.8112040519839
 30
0.0
 10
42.04588676185732
 20
215.407106738401
 30
0.0
 10
40.88292101363064
 20
215.8468288350914
 30
0.0
 10
38.65498743847827
 20
216.8087749284938
 30
0.0
 10
37.59089379382541
 20
217.3317348765157
 30
0.0
 10
36.57848940417073
 20
217.8982106633613
 30
0.0
  0
SPLINE
  5
350
330
310
100
AcDbEntity
  8
0
  6
Continuous
 62
     7
370
    25
100
AcDbSpline
210
0.0
220
0.0
230
1.0
 70
     8
 71
     3
 72
    19
 73
    15
 74
     0
 42
0.000000001
 43
0.00000001
 40
0.0
 40
0.0
 40
0.0
 40
0.0
 40
0.4999999999999999
 40
0.7499999999999998
 40
0.8749999999999998
 40
0.9374999999999999
 40
0.9687499999999999
 40
0.9726562499999999
 40
0.9726562499999999
 40
0.9765624999999999
 40
0.9765624999999999
 40
0.9843749999999999
 40
0.9843749999999999
 40
1.0
 40
1.0
 40
1.0
 40
1.0
 10
146.6723656923295
 20
343.0267788999507
 30
0.0
 10
137.6029693790291
 20
323.4187523858096
 30
0.0
 10
123.9988748554885
 20
294.0067126228587
 30
0.0
 10
108.1274312848836
 20
259.6926662265533
 30
0.0
 10
100.1917094951155
 20
242.5356430290893
 30
0.0
 10
96.22384860023136
 20
233.9571314303569
 30
0.0
 10
94.45248212930096
 20
230.1274387523521
 30
0.0
 10
93.81479019976591
 20
228.7487493882701
 30
0.0
 10
93.67308088209147
 20
228.4423739740296
 30
0.0
 10
93.6026319057886
 20
228.2891230664941
 30
0.0
 10
93.38030779331075
 20
227.8310804558788
 30
0.0
 10
93.22093206079538
 20
227.5274572546901
 30
0.0
 10
92.70925951360229
 20
226.6218136095319
 30
0.0
 10
92.32357101754398
 20
226.0249951843166
 30
0.0
 10
91.89222925075664
 20
225.4352889846837
 30
0.0
  0
SPLINE
  5
351
330
310
100
AcDbEntity
  8
0
  6
Continuous
 62
     7
370
    25
100
AcDbSpline
210
0.0
220
0.0
230
1.0
 70
     8
 71
     3
 72
    26
 73
    22
 74
     0
 42
0.000000001
 43
0.00000001
 40
0.0
 40
0.0
 40
0.0
 40
0.0
 40
0.1249999999999996
 40
0.1249999999999996
 40
0.2499999999999992
 40
0.2499999999999992
 40
0.3124999999999991
 40
0.3124999999999991
 40
0.3749999999999991
 40
0.3749999999999991
 40
0.4999999999999993
 40
0.4999999999999993
 40
0.6249999999999996
 40
0.6249999999999996
 40
0.6874999999999994
 40
0.6874999999999994
 40
0.7499999999999992
 40
0.7499999999999992
 40
0.8749999999999996
 40
0.8749999999999996
 40
1.0
 40
1.0
 40
1.0
 40
1.0
 10
137.7182266263336
 20
362.2846195495241
 30
0.0
 10
138.7948706071602
 20
361.6630862083769
 30
0.0
 10
139.7871276863885
 20
361.0082722337487
 30
0.0
 10
141.6108501388135
 20
359.6352310090459
 30
0.0
 10
142.4422568281016
 20
358.9169806151229
 30
0.0
 10
143.5689884316427
 20
357.7921299973686
 30
0.0
 10
143.9244307806713
 20
357.409238978102
 30
0.0
 10
144.5941214656272
 20
356.6272107825749
 30
0.0
 10
144.9094635291625
 20
356.2264659945342
 30
0.0
 10
145.7818293042963
 20
355.0127120141545
 30
0.0
 10
146.2655532347407
 20
354.1894115537399
 30
0.0
 10
147.04422387701
 20
352.5155490217292
 30
0.0
 10
147.3395369823157
 20
351.665039861584
 30
0.0
 10
147.6386503909837
 20
350.3685016170963
 30
0.0
 10
147.7143974297849
 20
349.9316679117667
 30
0.0
 10
147.8154773174189
 20
349.0562224478608
 30
0.0
 10
147.8406449164856
 20
348.6198525272455
 30
0.0
 10
147.8420925418779
 20
347.3146912643253
 30
0.0
 10
147.7450009200498
 20
346.4498119765999
 30
0.0
 10
147.3563521098799
 20
344.7304219825985
 30
0.0
 10
147.0651112385638
 20
343.8758944108233
 30
0.0
 10
146.6723656923294
 20
343.0267788999507
 30
0.0
  0
SPLINE
  5
353
330
310
100
AcDbEntity
  8
0
  6
Continuous
 62
     7
370
    25
100
AcDbSpline
210
0.0
220
0.0
230
1.0
 70
     8
 71
     3
 72
    26
 73
    22
 74
     0
 42
0.000000001
 43
0.00000001
 40
0.0
 40
0.0
 40
0.0
 40
0.0
 40
0.1250000000000003
 40
0.1250000000000003
 40
0.2500000000000006
 40
0.2500000000000006
 40
0.3125000000000003
 40
0.3125000000000003
 40
0.3750000000000001
 40
0.3750000000000001
 40
0.5000000000000004
 40
0.5000000000000004
 40
0.6250000000000008
 40
0.6250000000000008
 40
0.687500000000001
 40
0.687500000000001
 40
0.7500000000000011
 40
0.7500000000000011
 40
0.8750000000000006
 40
0.8750000000000006
 40
1.0
 40
1.0
 40
1.0
 40
1.0
 10
-12.59203903028348
 20
434.9681627148184
 30
0.0
 10
-11.12117242060889
 20
435.1948892810597
 30
0.0
 10
-9.642660595503367
 20
435.3627567897396
 30
0.0
 10
-6.671137703389535
 20
435.5868649050904
 30
0.0
 10
-5.178101872559932
 20
435.642914859818
 30
0.0
 10
-2.927620548984739
 20
435.6428604552105
 30
0.0
 10
-2.175626355548674
 20
435.6287246110525
 30
0.0
 10
-0.6678814414306511
 20
435.5715321349072
 30
0.0
 10
0.0908146723285763
 20
435.5282498905889
 30
0.0
 10
2.347443155794077
 20
435.3559556334287
 30
0.0
 10
3.824207280810635
 20
435.1854725199776
 30
0.0
 10
6.724263526485391
 20
434.7369618260371
 30
0.0
 10
8.14744561111326
 20
434.4587129378489
 30
0.0
 10
10.24104359261624
 20
433.9585269426688
 30
0.0
 10
10.93384275567073
 20
433.77745650556
 30
0.0
 10
12.29703139345759
 20
433.3893338793662
 30
0.0
 10
12.96399411702043
 20
433.1833536886448
 30
0.0
 10
14.92213178109492
 20
432.5305886120294
 30
0.0
 10
16.17076025623287
 20
432.0491454334014
 30
0.0
 10
18.55491912753626
 20
430.994129535082
 30
0.0
 10
19.69048410960869
 20
430.4205849890233
 30
0.0
 10
20.76713396274572
 20
429.7990482591912
 30
0.0
  0
SPLINE
  5
354
330
310
100
AcDbEntity
  8
0
  6
Continuous
 62
     7
370
    25
100
AcDbSpline
210
0.0
220
0.0
230
1.0
 70
     8
 71
     3
 72
    19
 73
    15
 74
     0
 42
0.000000001
 43
0.00000001
 40
0.0
 40
0.0
 40
0.0
 40
0.0
 40
0.0156250000000008
 40
0.0156250000000008
 40
0.0234375000000011
 40
0.0234375000000011
 40
0.0273437500000011
 40
0.0273437500000011
 40
0.0312500000000012
 40
0.0625000000000011
 40
0.1250000000000009
 40
0.2500000000000008
 40
0.5000000000000006
 40
1.0
 40
1.0
 40
1.0
 40
1.0
 10
-216.2885450367781
 20
403.3442630814746
 30
0.0
 10
-215.267379617312
 20
403.593186952216
 30
0.0
 10
-214.2337941996033
 20
403.8157998503065
 30
0.0
 10
-212.6652152646236
 20
404.1111619478351
 30
0.0
 10
-212.1393117124138
 20
404.2031676574131
 30
0.0
 10
-211.3458981317899
 20
404.3315198555271
 30
0.0
 10
-211.0804301104354
 20
404.3721922055396
 30
0.0
 10
-210.5497124872264
 20
404.4539996133184
 30
0.0
 10
-208.1614831827861
 20
404.8221329483233
 30
0.0
 10
-201.5275128926741
 20
405.8447255455584
 30
0.0
 10
-186.6674194428231
 20
408.1353329633654
 30
0.0
 10
-156.9472325431212
 20
412.7165477989791
 30
0.0
 10
-97.50685874210116
 20
421.8789774667127
 30
0.0
 10
-46.5579669188897
 20
429.7324886239626
 30
0.0
 10
-12.59203903028348
 20
434.9681627148183
 30
0.0
  0
LWPOLYLINE
  5
355
330
310
100
AcDbEntity
  8
0
  6
Continuous
 62
     7
370
    25
100
AcDbPolyline
 90
       47
 70
   128
 43
0.0
 10
185.2619766709
 20
310.2920108197
 10
187.0110941103
 20
309.1339874653
 10
188.4707736034
 20
307.8492565453
 10
189.6138240828
 20
306.461750166
 10
190.418952681
 20
304.997314946
 10
190.8711613755
 20
303.4832305425
 10
190.9620263739
 20
301.9477014833
 10
190.6898550332
 20
300.4193317695
 10
190.0597173906
 20
298.9265920369
 10
189.0833517181
 20
297.4972892024
 10
187.7789458607
 20
296.1580484735
 10
186.1707984316
 20
294.9338173711
 10
184.2888661747
 20
293.8474010042
 10
182.1682059271
 20
292.9190372541
 10
179.8483215768
 20
292.1660197811
 10
177.3724281799
 20
291.6023758759
 10
174.7866469458
 20
291.2386051579
 10
172.1391460864
 20
291.0814839873
 10
169.4792435334
 20
291.1339392344
 10
166.8564882386
 20
291.394993757
 10
164.3197371709
 20
291.8597846033
 10
161.9162452028
 20
292.5196535994
 10
159.6907848421
 20
293.3623086343
 10
157.6848122046
 20
294.3720526391
 10
155.9356947651
 20
295.5300759935
 10
154.4760152721
 20
296.8148069135
 10
153.3329647926
 20
298.2023132928
 10
152.5278361945
 20
299.6667485128
 10
152.0756275
 20
301.1808329163
 10
151.9847625016
 20
302.7163619755
 10
152.2569338423
 20
304.2447316893
 10
152.8870714849
 20
305.7374714219
 10
153.8634371574
 20
307.1667742564
 10
155.1678430148
 20
308.5060149853
 10
156.7759904439
 20
309.7302460877
 10
158.6579227008
 20
310.8166624546
 10
160.7785829484
 20
311.7450262047
 10
163.0984672987
 20
312.4980436777
 10
165.5743606956
 20
313.061687583
 10
168.1601419297
 20
313.425458301
 10
170.8076427891
 20
313.5825794715
 10
173.4675453421
 20
313.5301242245
 10
176.0903006368
 20
313.2690697018
 10
178.6270517046
 20
312.8042788555
 10
181.0305436727
 20
312.1444098594
 10
183.2560040334
 20
311.3017548245
 10
185.2619766709
 20
310.2920108197
  0
SPLINE
  5
356
330
310
100
AcDbEntity
  8
0
  6
Continuous
 62
     7
370
    25
100
AcDbSpline
210
0.0
220
0.0
230
1.0
 70
     8
 71
     3
 72
    12
 73
     8
 74
     0
 42
0.000000001
 43
0.00000001
 40
0.0
 40
0.0
 40
0.0
 40
0.0
 40
0.2229520352141156
 40
0.4713700893929024
 40
0.7121753266299283
 40
0.9607909821097089
 40
1.0
 40
1.0
 40
1.0
 40
1.0
 10
39.07666175251445
 20
218.1497354868201
 30
0.0
 10
40.20911632307281
 20
217.5738315319523
 30
0.0
 10
42.60337664747324
 20
216.3562427423857
 30
0.0
 10
46.8895832670735
 20
214.9708754486805
 30
0.0
 10
51.65745360228711
 20
213.9950678599695
 30
0.0
 10
55.24809067077865
 20
213.5233498911617
 30
0.0
 10
57.22049999119096
 20
213.5171157706295
 30
0.0
 10
57.48919214820972
 20
213.516266525356
 30
0.0
  0
SPLINE
  5
358
330
310
100
AcDbEntity
  8
0
  6
Continuous
 62
     7
370
    25
100
AcDbSpline
210
0.0
220
0.0
230
1.0
 70
     8
 71
     3
 72
    11
 73
     7
 74
     0
 42
0.000000001
 43
0.00000001
 40
-0.0000000599772586
 40
-0.0000000599772586
 40
-0.0000000599772586
 40
-0.0000000599772586
 40
0.0
 40
0.0
 40
0.0
 40
0.0004696305880343
 40
0.0004696305880343
 40
0.0004696305880343
 40
0.0004696305880343
 10
38.47174233266627
 20
218.4689253898934
 30
0.0
 10
38.47175616509273
 20
218.4689173471158
 30
0.0
 10
38.47176999751591
 20
218.4689093043529
 30
0.0
 10
38.47178382996283
 20
218.4689012615943
 30
0.0
 10
38.58009388501786
 20
218.4059253009441
 30
0.0
 10
38.68931202619295
 20
218.3434187884944
 30
0.0
 10
38.79943554443359
 20
218.2813912325011
 30
0.0
  0
SPLINE
  5
35A
330
310
100
AcDbEntity
  8
0
  6
Continuous
 62
     7
370
    25
100
AcDbSpline
210
0.0
220
0.0
230
1.0
 70
     8
 71
     3
 72
    11
 73
     7
 74
     0
 42
0.000000001
 43
0.00000001
 40
0.0
 40
0.0
 40
0.0
 40
0.0
 40
0.0004696305669835
 40
0.0004696305669835
 40
0.0004696305669835
 40
0.0004696905669834
 40
0.0004696905669834
 40
0.0004696905669834
 40
0.0004696905669834
 10
-227.0531511999559
 20
371.7548227862103
 30
0.0
 10
-226.9419237713665
 20
371.689067160602
 30
0.0
 10
-226.8297941314849
 20
371.6237923189225
 30
0.0
 10
-226.7168021202898
 20
371.5590133159511
 30
0.0
 10
-226.7167876844307
 20
371.5590050397858
 30
0.0
 10
-226.7167732485493
 20
371.5589967636255
 30
0.0
 10
-226.7167588126705
 20
371.5589884874797
 30
0.0
  0
SPLINE
  5
35B
330
310
100
AcDbEntity
  8
0
  6
Continuous
 62
     7
370
    25
100
AcDbSpline
210
0.0
220
0.0
230
1.0
 70
     8
 71
     3
 72
    46
 73
    42
 74
     0
 42
0.000000001
 43
0.00000001
 40
0.0
 40
0.0
 40
0.0
 40
0.0
 40
0.0624999999999996
 40
0.0624999999999996
 40
0.1249999999999993
 40
0.1249999999999993
 40
0.1874999999999989
 40
0.1874999999999989
 40
0.2187499999999988
 40
0.2187499999999988
 40
0.2499999999999988
 40
0.2499999999999988
 40
0.3124999999999993
 40
0.3124999999999993
 40
0.3749999999999999
 40
0.3749999999999999
 40
0.4062500000000004
 40
0.4062500000000004
 40
0.437500000000001
 40
0.437500000000001
 40
0.5000000000000016
 40
0.5000000000000016
 40
0.5625000000000022
 40
0.5625000000000022
 40
0.6250000000000027
 40
0.6250000000000027
 40
0.6875000000000032
 40
0.6875000000000032
 40
0.7187500000000036
 40
0.7187500000000036
 40
0.7500000000000039
 40
0.7500000000000039
 40
0.8125000000000029
 40
0.8125000000000029
 40
0.8750000000000019
 40
0.8750000000000019
 40
0.9062500000000018
 40
0.9062500000000018
 40
0.9375000000000017
 40
0.9375000000000017
 40
1.0
 40
1.0
 40
1.0
 40
1.0
 10
-214.3958879731061
 20
397.6148183258102
 30
0.0
 10
-215.5644480206707
 20
397.5012380324962
 30
0.0
 10
-216.7038738313656
 20
397.3507249339892
 30
0.0
 10
-218.9235800280154
 20
396.9726001560348
 30
0.0
 10
-220.00379351422
 20
396.7461217311994
 30
0.0
 10
-222.1005363647314
 20
396.2079585359523
 30
0.0
 10
-223.1173850330962
 20
395.8985278288577
 30
0.0
 10
-224.5899923974597
 20
395.3679042958418
 30
0.0
 10
-225.0690400615998
 20
395.1809513601139
 30
0.0
 10
-225.9975225502496
 20
394.7887018589709
 30
0.0
 10
-226.4479503966283
 20
394.583270708853
 30
0.0
 10
-227.7578361699451
 20
393.9403747388274
 30
0.0
 10
-228.5762349665021
 20
393.4772448666978
 30
0.0
 10
-230.0953514278961
 20
392.474922321595
 30
0.0
 10
-230.7975501538624
 20
391.9376016859028
 30
0.0
 10
-231.7591315569727
 20
391.0799796238058
 30
0.0
 10
-232.0623954763821
 20
390.7850074420954
 30
0.0
 10
-232.6276487914248
 20
390.1858170781954
 30
0.0
 10
-232.891021483517
 20
389.8806562619398
 30
0.0
 10
-233.6251180433279
 20
388.9504208203152
 30
0.0
 10
-234.0396353867473
 20
388.3110529966082
 30
0.0
 10
-234.7119290260937
 20
386.9899847056416
 30
0.0
 10
-234.9724258471387
 20
386.3100976193735
 30
0.0
 10
-235.3304075888751
 20
384.9112839998778
 30
0.0
 10
-235.423171751564
 20
384.2093293446227
 30
0.0
 10
-235.4458225790127
 20
382.8029859078634
 30
0.0
 10
-235.3749577312064
 20
382.0984555584244
 30
0.0
 10
-235.1443022936408
 20
381.0401095282724
 30
0.0
 10
-235.0467159020525
 20
380.687073785222
 30
0.0
 10
-234.8091007182725
 20
379.9806621607879
 30
0.0
 10
-234.668347722512
 20
379.6261574057704
 30
0.0
 10
-234.1877977741935
 20
378.5782007208341
 30
0.0
 10
-233.7894345904428
 20
377.8959202512823
 30
0.0
 10
-232.8410516545089
 20
376.5633621960172
 30
0.0
 10
-232.2916717638132
 20
375.9129367452134
 30
0.0
 10
-231.3508218954362
 20
374.9617705923427
 30
0.0
 10
-231.0170781520613
 20
374.6482110657236
 30
0.0
 10
-230.3125152292408
 20
374.0319251924637
 30
0.0
 10
-229.9439643342491
 20
373.7308656323326
 30
0.0
 10
-228.7896389486641
 20
372.8481998776199
 30
0.0
 10
-227.954153014265
 20
372.2874786133333
 30
0.0
 10
-227.0531511999559
 20
371.7548227862101
 30
0.0
  0
SPLINE
  5
35C
330
310
100
AcDbEntity
  8
0
  6
Continuous
 62
     7
370
    25
100
AcDbSpline
210
0.0
220
0.0
230
1.0
 70
     8
 71
     3
 72
    10
 73
     6
 74
     0
 42
0.000000001
 43
0.00000001
 40
0.0
 40
0.0
 40
0.0
 40
0.0
 40
0.5
 40
0.5
 40
1.0
 40
1.0
 40
1.0
 40
1.0
 10
-209.8610281106919
 20
397.8717878520188
 30
0.0
 10
-210.6292469771042
 20
397.857317836186
 30
0.0
 10
-211.3931273218995
 20
397.8297785819311
 30
0.0
 10
-212.9047287468276
 20
397.7448066846841
 30
0.0
 10
-213.6538079697326
 20
397.6869461249927
 30
0.0
 10
-214.3958879731063
 20
397.6148183258089
 30
0.0
  0
SPLINE
  5
35E
330
310
100
AcDbEntity
  8
0
  6
Continuous
 62
     7
370
    25
100
AcDbSpline
210
0.0
220
0.0
230
1.0
 70
     8
 71
     3
 72
    32
 73
    28
 74
     0
 42
0.000000001
 43
0.00000001
 40
0.0
 40
0.0
 40
0.0
 40
0.0
 40
0.007812500000001
 40
0.007812500000001
 40
0.0156250000000019
 40
0.0312500000000025
 40
0.0625000000000024
 40
0.0625000000000024
 40
0.1250000000000022
 40
0.1250000000000022
 40
0.2500000000000017
 40
0.2500000000000017
 40
0.3125000000000008
 40
0.3125000000000008
 40
0.3749999999999999
 40
0.3749999999999999
 40
0.5
 40
0.5
 40
0.625
 40
0.625
 40
0.6875
 40
0.6875
 40
0.7499999999999999
 40
0.7499999999999999
 40
0.875
 40
0.875
 40
1.0
 40
1.0
 40
1.0
 40
1.0
 10
17.24611977640254
 20
424.0533366201616
 30
0.0
 10
17.18934165831191
 20
424.0861139238871
 30
0.0
 10
17.13072740770961
 20
424.1196772290971
 30
0.0
 10
17.01474238468502
 20
424.1855400895276
 30
0.0
 10
16.84017361980168
 20
424.2838568250848
 30
0.0
 10
16.42872439863243
 20
424.509930755452
 30
0.0
 10
16.0690401640503
 20
424.6980322139623
 30
0.0
 10
15.34043066513886
 20
425.0667394764845
 30
0.0
 10
14.84237830034032
 20
425.302555991648
 30
0.0
 10
13.31180723792281
 20
425.980373875153
 30
0.0
 10
12.24300583328493
 20
426.3928466004194
 30
0.0
 10
10.56692639991308
 20
426.9521321389309
 30
0.0
 10
9.996042182960894
 20
427.1286173419386
 30
0.0
 10
8.82923050049278
 20
427.4611314330715
 30
0.0
 10
8.236238999518974
 20
427.6162403760557
 30
0.0
 10
6.444245915341956
 20
428.0446145212459
 30
0.0
 10
5.22607491160805
 20
428.282740874072
 30
0.0
 10
2.743782859066832
 20
428.666389032186
 30
0.0
 10
1.479771253348097
 20
428.8121345665145
 30
0.0
 10
-0.4517289427155846
 20
428.9592666203972
 30
0.0
 10
-1.101130615335025
 20
428.9961856117579
 30
0.0
 10
-2.39167194690465
 20
429.0448397278086
 30
0.0
 10
-3.035332787263617
 20
429.0567600798466
 30
0.0
 10
-4.961603146142829
 20
429.0562817727412
 30
0.0
 10
-6.239547149367613
 20
429.0079901861893
 30
0.0
 10
-8.782976977714268
 20
428.8156828512128
 30
0.0
 10
-10.04848728424618
 20
428.6718692733269
 30
0.0
 10
-11.30744896347405
 20
428.4778067684947
 30
0.0
  0
SPLINE
  5
360
330
310
100
AcDbEntity
  8
0
  6
Continuous
 62
     7
370
    25
100
AcDbSpline
210
0.0
220
0.0
230
1.0
 70
     8
 71
     3
 72
    31
 73
    27
 74
     0
 42
0.000000001
 43
0.00000001
 40
0.0
 40
0.0
 40
0.0
 40
0.0
 40
0.0156249999999998
 40
0.0156249999999998
 40
0.0312499999999995
 40
0.0624999999999973
 40
0.0624999999999973
 40
0.1249999999999958
 40
0.1249999999999958
 40
0.2499999999999953
 40
0.2499999999999953
 40
0.3124999999999958
 40
0.3124999999999958
 40
0.3749999999999963
 40
0.3749999999999963
 40
0.4999999999999973
 40
0.4999999999999973
 40
0.6249999999999983
 40
0.6249999999999983
 40
0.6874999999999984
 40
0.6874999999999984
 40
0.7499999999999986
 40
0.7499999999999986
 40
0.8749999999999993
 40
0.8749999999999993
 40
1.0
 40
1.0
 40
1.0
 40
1.0
 10
-8.87697868706265
 20
338.6019457134113
 30
0.0
 10
-8.771560697287704
 20
338.6181952602338
 30
0.0
 10
-8.663013604220719
 20
338.6343844591552
 30
0.0
 10
-8.448793773986024
 20
338.6652422735259
 30
0.0
 10
-8.127210798695216
 20
338.7099518055212
 30
0.0
 10
-7.804874061006329
 20
338.7499634496395
 30
0.0
 10
-7.159207493282818
 20
338.8237904210961
 30
0.0
 10
-6.727440014880237
 20
338.8647528902101
 30
0.0
 10
-5.428220528785569
 20
338.9631637919445
 30
0.0
 10
-4.55686494591459
 20
338.9962069145697
 30
0.0
 10
-3.241960802460253
 20
338.9964843921938
 30
0.0
 10
-2.802344835400247
 20
338.9883445830517
 30
0.0
 10
-1.92042033858171
 20
338.9551854147721
 30
0.0
 10
-1.480096117246213
 20
338.9301859863491
 30
0.0
 10
-0.1734001902589655
 20
338.8310295724746
 30
0.0
 10
0.6837676810713816
 20
338.7326093665694
 30
0.0
 10
2.370752952480391
 20
338.4725169810847
 30
0.0
 10
3.200605715249758
 20
338.3109243658046
 30
0.0
 10
4.424191231656466
 20
338.0195301426833
 30
0.0
 10
4.828530353440094
 20
337.9141185195177
 30
0.0
 10
5.620453018660557
 20
337.6891854694015
 30
0.0
 10
6.009248452920911
 20
337.5693761856476
 30
0.0
 10
7.154305222620651
 20
337.1881345941752
 30
0.0
 10
7.892223702836862
 20
336.9037760474027
 30
0.0
 10
9.294232746208824
 20
336.2833841089177
 30
0.0
 10
9.958179675756323
 20
335.9478034008739
 30
0.0
 10
10.58428998919655
 20
335.5863576110328
 30
0.0
  0
SPLINE
  5
363
330
310
100
AcDbEntity
  8
0
  6
Continuous
 62
     7
370
    25
100
AcDbSpline
210
0.0
220
0.0
230
1.0
 70
     8
 71
     3
 72
    46
 73
    42
 74
     0
 42
0.000000001
 43
0.00000001
 40
0.0
 40
0.0
 40
0.0
 40
0.0
 40
0.0312499999999992
 40
0.0312499999999992
 40
0.0624999999999985
 40
0.0624999999999985
 40
0.1249999999999974
 40
0.1249999999999974
 40
0.2500000000000032
 40
0.2500000000000032
 40
0.3750000000000089
 40
0.3750000000000089
 40
0.4375000000000089
 40
0.4375000000000089
 40
0.5000000000000088
 40
0.5000000000000088
 40
0.5625000000000087
 40
0.5625000000000087
 40
0.6250000000000085
 40
0.6250000000000085
 40
0.7500000000000024
 40
0.7500000000000024
 40
0.8124999999999996
 40
0.8124999999999996
 40
0.8749999999999966
 40
0.8749999999999966
 40
0.9374999999999936
 40
0.9374999999999936
 40
0.9531249999999953
 40
0.9531249999999953
 40
0.9687499999999972
 40
0.9687499999999972
 40
0.984374999999999
 40
0.984374999999999
 40
0.9921874999999967
 40
0.9921874999999967
 40
0.9960937499999969
 40
0.9980468749999984
 40
0.9990234374999992
 40
0.9990234374999992
 40
1.0
 40
1.0
 40
1.0
 40
1.0
 10
-103.7033413105767
 20
318.2265344559144
 30
0.0
 10
-103.7716050912542
 20
318.266603508263
 30
0.0
 10
-103.8388680287903
 20
318.3087187137536
 30
0.0
 10
-103.9675010337765
 20
318.3946598138414
 30
0.0
 10
-104.0297350190837
 20
318.4388361281224
 30
0.0
 10
-104.2097462472857
 20
318.5747394090061
 30
0.0
 10
-104.3205053399611
 20
318.6697475116334
 30
0.0
 10
-104.6268533408863
 20
318.9680442217137
 30
0.0
 10
-104.7963316563873
 20
319.1866834816474
 30
0.0
 10
-105.0482314095528
 20
319.640814022404
 30
0.0
 10
-105.1326844470393
 20
319.8771259505386
 30
0.0
 10
-105.1960721562365
 20
320.2470367191731
 30
0.0
 10
-105.2063985918836
 20
320.3728040226063
 30
0.0
 10
-105.2052545466088
 20
320.6240478412716
 30
0.0
 10
-105.1940743521488
 20
320.7503199180138
 30
0.0
 10
-105.1506291345689
 20
321.0048124563027
 30
0.0
 10
-105.1186012315819
 20
321.133192585132
 30
0.0
 10
-105.0334612656852
 20
321.3934795209697
 30
0.0
 10
-104.9800228072015
 20
321.5260049113117
 30
0.0
 10
-104.7922246607683
 20
321.9224787792285
 30
0.0
 10
-104.6300779057102
 20
322.1874904679776
 30
0.0
 10
-104.3286273392229
 20
322.5991496352177
 30
0.0
 10
-104.2176039627353
 20
322.7407070058151
 30
0.0
 10
-103.9764242982674
 20
323.0201191310408
 30
0.0
 10
-103.8506094722173
 20
323.1631738575356
 30
0.0
 10
-103.5776861488245
 20
323.4456128459311
 30
0.0
 10
-103.4318164303842
 20
323.5892665951145
 30
0.0
 10
-103.2443446151657
 20
323.7620650303826
 30
0.0
 10
-103.2063894013778
 20
323.7961972366307
 30
0.0
 10
-103.1285286863185
 20
323.862353699015
 30
0.0
 10
-103.0881646963805
 20
323.8938152852331
 30
0.0
 10
-103.0104702980195
 20
323.9606920757672
 30
0.0
 10
-102.9721737037732
 20
323.9949424338531
 30
0.0
 10
-102.9130463615628
 20
324.0444997532297
 30
0.0
 10
-102.8930708976924
 20
324.060732292088
 30
0.0
 10
-102.862533907283
 20
324.0844369044531
 30
0.0
 10
-102.8471234692455
 20
324.0961299616777
 30
0.0
 10
-102.8288726349797
 20
324.1094637099886
 30
0.0
 10
-102.820990848004
 20
324.1151099588741
 30
0.0
 10
-102.8157228150781
 20
324.118858742985
 30
0.0
 10
-102.8139525640396
 20
324.1219212981914
 30
0.0
 10
-102.8104353659385
 20
324.12258369762
 30
0.0
  0
LWPOLYLINE
  5
371
330
310
100
AcDbEntity
  8
0
  6
Continuous
 62
     7
370
    25
100
AcDbPolyline
 90
       61
 70
   128
 43
0.0
 10
49.4974746831
 20
289.0508029053
 10
51.7737480418
 20
287.5913862716
 10
53.7732977527
 20
286.0026073174
 10
55.4742163306
 20
284.3018730376
 10
56.8578681557
 20
282.5078170328
 10
57.9090936489
 20
280.640095356
 10
58.6163753638
 20
278.7191711567
 10
58.971964174
 20
276.7660904825
 10
58.971964174
 20
274.802251694
 10
58.6163753638
 20
272.8491710198
 10
57.9090936489
 20
270.9282468205
 10
56.8578681557
 20
269.0605251437
 10
55.4742163306
 20
267.2664691389
 10
53.7732977527
 20
265.5657348591
 10
51.7737480418
 20
263.9769559049
 10
49.4974746831
 20
262.5175392711
 10
46.9694170036
 20
261.2034746317
 10
44.2172729325
 20
260.0491591539
 10
41.271195536
 20
259.0672397597
 10
38.1634626547
 20
258.2684745633
 10
34.9281232603
 20
257.6616150034
 10
31.6006244083
 20
257.2533099604
 10
28.2174228724
 20
257.0480329097
 10
24.8155857166
 20
257.0480329097
 10
21.4323841807
 20
257.2533099604
 10
18.1048853287
 20
257.6616150034
 10
14.8695459343
 20
258.2684745633
 10
11.761813053
 20
259.0672397597
 10
8.8157356565
 20
260.0491591539
 10
6.0635915854
 20
261.2034746317
 10
3.5355339059
 20
262.5175392711
 10
1.2592605471
 20
263.9769559049
 10
-0.7402891637
 20
265.5657348591
 10
-2.4412077416
 20
267.2664691389
 10
-3.8248595667
 20
269.0605251437
 10
-4.8760850599
 20
270.9282468205
 10
-5.5833667748
 20
272.8491710198
 10
-5.938955585
 20
274.802251694
 10
-5.938955585
 20
276.7660904825
 10
-5.5833667748
 20
278.7191711567
 10
-4.8760850599
 20
280.640095356
 10
-3.8248595667
 20
282.5078170328
 10
-2.4412077416
 20
284.3018730376
 10
-0.7402891637
 20
286.0026073174
 10
1.2592605471
 20
287.5913862716
 10
3.5355339059
 20
289.0508029053
 10
6.0635915854
 20
290.3648675447
 10
8.8157356565
 20
291.5191830225
 10
11.761813053
 20
292.5011024168
 10
14.8695459343
 20
293.2998676132
 10
18.1048853287
 20
293.9067271731
 10
21.4323841807
 20
294.3150322161
 10
24.8155857166
 20
294.5203092668
 10
28.2174228724
 20
294.5203092668
 10
31.6006244083
 20
294.3150322161
 10
34.9281232603
 20
293.9067271731
 10
38.1634626547
 20
293.2998676132
 10
41.271195536
 20
292.5011024168
 10
44.2172729325
 20
291.5191830225
 10
46.9694170036
 20
290.3648675447
 10
49.4974746831
 20
289.0508029053
  0
SPLINE
  5
372
330
310
100
AcDbEntity
  8
0
  6
Continuous
 62
     7
370
    25
100
AcDbSpline
210
0.0
220
0.0
230
1.0
 70
     8
 71
     3
 72
    38
 73
    34
 74
     0
 42
0.000000001
 43
0.00000001
 40
0.0
 40
0.0
 40
0.0
 40
0.0
 40
0.1250000000000122
 40
0.1875000000000158
 40
0.2187500000000153
 40
0.2187500000000153
 40
0.2500000000000147
 40
0.2500000000000147
 40
0.3125000000000134
 40
0.3125000000000134
 40
0.3750000000000122
 40
0.3750000000000122
 40
0.437500000000011
 40
0.437500000000011
 40
0.5000000000000098
 40
0.5000000000000098
 40
0.5625000000000085
 40
0.5625000000000085
 40
0.6250000000000073
 40
0.6250000000000073
 40
0.6875000000000061
 40
0.6875000000000061
 40
0.7500000000000048
 40
0.7500000000000048
 40
0.8125000000000037
 40
0.8125000000000037
 40
0.8750000000000024
 40
0.8750000000000024
 40
0.9375000000000012
 40
0.9375000000000012
 40
0.9687500000000006
 40
0.9687500000000006
 40
1.0
 40
1.0
 40
1.0
 40
1.0
 10
-100.4603585125286
 20
321.8094884528574
 30
0.0
 10
-100.8058616218923
 20
321.7562309152884
 30
0.0
 10
-101.3241162859379
 20
321.6763446089348
 30
0.0
 10
-101.9287467273245
 20
321.5831439181893
 30
0.0
 10
-102.1878740593473
 20
321.5432007650124
 30
0.0
 10
-102.3606256140292
 20
321.5165719962279
 30
0.0
 10
-102.4455359084464
 20
321.4988941128969
 30
0.0
 10
-102.6851503086806
 20
321.431763839234
 30
0.0
 10
-102.8310286764275
 20
321.3708586998205
 30
0.0
 10
-103.0936728868171
 20
321.2330239767418
 30
0.0
 10
-103.209930124967
 20
321.1562464383003
 30
0.0
 10
-103.4173664533957
 20
320.9896067003927
 30
0.0
 10
-103.5072092730324
 20
320.9005921902087
 30
0.0
 10
-103.6584300413203
 20
320.7170640462659
 30
0.0
 10
-103.7206611355142
 20
320.6218725998845
 30
0.0
 10
-103.8201140714392
 20
320.4250830837318
 30
0.0
 10
-103.8565859292854
 20
320.324548361975
 30
0.0
 10
-103.9038901434646
 20
320.1236147370038
 30
0.0
 10
-103.9150371416754
 20
320.0225729387019
 30
0.0
 10
-103.9128782716217
 20
319.8193649975202
 30
0.0
 10
-103.8993233666631
 20
319.7163616226071
 30
0.0
 10
-103.8482874827518
 20
319.5145991440577
 30
0.0
 10
-103.8110235777879
 20
319.4156562530664
 30
0.0
 10
-103.7139153643096
 20
319.2214967459266
 30
0.0
 10
-103.6539100830393
 20
319.126306693906
 30
0.0
 10
-103.5108221898937
 20
318.9397348688573
 30
0.0
 10
-103.4271449977831
 20
318.8485313695136
 30
0.0
 10
-103.242011521918
 20
318.6759714559203
 30
0.0
 10
-103.1396548423158
 20
318.5939357350487
 30
0.0
 10
-102.9716005010992
 20
318.477176719055
 30
0.0
 10
-102.9132207290957
 20
318.4392808973705
 30
0.0
 10
-102.7910439686157
 20
318.3658377812506
 30
0.0
 10
-102.7276955167563
 20
318.33009603262
 30
0.0
 10
-102.6651667319715
 20
318.2939989335121
 30
0.0
  0
SPLINE
  5
374
330
310
100
AcDbEntity
  8
0
  6
Continuous
 62
     7
370
    25
100
AcDbSpline
210
0.0
220
0.0
230
1.0
 70
     8
 71
     3
 72
    20
 73
    16
 74
     0
 42
0.000000001
 43
0.00000001
 40
0.0
 40
0.0
 40
0.0
 40
0.0
 40
0.2500000000000013
 40
0.2500000000000013
 40
0.3125000000000018
 40
0.3125000000000018
 40
0.3750000000000023
 40
0.3750000000000023
 40
0.5000000000000011
 40
0.5000000000000011
 40
0.6250000000000001
 40
0.6250000000000001
 40
0.749999999999999
 40
0.749999999999999
 40
1.0
 40
1.0
 40
1.0
 40
1.0
 10
9.17588431094725
 20
333.2880729575639
 30
0.0
 10
8.043884525477399
 20
333.9415625228594
 30
0.0
 10
6.791911648324371
 20
334.4936928920176
 30
0.0
 10
5.085047290196681
 20
335.0639731903109
 30
0.0
 10
4.736394612228509
 20
335.1718789098511
 30
0.0
 10
4.024155174444751
 20
335.3750732986422
 30
0.0
 10
3.659118301496581
 20
335.4707076822552
 30
0.0
 10
2.553573865475889
 20
335.7352533630707
 30
0.0
 10
1.803721870482528
 20
335.8820197860272
 30
0.0
 10
0.2792958251037481
 20
336.118487703799
 30
0.0
 10
-0.4953131240752195
 20
336.2081086431301
 30
0.0
 10
-2.069838646189481
 20
336.3289339497003
 30
0.0
 10
-2.872601492672294
 20
336.359749688351
 30
0.0
 10
-5.250129337827605
 20
336.3610579716233
 30
0.0
 10
-6.816348143639996
 20
336.2442337997771
 30
0.0
 10
-8.363142654557585
 20
336.0058033357731
 30
0.0
  0
LWPOLYLINE
  5
37B
330
310
100
AcDbEntity
  8
0
  6
Continuous
 62
     7
370
    25
100
AcDbPolyline
 90
        3
 70
   128
 43
0.0
 10
-255.9774894356
 20
348.1966188917
 10
-255.9614733992
 20
347.9746517638
 10
-255.9601189115
 20
347.9578646807
  0
LWPOLYLINE
  5
37C
330
310
100
AcDbEntity
  8
0
  6
Continuous
 62
     7
370
    25
100
AcDbPolyline
 90
       25
 70
   128
 43
0.0
 10
42.4264068712
 20
276.8033542274
 10
40.3069130017
 20
277.8820655033
 10
37.9699361489
 20
278.7989183673
 10
35.4523318338
 20
279.539453502
 10
32.7938041804
 20
280.0919922259
 10
30.0362797579
 20
280.4478206733
 10
27.2232463738
 20
280.601327217
 10
24.3990672448
 20
280.550090967
 10
21.6082813631
 20
280.2949199498
 10
18.894901089
 20
279.8398383646
 10
16.3017180504
 20
279.1920231199
 10
13.8696282928
 20
278.3616906491
 10
11.6369873247
 20
277.3619357913
 10
9.6390052278
 20
276.2085252778
 10
7.9071913733
 20
274.9196490814
 10
6.4688575003
 20
273.5156335497
 10
5.346686993
 20
272.0186208463
 10
4.5583771509
 20
270.4522197559
 10
4.1163600909
 20
268.8411333593
 10
4.0276066863
 20
267.2107694514
 10
4.2935166311
 20
265.586839845
 10
4.9098963668
 20
263.9949548802
 10
5.8670252166
 20
262.4602195336
 10
7.1498086869
 20
261.0068374986
 10
7.7220466948
 20
260.4776798206
  0
LWPOLYLINE
  5
37D
330
310
100
AcDbEntity
  8
0
  6
Continuous
 62
     7
370
    25
100
AcDbPolyline
 90
       12
 70
   128
 43
0.0
 10
45.3109618942
 20
260.4776798206
 10
46.5641510887
 20
261.7218923891
 10
47.686321596
 20
263.2189050924
 10
48.4746314381
 20
264.7853061829
 10
48.9166484981
 20
266.3963925795
 10
49.0054019027
 20
268.0267564873
 10
48.7394919579
 20
269.6506860937
 10
48.1231122222
 20
271.2425710586
 10
47.1659833724
 20
272.7773064051
 10
45.8831999021
 20
274.2306884401
 10
44.2949920729
 20
275.5797964607
 10
42.4264068712
 20
276.8033542274
  0
LWPOLYLINE
  5
37E
330
310
100
AcDbEntity
  8
0
  6
Continuous
 62
     7
370
    25
100
AcDbPolyline
 90
       17
 70
   128
 43
0.0
 10
43.9200454654
 20
259.9390508526
 10
42.4264068712
 20
260.8825758
 10
40.3069130017
 20
261.975084222
 10
37.9699361489
 20
262.9331109352
 10
35.4523318338
 20
263.7415472858
 10
32.7938041804
 20
264.3876437497
 10
30.0362797579
 20
264.8612109997
 10
27.2232463738
 20
265.1547805974
 10
24.3990672448
 20
265.2637227749
 10
21.6082813631
 20
265.1863194488
 10
18.894901089
 20
264.923791316
 10
16.3017180504
 20
264.480278602
 10
13.8696282928
 20
263.862775767
 10
11.6369873247
 20
263.0810211998
 10
9.6390052278
 20
262.1473436368
 10
7.9071913733
 20
261.0764677311
 10
7.4420138274
 20
260.7295696584
  0
SPLINE
  5
392
330
310
100
AcDbEntity
  8
0
  6
Continuous
 62
     8
370
    25
100
AcDbSpline
210
0.0
220
0.0
230
1.0
 70
     8
 71
     3
 72
    12
 73
     8
 74
     0
 42
0.000000001
 43
0.00000001
 40
0.0
 40
0.0
 40
0.0
 40
0.0
 40
0.1654079693221613
 40
0.3611587795697883
 40
0.562559307644977
 40
0.7774872603031882
 40
1.0
 40
1.0
 40
1.0
 40
1.0
 10
142.7377322835057
 20
343.3678655335646
 30
0.0
 10
142.795733339414
 20
344.1681871625311
 30
0.0
 10
142.9223753062518
 20
345.9156433701455
 30
0.0
 10
142.1045563749774
 20
348.6147802546053
 30
0.0
 10
140.4571305931779
 20
351.4211560144287
 30
0.0
 10
137.8919286513133
 20
354.1587117302237
 30
0.0
 10
135.4429388512647
 20
355.7363907269113
 30
0.0
 10
134.1972124261244
 20
356.5389079184993
 30
0.0
  0
LWPOLYLINE
  5
399
330
310
100
AcDbEntity
  8
0
  6
Continuous
 62
     8
370
    25
100
AcDbPolyline
 90
       18
 70
   128
 43
0.0
 10
183.8477631085
 20
307.8425210841
 10
181.9607536017
 20
308.7864459802
 10
179.8602517053
 20
309.5657327827
 10
177.5890175807
 20
310.1645174596
 10
175.1932870049
 20
310.5706104816
 10
172.7218301437
 20
310.7757449659
 10
170.2249587318
 20
310.7757449659
 10
167.7535018706
 20
310.5706104816
 10
165.3577712948
 20
310.1645174596
 10
163.0865371701
 20
309.5657327827
 10
160.9860352738
 20
308.7864459802
 10
159.099025767
 20
307.8425210841
 10
157.4639227216
 20
306.7531736832
 10
156.1140121203
 20
305.5405797492
 10
155.0767742502
 20
304.2294241978
 10
154.3733242832
 20
302.8463983749
 10
154.0179824321
 20
301.419656698
 10
153.9747455691
 20
300.8244856585
  0
LWPOLYLINE
  5
39A
330
310
100
AcDbEntity
  8
0
  6
Continuous
 62
     8
370
    25
100
AcDbPolyline
 90
        7
 70
   128
 43
0.0
 10
188.9726696646
 20
300.6070062111
 10
188.9288064434
 20
301.419656698
 10
188.5734645922
 20
302.8463983749
 10
187.8700146252
 20
304.2294241978
 10
186.8327767552
 20
305.5405797492
 10
185.4828661539
 20
306.7531736832
 10
183.8477631085
 20
307.8425210841
  0
LWPOLYLINE
  5
39D
330
310
100
AcDbEntity
  8
0
  6
Continuous
 62
     8
370
    25
100
AcDbPolyline
 90
       10
 70
   128
 43
0.0
 10
-245.5246196796
 20
371.6249489867
 10
-248.3076838891
 20
373.3873367934
 10
-250.7971921763
 20
375.2904475652
 10
-252.9719049343
 20
377.3180446322
 10
-254.8132682806
 20
379.452829251
 10
-256.3055723524
 20
381.676588192
 10
-257.4360853375
 20
383.970349128
 10
-258.1951620977
 20
386.3145424994
 10
-258.5763264578
 20
388.689168475
 10
-258.5853305733
 20
388.8074795493
  0
LWPOLYLINE
  5
39F
330
310
100
AcDbEntity
  8
0
  6
Continuous
 62
     8
370
    25
100
AcDbPolyline
 90
        9
 70
   128
 43
0.0
 10
-255.9601189115
 20
347.9578646807
 10
-255.6026180435
 20
345.7390092471
 10
-254.8879689594
 20
343.5320181578
 10
-253.8236232809
 20
341.3725077657
 10
-252.4186616301
 20
339.278902252
 10
-250.6850706443
 20
337.2690635207
 10
-248.6376407108
 20
335.3601388074
 10
-246.2938397797
 20
333.5684143845
 10
-243.6736643341
 20
331.9091766132
  0
LINE
  5
3A0
330
310
100
AcDbEntity
  8
0
  6
Continuous
 62
     7
370
    25
100
AcDbLine
 10
-250.364267403
 20
336.1357565543
 30
0.0
 11
-250.364267403
 21
302.6493459609
 31
0.0
  0
LINE
  5
3A1
330
310
100
AcDbEntity
  8
0
  6
Continuous
 62
     7
370
    25
100
AcDbLine
 10
-250.364267403
 20
-260.0338060489
 30
0.0
 11
-250.364267403
 21
-298.6570009256
 31
0.0
  0
LINE
  5
3A2
330
310
100
AcDbEntity
  8
0
  6
Continuous
 62
     7
370
    25
100
AcDbLine
 10
104.9631286043
 20
162.8828345226
 30
0.0
 11
271.1332221832
 21
258.8107876617
 31
0.0
  0
LINE
  5
3A3
330
310
100
AcDbEntity
  8
0
  6
Continuous
 62
     7
370
    25
100
AcDbLine
 10
-242.8489509357
 20
330.2464974462
 30
0.0
 11
47.0648293508
 21
162.8828345226
 31
0.0
  0
LINE
  5
3A4
330
310
100
AcDbEntity
  8
0
  6
Continuous
 62
     7
370
    25
100
AcDbLine
 10
-258.593338165
 20
388.9249346603
 30
0.0
 11
-255.9774894356
 21
348.1966188917
 31
0.0
  0
LINE
  5
3A5
330
310
100
AcDbEntity
  8
0
  6
Continuous
 62
     7
370
    25
100
AcDbLine
 10
-78.3236343527
 20
506.5718336112
 30
0.0
 11
-244.4937279316
 21
410.6438804721
 31
0.0
  0
LINE
  5
3A6
330
310
100
AcDbEntity
  8
0
  6
Continuous
 62
     7
370
    25
100
AcDbLine
 10
-95.8129688508
 20
205.1647367155
 30
0.0
 11
-94.3985254202
 21
205.9812775274
 31
0.0
  0
LINE
  5
3A7
330
310
100
AcDbEntity
  8
0
  6
Continuous
 62
     7
370
    25
100
AcDbLine
 10
-239.3244697576
 20
288.0121627319
 30
0.0
 11
-95.8129688508
 21
205.1647367155
 31
0.0
  0
LINE
  5
3A8
330
310
100
AcDbEntity
  8
0
  6
Continuous
 62
     7
370
    25
100
AcDbLine
 10
-250.923630843
 20
302.5787151414
 30
0.0
 11
-250.0488781518
 21
302.6891701605
 31
0.0
  0
LINE
  5
3A9
330
310
100
AcDbEntity
  8
0
  6
Continuous
 62
     7
370
    25
100
AcDbLine
 10
-95.8129688508
 20
-354.9822602381
 30
0.0
 11
-94.3987552884
 21
-354.1658521263
 31
0.0
  0
LINE
  5
3AA
330
310
100
AcDbEntity
  8
0
  6
Continuous
 62
     7
370
    25
100
AcDbLine
 10
-95.8129688508
 20
-354.9822602381
 30
0.0
 11
-95.8129688508
 21
205.1647367155
 31
0.0
  0
LINE
  5
3AB
330
310
100
AcDbEntity
  8
0
  6
Continuous
 62
     7
370
    25
100
AcDbLine
 10
-239.3244697576
 20
288.0121627319
 30
0.0
 11
-239.3244697576
 21
-272.1348342217
 31
0.0
  0
LINE
  5
3AC
330
310
100
AcDbEntity
  8
0
  6
Continuous
 62
     7
370
    25
100
AcDbLine
 10
-239.3244697576
 20
-272.1348342217
 30
0.0
 11
-95.8129688508
 21
-354.9822602381
 31
0.0
  0
LINE
  5
3AD
330
310
100
AcDbEntity
  8
0
  6
Continuous
 62
     7
370
    25
100
AcDbLine
 10
-250.923630843
 20
302.5787151414
 30
0.0
 11
-250.923630843
 21
-257.5682818123
 31
0.0
  0
LINE
  5
3AE
330
310
100
AcDbEntity
  8
0
  6
Continuous
 62
     7
370
    25
100
AcDbLine
 10
74.9118689449
 20
155.9217720341
 30
0.0
 11
74.9118689449
 21
-487.4557238169
 31
0.0
  0
LINE
  5
3AF
330
310
100
AcDbEntity
  8
0
  6
Continuous
 62
     7
370
    25
100
AcDbLine
 10
-238.6485386505
 20
289.2550376334
 30
0.0
 11
48.4368145113
 21
123.5241909334
 31
0.0
  0
LINE
  5
3B0
330
310
100
AcDbEntity
  8
0
  6
Continuous
 62
     7
370
    25
100
AcDbLine
 10
-250.3233306368
 20
336.0903366887
 30
0.0
 11
-250.3233306368
 21
302.6545150462
 31
0.0
  0
LINE
  5
3B1
330
310
100
AcDbEntity
  8
0
  6
Continuous
 62
     7
370
    25
100
AcDbLine
 10
-250.3233306368
 20
-260.1588061165
 30
0.0
 11
-250.3233306368
 21
-299.7014395607
 31
0.0
  0
LINE
  5
3B2
330
310
100
AcDbEntity
  8
0
  6
Continuous
 62
     7
370
    25
100
AcDbLine
 10
-250.3233306368
 20
-299.7014395607
 30
0.0
 11
-250.364267403
 21
-298.6570009256
 31
0.0
  0
LINE
  5
3B3
330
310
100
AcDbEntity
  8
0
  6
Continuous
 62
     7
370
    25
100
AcDbLine
 10
269.0541302415
 20
-386.0126688907
 30
0.0
 11
269.0541302415
 21
257.6105534315
 31
0.0
  0
LINE
  5
3B4
330
310
100
AcDbEntity
  8
0
  6
Continuous
 62
     7
370
    25
100
AcDbLine
 10
105.0053570062
 20
-480.7160098621
 30
0.0
 11
269.0541302415
 21
-386.0126688907
 31
0.0
  0
LINE
  5
3B5
330
310
100
AcDbEntity
  8
0
  6
Continuous
 62
     7
370
    25
100
AcDbLine
 10
-238.6485386505
 20
-274.1581225678
 30
0.0
 11
48.4368145113
 21
-439.8889692678
 31
0.0
  0
LINE
  5
3B6
330
310
100
AcDbEntity
  8
0
  6
Continuous
 62
     7
370
    25
100
AcDbLine
 10
48.4368145113
 20
-480.7160098621
 30
0.0
 11
48.4368145113
 21
-439.8889692678
 31
0.0
  0
LINE
  5
3B7
330
310
100
AcDbEntity
  8
0
  6
Continuous
 62
     7
370
    25
100
AcDbLine
 10
-238.6485386505
 20
-314.9851631621
 30
0.0
 11
48.4368145113
 21
-480.7160098621
 31
0.0
  0
LINE
  5
3B8
330
310
100
AcDbEntity
  8
0
  6
Continuous
 62
     7
370
    25
100
AcDbLine
 10
-238.6485386505
 20
-274.1581225678
 30
0.0
 11
-238.6485386505
 21
-314.9851631621
 31
0.0
  0
LINE
  5
3B9
330
310
100
AcDbEntity
  8
0
  6
Continuous
 62
     7
370
    25
100
AcDbLine
 10
105.7878420027
 20
164.5455136895
 30
0.0
 11
107.6387973482
 21
204.261286063
 31
0.0
  0
LINE
  5
3BA
330
310
100
AcDbEntity
  8
0
  6
Continuous
 62
     7
370
    25
100
AcDbLine
 10
46.2401159524
 20
164.5455136895
 30
0.0
 11
44.3891606069
 21
204.261286063
 31
0.0
  0
LINE
  5
3BB
330
310
100
AcDbEntity
  8
0
  6
Continuous
 62
     7
370
    25
100
AcDbLine
 10
104.1081087686
 20
210.5958854757
 30
0.0
 11
270.2782023475
 21
306.5238386149
 31
0.0
  0
LINE
  5
3BC
330
310
100
AcDbEntity
  8
0
  6
Continuous
 62
     7
370
    25
100
AcDbLine
 10
-241.9939311
 20
377.9595483993
 30
0.0
 11
47.9198491865
 21
210.5958854757
 31
0.0
  0
LINE
  5
3BD
330
310
100
AcDbEntity
  8
0
  6
Continuous
 62
     7
370
    25
100
AcDbLine
 10
-75.8238375212
 20
506.3242933587
 30
0.0
 11
-241.9939311
 21
410.3963402196
 31
0.0
  0
LINE
  5
3BE
330
310
100
AcDbEntity
  8
0
  6
Continuous
 62
     7
370
    25
100
AcDbLine
 10
270.2782023475
 20
306.5238386149
 30
0.0
 11
-75.8238375212
 21
506.3242933587
 31
0.0
  0
LINE
  5
3BF
330
310
100
AcDbEntity
  8
0
  6
Continuous
 62
     7
370
    25
100
AcDbLine
 10
20.7671339627
 20
429.7990482592
 30
0.0
 11
137.7182266263
 21
362.2846195495
 31
0.0
  0
LINE
  5
3C0
330
310
100
AcDbEntity
  8
0
  6
Continuous
 62
     7
370
    25
100
AcDbLine
 10
-226.7167588127
 20
371.5589884875
 30
0.0
 11
38.4717423327
 21
218.4689253899
 31
0.0
  0
LINE
  5
3C1
330
310
100
AcDbEntity
  8
0
  6
Continuous
 62
     7
370
    25
100
AcDbLine
 10
-11.3074489635
 20
428.4778067685
 30
0.0
 11
-209.8610281107
 21
397.871787852
 31
0.0
  0
LINE
  5
3C2
330
310
100
AcDbEntity
  8
0
  6
Continuous
 62
     7
370
    25
100
AcDbLine
 10
134.1972124261
 20
356.5389079185
 30
0.0
 11
17.2461197663
 21
424.053336626
 31
0.0
  0
LINE
  5
3C3
330
310
100
AcDbEntity
  8
0
  6
Continuous
 62
     7
370
    25
100
AcDbLine
 10
-102.8104353659
 20
324.1225836976
 30
0.0
 11
-8.8769786814
 21
338.6019457143
 31
0.0
  0
LINE
  5
3C4
330
310
100
AcDbEntity
  8
0
  6
Continuous
 62
     7
370
    25
100
AcDbLine
 10
74.0322749691
 20
215.6219471777
 30
0.0
 11
-103.7033413106
 21
318.2265344559
 31
0.0
  0
LINE
  5
3C5
330
310
100
AcDbEntity
  8
0
  6
Continuous
 62
     7
370
    25
100
AcDbLine
 10
273.808890927
 20
300.1892392022
 30
0.0
 11
107.6387973482
 21
204.261286063
 31
0.0
  0
LINE
  5
3C6
330
310
100
AcDbEntity
  8
0
  6
Continuous
 62
     7
370
    25
100
AcDbLine
 10
44.3891606069
 20
204.261286063
 30
0.0
 11
-245.5246196796
 21
371.6249489867
 31
0.0
  0
LINE
  5
3C7
330
310
100
AcDbEntity
  8
0
  6
Continuous
 62
     7
370
    25
100
AcDbLine
 10
271.9579355816
 20
260.4734668287
 30
0.0
 11
273.808890927
 21
300.1892392022
 31
0.0
  0
LINE
  5
3C8
330
310
100
AcDbEntity
  8
0
  6
Continuous
 62
     7
370
    25
100
AcDbLine
 10
105.7878420027
 20
164.5455136895
 30
0.0
 11
271.9579355816
 21
260.4734668287
 31
0.0
  0
LINE
  5
3C9
330
310
100
AcDbEntity
  8
0
  6
Continuous
 62
     7
370
    25
100
AcDbLine
 10
-243.6736643341
 20
331.9091766132
 30
0.0
 11
46.2401159524
 21
164.5455136895
 31
0.0
  0
LINE
  5
3CA
330
310
100
AcDbEntity
  8
0
  6
Continuous
 62
     7
370
    25
100
AcDbLine
 10
-243.6736643341
 20
331.9091766132
 30
0.0
 11
-245.5246196796
 21
371.6249489867
 31
0.0
  0
LINE
  5
3CB
330
310
100
AcDbEntity
  8
0
  6
Continuous
 62
     7
370
    25
100
AcDbLine
 10
142.0705931438
 20
340.8954892867
 30
0.0
 11
142.1210471892
 21
341.0140705889
 31
0.0
  0
LINE
  5
3CC
330
310
100
AcDbEntity
  8
0
  6
Continuous
 62
     7
370
    25
100
AcDbLine
 10
153.9747455691
 20
300.8244856585
 30
0.0
 11
153.9733944377
 21
300.6989501056
 31
0.0
  0
LINE
  5
3CD
330
310
100
AcDbEntity
  8
0
  6
Continuous
 62
     7
370
    25
100
AcDbLine
 10
-8.3631426546
 20
336.0058033358
 30
0.0
 11
-100.4603585125
 21
321.8094884529
 31
0.0
  0
LINE
  5
3CE
330
310
100
AcDbEntity
  8
0
  6
Continuous
 62
     7
370
    25
100
AcDbLine
 10
-258.5853305733
 20
388.8074795493
 30
0.0
 11
-258.593338165
 21
388.9249346603
 31
0.0
  0
LINE
  5
3CF
330
310
100
AcDbEntity
  8
0
  6
Continuous
 62
     7
370
    25
100
AcDbLine
 10
49.1127456184
 20
-438.6460943664
 30
0.0
 11
49.1127456184
 21
121.5009025872
 31
0.0
  0
LINE
  5
3D0
330
310
100
AcDbEntity
  8
0
  6
Continuous
 62
     7
370
    25
100
AcDbLine
 10
74.3454885028
 20
-445.3421475315
 30
0.0
 11
74.3454885028
 21
114.8048494221
 31
0.0
  0
LINE
  5
3D1
330
310
100
AcDbEntity
  8
0
  6
Continuous
 62
     7
370
    25
100
AcDbLine
 10
74.3454885028
 20
114.8048494221
 30
0.0
 11
74.9118689449
 21
116.2996825264
 31
0.0
  0
LINE
  5
3D2
330
310
100
AcDbEntity
  8
0
  6
Continuous
 62
     7
370
    25
100
AcDbLine
 10
49.1127456184
 20
121.5009025872
 30
0.0
 11
-94.3987552884
 21
204.3483286037
 31
0.0
  0
LINE
  5
3D3
330
310
100
AcDbEntity
  8
0
  6
Continuous
 62
     7
370
    25
100
AcDbLine
 10
-94.3987552884
 20
204.3483286037
 30
0.0
 11
-92.9843118579
 21
205.1648694156
 31
0.0
  0
LINE
  5
3D4
330
310
100
AcDbEntity
  8
0
  6
Continuous
 62
     7
370
    25
100
AcDbLine
 10
74.3454885028
 20
-445.3421475315
 30
0.0
 11
74.9118689449
 21
-443.8473144273
 31
0.0
  0
LINE
  5
3D5
330
310
100
AcDbEntity
  8
0
  6
Continuous
 62
     7
370
    25
100
AcDbLine
 10
49.1127456184
 20
-438.6460943664
 30
0.0
 11
-94.3987552884
 21
-355.7986683499
 31
0.0
  0
LINE
  5
3D6
330
310
100
AcDbEntity
  8
0
  6
Continuous
 62
     7
370
    25
100
AcDbLine
 10
-94.3987552884
 20
204.3483286037
 30
0.0
 11
-94.3987552884
 21
-355.7986683499
 31
0.0
  0
LINE
  5
3D7
330
310
100
AcDbEntity
  8
0
  6
Continuous
 62
     8
370
    25
100
AcDbLine
 10
48.4368145113
 20
123.5241909334
 30
0.0
 11
48.4368145113
 21
162.1277909999
 31
0.0
  0
LINE
  5
3D8
330
310
100
AcDbEntity
  8
0
  6
Continuous
 62
     8
370
    25
100
AcDbLine
 10
-238.6485386505
 20
327.8216510482
 30
0.0
 11
-238.6485386505
 21
289.2550376334
 31
0.0
  0
LINE
  5
3D9
330
310
100
AcDbEntity
  8
0
  6
Continuous
 62
     8
370
    25
100
AcDbLine
 10
105.0053570062
 20
162.9072124601
 30
0.0
 11
105.0053570062
 21
-480.7160098621
 31
0.0
  0
LINE
  5
3DA
330
310
100
AcDbEntity
  8
0
  6
Continuous
 62
     8
370
    25
100
AcDbLine
 10
38.7994355444
 20
218.2813912325
 30
0.0
 11
39.0766617525
 21
218.1497354868
 31
0.0
  0
LINE
  5
3DB
330
310
100
AcDbEntity
  8
0
  6
Continuous
 62
     8
370
    25
100
AcDbLine
 10
10.5842899892
 20
335.586357611
 30
0.0
 11
112.4189158237
 21
276.7984794519
 31
0.0
  0
LINE
  5
3DC
330
310
100
AcDbEntity
  8
0
  6
Continuous
 62
     8
370
    25
100
AcDbLine
 10
-102.665166732
 20
318.2939989335
 30
0.0
 11
74.7876682556
 21
215.8526578204
 31
0.0
  0
LINE
  5
3DD
330
310
100
AcDbEntity
  8
0
  6
Continuous
 62
     8
370
    25
100
AcDbLine
 10
111.2830946473
 20
274.3428351151
 30
0.0
 11
9.1758843109
 21
333.2880729576
 31
0.0
  0
ARC
  5
3DE
330
310
100
AcDbEntity
  8
0
  6
Continuous
 62
     7
370
    25
100
AcDbCircle
 10
75.2921950411
 20
173.6482077534
 30
0.0
 40
56.86500264295746
100
AcDbArc
 50
241.8185423295
 51
269.6167899129
  0
ARC
  5
3DF
330
310
100
AcDbEntity
  8
0
  6
Continuous
 62
     7
370
    25
100
AcDbCircle
 10
77.6239338228
 20
-429.0103069108
 30
0.0
 40
58.50830755740679
100
AcDbArc
 50
267.3431880367
 51
297.904035336
  0
ARC
  5
3E0
330
310
100
AcDbEntity
  8
0
  6
Continuous
 62
     7
370
    25
100
AcDbCircle
 10
75.2921950411
 20
-389.7649524477
 30
0.0
 40
56.86500264295756
100
AcDbArc
 50
241.8185423295
 51
269.6167899129
  0
ARC
  5
3E1
330
310
100
AcDbEntity
  8
0
  6
Continuous
 62
     7
370
    25
100
AcDbCircle
 10
75.2921950411
 20
-430.591993042
 30
0.0
 40
56.86500264295915
100
AcDbArc
 50
241.8185423295
 51
269.6167899129
  0
ARC
  5
3E2
330
310
100
AcDbEntity
  8
0
  6
Continuous
 62
     7
370
    25
100
AcDbCircle
 10
52.006016293
 20
204.1671538911
 30
0.0
 40
7.617437325592451
100
AcDbArc
 50
122.4404541696
 51
179.2919517135
  0
ARC
  5
3E3
330
310
100
AcDbEntity
  8
0
  6
Continuous
 62
     7
370
    25
100
AcDbCircle
 10
100.0219416621
 20
204.1671538911
 30
0.0
 40
7.617437325592459
100
AcDbArc
 50
0.7080482865
 51
57.5595458304
  0
ARC
  5
3E4
330
310
100
AcDbEntity
  8
0
  6
Continuous
 62
     7
370
    25
100
AcDbCircle
 10
38.0908425172
 20
215.7604711175
 30
0.0
 40
2.618614577332586
100
AcDbArc
 50
74.3001192146
 51
125.2776631606
  0
ARC
  5
3E5
330
310
100
AcDbEntity
  8
0
  6
Continuous
 62
     7
370
    25
100
AcDbCircle
 10
266.1920352409
 20
300.0951070303
 30
0.0
 40
7.617437325592403
100
AcDbArc
 50
0.7080482865
 51
57.5595458304
  0
ARC
  5
3E6
330
310
100
AcDbEntity
  8
0
  6
Continuous
 62
     7
370
    25
100
AcDbCircle
 10
-237.9077639934
 20
371.5308168148
 30
0.0
 40
7.617437325592715
100
AcDbArc
 50
122.4404541696
 51
179.2919517135
  0
ARC
  5
3E7
330
310
100
AcDbEntity
  8
0
  6
Continuous
 62
     7
370
    25
100
AcDbCircle
 10
-227.8297620486
 20
369.1142501477
 30
0.0
 40
2.75240772225643
100
AcDbArc
 50
73.6110220943
 51
123.391342856
  0
ARC
  5
3E8
330
310
100
AcDbEntity
  8
0
  6
Continuous
 62
     7
370
    25
100
AcDbCircle
 10
270.1013633795
 20
260.358479443
 30
0.0
 40
1.860129683770343
100
AcDbArc
 50
303.6917150214
 51
3.5441051177
  0
ARC
  5
3E9
330
310
100
AcDbEntity
  8
0
  6
Continuous
 62
     7
370
    25
100
AcDbCircle
 10
-103.2702224975
 20
319.179037101
 30
0.0
 40
1.072093763268864
100
AcDbArc
 50
253.7333686119
 51
304.3584384252
  0
ARC
  5
3EA
330
310
100
AcDbEntity
  8
0
  6
Continuous
 62
     7
370
    25
100
AcDbCircle
 10
141.9289006401
 20
355.7525801821
 30
0.0
 40
7.7715708803108
100
AcDbArc
 50
122.8065806716
 51
174.1928743924
  0
ARC
  5
3EB
330
310
100
AcDbEntity
  8
0
  6
Continuous
 62
     7
370
    25
100
AcDbCircle
 10
-227.1610783558
 20
396.5753137985
 30
0.0
 40
12.80744530215211
100
AcDbArc
 50
4.6554802727
 51
31.905291835
  0
ARC
  5
3EC
330
310
100
AcDbEntity
  8
0
  6
Continuous
 62
     7
370
    25
100
AcDbCircle
 10
-30.3674533883
 20
428.0776982992
 30
0.0
 40
19.06420350978662
100
AcDbArc
 50
1.2025789534
 51
21.1883311911
  0
ARC
  5
3ED
330
310
100
AcDbEntity
  8
0
  6
Continuous
 62
     7
370
    25
100
AcDbCircle
 10
24.9778079874
 20
423.2670088905
 30
0.0
 40
7.771570887271316
100
AcDbArc
 50
122.8065807337
 51
174.1928744042
  0
ARC
  5
3EE
330
310
100
AcDbEntity
  8
0
  6
Continuous
 62
     7
370
    25
100
AcDbCircle
 10
7.4916147001
 20
335.9008887051
 30
0.0
 40
3.108628355518727
100
AcDbArc
 50
302.8065807473
 51
354.1928744067
  0
ARC
  5
3EF
330
310
100
AcDbEntity
  8
0
  6
Continuous
 62
     7
370
    25
100
AcDbCircle
 10
-77.2868587417
 20
504.2958328612
 30
0.0
 40
2.501016409781854
100
AcDbArc
 50
54.19908268
 51
114.4904588909
  0
ARC
  5
3F0
330
310
100
AcDbEntity
  8
0
  6
Continuous
 62
     7
370
    25
100
AcDbCircle
 10
-1.2529769133
 20
338.761989102
 30
0.0
 40
7.625681402128489
100
AcDbArc
 50
181.2025789538
 51
201.1883311962
  0
ARC
  5
3F1
330
310
100
AcDbEntity
  8
0
  6
Continuous
 62
     7
370
    25
100
AcDbCircle
 10
-93.3501927797
 20
324.5656742191
 30
0.0
 40
7.625681394196175
100
AcDbArc
 50
181.2025789555
 51
201.1883312191
  0
ARC
  5
3F2
330
310
100
AcDbEntity
  8
0
  6
Continuous
 62
     7
370
    25
100
AcDbCircle
 10
75.7622808766
 20
171.0340592469
 30
0.0
 40
56.24705626210208
100
AcDbArc
 50
241.7191232795
 51
268.5566389546
  0
ARC
  5
3F3
330
310
100
AcDbEntity
  8
0
  6
Continuous
 62
     7
370
    25
100
AcDbCircle
 10
75.7622808766
 20
-389.1129377067
 30
0.0
 40
56.24705626210284
100
AcDbArc
 50
241.7191232795
 51
268.5566389546
  0
ARC
  5
3F4
330
310
100
AcDbEntity
  8
0
  6
Continuous
 62
     8
370
    25
100
AcDbCircle
 10
90.7298722352
 20
221.8201311572
 30
0.0
 40
3.79742543697335
100
AcDbArc
 50
72.1761985136
 51
139.3273598371
  0
ARC
  5
3F5
330
310
100
AcDbEntity
  8
0
  6
Continuous
 62
     8
370
    25
100
AcDbCircle
 10
103.931664509
 20
164.4304189943
 30
0.0
 40
1.859742368513378
100
AcDbArc
 50
303.6456847993
 51
3.54815655
  0
ARC
  5
3F6
330
310
100
AcDbEntity
  8
0
  6
Continuous
 62
     8
370
    25
100
AcDbCircle
 10
48.0963028066
 20
164.4304215389
 30
0.0
 40
1.85975155356777
100
AcDbArc
 50
176.4519395441
 51
236.3532229825
  0
ARC
  5
3F7
330
310
100
AcDbEntity
  8
0
  6
Continuous
 62
     8
370
    25
100
AcDbCircle
 10
145.7458218993
 20
338.9696825601
 30
0.0
 40
4.161551887368414
100
AcDbArc
 50
77.1356353484
 51
150.5768207304
  0
ARC
  5
3F8
330
310
100
AcDbEntity
  8
0
  6
Continuous
 62
     8
370
    25
100
AcDbCircle
 10
-241.817092132
 20
331.7941892275
 30
0.0
 40
1.860129683769897
100
AcDbArc
 50
176.4558948823
 51
236.3082849786
  0
ARC
  5
3F9
330
310
100
AcDbEntity
  8
0
  6
Continuous
 62
     8
370
    25
100
AcDbCircle
 10
-243.4568094361
 20
408.3682853172
 30
0.0
 40
2.500603869737623
100
AcDbArc
 50
54.1963016579
 51
114.5216970144
  0
VIEWPORT
  5
5A4
330
310
100
AcDbEntity
  8
0
100
AcDbViewport
 10
0.0
 20
0.0
 30
0.0
 40
205.6
 41
156.0
 68
     1
 69
     1
 12
0.0
 22
4.5
 13
0.0
 23
0.0
 14
10.0
 24
10.0
 15
10.0
 25
10.0
 16
0.0
 26
0.0
 36
1.0
 17
0.0
 27
0.0
 37
0.0
 42
50.0
 43
0.0
 44
0.0
 45
865.98
 50
0.0
 51
0.0
 72
   100
 90
   557152
  1

281
     0
 71
     1
 74
     0
110
0.0
120
0.0
130
0.0
111
1.0
121
0.0
131
0.0
112
0.0
122
1.0
132
0.0
 79
     0
146
0.0
  0
ENDBLK
  5
313
330
310
100
AcDbEntity
  8
0
100
AcDbBlockEnd
  0
BLOCK
  5
3FC
330
3FA
100
AcDbEntity
  8
0
100
AcDbBlockBegin
  2
*Paper_Space5
 70
     0
 10
0.0
 20
0.0
 30
0.0
  3
*Paper_Space5
  1

  0
SPLINE
  5
3FF
330
3FA
100
AcDbEntity
  8
0
  6
Continuous
 62
     7
370
    25
100
AcDbSpline
210
0.0
220
0.0
230
1.0
 70
     8
 71
     3
 72
    27
 73
    23
 74
     0
 42
0.000000001
 43
0.00000001
 40
0.0
 40
0.0
 40
0.0
 40
0.0
 40
0.0361862267403165
 40
0.09023695102643
 40
0.1415379877584687
 40
0.1960522013803761
 40
0.2494155110164244
 40
0.3029980595603864
 40
0.3567566641440824
 40
0.4104435874433921
 40
0.4637982222056384
 40
0.5166423252273826
 40
0.5690291682010794
 40
0.6205352181978344
 40
0.6732165599017166
 40
0.7266838043950945
 40
0.7804961217104545
 40
0.8340619339023279
 40
0.8868788404267811
 40
0.9385472022563421
 40
0.9903899175258488
 40
1.0
 40
1.0
 40
1.0
 40
1.0
 10
146.2934821015047
 20
270.5361764120475
 30
0.0
 10
146.1942842586299
 20
270.3090716069883
 30
0.0
 10
145.9469163594107
 20
269.742744387545
 30
0.0
 10
145.2841093030372
 20
268.7711725696738
 30
0.0
 10
144.3292188712332
 20
267.6581138542101
 30
0.0
 10
143.0822833015345
 20
266.5168104087412
 30
0.0
 10
141.5390491842193
 20
265.3703176868101
 30
0.0
 10
139.7409403163299
 20
264.2692974390624
 30
0.0
 10
137.6957528978289
 20
263.2323772400745
 30
0.0
 10
135.4298900737291
 20
262.2847634755193
 30
0.0
 10
132.9763306497377
 20
261.448800750795
 30
0.0
 10
130.3693428817181
 20
260.7405624020267
 30
0.0
 10
127.6453237622146
 20
260.1765713532951
 30
0.0
 10
124.8143156014343
 20
259.7517466891715
 30
0.0
 10
121.8880750218544
 20
259.4657399088371
 30
0.0
 10
118.8733944716288
 20
259.3235056100795
 30
0.0
 10
115.8275525936994
 20
259.3319809577383
 30
0.0
 10
112.8126867548958
 20
259.4937703461885
 30
0.0
 10
109.8872966970372
 20
259.8021960163871
 30
0.0
 10
107.0879511654267
 20
260.2622927511787
 30
0.0
 10
105.1337720188646
 20
260.6808582470417
 30
0.0
 10
104.1063880933304
 20
260.951221940398
 30
0.0
 10
103.9457242241573
 20
260.9935018281584
 30
0.0
  0
SPLINE
  5
400
330
3FA
100
AcDbEntity
  8
0
  6
Continuous
 62
     7
370
    25
100
AcDbSpline
210
0.0
220
0.0
230
1.0
 70
     8
 71
     3
 72
    17
 73
    13
 74
     0
 42
0.000000001
 43
0.00000001
 40
0.0
 40
0.0
 40
0.0
 40
0.0
 40
0.0047897439917021
 40
0.0170721886206554
 40
0.0429477075820917
 40
0.5513811504323756
 40
0.8055978718575173
 40
0.9327062325700882
 40
0.9644833227482309
 40
0.988316140381838
 40
0.9983127093692166
 40
1.0
 40
1.0
 40
1.0
 40
1.0
 10
103.9799216379257
 20
261.0331253515557
 30
0.0
 10
103.440497886063
 20
261.1632462177655
 30
0.0
 10
101.5178180822541
 20
261.6270388495358
 30
0.0
 10
96.78837393162071
 20
262.9533196110914
 30
0.0
 10
36.08365816182609
 20
279.2936133753403
 30
0.0
 10
-51.18414161006802
 20
303.1880980163712
 30
0.0
 10
-149.8420291950716
 20
329.9543103760446
 30
0.0
 10
-195.6168126528383
 20
342.4138676032616
 30
0.0
 10
-215.881306716782
 20
347.9057754741476
 30
0.0
 10
-223.1377141262168
 20
349.8986295190422
 30
0.0
 10
-227.0953594667142
 20
350.9463490479234
 30
0.0
 10
-228.3273195780477
 20
351.3333065717038
 30
0.0
 10
-228.5052295171675
 20
351.3891879179134
 30
0.0
  0
SPLINE
  5
401
330
3FA
100
AcDbEntity
  8
0
  6
Continuous
 62
     7
370
    25
100
AcDbSpline
210
0.0
220
0.0
230
1.0
 70
     8
 71
     3
 72
    25
 73
    21
 74
     0
 42
0.000000001
 43
0.00000001
 40
0.0
 40
0.0
 40
0.0
 40
0.0
 40
0.0303992815031634
 40
0.08787324821793
 40
0.145232880973054
 40
0.2024956227018504
 40
0.2596928959934646
 40
0.3168562304007472
 40
0.3740170617613471
 40
0.431200040121369
 40
0.4884338069243234
 40
0.5457514745266494
 40
0.6031873429788934
 40
0.6607765677023542
 40
0.7185536274316037
 40
0.7765484479484084
 40
0.8347781893623513
 40
0.8932315831232464
 40
0.9518421308674362
 40
1.0
 40
1.0
 40
1.0
 40
1.0
 10
116.9671204720113
 20
205.6730535699097
 30
0.0
 10
117.5462784270347
 20
205.521116012919
 30
0.0
 10
119.2204130849166
 20
205.0819198872579
 30
0.0
 10
122.0884851573125
 20
204.4769391749385
 30
0.0
 10
125.5830399848643
 20
203.914807238102
 30
0.0
 10
129.1512733107211
 20
203.5211957467947
 30
0.0
 10
132.7652298383561
 20
203.2951587330137
 30
0.0
 10
136.4001852736618
 20
203.2383428780367
 30
0.0
 10
140.0302745683128
 20
203.3507425754768
 30
0.0
 10
143.6298614260827
 20
203.6317961358005
 30
0.0
 10
147.1735375346956
 20
204.0801007482932
 30
0.0
 10
150.6365441488426
 20
204.693599821584
 30
0.0
 10
153.9948559857036
 20
205.4696809741419
 30
0.0
 10
157.225181091434
 20
206.405348547745
 30
0.0
 10
160.3051728879392
 20
207.4973076868964
 30
0.0
 10
163.2126125383676
 20
208.7424671665448
 30
0.0
 10
165.9276960384417
 20
210.1367528134544
 30
0.0
 10
168.4225692688031
 20
211.6796539675433
 30
0.0
 10
170.5620777453957
 20
213.2560513267455
 30
0.0
 10
171.7624266931312
 20
214.3683579077713
 30
0.0
 10
172.3038438015744
 20
214.8700635275725
 30
0.0
  0
SPLINE
  5
404
330
3FA
100
AcDbEntity
  8
0
  6
Continuous
 62
     7
370
    25
100
AcDbSpline
210
0.0
220
0.0
230
1.0
 70
     8
 71
     3
 72
    33
 73
    29
 74
     0
 42
0.000000001
 43
0.00000001
 40
0.0
 40
0.0
 40
0.0
 40
0.0
 40
0.0062181157394696
 40
0.0552091171300429
 40
0.0954148802328854
 40
0.1339677147985646
 40
0.1749427092421509
 40
0.2152592594383401
 40
0.2554909049697415
 40
0.2958516526491924
 40
0.3364390267497496
 40
0.3772508594625226
 40
0.4182473901471991
 40
0.4593773164498338
 40
0.5005877313817237
 40
0.5418268632388801
 40
0.5830339615624102
 40
0.6241500152464493
 40
0.6651206208858514
 40
0.7058894308262705
 40
0.7464029428337761
 40
0.7866250905148712
 40
0.8265725706787468
 40
0.8663914453345409
 40
0.906347324397062
 40
0.9471911830046138
 40
0.9904816393099201
 40
1.0
 40
1.0
 40
1.0
 40
1.0
 10
205.8488510667363
 20
351.2116254856865
 30
0.0
 10
205.8535647342356
 20
351.1701299503645
 30
0.0
 10
205.8954162262284
 20
350.8017013192558
 30
0.0
 10
205.7225738256698
 20
350.1667309963872
 30
0.0
 10
205.3010134939637
 20
349.2422875188297
 30
0.0
 10
204.617714251111
 20
348.3326994452149
 30
0.0
 10
203.6552602691852
 20
347.412435522864
 30
0.0
 10
202.3941850346848
 20
346.5115231991046
 30
0.0
 10
200.8842829807038
 20
345.6804474141015
 30
0.0
 10
199.1454480513895
 20
344.9390388960185
 30
0.0
 10
197.2055264528096
 20
344.306364571875
 30
0.0
 10
195.0979376420567
 20
343.799037973693
 30
0.0
 10
192.8612560909063
 20
343.4305211690136
 30
0.0
 10
190.5374103607874
 20
343.2105707347243
 30
0.0
 10
188.1703679000866
 20
343.1450784168895
 30
0.0
 10
185.8052697054756
 20
343.2360425022745
 30
0.0
 10
183.4874891863763
 20
343.4814981207014
 30
0.0
 10
181.2616363762642
 20
343.8754462844374
 30
0.0
 10
179.1705259572849
 20
344.4078053289944
 30
0.0
 10
177.2543295056379
 20
345.0642675925109
 30
0.0
 10
175.5494608402594
 20
345.8260425519246
 30
0.0
 10
174.0871565772045
 20
346.6697186912173
 30
0.0
 10
172.8903611077548
 20
347.5674896868233
 30
0.0
 10
171.9748417150534
 20
348.487819087001
 30
0.0
 10
171.3331123824188
 20
349.3990894085724
 30
0.0
 10
170.973908346933
 20
350.2857525821133
 30
0.0
 10
170.8269238845845
 20
350.9046713873155
 30
0.0
 10
170.8792842795237
 20
351.2585471565947
 30
0.0
 10
170.8887218157774
 20
351.3223303921058
 30
0.0
  0
SPLINE
  5
405
330
3FA
100
AcDbEntity
  8
0
  6
Continuous
 62
     7
370
    25
100
AcDbSpline
210
0.0
220
0.0
230
1.0
 70
     8
 71
     3
 72
    10
 73
     6
 74
     0
 42
0.000000001
 43
0.00000001
 40
0.0
 40
0.0
 40
0.0
 40
0.0
 40
0.1995934195691838
 40
0.6567166794478867
 40
1.0
 40
1.0
 40
1.0
 40
1.0
 10
-228.5068332161291
 20
351.3841499481849
 30
0.0
 10
-228.8676052247871
 20
351.4904452809351
 30
0.0
 10
-230.0546433349364
 20
351.8401858591322
 30
0.0
 10
-231.7759478449581
 20
352.4291071276933
 30
0.0
 10
-233.0287843071259
 20
352.9481462623173
 30
0.0
 10
-233.5661085512747
 20
353.1707549739227
 30
0.0
  0
SPLINE
  5
406
330
3FA
100
AcDbEntity
  8
0
  6
Continuous
 62
     7
370
    25
100
AcDbSpline
210
0.0
220
0.0
230
1.0
 70
     8
 71
     3
 72
    14
 73
    10
 74
     0
 42
0.000000001
 43
0.00000001
 40
0.0
 40
0.0
 40
0.0
 40
0.0
 40
0.08909027701267
 40
0.2519697647126076
 40
0.4122959588433772
 40
0.5683448730356213
 40
0.7198895191885406
 40
0.8675832706574528
 40
1.0
 40
1.0
 40
1.0
 40
1.0
 10
-265.4398104379797
 20
381.4299738567346
 30
0.0
 10
-265.7899901263721
 20
381.0762121750712
 30
0.0
 10
-266.7803865719777
 20
380.0756849494081
 30
0.0
 10
-268.187400698292
 20
378.3292132639449
 30
0.0
 10
-269.5424217163381
 20
376.1734543643493
 30
0.0
 10
-270.5568698031624
 20
373.9489943174661
 30
0.0
 10
-271.2190375242602
 20
371.6932571246566
 30
0.0
 10
-271.5606612264908
 20
369.4967196704215
 30
0.0
 10
-271.5192786668225
 20
368.0621053026463
 30
0.0
 10
-271.4997158743586
 20
367.3839195314522
 30
0.0
  0
SPLINE
  5
408
330
3FA
100
AcDbEntity
  8
0
  6
Continuous
 62
     7
370
    25
100
AcDbSpline
210
0.0
220
0.0
230
1.0
 70
     8
 71
     3
 72
    20
 73
    16
 74
     0
 42
0.000000001
 43
0.00000001
 40
0.0
 40
0.0
 40
0.0
 40
0.0
 40
0.0213755127184439
 40
0.0968898815522902
 40
0.1727346269347076
 40
0.2497229172524784
 40
0.3284298984675175
 40
0.4090837238758506
 40
0.4915296980189316
 40
0.575320378911249
 40
0.6599054596950953
 40
0.7448097471014057
 40
0.829651810829665
 40
0.9142928672518084
 40
1.0
 40
1.0
 40
1.0
 40
1.0
 10
-268.8570676305906
 20
324.5032898952448
 30
0.0
 10
-268.853201478815
 20
324.3043342107708
 30
0.0
 10
-268.8356771746011
 20
323.4025175873871
 30
0.0
 10
-268.4876432331155
 20
321.8139275043793
 30
0.0
 10
-267.8153635162046
 20
319.7699929887551
 30
0.0
 10
-266.8201181713058
 20
317.7830774986697
 30
0.0
 10
-265.5338337449617
 20
315.8574286787237
 30
0.0
 10
-263.9483292613394
 20
314.002382647776
 30
0.0
 10
-262.0704859622244
 20
312.2315001639263
 30
0.0
 10
-259.9118148312232
 20
310.5614051827396
 30
0.0
 10
-257.4919789916427
 20
309.0090824567162
 30
0.0
 10
-254.8372135134545
 20
307.5880244998013
 30
0.0
 10
-251.9709271213669
 20
306.3128449904916
 30
0.0
 10
-248.9170087390914
 20
305.1706335913466
 30
0.0
 10
-246.7397511087628
 20
304.5402398381126
 30
0.0
 10
-245.6443094157314
 20
304.2230703903175
 30
0.0
  0
LWPOLYLINE
  5
410
330
3FA
100
AcDbEntity
  8
0
  6
Continuous
 62
     7
370
    25
100
AcDbPolyline
 90
        9
 70
   128
 43
0.0
 10
-261.6875684366
 20
270.9886841683
 10
-260.2407600717
 20
269.3224095652
 10
-258.5132676168
 20
267.7286319551
 10
-256.5186519608
 20
266.2198625599
 10
-254.2725709211
 20
264.8079452831
 10
-251.7926563289
 20
263.5039637351
 10
-249.0983756189
 20
262.3181542264
 10
-246.2108790086
 20
261.2598254116
 10
-243.1528334687
 20
260.337285217
  0
LWPOLYLINE
  5
412
330
3FA
100
AcDbEntity
  8
0
  6
Continuous
 62
     7
370
    25
100
AcDbPolyline
 90
        9
 70
   128
 43
0.0
 10
-243.1528334687
 20
-327.6794830647
 10
-246.2108790086
 20
-326.75694287
 10
-249.0983756189
 20
-325.6986140553
 10
-251.7926563289
 20
-324.5128045465
 10
-254.2725709211
 20
-323.2088229986
 10
-256.5186519608
 20
-321.7969057218
 10
-258.5132676168
 20
-320.2881363265
 10
-260.2407600717
 20
-318.6943587165
 10
-261.6875684366
 20
-317.0280841134
  0
LWPOLYLINE
  5
418
330
3FA
100
AcDbEntity
  8
0
  6
Continuous
 62
     7
370
    25
100
AcDbPolyline
 90
        9
 70
   128
 43
0.0
 10
-242.3074085116
 20
261.8218514303
 10
-245.4959225374
 20
262.7880452516
 10
-248.4974847676
 20
263.901825491
 10
-251.2864208344
 20
265.1536652418
 10
-253.8388751034
 20
266.5328566818
 10
-256.1330147272
 20
268.0276026648
 10
-258.1492163963
 20
269.6251176295
 10
-259.8702341902
 20
271.3117369624
 10
-261.2813470933
 20
273.0730338811
  0
LWPOLYLINE
  5
41C
330
3FA
100
AcDbEntity
  8
0
  6
Continuous
 62
     7
370
    25
100
AcDbPolyline
 90
        9
 70
   128
 43
0.0
 10
170.8108893137
 20
-461.4647798461
 10
168.6855585087
 20
-463.3014315505
 10
166.2020739023
 20
-465.0147403917
 10
163.3871853338
 20
-466.5862521638
 10
160.2712122251
 20
-467.99903997
 10
156.887717007
 20
-469.2378865439
 10
153.2731436154
 20
-470.2894481559
 10
149.4664249504
 20
-471.1423983399
 10
145.5085635263
 20
-471.7875498915
  0
LWPOLYLINE
  5
422
330
3FA
100
AcDbEntity
  8
0
  6
Continuous
 62
     7
370
    25
100
AcDbPolyline
 90
        9
 70
   128
 43
0.0
 10
-261.2813470933
 20
-318.3724036034
 10
-259.8702341902
 20
-320.1337005221
 10
-258.1492163963
 20
-321.820319855
 10
-256.1330147272
 20
-323.4178348196
 10
-253.8388751034
 20
-324.9125808027
 10
-251.2864208344
 20
-326.2917722427
 10
-248.4974847676
 20
-327.5436119935
 10
-245.4959225374
 20
-328.6573922329
 10
-242.3074085116
 20
-329.6235860541
  0
LWPOLYLINE
  5
42B
330
3FA
100
AcDbEntity
  8
0
  6
Continuous
 62
     7
370
    25
100
AcDbPolyline
 90
        9
 70
   128
 43
0.0
 10
-242.3074085116
 20
-372.4819510892
 10
-245.4959225374
 20
-371.515757268
 10
-248.4974847676
 20
-370.4019770286
 10
-251.2864208344
 20
-369.1501372778
 10
-253.8388751034
 20
-367.7709458378
 10
-256.1330147272
 20
-366.2761998547
 10
-258.1492163963
 20
-364.6786848901
 10
-259.8702341902
 20
-362.9920655572
 10
-261.2813470933
 20
-361.2307686385
  0
LWPOLYLINE
  5
42C
330
3FA
100
AcDbEntity
  8
0
  6
Continuous
 62
     7
370
    25
100
AcDbPolyline
 90
       18
 70
   128
 43
0.0
 10
175.3578490903
 20
258.7773119168
 10
173.263234165
 20
256.9434518498
 10
170.8490210006
 20
255.2169544069
 10
168.1358068127
 20
253.6125494554
 10
165.1467397881
 20
252.1439252128
 10
161.9073215926
 20
250.8236114632
 10
158.4451898001
 20
249.662872658
 10
154.7898820985
 20
248.6716118115
 10
150.9725842841
 20
247.8582860116
 10
147.025864196
 20
247.2298342673
 10
142.9833938583
 20
246.7916183074
 10
138.8796622028
 20
246.5473768359
 10
134.7496808209
 20
246.4991936348
 10
130.6286852575
 20
246.6474797863
 10
126.5518343939
 20
246.9909701653
 10
122.5539104841
 20
247.5267342328
 10
118.6690224053
 20
248.2502010389
 10
114.9303146528
 20
249.1551982198
  0
LWPOLYLINE
  5
42E
330
3FA
100
AcDbEntity
  8
0
  6
Continuous
 62
     7
370
    25
100
AcDbPolyline
 90
       17
 70
   128
 43
0.0
 10
117.2605936484
 20
255.9397618127
 10
120.7940949034
 20
255.0908442084
 10
124.472139296
 20
254.4243945608
 10
128.2593052481
 20
253.9468311445
 10
132.1191202812
 20
253.6627531562
 10
136.0144122667
 20
253.5748964223
 10
139.9076674132
 20
253.684107051
 10
143.7613915456
 20
253.9893332843
 10
147.5384711937
 20
254.4876356268
 10
151.2025310157
 20
255.1742151545
 10
154.7182841126
 20
256.0424597313
 10
158.0518718602
 20
257.0840076871
 10
161.1711899861
 20
258.2888283459
 10
164.0461977516
 20
259.6453186261
 10
166.6492072603
 20
261.1404147847
 10
168.9551501076
 20
262.7597182284
 10
170.9418188034
 20
264.4876341799
  0
LWPOLYLINE
  5
431
330
3FA
100
AcDbEntity
  8
0
  6
Continuous
 62
     7
370
    25
100
AcDbPolyline
 90
       18
 70
   128
 43
0.0
 10
116.1519580422
 20
207.5340552543
 10
119.6718445823
 20
206.6820262628
 10
123.3293557234
 20
206.0009029332
 10
127.0932868701
 20
205.4964963695
 10
130.9315254891
 20
205.1731099907
 10
134.8113250817
 20
205.0335028154
 10
138.6995845657
 20
205.0788659226
 10
142.5631306823
 20
205.3088122905
 10
146.3690010183
 20
205.7213800977
 10
150.0847252297
 20
206.313049461
 10
153.6786020678
 20
207.0787724662
 10
157.1199698426
 20
208.0120162344
 10
160.3794680176
 20
209.1048186591
 10
163.4292877036
 20
210.347856335
 10
166.2434089144
 20
211.7305241032
 10
168.7978225601
 20
213.2410255297
 10
171.0707352841
 20
214.8664735489
 10
173.0427553965
 20
216.5930004115
  0
LWPOLYLINE
  5
435
330
3FA
100
AcDbEntity
  8
0
  6
Continuous
 62
     7
370
    25
100
AcDbPolyline
 90
       17
 70
   128
 43
0.0
 10
-261.9474196447
 20
382.1376534957
 10
-263.5956814834
 20
380.3177658116
 10
-264.8896628024
 20
378.4234329082
 10
-265.8169018544
 20
376.4728982469
 10
-266.3684688203
 20
374.4849465428
 10
-266.5390518087
 20
372.4787228574
 10
-266.3270080123
 20
370.4735482215
 10
-265.7343795286
 20
368.4887335632
 10
-264.766873694
 20
366.5433937324
 10
-263.4338081186
 20
364.6562634153
 10
-261.7480209525
 20
362.8455167084
 10
-259.7257472477
 20
361.1285920924
 10
-257.3864626055
 20
359.5220244898
 10
-254.7526956158
 20
358.0412860249
 10
-251.8498108944
 20
356.7006370186
 10
-248.705764808
 20
355.5129886536
 10
-245.3508362393
 20
354.4897786331
  0
SPLINE
  5
438
330
3FA
100
AcDbEntity
  8
0
  6
Continuous
 62
     7
370
    25
100
AcDbSpline
210
0.0
220
0.0
230
1.0
 70
     8
 71
     3
 72
    46
 73
    42
 74
     0
 42
0.000000001
 43
0.00000001
 40
0.0
 40
0.0
 40
0.0
 40
0.0
 40
0.0625000000000004
 40
0.0625000000000004
 40
0.0937500000000005
 40
0.0937500000000005
 40
0.1250000000000006
 40
0.1250000000000006
 40
0.1875000000000008
 40
0.1875000000000008
 40
0.250000000000001
 40
0.250000000000001
 40
0.2812500000000013
 40
0.2812500000000013
 40
0.3125000000000017
 40
0.3125000000000017
 40
0.3750000000000023
 40
0.3750000000000023
 40
0.4062500000000026
 40
0.4062500000000026
 40
0.4375000000000029
 40
0.4375000000000029
 40
0.5000000000000028
 40
0.5000000000000028
 40
0.5625000000000027
 40
0.5625000000000027
 40
0.5937500000000023
 40
0.5937500000000023
 40
0.625000000000002
 40
0.625000000000002
 40
0.6875000000000017
 40
0.6875000000000017
 40
0.7500000000000013
 40
0.7500000000000013
 40
0.7812500000000012
 40
0.7812500000000012
 40
0.8125000000000011
 40
0.8125000000000011
 40
0.8750000000000007
 40
0.8750000000000007
 40
1.0
 40
1.0
 40
1.0
 40
1.0
 10
-229.91591360924
 20
350.8335111618663
 30
0.0
 10
-231.1536085672102
 20
351.1827223229659
 30
0.0
 10
-232.3400558840713
 20
351.5704986453266
 30
0.0
 10
-234.0435524424471
 20
352.2094863267484
 30
0.0
 10
-234.5988606611687
 20
352.4319068264891
 30
0.0
 10
-235.6839716477519
 20
352.8959413303794
 30
0.0
 10
-236.2105199207585
 20
353.1363214214646
 30
0.0
 10
-237.7363649101179
 20
353.8789610668516
 30
0.0
 10
-238.6847861790292
 20
354.4040229655632
 30
0.0
 10
-240.4480653199491
 20
355.5123186739793
 30
0.0
 10
-241.2623818374973
 20
356.0957882640267
 30
0.0
 10
-242.3801843242642
 20
357.0161458522978
 30
0.0
 10
-242.7357944388754
 20
357.3310841812622
 30
0.0
 10
-243.4018270506984
 20
357.9670426391705
 30
0.0
 10
-243.71369000823
 20
358.2891041132273
 30
0.0
 10
-244.5873291071069
 20
359.2672438133909
 30
0.0
 10
-245.0871077772104
 20
359.935286522321
 30
0.0
 10
-245.7136478576559
 20
360.9611122313257
 30
0.0
 10
-245.9019931170019
 20
361.3070105708023
 30
0.0
 10
-246.2372048806847
 20
362.0068119609463
 30
0.0
 10
-246.3843296516327
 20
362.3614839404781
 30
0.0
 10
-246.7596559928403
 20
363.4328241854849
 30
0.0
 10
-246.9191286369922
 20
364.1473783002686
 30
0.0
 10
-247.0684844419961
 20
365.5770981790442
 30
0.0
 10
-247.0568467056096
 20
366.2922694283741
 30
0.0
 10
-246.9116349793199
 20
367.3654870698512
 30
0.0
 10
-246.8421051375522
 20
367.7233024774359
 30
0.0
 10
-246.660146752789
 20
368.4390880130289
 30
0.0
 10
-246.5471160262641
 20
368.7983815151977
 30
0.0
 10
-246.1457098158048
 20
369.8639020139128
 30
0.0
 10
-245.7968824736383
 20
370.5588617818669
 30
0.0
 10
-244.9478519819913
 20
371.9201041111387
 30
0.0
 10
-244.4464993077402
 20
372.5861689021276
 30
0.0
 10
-243.5813718234365
 20
373.5638402852658
 30
0.0
 10
-243.2741735298636
 20
373.8861649471172
 30
0.0
 10
-242.6218630248581
 20
374.5236317145313
 30
0.0
 10
-242.2756875103931
 20
374.8396319571293
 30
0.0
 10
-241.1864867635154
 20
375.7703686152349
 30
0.0
 10
-240.398409887583
 20
376.3638191764217
 30
0.0
 10
-237.8597195940586
 20
378.0680124417232
 30
0.0
 10
-235.9362836840971
 20
379.103311417319
 30
0.0
 10
-233.78070844889
 20
380.0372725636057
 30
0.0
  0
SPLINE
  5
439
330
3FA
100
AcDbEntity
  8
0
  6
Continuous
 62
     7
370
    25
100
AcDbSpline
210
0.0
220
0.0
230
1.0
 70
     8
 71
     3
 72
    25
 73
    21
 74
     0
 42
0.000000001
 43
0.00000001
 40
0.0
 40
0.0
 40
0.0
 40
0.0
 40
0.00390625
 40
0.00390625
 40
0.0078124999999999
 40
0.0156250000000001
 40
0.0312500000000001
 40
0.0625000000000003
 40
0.1250000000000003
 40
0.2500000000000004
 40
0.5000000000000006
 40
0.7500000000000004
 40
0.8750000000000004
 40
0.9375000000000007
 40
0.9687500000000006
 40
0.9843750000000004
 40
0.9921875000000004
 40
0.9960937500000002
 40
0.9960937500000002
 40
1.0
 40
1.0
 40
1.0
 40
1.0
 10
102.6889660728565
 20
260.43863172474
 30
0.0
 10
102.2523182888976
 20
260.5528501525316
 30
0.0
 10
101.8209164211806
 20
260.6721891378924
 30
0.0
 10
100.954757879281
 20
260.907592470048
 30
0.0
 10
99.65552006643185
 20
261.2606974682819
 30
0.0
 10
96.62396516978338
 20
262.0846091308271
 30
0.0
 10
90.56085537648711
 20
263.7324324559175
 30
0.0
 10
78.4346357898937
 20
267.0280791060986
 30
0.0
 10
54.18219661670687
 20
273.6193724064599
 30
0.0
 10
5.677318270332243
 20
286.8019590071818
 30
0.0
 10
-63.61536508163039
 20
305.6342255796422
 30
0.0
 10
-132.9080484335933
 20
324.466492152103
 30
0.0
 10
-181.4129267799671
 20
337.6490787528259
 30
0.0
 10
-205.6653659531539
 20
344.2403720531868
 30
0.0
 10
-217.7915855397476
 20
347.5360187033674
 30
0.0
 10
-223.8546953330442
 20
349.183842028458
 30
0.0
 10
-226.8862502296926
 20
350.0077536910027
 30
0.0
 10
-228.185488042542
 20
350.3608586892365
 30
0.0
 10
-229.0516465844416
 20
350.5962620213922
 30
0.0
 10
-229.486403617008
 20
350.7123264692044
 30
0.0
 10
-229.91591360924
 20
350.8335111618663
 30
0.0
  0
SPLINE
  5
43A
330
3FA
100
AcDbEntity
  8
0
  6
Continuous
 62
     7
370
    25
100
AcDbSpline
210
0.0
220
0.0
230
1.0
 70
     8
 71
     3
 72
    46
 73
    42
 74
     0
 42
0.000000001
 43
0.00000001
 40
0.0
 40
0.0
 40
0.0
 40
0.0
 40
0.1249999999999995
 40
0.1249999999999995
 40
0.1562499999999996
 40
0.1562499999999996
 40
0.1874999999999996
 40
0.1874999999999996
 40
0.2499999999999998
 40
0.2499999999999998
 40
0.3124999999999999
 40
0.3124999999999999
 40
0.3437500000000003
 40
0.3437500000000003
 40
0.3750000000000007
 40
0.3750000000000007
 40
0.4375000000000018
 40
0.4375000000000018
 40
0.5000000000000029
 40
0.5000000000000029
 40
0.5312500000000034
 40
0.5312500000000034
 40
0.562500000000004
 40
0.562500000000004
 40
0.6250000000000048
 40
0.6250000000000048
 40
0.6562500000000048
 40
0.6562500000000048
 40
0.6875000000000048
 40
0.6875000000000048
 40
0.7500000000000046
 40
0.7500000000000046
 40
0.8125000000000044
 40
0.8125000000000044
 40
0.8437500000000041
 40
0.8437500000000041
 40
0.8750000000000038
 40
0.8750000000000038
 40
0.9375000000000019
 40
0.9375000000000019
 40
1.0
 40
1.0
 40
1.0
 40
1.0
 10
151.6782756595081
 20
275.2777800701851
 30
0.0
 10
151.3980102004915
 20
273.834741206661
 30
0.0
 10
150.8237366170048
 20
272.428971676673
 30
0.0
 10
149.733706621187
 20
270.7189394104935
 30
0.0
 10
149.4969081524717
 20
270.3793151459021
 30
0.0
 10
148.9845167651335
 20
269.7049843151535
 30
0.0
 10
148.7094200507102
 20
269.371100764125
 30
0.0
 10
147.8345862659624
 20
268.3880073654847
 30
0.0
 10
147.1829133664745
 20
267.7539069988276
 30
0.0
 10
145.7430806626369
 20
266.5281679804054
 30
0.0
 10
144.9545820149762
 20
265.9366347443806
 30
0.0
 10
143.6641961115463
 20
265.0828215547376
 30
0.0
 10
143.2147598385368
 20
264.8029101179274
 30
0.0
 10
142.2869860801262
 20
264.2591523568279
 30
0.0
 10
141.8093707186489
 20
263.9956069464855
 30
0.0
 10
140.3350980859632
 20
263.2301174795898
 30
0.0
 10
139.2970337024912
 20
262.7533083891275
 30
0.0
 10
137.11284307277
 20
261.8652859744385
 30
0.0
 10
135.9658471306948
 20
261.4546005734086
 30
0.0
 10
134.1584262272424
 20
260.891338937214
 30
0.0
 10
133.5457743770821
 20
260.7136485357211
 30
0.0
 10
132.3064718738512
 20
260.3798077454414
 30
0.0
 10
131.6788496346244
 20
260.2233839814333
 30
0.0
 10
129.7719537791143
 20
259.7857555683776
 30
0.0
 10
128.4689771715051
 20
259.5357643107961
 30
0.0
 10
126.4666451227971
 20
259.2238114809336
 30
0.0
 10
125.7911625448437
 20
259.1304128207127
 30
0.0
 10
124.4236988948092
 20
258.9653416169763
 30
0.0
 10
123.7309487785849
 20
258.8936939069848
 30
0.0
 10
121.6574643722059
 20
258.7144512521442
 30
0.0
 10
120.27185563456
 20
258.6410093921038
 30
0.0
 10
117.4941661352642
 20
258.5848365156477
 30
0.0
 10
116.1021025281917
 20
258.6018650634388
 30
0.0
 10
114.0090442841353
 20
258.6969661575461
 30
0.0
 10
113.3080038883036
 20
258.740412196583
 30
0.0
 10
111.9186715705347
 20
258.8499869571473
 30
0.0
 10
111.2307921822757
 20
258.9160251911129
 30
0.0
 10
109.1870127770575
 20
259.1470609994515
 30
0.0
 10
107.8509489240652
 20
259.3449422221425
 30
0.0
 10
105.2302337643157
 20
259.8259344575228
 30
0.0
 10
103.9460410788831
 20
260.1098057554366
 30
0.0
 10
102.6889660728565
 20
260.43863172474
 30
0.0
  0
SPLINE
  5
43B
330
3FA
100
AcDbEntity
  8
0
  6
Continuous
 62
     7
370
    25
100
AcDbSpline
210
0.0
220
0.0
230
1.0
 70
     8
 71
     3
 72
    19
 73
    15
 74
     0
 42
0.000000001
 43
0.00000001
 40
0.0
 40
0.0
 40
0.0
 40
0.0
 40
0.4999999999999999
 40
0.7499999999999998
 40
0.8749999999999998
 40
0.9374999999999999
 40
0.9687499999999999
 40
0.9726562499999999
 40
0.9726562499999999
 40
0.9765624999999999
 40
0.9765624999999999
 40
0.9843749999999999
 40
0.9843749999999999
 40
1.0
 40
1.0
 40
1.0
 40
1.0
 10
143.8474366845593
 20
383.8419030397809
 30
0.0
 10
145.2153304324543
 20
365.7490551547855
 30
0.0
 10
147.2671709988713
 20
338.6097833261808
 30
0.0
 10
149.6609850345935
 20
306.9472995269751
 30
0.0
 10
150.857892047836
 20
291.1160576272799
 30
0.0
 10
151.456345554457
 20
283.2004366774319
 30
0.0
 10
151.7235122984844
 20
279.666677324822
 30
0.0
 10
151.8196923263341
 20
278.3945239578821
 30
0.0
 10
151.8410656658563
 20
278.1118232096732
 30
0.0
 10
151.852172254291
 20
277.970480682104
 30
0.0
 10
151.874129626653
 20
277.5462407834971
 30
0.0
 10
151.8772166046474
 20
277.2631983391959
 30
0.0
 10
151.8517550215411
 20
276.4134221867697
 30
0.0
 10
151.7886430041168
 20
275.8460426313043
 30
0.0
 10
151.6782756595084
 20
275.2777800701851
 30
0.0
  0
SPLINE
  5
43C
330
3FA
100
AcDbEntity
  8
0
  6
Continuous
 62
     7
370
    25
100
AcDbSpline
210
0.0
220
0.0
230
1.0
 70
     8
 71
     3
 72
    26
 73
    22
 74
     0
 42
0.000000001
 43
0.00000001
 40
0.0
 40
0.0
 40
0.0
 40
0.0
 40
0.1249999999999996
 40
0.1249999999999996
 40
0.2499999999999992
 40
0.2499999999999992
 40
0.3124999999999991
 40
0.3124999999999991
 40
0.3749999999999991
 40
0.3749999999999991
 40
0.4999999999999993
 40
0.4999999999999993
 40
0.6249999999999996
 40
0.6249999999999996
 40
0.6874999999999994
 40
0.6874999999999994
 40
0.7499999999999992
 40
0.7499999999999992
 40
0.8749999999999996
 40
0.8749999999999996
 40
1.0
 40
1.0
 40
1.0
 40
1.0
 10
125.4393660352261
 20
398.894360770368
 30
0.0
 10
126.7859850648196
 20
398.5283785721628
 30
0.0
 10
128.0690107503976
 20
398.1211915329834
 30
0.0
 10
130.5138906828251
 20
397.2283053093578
 30
0.0
 10
131.6757007059159
 20
396.7425774704512
 30
0.0
 10
133.3276994470169
 20
395.9552067548478
 30
0.0
 10
133.8631922186019
 20
395.6829183074851
 30
0.0
 10
134.9031342586108
 20
395.1182270025047
 30
0.0
 10
135.4094510035649
 20
394.8246202662384
 30
0.0
 10
136.8639215561236
 20
393.9227752825659
 30
0.0
 10
137.747311729124
 20
393.2946141200671
 30
0.0
 10
139.347686462568
 20
391.9863365268408
 30
0.0
 10
140.0649939959425
 20
391.3063209349311
 30
0.0
 10
141.0141471596286
 20
390.246705428521
 30
0.0
 10
141.3100244714012
 20
389.8858884976897
 30
0.0
 10
141.8545240665539
 20
389.1550696237226
 30
0.0
 10
142.1018414163115
 20
388.7869533978079
 30
0.0
 10
142.7710222367145
 20
387.6747043182148
 30
0.0
 10
143.1207861514472
 20
386.9227439828021
 30
0.0
 10
143.6292199910846
 20
385.3980772103394
 30
0.0
 10
143.7882007488201
 20
384.6254045188273
 30
0.0
 10
143.8474366845593
 20
383.841903039781
 30
0.0
  0
SPLINE
  5
43E
330
3FA
100
AcDbEntity
  8
0
  6
Continuous
 62
     7
370
    25
100
AcDbSpline
210
0.0
220
0.0
230
1.0
 70
     8
 71
     3
 72
    26
 73
    22
 74
     0
 42
0.000000001
 43
0.00000001
 40
0.0
 40
0.0
 40
0.0
 40
0.0
 40
0.1250000000000003
 40
0.1250000000000003
 40
0.2500000000000006
 40
0.2500000000000006
 40
0.3125000000000003
 40
0.3125000000000003
 40
0.3750000000000001
 40
0.3750000000000001
 40
0.5000000000000004
 40
0.5000000000000004
 40
0.6250000000000008
 40
0.6250000000000008
 40
0.687500000000001
 40
0.687500000000001
 40
0.7500000000000011
 40
0.7500000000000011
 40
0.8750000000000006
 40
0.8750000000000006
 40
1.0
 40
1.0
 40
1.0
 40
1.0
 10
-55.35348942874388
 20
437.9804463949083
 30
0.0
 10
-54.0642573800428
 20
438.3974610995465
 30
0.0
 10
-52.73760545463573
 20
438.765469665514
 30
0.0
 10
-50.01333436303747
 20
439.4085460731858
 30
0.0
 10
-48.61559398912537
 20
439.6834551777994
 30
0.0
 10
-46.46549787247271
 20
440.0257726241389
 30
0.0
 10
-45.73982377786799
 20
440.1281240138813
 30
0.0
 10
-44.27008908436028
 20
440.308747302502
 30
0.0
 10
-43.52309907469821
 20
440.3872749782548
 30
0.0
 10
-41.27900196748618
 20
440.5837169553627
 30
0.0
 10
-39.78089954910125
 20
440.6630625770695
 30
0.0
 10
-36.78075475995904
 20
440.7219523987515
 30
0.0
 10
-35.27870428146895
 20
440.7012912248609
 30
0.0
 10
-33.0225946749936
 20
440.5934491924849
 30
0.0
 10
-32.26806079620875
 20
440.5445066603151
 30
0.0
 10
-30.76710903806143
 20
440.421066582106
 30
0.0
 10
-30.02451351129902
 20
440.3469614575222
 30
0.0
 10
-27.81975169666333
 20
440.088459416034
 30
0.0
 10
-26.38050028096668
 20
439.8680485444942
 30
0.0
 10
-23.56291033623295
 20
439.3314936059601
 30
0.0
 10
-22.18455317975801
 20
439.0153788146122
 30
0.0
 10
-20.83792680601587
 20
438.6493946213718
 30
0.0
  0
SPLINE
  5
43F
330
3FA
100
AcDbEntity
  8
0
  6
Continuous
 62
     7
370
    25
100
AcDbSpline
210
0.0
220
0.0
230
1.0
 70
     8
 71
     3
 72
    19
 73
    15
 74
     0
 42
0.000000001
 43
0.00000001
 40
0.0
 40
0.0
 40
0.0
 40
0.0
 40
0.0156250000000008
 40
0.0156250000000008
 40
0.0234375000000011
 40
0.0234375000000011
 40
0.0273437500000011
 40
0.0273437500000011
 40
0.0312500000000012
 40
0.0625000000000011
 40
0.1250000000000009
 40
0.2500000000000008
 40
0.5000000000000006
 40
1.0
 40
1.0
 40
1.0
 40
1.0
 10
-233.7807084488902
 20
380.0372725636058
 30
0.0
 10
-232.9324700646833
 20
380.4047947362021
 30
0.0
 10
-232.0589035920246
 20
380.7517798906109
 30
0.0
 10
-230.7114369948997
 20
381.2421617779195
 30
0.0
 10
-230.2560740259618
 20
381.400589171381
 30
0.0
 10
-229.5637339337444
 20
381.63069298912
 30
0.0
 10
-229.3309210731669
 20
381.7057459626802
 30
0.0
 10
-228.8657407746524
 20
381.8562130761353
 30
0.0
 10
-226.7724294313371
 20
382.5333150866837
 30
0.0
 10
-220.9576756999059
 20
384.414154004873
 30
0.0
 10
-207.9326273414999
 20
388.6272331816174
 30
0.0
 10
-181.8825306246878
 20
397.0533915351059
 30
0.0
 10
-129.7823371877318
 20
413.9057082393509
 30
0.0
 10
-85.12502854033613
 20
428.3505511392435
 30
0.0
 10
-55.35348942874388
 20
437.9804463949083
 30
0.0
  0
LWPOLYLINE
  5
440
330
3FA
100
AcDbEntity
  8
0
  6
Continuous
 62
     7
370
    25
100
AcDbPolyline
 90
       47
 70
   128
 43
0.0
 10
197.4642837942
 20
361.8106495161
 10
199.727871601
 20
361.0896866649
 10
201.7797668345
 20
360.2166912042
 10
203.5817465686
 20
359.2079253876
 10
205.1002433305
 20
358.0821806136
 10
206.3069703986
 20
356.8604273774
 10
207.1794487308
 20
355.5654246302
 10
207.7014257066
 20
354.2212958228
 10
207.8631778825
 20
352.8530795317
 10
207.6616921216
 20
351.4862630378
 10
207.1007217223
 20
350.1463075461
 10
206.1907165018
 20
348.8581738921
 10
204.9486281356
 20
347.6458575687
 10
203.3975943797
 20
346.5319417351
 10
201.5665080585
 20
345.5371765357
 10
199.4894788455
 20
344.680092564
 10
197.2051978651
 20
343.9766556727
 10
194.7562169498
 20
343.4399695602
 10
192.1881559806
 20
343.0800316732
 10
189.5488530742
 20
342.9035469736
 10
186.8874734502
 20
342.9138030374
 10
184.2535935753
 20
343.1106088136
 10
181.6962776482
 20
343.4902981829
 10
179.2631636259
 20
344.0457982507
 10
176.9995758191
 20
344.7667611019
 10
174.9476805857
 20
345.6397565626
 10
173.1457008515
 20
346.6485223792
 10
171.6272040896
 20
347.7742671531
 10
170.4204770216
 20
348.9960203893
 10
169.5479986894
 20
350.2910231366
 10
169.0260217136
 20
351.635151944
 10
168.8642695377
 20
353.003368235
 10
169.0657552986
 20
354.370184729
 10
169.6267256979
 20
355.7101402207
 10
170.5367309183
 20
356.9982738746
 10
171.7788192846
 20
358.210590198
 10
173.3298530404
 20
359.3245060316
 10
175.1609393616
 20
360.319271231
 10
177.2379685746
 20
361.1763552027
 10
179.5222495551
 20
361.879792094
 10
181.9712304703
 20
362.4164782066
 10
184.5392914395
 20
362.7764160936
 10
187.1785943459
 20
362.9529007931
 10
189.8399739699
 20
362.9426447293
 10
192.4738538448
 20
362.7458389532
 10
195.0311697719
 20
362.3661495839
 10
197.4642837942
 20
361.8106495161
  0
SPLINE
  5
445
330
3FA
100
AcDbEntity
  8
0
  6
Continuous
 62
     7
370
    25
100
AcDbSpline
210
0.0
220
0.0
230
1.0
 70
     8
 71
     3
 72
    10
 73
     6
 74
     0
 42
0.000000001
 43
0.00000001
 40
0.0
 40
0.0
 40
0.0
 40
0.0
 40
0.5
 40
0.5
 40
1.0
 40
1.0
 40
1.0
 40
1.0
 10
-226.7397633665749
 20
375.6176236668553
 30
0.0
 10
-227.4164337333851
 20
375.5076600637196
 30
0.0
 10
-228.0822075177245
 20
375.3872416981268
 30
0.0
 10
-229.3851999700773
 20
375.1225428921452
 30
0.0
 10
-230.0235907346109
 20
374.9776550277474
 30
0.0
 10
-230.6485631048822
 20
374.8214517824175
 30
0.0
  0
SPLINE
  5
447
330
3FA
100
AcDbEntity
  8
0
  6
Continuous
 62
     7
370
    25
100
AcDbSpline
210
0.0
220
0.0
230
1.0
 70
     8
 71
     3
 72
    32
 73
    28
 74
     0
 42
0.000000001
 43
0.00000001
 40
0.0
 40
0.0
 40
0.0
 40
0.0
 40
0.007812500000001
 40
0.007812500000001
 40
0.0156250000000019
 40
0.0312500000000025
 40
0.0625000000000024
 40
0.0625000000000024
 40
0.1250000000000022
 40
0.1250000000000022
 40
0.2500000000000017
 40
0.2500000000000017
 40
0.3125000000000008
 40
0.3125000000000008
 40
0.3749999999999999
 40
0.3749999999999999
 40
0.5
 40
0.5
 40
0.625
 40
0.625
 40
0.6875
 40
0.6875
 40
0.7499999999999999
 40
0.7499999999999999
 40
0.875
 40
0.875
 40
1.0
 40
1.0
 40
1.0
 40
1.0
 10
-23.16182062786884
 20
432.4833878923016
 30
0.0
 10
-23.23283620529554
 20
432.502688398269
 30
0.0
 10
-23.30600739514258
 20
432.5223798254433
 30
0.0
 10
-23.45051378721644
 20
432.560875210391
 30
0.0
 10
-23.6675917971634
 20
432.618122098532
 30
0.0
 10
-24.17632721547926
 20
432.7482363545334
 30
0.0
 10
-24.61616342855567
 20
432.8538650575028
 30
0.0
 10
-25.50081284751311
 20
433.0573339893908
 30
0.0
 10
-26.09721044576451
 20
433.1826014086334
 30
0.0
 10
-27.90601493194482
 20
433.5276134108422
 30
0.0
 10
-29.13796281798569
 20
433.7166747445224
 30
0.0
 10
-31.02513465313961
 20
433.9385184561038
 30
0.0
 10
-31.66075775565817
 20
434.0021340226234
 30
0.0
 10
-32.94549166953925
 20
434.1081081704136
 30
0.0
 10
-33.59132743232738
 20
434.1501290339068
 30
0.0
 10
-35.5224236622692
 20
434.2426915367873
 30
0.0
 10
-36.80808599563007
 20
434.2603401450293
 30
0.0
 10
-39.37601918012705
 20
434.209679485267
 30
0.0
 10
-40.65829810921191
 20
434.1415782727739
 30
0.0
 10
-42.57909758951109
 20
433.9730739489115
 30
0.0
 10
-43.21848991924932
 20
433.9057200212558
 30
0.0
 10
-44.47650974700206
 20
433.7507978589188
 30
0.0
 10
-45.0976425321027
 20
433.6630032561656
 30
0.0
 10
-46.93798344889417
 20
433.3694524039297
 30
0.0
 10
-48.13436240777025
 20
433.1338148170342
 30
0.0
 10
-50.46616016859151
 20
432.5828740434901
 30
0.0
 10
-51.60169874635216
 20
432.2677421769155
 30
0.0
 10
-52.70519360732167
 20
431.9108059806983
 30
0.0
  0
SPLINE
  5
449
330
3FA
100
AcDbEntity
  8
0
  6
Continuous
 62
     7
370
    25
100
AcDbSpline
210
0.0
220
0.0
230
1.0
 70
     8
 71
     3
 72
    30
 73
    26
 74
     0
 42
0.000000001
 43
0.00000001
 40
0.0
 40
0.0
 40
0.0
 40
0.0
 40
0.0078125000000003
 40
0.0078125000000003
 40
0.0156250000000007
 40
0.0312500000000002
 40
0.0625000000000005
 40
0.0625000000000005
 40
0.1249999999999998
 40
0.1249999999999998
 40
0.2499999999999984
 40
0.2499999999999984
 40
0.3124999999999982
 40
0.3124999999999982
 40
0.3749999999999981
 40
0.3749999999999981
 40
0.4999999999999987
 40
0.4999999999999987
 40
0.6249999999999993
 40
0.6249999999999993
 40
0.6874999999999997
 40
0.6874999999999997
 40
0.75
 40
0.75
 40
1.0
 40
1.0
 40
1.0
 40
1.0
 10
138.8717414119067
 20
379.8443000343571
 30
0.0
 10
138.8686175739007
 20
379.8856183796566
 30
0.0
 10
138.8650676747353
 20
379.9280919160697
 30
0.0
 10
138.8573894627051
 20
380.0117770254838
 30
0.0
 10
138.8448694551582
 20
380.1371976475859
 30
0.0
 10
138.8086728492459
 20
380.4291000269902
 30
0.0
 10
138.7657903183407
 20
380.6780350517334
 30
0.0
 10
138.6644433724666
 20
381.1742376770337
 30
0.0
 10
138.5761312018921
 20
381.5028193913147
 30
0.0
 10
138.2497417735746
 20
382.4819658100822
 30
0.0
 10
137.9503590250302
 20
383.1259340952058
 30
0.0
 10
137.3775992607396
 20
384.0784959142911
 30
0.0
 10
137.1659081355475
 20
384.3937708593995
 30
0.0
 10
136.6998027732677
 20
385.0196460530296
 30
0.0
 10
136.4465233359753
 20
385.3286235927115
 30
0.0
 10
135.6340375391569
 20
386.2359667887976
 30
0.0
 10
135.0200588236418
 20
386.8182053333927
 30
0.0
 10
133.6503180992292
 20
387.9382394919813
 30
0.0
 10
132.8942319905379
 20
388.475929700194
 30
0.0
 10
131.6492803569373
 20
389.2475978835961
 30
0.0
 10
131.2158922096633
 20
389.4987805165046
 30
0.0
 10
130.3257462565529
 20
389.9818124146491
 30
0.0
 10
129.8673896871749
 20
390.2146926731122
 30
0.0
 10
127.510700826921
 20
391.3369756216526
 30
0.0
 10
125.4207501690044
 20
392.1018288882075
 30
0.0
 10
123.11547219603
 20
392.7283540460112
 30
0.0
  0
SPLINE
  5
44B
330
3FA
100
AcDbEntity
  8
0
  6
Continuous
 62
     7
370
    25
100
AcDbSpline
210
0.0
220
0.0
230
1.0
 70
     8
 71
     3
 72
    10
 73
     6
 74
     0
 42
0.000000001
 43
0.00000001
 40
0.0
 40
0.0
 40
0.0
 40
0.0
 40
0.5
 40
0.5
 40
1.0
 40
1.0
 40
1.0
 40
1.0
 10
146.8369965052391
 20
272.2289652177086
 30
0.0
 10
146.889491592009
 20
272.5407555218735
 30
0.0
 10
146.9181465219973
 20
272.8513565210129
 30
0.0
 10
146.9282480237025
 20
273.4674353841649
 30
0.0
 10
146.9096991918964
 20
273.7738379618069
 30
0.0
 10
146.8680308689995
 20
274.0790306402934
 30
0.0
  0
SPLINE
  5
44C
330
3FA
100
AcDbEntity
  8
0
  6
Continuous
 62
     7
370
    25
100
AcDbSpline
210
0.0
220
0.0
230
1.0
 70
     8
 71
     3
 72
    31
 73
    27
 74
     0
 42
0.000000001
 43
0.00000001
 40
0.0
 40
0.0
 40
0.0
 40
0.0
 40
0.0156249999999998
 40
0.0156249999999998
 40
0.0312499999999995
 40
0.0624999999999973
 40
0.0624999999999973
 40
0.1249999999999958
 40
0.1249999999999958
 40
0.2499999999999953
 40
0.2499999999999953
 40
0.3124999999999958
 40
0.3124999999999958
 40
0.3749999999999963
 40
0.3749999999999963
 40
0.4999999999999973
 40
0.4999999999999973
 40
0.6249999999999983
 40
0.6249999999999983
 40
0.6874999999999984
 40
0.6874999999999984
 40
0.7499999999999986
 40
0.7499999999999986
 40
0.8749999999999993
 40
0.8749999999999993
 40
1.0
 40
1.0
 40
1.0
 40
1.0
 10
-47.69456457777009
 20
338.9702068018939
 30
0.0
 10
-47.60216440823726
 20
339.0000944407147
 30
0.0
 10
-47.50674238453097
 20
339.0304072436325
 30
0.0
 10
-47.31786386363493
 20
339.0893004766338
 30
0.0
 10
-47.03349331694706
 20
339.1763359995281
 30
0.0
 10
-46.74598911987696
 20
339.2594856741089
 30
0.0
 10
-46.16685210509321
 20
339.4206582395651
 30
0.0
 10
-45.77526018834224
 20
339.5212760397728
 30
0.0
 10
-44.58419997030196
 20
339.8028696655381
 30
0.0
 10
-43.76850323743245
 20
339.9636417527355
 30
0.0
 10
-42.51223687132416
 20
340.1639803423049
 30
0.0
 10
-42.08801626850632
 20
340.2239418361862
 30
0.0
 10
-41.22838125044473
 20
340.329881101509
 30
0.0
 10
-40.79487313505116
 20
340.3755738624583
 30
0.0
 10
-39.49565945893423
 20
340.4898765595906
 30
0.0
 10
-38.6263662591938
 20
340.5363922910384
 30
0.0
 10
-36.88160811660892
 20
340.571325642391
 30
0.0
 10
-36.00615115354748
 20
340.5598160525979
 30
0.0
 10
-34.68818328200137
 20
340.4975404495161
 30
0.0
 10
-34.24799674197821
 20
340.4691854945178
 30
0.0
 10
-33.37642169354636
 20
340.3978962635582
 30
0.0
 10
-32.94372896661869
 20
340.3549006523409
 30
0.0
 10
-31.65486254340663
 20
340.2040776648365
 30
0.0
 10
-30.8044807615371
 20
340.0739191663216
 30
0.0
 10
-29.14775764265974
 20
339.7583457678875
 30
0.0
 10
-28.34178587869181
 20
339.5732945862733
 30
0.0
 10
-27.55867458359364
 20
339.3604617166799
 30
0.0
  0
SPLINE
  5
44D
330
3FA
100
AcDbEntity
  8
0
  6
Continuous
 62
     7
370
    25
100
AcDbSpline
210
0.0
220
0.0
230
1.0
 70
     8
 71
     3
 72
    31
 73
    27
 74
     0
 42
0.000000001
 43
0.00000001
 40
0.0
 40
0.0
 40
0.0
 40
0.0
 40
0.0156249999999995
 40
0.0156249999999995
 40
0.0312499999999991
 40
0.0624999999999982
 40
0.0624999999999982
 40
0.1249999999999984
 40
0.1249999999999984
 40
0.2499999999999987
 40
0.2499999999999987
 40
0.312499999999999
 40
0.312499999999999
 40
0.3749999999999994
 40
0.3749999999999994
 40
0.4999999999999993
 40
0.4999999999999993
 40
0.6249999999999992
 40
0.6249999999999992
 40
0.6874999999999999
 40
0.6874999999999999
 40
0.7500000000000004
 40
0.7500000000000004
 40
0.8750000000000001
 40
0.8750000000000001
 40
1.0
 40
1.0
 40
1.0
 40
1.0
 10
118.7186182390606
 20
299.6054278707279
 30
0.0
 10
118.8151177901385
 20
299.5792012650695
 30
0.0
 10
118.9138317303965
 20
299.5518392434995
 30
0.0
 10
119.1073538779675
 20
299.497119304345
 30
0.0
 10
119.3959503635156
 20
299.4139117619595
 30
0.0
 10
119.679534317355
 20
299.3273521104782
 30
0.0
 10
120.2401206936952
 20
299.149828799593
 30
0.0
 10
120.6050784742174
 20
299.0256138089718
 30
0.0
 10
121.6741449872709
 20
298.6356816246963
 30
0.0
 10
122.3526113726475
 20
298.3527875334473
 30
0.0
 10
123.3181868063642
 20
297.8934655998523
 30
0.0
 10
123.6312968924095
 20
297.7344886873016
 30
0.0
 10
124.2395130170821
 20
297.4044251791659
 30
0.0
 10
124.5331831295273
 20
297.2340708566774
 30
0.0
 10
125.3753048391069
 20
296.7121647019818
 30
0.0
 10
125.8885740299618
 20
296.347952852668
 30
0.0
 10
126.8210074043912
 20
295.5877027401575
 30
0.0
 10
127.2400657581597
 20
295.191631793475
 30
0.0
 10
127.7954992229935
 20
294.5727485056285
 30
0.0
 10
127.9683442506395
 20
294.3622637910464
 30
0.0
 10
128.2853571210865
 20
293.9379153508798
 30
0.0
 10
128.4301023014264
 20
293.7234467988234
 30
0.0
 10
128.8232189252911
 20
293.0732133689168
 30
0.0
 10
129.0310878155609
 20
292.6287896989851
 30
0.0
 10
129.3307903054441
 20
291.7318729181678
 30
0.0
 10
129.4231728383951
 20
291.2797388451668
 30
0.0
 10
129.4576257432356
 20
290.8240373874579
 30
0.0
  0
LWPOLYLINE
  5
45A
330
3FA
100
AcDbEntity
  8
0
  6
Continuous
 62
     7
370
    25
100
AcDbPolyline
 90
       20
 70
   128
 43
0.0
 10
32.6686772251
 20
305.3219994003
 10
35.5901107067
 20
304.4243362835
 10
38.3133569506
 20
303.3743119617
 10
40.8085795011
 20
302.183430721
 10
43.0484401776
 20
300.8647401056
 10
45.008398598
 20
299.4326879657
 10
46.6669810476
 20
297.9029641644
 10
48.0060157501
 20
296.2923286756
 10
49.0108319609
 20
294.6184279589
 10
49.6704207035
 20
292.8996016207
 10
49.9775553855
 20
291.1546814822
 10
49.9288709752
 20
289.4027852535
 10
49.524900869
 20
287.6631070763
 10
48.770071048
 20
285.9547072288
 10
47.6726515857
 20
284.2963032971
 10
46.2446660394
 20
282.7060651019
 10
44.5017597175
 20
281.2014156256
 10
42.4630282664
 20
279.7988401226
 10
40.1508084546
 20
278.5137055037
 10
39.8866134423
 20
278.3829583416
  0
LWPOLYLINE
  5
45B
330
3FA
100
AcDbEntity
  8
0
  6
Continuous
 62
     7
370
    25
100
AcDbPolyline
 90
       20
 70
   128
 43
0.0
 10
-14.5818050738
 20
293.1911319227
 10
-14.5227466992
 20
293.372806282
 10
-13.7679168783
 20
295.0812061295
 10
-12.670497416
 20
296.7396100611
 10
-11.2425118696
 20
298.3298482564
 10
-9.4996055477
 20
299.8344977327
 10
-7.4608740967
 20
301.2370732357
 10
-5.1486542848
 20
302.5222078545
 10
-2.5882792763
 20
303.6758213855
 10
0.1921989244
 20
304.6852745972
 10
3.1623168164
 20
305.5395077091
 10
6.2895331665
 20
306.2291615645
 10
9.5395855379
 20
306.7466801714
 10
12.8768656768
 20
307.0863934876
 10
16.2648096435
 20
307.244579543
 10
19.666298415
 20
307.219505218
 10
23.0440645685
 20
307.0114452322
 10
26.3611005912
 20
306.6226791343
 10
29.5810643423
 20
306.0574663271
 10
32.6686772251
 20
305.3219994003
  0
SPLINE
  5
45C
330
3FA
100
AcDbEntity
  8
0
  6
Continuous
 62
     7
370
    25
100
AcDbSpline
210
0.0
220
0.0
230
1.0
 70
     8
 71
     3
 72
    20
 73
    16
 74
     0
 42
0.000000001
 43
0.00000001
 40
0.0
 40
0.0
 40
0.0
 40
0.0
 40
0.2500000000000013
 40
0.2500000000000013
 40
0.3125000000000018
 40
0.3125000000000018
 40
0.3750000000000023
 40
0.3750000000000023
 40
0.5000000000000011
 40
0.5000000000000011
 40
0.6250000000000001
 40
0.6250000000000001
 40
0.749999999999999
 40
0.749999999999999
 40
1.0
 40
1.0
 40
1.0
 40
1.0
 10
-28.48823211697768
 20
336.8940590263136
 30
0.0
 10
-29.90408775618477
 20
337.2788582502633
 30
0.0
 10
-31.38270210412243
 20
337.5590113855876
 30
0.0
 10
-33.30519794756648
 20
337.7854325671013
 30
0.0
 10
-33.6935052305538
 20
337.8243670190565
 30
0.0
 10
-34.47793191239263
 20
337.88920972492
 30
0.0
 10
-34.87561361047972
 20
337.9151920479821
 30
0.0
 10
-36.06718757537345
 20
337.9724950811008
 30
0.0
 10
-36.85867671085419
 20
337.983518790818
 30
0.0
 10
-38.4360761805337
 20
337.9531653130433
 30
0.0
 10
-39.22197863943926
 20
337.9117141540282
 30
0.0
 10
-40.78807261608418
 20
337.7751697674065
 30
0.0
 10
-41.57078456558916
 20
337.67931228654
 30
0.0
 10
-43.84290014041098
 20
337.3187361184063
 30
0.0
 10
-45.27946248844435
 20
336.9808921425248
 30
0.0
 10
-46.63524624413384
 20
336.5423506378489
 30
0.0
  0
SPLINE
  5
45E
330
3FA
100
AcDbEntity
  8
0
  6
Continuous
 62
     7
370
    25
100
AcDbSpline
210
0.0
220
0.0
230
1.0
 70
     8
 71
     3
 72
    22
 73
    18
 74
     0
 42
0.000000001
 43
0.00000001
 40
0.0
 40
0.0
 40
0.0
 40
0.0
 40
0.2500000000000028
 40
0.2500000000000028
 40
0.3125000000000032
 40
0.3125000000000032
 40
0.3750000000000034
 40
0.3750000000000034
 40
0.5000000000000028
 40
0.5000000000000028
 40
0.6250000000000021
 40
0.6250000000000021
 40
0.7500000000000013
 40
0.7500000000000013
 40
0.8750000000000007
 40
0.8750000000000007
 40
1.0
 40
1.0
 40
1.0
 40
1.0
 10
127.4673476338933
 20
289.2249961890087
 30
0.0
 10
127.4051917561128
 20
290.0471191490581
 30
0.0
 10
127.1371060341107
 20
290.8449625603735
 30
0.0
 10
126.5562734185339
 20
291.8132952911378
 30
0.0
 10
126.4276472636561
 20
292.005492821288
 30
0.0
 10
126.1449711115717
 20
292.3868903587127
 30
0.0
 10
125.9902495564965
 20
292.5768101898424
 30
0.0
 10
125.4921458462948
 20
293.1358556182399
 30
0.0
 10
125.1160068488167
 20
293.4937096430569
 30
0.0
 10
124.2785829333965
 20
294.1807401612413
 30
0.0
 10
123.8174094718389
 20
294.5099541936234
 30
0.0
 10
122.8082472591207
 20
295.1391424758552
 30
0.0
 10
122.2578563074409
 20
295.4397730038168
 30
0.0
 10
121.0929753835323
 20
295.9969494141046
 30
0.0
 10
120.4758749524933
 20
296.2556089881786
 30
0.0
 10
119.1738790294018
 20
296.7318373078303
 30
0.0
 10
118.4954126178254
 20
296.9470538656054
 30
0.0
 10
117.7890607155169
 20
297.1390251776871
 30
0.0
  0
LWPOLYLINE
  5
462
330
3FA
100
AcDbEntity
  8
0
  6
Continuous
 62
     7
370
    25
100
AcDbPolyline
 90
       12
 70
   128
 43
0.0
 10
28.0017233358
 20
292.1952363252
 10
25.4248654859
 20
292.7922515558
 10
22.7230447595
 20
293.2182193937
 10
19.9388704835
 20
293.4664220718
 10
17.1162507492
 20
293.5329452856
 10
14.2996999562
 20
293.4167399241
 10
11.5336367929
 20
293.1196386155
 10
8.8616837278
 20
292.6463268247
 10
6.3259790568
 20
292.0042689616
 10
3.9665123574
 20
291.203590662
 10
1.8204938289
 20
290.2569191012
 10
0.0342876082
 20
289.2511372555
  0
LWPOLYLINE
  5
463
330
3FA
100
AcDbEntity
  8
0
  6
Continuous
 62
     7
370
    25
100
AcDbPolyline
 90
       12
 70
   128
 43
0.0
 10
39.0650881528
 20
278.6386553154
 10
39.6714166277
 20
279.9698493317
 10
39.9775572557
 20
281.416560282
 10
39.9292303646
 20
282.8716252867
 10
39.5271980984
 20
284.3120971013
 10
38.777800746
 20
285.7152586248
 10
37.6928567514
 20
287.0589811619
 10
36.2894763294
 20
288.3220734054
 10
34.5897916278
 20
289.4846156361
 10
32.6206076894
 20
290.5282738685
 10
30.4129797215
 20
291.4365889889
 10
28.0017233358
 20
292.1952363252
  0
SPLINE
  5
476
330
3FA
100
AcDbEntity
  8
0
  6
Continuous
 62
     8
370
    25
100
AcDbSpline
210
0.0
220
0.0
230
1.0
 70
     8
 71
     3
 72
    17
 73
    13
 74
     0
 42
0.000000001
 43
0.00000001
 40
0.0
 40
0.0
 40
0.0
 40
0.0
 40
0.1052830140174292
 40
0.21316740979624
 40
0.3179433765905628
 40
0.4263824024677233
 40
0.5250219881634135
 40
0.6272227879146264
 40
0.7216578229778084
 40
0.8193223390181315
 40
0.9116146565747476
 40
0.9999999999999999
 40
0.9999999999999999
 40
0.9999999999999999
 40
0.9999999999999999
 10
-230.6485631048821
 20
374.8214517824189
 30
0.0
 10
-232.07509175282
 20
374.4142616104583
 30
0.0
 10
-234.9633963831444
 20
373.5898202220595
 30
0.0
 10
-238.5047538219689
 20
371.8131038139047
 30
0.0
 10
-241.297418614125
 20
369.6305256892101
 30
0.0
 10
-243.0471600094539
 20
367.1706350804518
 30
0.0
 10
-243.7532176190235
 20
364.5266026574579
 30
0.0
 10
-243.4255840876334
 20
361.9197011489622
 30
0.0
 10
-242.1270391946372
 20
359.3522155059285
 30
0.0
 10
-239.9730907984208
 20
357.0001673347477
 30
0.0
 10
-237.1279368808099
 20
354.8742413357775
 30
0.0
 10
-234.7327056862509
 20
353.7255069974329
 30
0.0
 10
-233.560987331234
 20
353.1635599451674
 30
0.0
  0
LWPOLYLINE
  5
47B
330
3FA
100
AcDbEntity
  8
0
  6
Continuous
 62
     8
370
    25
100
AcDbPolyline
 90
        7
 70
   128
 43
0.0
 10
116.1519580422
 20
207.5340552543
 10
116.1978218865
 20
206.9824059434
 10
116.2998037305
 20
206.5094739163
 10
116.4547562223
 20
206.1298547474
 10
116.6578972356
 20
205.8552642003
 10
116.9029574556
 20
205.6941766575
 10
116.966434563
 20
205.6732403944
  0
LWPOLYLINE
  5
47C
330
3FA
100
AcDbEntity
  8
0
  6
Continuous
 62
     8
370
    25
100
AcDbPolyline
 90
        7
 70
   128
 43
0.0
 10
-246.4594718455
 20
306.0840720747
 10
-246.4136080013
 20
305.5324227638
 10
-246.3116261572
 20
305.0594907367
 10
-246.1566736655
 20
304.6798715678
 10
-245.9535326521
 20
304.4052810207
 10
-245.7084724322
 20
304.2441934779
 10
-245.6443094157
 20
304.2230703903
  0
LWPOLYLINE
  5
47D
330
3FA
100
AcDbEntity
  8
0
  6
Continuous
 62
     8
370
    25
100
AcDbPolyline
 90
       16
 70
   128
 43
0.0
 10
196.5308930163
 20
359.185296901
 10
194.2451111247
 20
359.7027930503
 10
191.8396011459
 20
360.0474795988
 10
189.363332326
 20
360.2123397224
 10
186.8667143574
 20
360.1940173445
 10
184.4005711821
 20
359.9928854557
 10
182.0151063636
 20
359.6130385214
 10
179.7588810863
 20
359.0622091297
 10
177.6778255905
 20
358.3516105786
 10
175.8143041649
 20
357.4957086054
 10
174.2062527316
 20
356.5119269061
 10
172.8864065807
 20
355.4202924389
 10
171.8816339737
 20
354.2430277338
 10
171.2123891832
 20
353.0040985051
 10
170.8922961034
 20
351.7287257792
 10
170.8663499198
 20
351.3700320112
  0
LWPOLYLINE
  5
47E
330
3FA
100
AcDbEntity
  8
0
  6
Continuous
 62
     8
370
    25
100
AcDbPolyline
 90
        9
 70
   128
 43
0.0
 10
205.8637202825
 20
351.2082481658
 10
205.7995765139
 20
351.9849060971
 10
205.4090580289
 20
353.2550637305
 10
204.6715456918
 20
354.4836689385
 10
203.602053127
 20
355.6457108618
 10
202.2223521191
 20
356.7175336782
 10
200.5605294017
 20
357.6773181658
 10
198.6504148931
 20
358.5055258803
 10
196.5308930163
 20
359.185296901
  0
LWPOLYLINE
  5
47F
330
3FA
100
AcDbEntity
  8
0
  6
Continuous
 62
     8
370
    25
100
AcDbPolyline
 90
       13
 70
   128
 43
0.0
 10
-247.6811152349
 20
347.7052150402
 10
-251.2417453248
 20
348.784021479
 10
-254.5939197116
 20
350.0274331796
 10
-257.7090388253
 20
351.4248417917
 10
-260.5605255681
 20
352.9643251179
 10
-263.1240520604
 20
354.6327488291
 10
-265.3777471982
 20
356.4158785226
 10
-267.3023832491
 20
358.2985011644
 10
-268.8815398969
 20
360.2645548821
 10
-270.1017443339
 20
362.2972659985
 10
-270.9525862062
 20
364.3792921391
 10
-271.4268064308
 20
366.4928701909
 10
-271.5120177065
 20
367.3760100548
  0
LWPOLYLINE
  5
481
330
3FA
100
AcDbEntity
  8
0
  6
Continuous
 62
     8
370
    25
100
AcDbPolyline
 90
       13
 70
   128
 43
0.0
 10
-268.8942345093
 20
324.5811050317
 10
-268.8153617298
 20
323.7721126657
 10
-268.368896936
 20
321.7822393114
 10
-267.5678536205
 20
319.8220711803
 10
-266.4190660023
 20
317.9083317355
 10
-264.9323351324
 20
316.0573483273
 10
-263.1203452743
 20
314.2849128935
 10
-260.9985556866
 20
312.6061472283
 10
-258.5850687299
 20
311.0353739684
 10
-255.900475424
 20
309.5859943974
 10
-252.9676797724
 20
308.2703741108
 10
-249.8117033536
 20
307.099737517
 10
-246.4594718455
 20
306.0840720747
  0
LINE
  5
484
330
3FA
100
AcDbEntity
  8
0
  6
Continuous
 62
     7
370
    25
100
AcDbLine
 10
-263.6395929544
 20
313.7728943601
 30
0.0
 11
-263.6395929544
 21
-354.2615908171
 31
0.0
  0
LINE
  5
485
330
3FA
100
AcDbEntity
  8
0
  6
Continuous
 62
     7
370
    25
100
AcDbLine
 10
-245.6443094157
 20
304.2230703903
 30
0.0
 11
116.967120472
 21
205.6730535699
 31
0.0
  0
LINE
  5
486
330
3FA
100
AcDbEntity
  8
0
  6
Continuous
 62
     7
370
    25
100
AcDbLine
 10
172.3038438016
 20
214.8700635276
 30
0.0
 11
281.9772602001
 21
321.9146801266
 31
0.0
  0
LINE
  5
487
330
3FA
100
AcDbEntity
  8
0
  6
Continuous
 62
     7
370
    25
100
AcDbLine
 10
-271.5105825039
 20
367.3521552833
 30
0.0
 11
-268.8942345093
 21
324.5811050317
 31
0.0
  0
LINE
  5
488
330
3FA
100
AcDbEntity
  8
0
  6
Continuous
 62
     7
370
    25
100
AcDbLine
 10
-155.7663940394
 20
488.4745904557
 30
0.0
 11
-265.439810438
 21
381.4299738567
 31
0.0
  0
LINE
  5
489
330
3FA
100
AcDbEntity
  8
0
  6
Continuous
 62
     7
370
    25
100
AcDbLine
 10
-63.6549479328
 20
-376.4631621789
 30
0.0
 11
-61.8861116894
 21
-374.7367237792
 31
0.0
  0
LINE
  5
48A
330
3FA
100
AcDbEntity
  8
0
  6
Continuous
 62
     7
370
    25
100
AcDbLine
 10
-63.6549479328
 20
-376.4631621789
 30
0.0
 11
-63.6549479328
 21
211.5536061028
 31
0.0
  0
LINE
  5
48B
330
3FA
100
AcDbEntity
  8
0
  6
Continuous
 62
     7
370
    25
100
AcDbLine
 10
-63.6549479328
 20
211.5536061028
 30
0.0
 11
-62.2810723743
 21
212.894550766
 31
0.0
  0
LINE
  5
48C
330
3FA
100
AcDbEntity
  8
0
  6
Continuous
 62
     7
370
    25
100
AcDbLine
 10
-243.1528334687
 20
260.337285217
 30
0.0
 11
-243.1528334687
 21
-327.6794830647
 31
0.0
  0
LINE
  5
48D
330
3FA
100
AcDbEntity
  8
0
  6
Continuous
 62
     7
370
    25
100
AcDbLine
 10
-243.1528334687
 20
260.337285217
 30
0.0
 11
-63.6549479328
 21
211.5536061028
 31
0.0
  0
LINE
  5
48E
330
3FA
100
AcDbEntity
  8
0
  6
Continuous
 62
     7
370
    25
100
AcDbLine
 10
-243.1528334687
 20
-327.6794830647
 30
0.0
 11
-63.6549479328
 21
-376.4631621789
 31
0.0
  0
LINE
  5
48F
330
3FA
100
AcDbEntity
  8
0
  6
Continuous
 62
     7
370
    25
100
AcDbLine
 10
-261.6875684366
 20
270.9886841683
 30
0.0
 11
-260.0174785249
 21
271.4756956134
 31
0.0
  0
LINE
  5
490
330
3FA
100
AcDbEntity
  8
0
  6
Continuous
 62
     7
370
    25
100
AcDbLine
 10
-261.6875684366
 20
270.9886841683
 30
0.0
 11
-261.6875684366
 21
-317.0280841134
 31
0.0
  0
LINE
  5
491
330
3FA
100
AcDbEntity
  8
0
  6
Continuous
 62
     7
370
    25
100
AcDbLine
 10
145.5085635263
 20
203.898595806
 30
0.0
 11
145.5085635263
 21
-471.7875498915
 31
0.0
  0
LINE
  5
492
330
3FA
100
AcDbEntity
  8
0
  6
Continuous
 62
     7
370
    25
100
AcDbLine
 10
-242.3074085116
 20
261.8218514303
 30
0.0
 11
116.7663488894
 21
164.2332981887
 31
0.0
  0
LINE
  5
493
330
3FA
100
AcDbEntity
  8
0
  6
Continuous
 62
     7
370
    25
100
AcDbLine
 10
-261.2813470933
 20
311.6747606519
 30
0.0
 11
-261.2813470933
 21
271.1071415292
 31
0.0
  0
LINE
  5
494
330
3FA
100
AcDbEntity
  8
0
  6
Continuous
 62
     7
370
    25
100
AcDbLine
 10
-261.2813470933
 20
-317.5376745075
 30
0.0
 11
-261.2813470933
 21
-361.2307686385
 31
0.0
  0
LINE
  5
495
330
3FA
100
AcDbEntity
  8
0
  6
Continuous
 62
     7
370
    25
100
AcDbLine
 10
279.0842195455
 20
-355.7866902675
 30
0.0
 11
279.0842195455
 21
319.0909837574
 31
0.0
  0
LINE
  5
496
330
3FA
100
AcDbEntity
  8
0
  6
Continuous
 62
     7
370
    25
100
AcDbLine
 10
170.8108893137
 20
-461.4647798461
 30
0.0
 11
279.0842195455
 21
-355.7866902675
 31
0.0
  0
LINE
  5
497
330
3FA
100
AcDbEntity
  8
0
  6
Continuous
 62
     7
370
    25
100
AcDbLine
 10
-242.3074085116
 20
-329.6235860541
 30
0.0
 11
116.7663488894
 21
-427.2121392958
 31
0.0
  0
LINE
  5
498
330
3FA
100
AcDbEntity
  8
0
  6
Continuous
 62
     7
370
    25
100
AcDbLine
 10
-260.6913048352
 20
-318.2163572573
 30
0.0
 11
-261.2813470933
 21
-318.3724036034
 31
0.0
  0
LINE
  5
499
330
3FA
100
AcDbEntity
  8
0
  6
Continuous
 62
     7
370
    25
100
AcDbLine
 10
145.144767535
 20
-427.4418330183
 30
0.0
 11
145.5085635263
 21
-428.9291848564
 31
0.0
  0
LINE
  5
49A
330
3FA
100
AcDbEntity
  8
0
  6
Continuous
 62
     7
370
    25
100
AcDbLine
 10
116.7663488894
 20
-470.0705043309
 30
0.0
 11
116.7663488894
 21
-427.2121392958
 31
0.0
  0
LINE
  5
49B
330
3FA
100
AcDbEntity
  8
0
  6
Continuous
 62
     7
370
    25
100
AcDbLine
 10
-242.3074085116
 20
-372.4819510892
 30
0.0
 11
116.7663488894
 21
-470.0705043309
 31
0.0
  0
LINE
  5
49C
330
3FA
100
AcDbEntity
  8
0
  6
Continuous
 62
     7
370
    25
100
AcDbLine
 10
-242.3074085116
 20
-329.6235860541
 30
0.0
 11
-242.3074085116
 21
-372.4819510892
 31
0.0
  0
LINE
  5
49D
330
3FA
100
AcDbEntity
  8
0
  6
Continuous
 62
     7
370
    25
100
AcDbLine
 10
173.0427553965
 20
216.5930004115
 30
0.0
 11
175.3578490903
 21
258.7773119168
 31
0.0
  0
LINE
  5
49E
330
3FA
100
AcDbEntity
  8
0
  6
Continuous
 62
     7
370
    25
100
AcDbLine
 10
116.1519580422
 20
207.5340552543
 30
0.0
 11
114.9303146528
 21
249.1551982198
 31
0.0
  0
LINE
  5
49F
330
3FA
100
AcDbEntity
  8
0
  6
Continuous
 62
     7
370
    25
100
AcDbLine
 10
170.9418188034
 20
264.4876341799
 30
0.0
 11
280.6152352019
 21
371.5322507789
 31
0.0
  0
LINE
  5
4A0
330
3FA
100
AcDbEntity
  8
0
  6
Continuous
 62
     7
370
    25
100
AcDbLine
 10
-245.3508362393
 20
354.4897786331
 30
0.0
 11
117.2605936484
 21
255.9397618127
 31
0.0
  0
LINE
  5
4A1
330
3FA
100
AcDbEntity
  8
0
  6
Continuous
 62
     7
370
    25
100
AcDbLine
 10
-152.2740032462
 20
489.1822700947
 30
0.0
 11
-261.9474196447
 21
382.1376534957
 31
0.0
  0
LINE
  5
4A2
330
3FA
100
AcDbEntity
  8
0
  6
Continuous
 62
     7
370
    25
100
AcDbLine
 10
280.6152352019
 20
371.5322507789
 30
0.0
 11
-152.2740032462
 21
489.1822700947
 31
0.0
  0
LINE
  5
4A3
330
3FA
100
AcDbEntity
  8
0
  6
Continuous
 62
     7
370
    25
100
AcDbLine
 10
-20.837926806
 20
438.6493946214
 30
0.0
 11
125.4393660352
 21
398.8943607704
 31
0.0
  0
LINE
  5
4A4
330
3FA
100
AcDbEntity
  8
0
  6
Continuous
 62
     7
370
    25
100
AcDbLine
 10
114.9303146528
 20
249.1551982198
 30
0.0
 11
-247.6811152349
 21
347.7052150402
 31
0.0
  0
LINE
  5
4A5
330
3FA
100
AcDbEntity
  8
0
  6
Continuous
 62
     7
370
    25
100
AcDbLine
 10
-233.5609873312
 20
353.1635599452
 30
0.0
 11
-233.4261545447
 21
353.0941824636
 31
0.0
  0
LINE
  5
4A6
330
3FA
100
AcDbEntity
  8
0
  6
Continuous
 62
     7
370
    25
100
AcDbLine
 10
-52.7051936073
 20
431.9108059807
 30
0.0
 11
-226.7397633666
 21
375.6176236669
 31
0.0
  0
LINE
  5
4A7
330
3FA
100
AcDbEntity
  8
0
  6
Continuous
 62
     7
370
    25
100
AcDbLine
 10
123.115472196
 20
392.728354046
 30
0.0
 11
-23.1618206405
 21
432.4833878957
 31
0.0
  0
LINE
  5
4A8
330
3FA
100
AcDbEntity
  8
0
  6
Continuous
 62
     7
370
    25
100
AcDbLine
 10
146.868030869
 20
274.0790306403
 30
0.0
 11
138.8717414113
 21
379.8443000423
 31
0.0
  0
LINE
  5
4A9
330
3FA
100
AcDbEntity
  8
0
  6
Continuous
 62
     7
370
    25
100
AcDbLine
 10
-27.5586745836
 20
339.3604617167
 30
0.0
 11
118.7186182514
 21
299.6054278674
 31
0.0
  0
LINE
  5
4AA
330
3FA
100
AcDbEntity
  8
0
  6
Continuous
 62
     7
370
    25
100
AcDbLine
 10
-246.4594718455
 20
306.0840720747
 30
0.0
 11
116.1519580422
 21
207.5340552543
 31
0.0
  0
LINE
  5
4AB
330
3FA
100
AcDbEntity
  8
0
  6
Continuous
 62
     7
370
    25
100
AcDbLine
 10
-246.4594718455
 20
306.0840720747
 30
0.0
 11
-247.6811152349
 21
347.7052150402
 31
0.0
  0
LINE
  5
4AC
330
3FA
100
AcDbEntity
  8
0
  6
Continuous
 62
     7
370
    25
100
AcDbLine
 10
285.0312654888
 20
365.8219285158
 30
0.0
 11
175.3578490903
 21
258.7773119168
 31
0.0
  0
LINE
  5
4AD
330
3FA
100
AcDbEntity
  8
0
  6
Continuous
 62
     7
370
    25
100
AcDbLine
 10
282.7161717951
 20
323.6376170105
 30
0.0
 11
285.0312654888
 21
365.8219285158
 31
0.0
  0
LINE
  5
4AE
330
3FA
100
AcDbEntity
  8
0
  6
Continuous
 62
     7
370
    25
100
AcDbLine
 10
173.0427553965
 20
216.5930004115
 30
0.0
 11
282.7161717951
 21
323.6376170105
 31
0.0
  0
LINE
  5
4AF
330
3FA
100
AcDbEntity
  8
0
  6
Continuous
 62
     7
370
    25
100
AcDbLine
 10
170.8663499198
 20
351.3700320112
 30
0.0
 11
170.8637237101
 21
351.213889282
 31
0.0
  0
LINE
  5
4B0
330
3FA
100
AcDbEntity
  8
0
  6
Continuous
 62
     7
370
    25
100
AcDbLine
 10
117.7890607155
 20
297.1390251777
 30
0.0
 11
-28.488232117
 21
336.8940590263
 31
0.0
  0
LINE
  5
4B1
330
3FA
100
AcDbEntity
  8
0
  6
Continuous
 62
     7
370
    25
100
AcDbLine
 10
117.6117738465
 20
-425.7275730825
 30
0.0
 11
117.6117738465
 21
162.2891951992
 31
0.0
  0
LINE
  5
4B2
330
3FA
100
AcDbEntity
  8
0
  6
Continuous
 62
     7
370
    25
100
AcDbLine
 10
145.144767535
 20
-427.596395668
 30
0.0
 11
145.144767535
 21
160.4203726137
 31
0.0
  0
LINE
  5
4B3
330
3FA
100
AcDbEntity
  8
0
  6
Continuous
 62
     7
370
    25
100
AcDbLine
 10
145.144767535
 20
160.4203726137
 30
0.0
 11
144.8147827266
 21
162.4266626858
 31
0.0
  0
LINE
  5
4B4
330
3FA
100
AcDbEntity
  8
0
  6
Continuous
 62
     7
370
    25
100
AcDbLine
 10
117.6117738465
 20
162.2891951992
 30
0.0
 11
-61.8861116894
 21
211.0728743134
 31
0.0
  0
LINE
  5
4B5
330
3FA
100
AcDbEntity
  8
0
  6
Continuous
 62
     7
370
    25
100
AcDbLine
 10
-61.8861116894
 20
211.0728743134
 30
0.0
 11
-60.5122361309
 21
212.4138189766
 31
0.0
  0
LINE
  5
4B6
330
3FA
100
AcDbEntity
  8
0
  6
Continuous
 62
     7
370
    25
100
AcDbLine
 10
117.6117738465
 20
-425.7275730825
 30
0.0
 11
-61.8861116894
 21
-376.9438939682
 31
0.0
  0
LINE
  5
4B7
330
3FA
100
AcDbEntity
  8
0
  6
Continuous
 62
     7
370
    25
100
AcDbLine
 10
-61.8861116894
 20
211.0728743134
 30
0.0
 11
-61.8861116894
 21
-376.9438939682
 31
0.0
  0
LINE
  5
4B8
330
3FA
100
AcDbEntity
  8
0
  6
Continuous
 62
     8
370
    25
100
AcDbLine
 10
116.7663488894
 20
164.2332981887
 30
0.0
 11
116.7663488894
 21
205.727618984
 31
0.0
  0
LINE
  5
4B9
330
3FA
100
AcDbEntity
  8
0
  6
Continuous
 62
     8
370
    25
100
AcDbLine
 10
-242.3074085116
 20
303.3161722257
 30
0.0
 11
-242.3074085116
 21
261.8218514303
 31
0.0
  0
LINE
  5
4BA
330
3FA
100
AcDbEntity
  8
0
  6
Continuous
 62
     8
370
    25
100
AcDbLine
 10
170.8108893137
 20
213.5346019439
 30
0.0
 11
170.8108893137
 21
-461.4647798461
 31
0.0
  0
LINE
  5
4BB
330
3FA
100
AcDbEntity
  8
0
  6
Continuous
 62
     8
370
    25
100
AcDbLine
 10
146.2847780641
 20
270.5322568419
 30
0.0
 11
146.8369965052
 21
272.2289652177
 31
0.0
  0
LINE
  5
4BC
330
3FA
100
AcDbEntity
  8
0
  6
Continuous
 62
     8
370
    25
100
AcDbLine
 10
-109.4637381906
 20
318.9903639674
 30
0.0
 11
-47.6945645728
 21
338.9702068035
 31
0.0
  0
LINE
  5
4BD
330
3FA
100
AcDbEntity
  8
0
  6
Continuous
 62
     8
370
    25
100
AcDbLine
 10
129.4576257432
 20
290.8240373875
 30
0.0
 11
131.7025017912
 21
261.1315254737
 31
0.0
  0
LINE
  5
4BE
330
3FA
100
AcDbEntity
  8
0
  6
Continuous
 62
     8
370
    25
100
AcDbLine
 10
-46.6352462441
 20
336.5423506378
 30
0.0
 11
-104.8092950509
 21
317.7253860547
 31
0.0
  0
LINE
  5
4BF
330
3FA
100
AcDbEntity
  8
0
  6
Continuous
 62
     8
370
    25
100
AcDbLine
 10
129.6303703047
 20
260.6151419922
 30
0.0
 11
127.4673476339
 21
289.224996189
 31
0.0
  0
ARC
  5
4C0
330
3FA
100
AcDbEntity
  8
0
  6
Continuous
 62
     7
370
    25
100
AcDbCircle
 10
135.4850783361
 20
236.1511135792
 30
0.0
 40
74.3139489103398
100
AcDbArc
 50
255.410787338
 51
277.751696306
  0
ARC
  5
4C1
330
3FA
100
AcDbEntity
  8
0
  6
Continuous
 62
     7
370
    25
100
AcDbCircle
 10
-251.6381961324
 20
-354.0841146655
 30
0.0
 40
12.00270900525295
100
AcDbArc
 50
180.8472258235
 51
216.5425845453
  0
ARC
  5
4C2
330
3FA
100
AcDbEntity
  8
0
  6
Continuous
 62
     7
370
    25
100
AcDbCircle
 10
135.4850783361
 20
-355.2943239052
 30
0.0
 40
74.3139489103381
100
AcDbArc
 50
255.410787338
 51
277.751696306
  0
ARC
  5
4C3
330
3FA
100
AcDbEntity
  8
0
  6
Continuous
 62
     7
370
    25
100
AcDbCircle
 10
135.4850783361
 20
-398.1526889404
 30
0.0
 40
74.31394891033773
100
AcDbArc
 50
255.410787338
 51
277.751696306
  0
ARC
  5
4C4
330
3FA
100
AcDbEntity
  8
0
  6
Continuous
 62
     7
370
    25
100
AcDbCircle
 10
125.1639274683
 20
249.4327516177
 30
0.0
 40
10.23737598926591
100
AcDbArc
 50
140.5345288837
 51
181.5535804444
  0
ARC
  5
4C5
330
3FA
100
AcDbEntity
  8
0
  6
Continuous
 62
     7
370
    25
100
AcDbCircle
 10
169.3388871473
 20
258.6853089982
 30
0.0
 40
6.019665057762961
100
AcDbArc
 50
0.8757271595
 51
74.5568249834
  0
ARC
  5
4C6
330
3FA
100
AcDbEntity
  8
0
  6
Continuous
 62
     7
370
    25
100
AcDbCircle
 10
151.1734724468
 20
270.7111745759
 30
0.0
 40
4.59442183780147
100
AcDbArc
 50
83.6920015786
 51
160.7096705539
  0
ARC
  5
4C7
330
3FA
100
AcDbEntity
  8
0
  6
Continuous
 62
     7
370
    25
100
AcDbCircle
 10
-237.4475024195
 20
347.9827684381
 30
0.0
 40
10.23737598926621
100
AcDbArc
 50
140.5345288837
 51
181.5535804444
  0
ARC
  5
4C8
330
3FA
100
AcDbEntity
  8
0
  6
Continuous
 62
     7
370
    25
100
AcDbCircle
 10
279.0123035459
 20
365.7299255972
 30
0.0
 40
6.019665057762653
100
AcDbArc
 50
0.8757271595
 51
74.5568249834
  0
ARC
  5
4C9
330
3FA
100
AcDbEntity
  8
0
  6
Continuous
 62
     7
370
    25
100
AcDbCircle
 10
143.6706895985
 20
378.9665447412
 30
0.0
 40
4.878561065718834
100
AcDbArc
 50
87.9237569013
 51
169.6348450813
  0
ARC
  5
4CA
330
3FA
100
AcDbEntity
  8
0
  6
Continuous
 62
     7
370
    25
100
AcDbCircle
 10
280.1716879051
 20
323.7089473796
 30
0.0
 40
2.545483507659747
100
AcDbArc
 50
315.1799327604
 51
358.3942287773
  0
ARC
  5
4CB
330
3FA
100
AcDbEntity
  8
0
  6
Continuous
 62
     7
370
    25
100
AcDbCircle
 10
-238.3850784666
 20
373.7239581433
 30
0.0
 40
7.813972243954157
100
AcDbArc
 50
8.0740439184
 51
53.8963151606
  0
ARC
  5
4CC
330
3FA
100
AcDbEntity
  8
0
  6
Continuous
 62
     7
370
    25
100
AcDbCircle
 10
-61.8297748126
 20
431.5421535783
 30
0.0
 40
9.132025337539195
100
AcDbArc
 50
2.3136125056
 51
44.8314457164
  0
ARC
  5
4CD
330
3FA
100
AcDbEntity
  8
0
  6
Continuous
 62
     7
370
    25
100
AcDbCircle
 10
127.538046469
 20
291.1751395078
 30
0.0
 40
1.9514244256827
100
AcDbArc
 50
267.9237568819
 51
349.6348450807
  0
ARC
  5
4CE
330
3FA
100
AcDbEntity
  8
0
  6
Continuous
 62
     7
370
    25
100
AcDbCircle
 10
133.2628737118
 20
392.4248475466
 30
0.0
 40
10.15193940669571
100
AcDbArc
 50
140.4115464996
 51
178.2868068576
  0
ARC
  5
4CF
330
3FA
100
AcDbEntity
  8
0
  6
Continuous
 62
     7
370
    25
100
AcDbCircle
 10
-153.4064570596
 20
485.7996226954
 30
0.0
 40
3.56717746513461
100
AcDbArc
 50
71.4903151514
 51
131.4197069196
  0
ARC
  5
4D0
330
3FA
100
AcDbEntity
  8
0
  6
Continuous
 62
     7
370
    25
100
AcDbCircle
 10
-13.0144191077
 20
432.1798813973
 30
0.0
 40
10.15193942370119
100
AcDbArc
 50
140.4115465761
 51
178.2868068655
  0
ARC
  5
4D1
330
3FA
100
AcDbEntity
  8
0
  6
Continuous
 62
     7
370
    25
100
AcDbCircle
 10
114.6596576458
 20
299.7268304672
 30
0.0
 40
4.060775761948171
100
AcDbArc
 50
320.4115464913
 51
358.2868068567
  0
ARC
  5
4D2
330
3FA
100
AcDbEntity
  8
0
  6
Continuous
 62
     7
370
    25
100
AcDbCircle
 10
-31.6176351982
 20
339.481864316
 30
0.0
 40
4.060775770971676
100
AcDbArc
 50
320.4115465928
 51
358.2868068672
  0
ARC
  5
4D3
330
3FA
100
AcDbEntity
  8
0
  6
Continuous
 62
     7
370
    25
100
AcDbCircle
 10
-44.044732091
 20
339.1176677645
 30
0.0
 40
3.652810134713838
100
AcDbArc
 50
182.3136125062
 51
224.8314457208
  0
ARC
  5
4D4
330
3FA
100
AcDbEntity
  8
0
  6
Continuous
 62
     7
370
    25
100
AcDbCircle
 10
136.3140597409
 20
234.0727881821
 30
0.0
 40
74.17991452685224
100
AcDbArc
 50
255.3969650091
 51
276.8369588144
  0
ARC
  5
4D5
330
3FA
100
AcDbEntity
  8
0
  6
Continuous
 62
     7
370
    25
100
AcDbCircle
 10
136.3140597409
 20
-353.9439800996
 30
0.0
 40
74.1799145268537
100
AcDbArc
 50
255.3969650091
 51
276.8369588144
  0
ARC
  5
4D6
330
3FA
100
AcDbEntity
  8
0
  6
Continuous
 62
     8
370
    25
100
AcDbCircle
 10
103.7875715885
 20
259.6479254463
 30
0.0
 40
1.353569539288728
100
AcDbArc
 50
83.2885481481
 51
144.2560642049
  0
ARC
  5
4D7
330
3FA
100
AcDbEntity
  8
0
  6
Continuous
 62
     8
370
    25
100
AcDbCircle
 10
-228.798133248
 20
349.9508222187
 30
0.0
 40
1.424279714879536
100
AcDbArc
 50
78.6268848248
 51
141.7025506474
  0
ARC
  5
4D8
330
3FA
100
AcDbEntity
  8
0
  6
Continuous
 62
     8
370
    25
100
AcDbCircle
 10
170.4983141869
 20
216.6643204292
 30
0.0
 40
2.545440554037975
100
AcDbArc
 50
315.1714856169
 51
358.3944347659
  0
ARC
  5
4D9
330
3FA
100
AcDbEntity
  8
0
  6
Continuous
 62
     8
370
    25
100
AcDbCircle
 10
-263.0798956139
 20
378.7546312984
 30
0.0
 40
3.567539909866011
100
AcDbArc
 50
71.4918886701
 51
131.3848605756
  0
VIEWPORT
  5
5A6
330
3FA
100
AcDbEntity
  8
0
100
AcDbViewport
 10
0.0
 20
0.0
 30
0.0
 40
205.6
 41
156.0
 68
     1
 69
     1
 12
0.0
 22
4.5
 13
0.0
 23
0.0
 14
10.0
 24
10.0
 15
10.0
 25
10.0
 16
0.0
 26
0.0
 36
1.0
 17
0.0
 27
0.0
 37
0.0
 42
50.0
 43
0.0
 44
0.0
 45
865.98
 50
0.0
 51
0.0
 72
   100
 90
   557152
  1

281
     0
 71
     1
 74
     0
110
0.0
120
0.0
130
0.0
111
1.0
121
0.0
131
0.0
112
0.0
122
1.0
132
0.0
 79
     0
146
0.0
  0
ENDBLK
  5
3FD
330
3FA
100
AcDbEntity
  8
0
100
AcDbBlockEnd
  0
BLOCK
  5
4DC
330
4DA
100
AcDbEntity
  8
0
100
AcDbBlockBegin
  2
*Paper_Space6
 70
     0
 10
0.0
 20
0.0
 30
0.0
  3
*Paper_Space6
  1

  0
SPLINE
  5
4DF
330
4DA
100
AcDbEntity
  8
0
  6
Continuous
 62
     7
370
    25
100
AcDbSpline
210
0.0
220
0.0
230
1.0
 70
     8
 71
     3
 72
    27
 73
    23
 74
     0
 42
0.000000001
 43
0.00000001
 40
0.0
 40
0.0
 40
0.0
 40
0.0
 40
0.030288013752792
 40
0.0798119376811378
 40
0.1245338324342717
 40
0.1716575841105402
 40
0.2201179205617156
 40
0.2701877697064822
 40
0.3216639716481476
 40
0.3741501253293164
 40
0.4272051810316755
 40
0.4804113017508611
 40
0.5333807578010459
 40
0.5856916347371698
 40
0.6386929481058272
 40
0.6927871605476986
 40
0.7475482794928664
 40
0.8025137205187662
 40
0.8570699882984397
 40
0.9108260807837639
 40
0.9637560559066093
 40
1.0
 40
1.0
 40
1.0
 40
1.0
 10
167.757201030518
 20
346.4422230947233
 30
0.0
 10
167.7530433036447
 20
346.4312637022405
 30
0.0
 10
167.7420872785708
 20
346.4023846097716
 30
0.0
 10
167.5498989059378
 20
346.1162831093811
 30
0.0
 10
167.1454893727563
 20
345.698062001389
 30
0.0
 10
166.4629270145909
 20
345.1434091981007
 30
0.0
 10
165.4857511338967
 20
344.5084255998595
 30
0.0
 10
164.2086317713588
 20
343.8258843743577
 30
0.0
 10
162.636345197005
 20
343.1290090956096
 30
0.0
 10
160.7839892635393
 20
342.4454422125596
 30
0.0
 10
158.6774050144242
 20
341.8001997908794
 30
0.0
 10
156.3505151578386
 20
341.2136289211051
 30
0.0
 10
153.844646566787
 20
340.7035563054114
 30
0.0
 10
151.1790085113359
 20
340.2755733824045
 30
0.0
 10
148.369240586758
 20
339.9297586534557
 30
0.0
 10
145.4191763018881
 20
339.6694498832458
 30
0.0
 10
142.3652371715614
 20
339.5016892309027
 30
0.0
 10
139.2648827190446
 20
339.4327067691025
 30
0.0
 10
136.1772772858068
 20
339.464847441406
 30
0.0
 10
133.1557850865138
 20
339.5986430884174
 30
0.0
 10
130.5306322981337
 20
339.8042351065853
 30
0.0
 10
128.941325661416
 20
339.9845672936706
 30
0.0
 10
128.2953661544802
 20
340.0578617026684
 30
0.0
  0
SPLINE
  5
4E0
330
4DA
100
AcDbEntity
  8
0
  6
Continuous
 62
     7
370
    25
100
AcDbSpline
210
0.0
220
0.0
230
1.0
 70
     8
 71
     3
 72
    25
 73
    21
 74
     0
 42
0.000000001
 43
0.00000001
 40
0.0
 40
0.0
 40
0.0
 40
0.0
 40
0.0302592926853573
 40
0.087803853290057
 40
0.1452565389603583
 40
0.2026382362571418
 40
0.2599880961225962
 40
0.317342062820076
 40
0.3747251676039154
 40
0.4321753609830201
 40
0.4897346863265331
 40
0.5474522921990729
 40
0.605388192803112
 40
0.6636180609888229
 40
0.7222391121583043
 40
0.7813760868129863
 40
0.8411825216056349
 40
0.9018197550087395
 40
0.9633575975535595
 40
1.0
 40
1.0
 40
1.0
 40
1.0
 10
143.3138294260924
 20
282.1979769935019
 30
0.0
 10
143.9091247685336
 20
282.1262347269418
 30
0.0
 10
145.6365023862284
 20
281.9180590926586
 30
0.0
 10
148.5689551848683
 20
281.6535010390102
 30
0.0
 10
152.1107889422437
 20
281.4412916861143
 30
0.0
 10
155.6904387848733
 20
281.3388210412231
 30
0.0
 10
159.2800343718008
 20
281.3447167478619
 30
0.0
 10
162.8542924438016
 20
281.4593222247196
 30
0.0
 10
166.3873843605367
 20
281.6818679534987
 30
0.0
 10
169.8541535432592
 20
282.011265686948
 30
0.0
 10
173.2304262796164
 20
282.446034586887
 30
0.0
 10
176.4931805523689
 20
282.9845084879877
 30
0.0
 10
179.6208951462826
 20
283.625071695022
 30
0.0
 10
182.5938700435458
 20
284.3665887125794
 30
0.0
 10
185.3946974922798
 20
285.2089387075108
 30
0.0
 10
188.0078664532293
 20
286.1543095895973
 30
0.0
 10
190.4216058109456
 20
287.2073184174831
 30
0.0
 10
192.6180052736415
 20
288.3815173507293
 30
0.0
 10
194.3254157272986
 20
289.5019773477538
 30
0.0
 10
195.242540502531
 20
290.2714153168606
 30
0.0
 10
195.5848258075907
 20
290.5585815968398
 30
0.0
  0
SPLINE
  5
4E1
330
4DA
100
AcDbEntity
  8
0
  6
Continuous
 62
     7
370
    25
100
AcDbSpline
210
0.0
220
0.0
230
1.0
 70
     8
 71
     3
 72
    17
 73
    13
 74
     0
 42
0.000000001
 43
0.00000001
 40
0.0
 40
0.0
 40
0.0
 40
0.0
 40
0.004109171443544
 40
0.0157680078547097
 40
0.0368060598574339
 40
0.5482848723917029
 40
0.8040242786588373
 40
0.9318939817924046
 40
0.9638614075757963
 40
0.9878369769133404
 40
0.9984802460909348
 40
1.0
 40
1.0
 40
1.0
 40
1.0
 10
128.3196703942633
 20
340.0815519507559
 30
0.0
 10
127.8306911198167
 20
340.1339123149374
 30
0.0
 10
125.9543447209876
 20
340.3348332657991
 30
0.0
 10
121.6601993864855
 20
340.8975660248018
 30
0.0
 10
57.77099563290403
 20
348.8564442798276
 30
0.0
 10
-34.54521569587306
 20
360.5912707763853
 30
0.0
 10
-139.5186072384986
 20
373.7875477967201
 30
0.0
 10
-188.2276212050936
 20
379.937441478816
 30
0.0
 10
-209.7911907814028
 20
382.6431324227067
 30
0.0
 10
-217.5809426603931
 20
383.6394425282645
 30
0.0
 10
-221.8415670915517
 20
384.1556473577945
 30
0.0
 10
-223.2218933003879
 20
384.3636485055112
 30
0.0
 10
-223.3943632642051
 20
384.3896379782828
 30
0.0
  0
SPLINE
  5
4E4
330
4DA
100
AcDbEntity
  8
0
  6
Continuous
 62
     7
370
    25
100
AcDbSpline
210
0.0
220
0.0
230
1.0
 70
     8
 71
     3
 72
    16
 73
    12
 74
     0
 42
0.000000001
 43
0.00000001
 40
0.0
 40
0.0
 40
0.0
 40
0.0
 40
0.0753440583276056
 40
0.2025499593203811
 40
0.3140018344663922
 40
0.4323157339714474
 40
0.5490688718344313
 40
0.6740846423864408
 40
0.797401384028921
 40
0.918097138496697
 40
1.0
 40
1.0
 40
1.0
 40
1.0
 10
-223.3948154325773
 20
384.3875985325037
 30
0.0
 10
-223.9310025453815
 20
384.4629991973437
 30
0.0
 10
-225.3724523464315
 20
384.6657013338503
 30
0.0
 10
-227.5138504438808
 20
385.0360573236034
 30
0.0
 10
-229.8323511206396
 20
385.5080308273249
 30
0.0
 10
-231.8799526089493
 20
386.0326684055325
 30
0.0
 10
-233.8308865661238
 20
386.6353176406924
 30
0.0
 10
-235.585754196792
 20
387.286432281406
 30
0.0
 10
-237.0886160392799
 20
387.9649322094362
 30
0.0
 10
-238.2024653538197
 20
388.56981432054
 30
0.0
 10
-238.673631166909
 20
388.9042519662431
 30
0.0
 10
-238.8641054608699
 20
389.0394522984183
 30
0.0
  0
SPLINE
  5
4E5
330
4DA
100
AcDbEntity
  8
0
  6
Continuous
 62
     7
370
    25
100
AcDbSpline
210
0.0
220
0.0
230
1.0
 70
     8
 71
     3
 72
    14
 73
    10
 74
     0
 42
0.000000001
 43
0.00000001
 40
0.0
 40
0.0
 40
0.0
 40
0.0
 40
0.1188275635032146
 40
0.3091849288846655
 40
0.4851374106822366
 40
0.6506504505092676
 40
0.8098620936256609
 40
0.9794396182617078
 40
1.0
 40
1.0
 40
1.0
 40
1.0
 10
-266.7036261574445
 20
401.9419040235823
 30
0.0
 10
-267.0050062494628
 20
401.6645505894373
 30
0.0
 10
-267.7891861111952
 20
400.9428872035707
 30
0.0
 10
-268.8555639055251
 20
399.6880752229769
 30
0.0
 10
-269.8208783591363
 20
398.1637785982565
 30
0.0
 10
-270.5060462009163
 20
396.5853688590198
 30
0.0
 10
-270.8902419217187
 20
394.9218573971636
 30
0.0
 10
-271.0280947078584
 20
393.6931721535656
 30
0.0
 10
-270.9395190046732
 20
393.0394413410436
 30
0.0
 10
-270.9299409552198
 20
392.9687507811451
 30
0.0
  0
SPLINE
  5
4E7
330
4DA
100
AcDbEntity
  8
0
  6
Continuous
 62
     7
370
    25
100
AcDbSpline
210
0.0
220
0.0
230
1.0
 70
     8
 71
     3
 72
    22
 73
    18
 74
     0
 42
0.000000001
 43
0.00000001
 40
0.0
 40
0.0
 40
0.0
 40
0.0
 40
0.0113144440736808
 40
0.0698148892845341
 40
0.1285332429713931
 40
0.189438908955604
 40
0.2543069886716871
 40
0.3242992343708692
 40
0.3991628023155888
 40
0.4769490170408965
 40
0.5551973769421761
 40
0.6326657779810391
 40
0.709230266128382
 40
0.7850195718490136
 40
0.8602017751235919
 40
0.9349244740647165
 40
1.0
 40
1.0
 40
1.0
 40
1.0
 10
-268.3067815792308
 20
345.932352922334
 30
0.0
 10
-268.3091600149822
 20
345.8286091368856
 30
0.0
 10
-268.3238359661445
 20
345.1884662498049
 30
0.0
 10
-268.0409180414699
 20
344.0285452812836
 30
0.0
 10
-267.4712688603068
 20
342.5169314229916
 30
0.0
 10
-266.6024763285438
 20
341.0855909627244
 30
0.0
 10
-265.4625364843455
 20
339.7144801885152
 30
0.0
 10
-264.0159188767061
 20
338.3917702549891
 30
0.0
 10
-262.247334555169
 20
337.1224089873116
 30
0.0
 10
-260.1664105709171
 20
335.9265570188711
 30
0.0
 10
-257.8129171363823
 20
334.8257356940402
 30
0.0
 10
-255.2325137627877
 20
333.8313929505422
 30
0.0
 10
-252.4570820053859
 20
332.9449454724742
 30
0.0
 10
-249.5078348542141
 20
332.1635374413677
 30
0.0
 10
-246.4007438987028
 20
331.4883489913857
 30
0.0
 10
-243.2985084306007
 20
330.9342661676536
 30
0.0
 10
-241.1883317211516
 20
330.6494985583715
 30
0.0
 10
-240.2060527308055
 20
330.5169403520013
 30
0.0
  0
SPLINE
  5
4E8
330
4DA
100
AcDbEntity
  8
0
  6
Continuous
 62
     7
370
    25
100
AcDbSpline
210
0.0
220
0.0
230
1.0
 70
     8
 71
     3
 72
    33
 73
    29
 74
     0
 42
0.000000001
 43
0.00000001
 40
0.0
 40
0.0
 40
0.0
 40
0.0
 40
0.0333460173737566
 40
0.0693958861282226
 40
0.1042371974788377
 40
0.1411412994690621
 40
0.1781599055283143
 40
0.2160356309843311
 40
0.2548629434752519
 40
0.2944733351117229
 40
0.3346656158828036
 40
0.3752689459943438
 40
0.4161524493246365
 40
0.4572181781210496
 40
0.4983910875833982
 40
0.5396100927411819
 40
0.5808131307236407
 40
0.6219350472811589
 40
0.6629123265606156
 40
0.7036655647535472
 40
0.7440900662728539
 40
0.7840452964743427
 40
0.8233484098829497
 40
0.8617911774559245
 40
0.8992357759609627
 40
0.9359224872966507
 40
0.9728639383341803
 40
1.0
 40
1.0
 40
1.0
 40
1.0
 10
207.9670218922867
 20
400.8493652861723
 30
0.0
 10
207.9688037406795
 20
400.8338639591382
 30
0.0
 10
207.9725119180845
 20
400.8016043848197
 30
0.0
 10
207.8826189897188
 20
400.584426756761
 30
0.0
 10
207.5613102038171
 20
400.188077881618
 30
0.0
 10
206.9553158973461
 20
399.688103198254
 30
0.0
 10
206.0456593278943
 20
399.1384417750144
 30
0.0
 10
204.8537885585072
 20
398.5860453021855
 30
0.0
 10
203.389098981239
 20
398.0562261346222
 30
0.0
 10
201.6739861218403
 20
397.5714928443105
 30
0.0
 10
199.7408060734994
 20
397.1504799924669
 30
0.0
 10
197.6277139859309
 20
396.8075758018724
 30
0.0
 10
195.376208390852
 20
396.5533598034733
 30
0.0
 10
193.0297064065571
 20
396.3951193108411
 30
0.0
 10
190.6326802568583
 20
396.3372523282871
 30
0.0
 10
188.2301908884473
 20
396.3815188232538
 30
0.0
 10
185.8674249906987
 20
396.5271264365503
 30
0.0
 10
183.5890081975081
 20
396.7707077496523
 30
0.0
 10
181.4383991495945
 20
397.1062193493378
 30
0.0
 10
179.4574403138633
 20
397.5246634583241
 30
0.0
 10
177.6860495169654
 20
398.0134566143305
 30
0.0
 10
176.1615126884509
 20
398.5553076583966
 30
0.0
 10
174.9170120491124
 20
399.126362040304
 30
0.0
 10
173.978736942411
 20
399.6931940335185
 30
0.0
 10
173.358503792524
 20
400.209408347494
 30
0.0
 10
173.0445720163819
 20
400.6102959157539
 30
0.0
 10
172.9726366304388
 20
400.8025364255516
 30
0.0
 10
172.9747635460437
 20
400.8332817727281
 30
0.0
 10
172.9756642694111
 20
400.8463020602162
 30
0.0
  0
LWPOLYLINE
  5
4F0
330
4DA
100
AcDbEntity
  8
0
  6
Continuous
 62
     7
370
    25
100
AcDbPolyline
 90
        9
 70
   128
 43
0.0
 10
-259.2898353215
 20
287.987214206
 10
-257.4534364475
 20
286.9768398572
 10
-255.3559502217
 20
286.0246132689
 10
-253.0138419999
 20
285.1380094601
 10
-250.4454974306
 20
284.3239883082
 10
-247.6710781276
 20
283.5889399138
 10
-244.7123633999
 20
282.9386344378
 10
-241.5925792833
 20
282.3781768058
 10
-238.3362162153
 20
281.911966634
  0
LWPOLYLINE
  5
4F2
330
4DA
100
AcDbEntity
  8
0
  6
Continuous
 62
     7
370
    25
100
AcDbPolyline
 90
        9
 70
   128
 43
0.0
 10
-238.3362162153
 20
-364.8550359106
 10
-241.5925792833
 20
-364.3888257387
 10
-244.7123633999
 20
-363.8283681067
 10
-247.6710781276
 20
-363.1780626308
 10
-250.4454974306
 20
-362.4430142363
 10
-253.0138419999
 20
-361.6289930844
 10
-255.3559502217
 20
-360.7423892756
 10
-257.4534364475
 20
-359.7901626873
 10
-259.2898353215
 20
-358.7797883385
  0
LWPOLYLINE
  5
4F8
330
4DA
100
AcDbEntity
  8
0
  6
Continuous
 62
     7
370
    25
100
AcDbPolyline
 90
        9
 70
   128
 43
0.0
 10
-237.4420434089
 20
283.6849295327
 10
-240.8383687603
 20
284.173788014
 10
-244.0846759324
 20
284.7651479503
 10
-247.1531970902
 20
285.4539510449
 10
-250.0176851214
 20
286.2343055045
 10
-252.653638145
 20
287.0995364358
 10
-255.0385090932
 20
288.0422429403
 10
-257.1518985705
 20
289.0543614192
 10
-258.9757293444
 20
290.1272345467
  0
LWPOLYLINE
  5
4FB
330
4DA
100
AcDbEntity
  8
0
  6
Continuous
 62
     7
370
    25
100
AcDbPolyline
 90
        6
 70
   128
 43
0.0
 10
-258.9757293444
 20
-407.5514562447
 10
-260.6584809166
 20
-406.2864532484
 10
-261.9388398866
 20
-404.9701272591
 10
-262.8030153911
 20
-403.6166565445
 10
-263.2416993167
 20
-402.2406194611
 10
-263.2999077884
 20
-401.5215699721
  0
LWPOLYLINE
  5
4FC
330
4DA
100
AcDbEntity
  8
0
  6
Continuous
 62
     7
370
    25
100
AcDbPolyline
 90
        9
 70
   128
 43
0.0
 10
193.8948908506
 20
-454.0831740157
 10
192.2276341019
 20
-455.3504546132
 10
190.1753181944
 20
-456.5533098044
 10
187.7600488101
 20
-457.6787835261
 10
185.0078410361
 20
-458.7147531982
 10
181.9483391536
 20
-459.6500602967
 10
178.6144973368
 20
-460.4746305434
 10
175.0422247002
 20
-461.179582417
 10
171.2699985186
 20
-461.7573228164
  0
LWPOLYLINE
  5
502
330
4DA
100
AcDbEntity
  8
0
  6
Continuous
 62
     7
370
    25
100
AcDbPolyline
 90
        9
 70
   128
 43
0.0
 10
-258.9757293444
 20
-360.4110041642
 10
-257.1518985705
 20
-361.4838772917
 10
-255.0385090932
 20
-362.4959957707
 10
-252.653638145
 20
-363.4387022752
 10
-250.0176851214
 20
-364.3039332065
 10
-247.1531970902
 20
-365.0842876661
 10
-244.0846759324
 20
-365.7730907606
 10
-240.8383687603
 20
-366.364450697
 10
-237.4420434089
 20
-366.8533091783
  0
LWPOLYLINE
  5
50B
330
4DA
100
AcDbEntity
  8
0
  6
Continuous
 62
     7
370
    25
100
AcDbPolyline
 90
        9
 70
   128
 43
0.0
 10
-237.4420434089
 20
-413.9937612588
 10
-240.8383687603
 20
-413.5049027775
 10
-244.0846759324
 20
-412.9135428411
 10
-247.1531970902
 20
-412.2247397466
 10
-250.0176851214
 20
-411.444385287
 10
-252.653638145
 20
-410.5791543557
 10
-255.0385090932
 20
-409.6364478512
 10
-257.1518985705
 20
-408.6243293723
 10
-258.9757293444
 20
-407.5514562447
  0
LWPOLYLINE
  5
50C
330
4DA
100
AcDbEntity
  8
0
  6
Continuous
 62
     7
370
    25
100
AcDbPolyline
 90
       18
 70
   128
 43
0.0
 10
199.1241878381
 20
339.6730685791
 10
197.486739053
 20
338.4088490222
 10
195.5063329421
 20
337.2003839741
 10
193.1998656321
 20
336.0579836325
 10
190.5870150889
 20
334.9913945543
 10
187.6900732319
 20
334.0097165014
 10
184.5337557478
 20
333.1213248049
 10
181.1449912244
 20
332.3337989094
 10
177.5526914057
 20
331.6538577083
 10
173.7875045272
 20
331.0873022201
 10
169.8815538358
 20
330.6389660965
 10
165.8681635255
 20
330.3126743832
 10
161.7815744275
 20
330.1112108861
 10
157.656651879
 20
330.0362944207
 10
153.5285882648
 20
330.0885641478
 10
149.4326027682
 20
330.2675741206
 10
145.4036408931
 20
330.5717970891
 10
141.4760763218
 20
330.9986375302
  0
LWPOLYLINE
  5
50E
330
4DA
100
AcDbEntity
  8
0
  6
Continuous
 62
     7
370
    25
100
AcDbPolyline
 90
       17
 70
   128
 43
0.0
 10
143.2414206112
 20
337.5162841247
 10
146.9518720449
 20
337.1169863571
 10
150.7618707169
 20
336.840840597
 10
154.634724257
 20
336.6905062789
 10
158.5331349686
 20
336.6674312047
 10
162.4195590255
 20
336.7718375998
 10
166.2565680394
 20
337.0027199736
 10
170.007209516
 20
337.3578548026
 10
173.6353627277
 20
337.8338219443
 10
177.1060865756
 20
338.4260375749
 10
180.3859560917
 20
339.1287983341
 10
183.4433843397
 20
339.9353362518
 10
186.2489266142
 20
340.8378839267
 10
188.7755640094
 20
341.8277493316
 10
190.9989636261
 20
342.8953995212
 10
192.8977129103
 20
344.0305524408
 10
194.4535258687
 20
345.2222759472
  0
LWPOLYLINE
  5
511
330
4DA
100
AcDbEntity
  8
0
  6
Continuous
 62
     7
370
    25
100
AcDbPolyline
 90
       18
 70
   128
 43
0.0
 10
142.4015539943
 20
284.7237228509
 10
146.099243834
 20
284.3218647698
 10
149.8923963383
 20
284.0354475361
 10
153.7486496676
 20
283.8669147608
 10
157.6351036281
 20
283.8177043059
 10
161.5186003651
 20
283.8882360179
 10
165.3660072535
 20
284.0779081449
 10
169.1444995744
 20
284.3851024714
 10
172.8218405635
 20
284.8071981235
 10
176.3666564442
 20
285.34059393
 10
179.7487040972
 20
285.9807391461
 10
182.9391290845
 20
286.7221722783
 10
185.9107118248
 20
287.5585676806
 10
188.6380998221
 20
288.4827895224
 10
191.0980239636
 20
289.4869526688
 10
193.2694970438
 20
290.5624899539
 10
195.1339928201
 20
291.7002252727
 10
196.675604072
 20
292.8904518688
  0
LWPOLYLINE
  5
515
330
4DA
100
AcDbEntity
  8
0
  6
Continuous
 62
     7
370
    25
100
AcDbPolyline
 90
       17
 70
   128
 43
0.0
 10
-263.3964370186
 20
402.9059492317
 10
-264.5943303217
 20
401.6691320874
 10
-265.4227676024
 20
400.3991325304
 10
-265.8737705566
 20
399.1081813507
 10
-265.9429957794
 20
397.8087111138
 10
-265.629776594
 20
396.5132364284
 10
-264.9371294725
 20
395.2342334241
 10
-263.8717249852
 20
393.9840195989
 10
-262.4438235598
 20
392.7746351953
 10
-260.6671766675
 20
391.6177272462
 10
-258.5588943893
 20
390.5244374078
 10
-256.1392806357
 20
389.5052946587
 10
-253.4316376102
 20
388.5701139007
 10
-250.462041395
 20
387.7279014359
 10
-247.2590908252
 20
386.9867682305
 10
-243.8536320656
 20
386.3538518026
 10
-240.2784615457
 20
385.8352474832
  0
SPLINE
  5
518
330
4DA
100
AcDbEntity
  8
0
  6
Continuous
 62
     7
370
    25
100
AcDbSpline
210
0.0
220
0.0
230
1.0
 70
     8
 71
     3
 72
    46
 73
    42
 74
     0
 42
0.000000001
 43
0.00000001
 40
0.0
 40
0.0
 40
0.0
 40
0.0
 40
0.0625000000000004
 40
0.0625000000000004
 40
0.0937500000000005
 40
0.0937500000000005
 40
0.1250000000000006
 40
0.1250000000000006
 40
0.1875000000000008
 40
0.1875000000000008
 40
0.250000000000001
 40
0.250000000000001
 40
0.2812500000000013
 40
0.2812500000000013
 40
0.3125000000000017
 40
0.3125000000000017
 40
0.3750000000000023
 40
0.3750000000000023
 40
0.4062500000000026
 40
0.4062500000000026
 40
0.4375000000000029
 40
0.4375000000000029
 40
0.5000000000000028
 40
0.5000000000000028
 40
0.5625000000000027
 40
0.5625000000000027
 40
0.5937500000000023
 40
0.5937500000000023
 40
0.625000000000002
 40
0.625000000000002
 40
0.6875000000000017
 40
0.6875000000000017
 40
0.7500000000000013
 40
0.7500000000000013
 40
0.7812500000000012
 40
0.7812500000000012
 40
0.8125000000000011
 40
0.8125000000000011
 40
0.8750000000000007
 40
0.8750000000000007
 40
1.0
 40
1.0
 40
1.0
 40
1.0
 10
-224.0830838707666
 20
384.1244089868779
 30
0.0
 10
-225.3952313556289
 20
384.2975762764858
 30
0.0
 10
-226.6658006129909
 20
384.4976267028757
 30
0.0
 10
-228.5098526840093
 20
384.8376613966703
 30
0.0
 10
-229.1143757645701
 20
384.9575760316949
 30
0.0
 10
-230.3027288476226
 20
385.2107847765722
 30
0.0
 10
-230.883032666667
 20
385.343420818234
 30
0.0
 10
-232.5757291097717
 20
385.7573575096404
 30
0.0
 10
-233.6431219412233
 20
386.0554027747718
 30
0.0
 10
-235.6593628658194
 20
386.6943669039896
 30
0.0
 10
-236.6077304776023
 20
387.0354595418386
 30
0.0
 10
-237.9382671313517
 20
387.5803771083824
 30
0.0
 10
-238.3668801126892
 20
387.7679534679869
 30
0.0
 10
-239.1807290894918
 20
388.1488777389899
 30
0.0
 10
-239.5676448917015
 20
388.3428349462862
 30
0.0
 10
-240.669794786499
 20
388.9349422482632
 30
0.0
 10
-241.3263862507675
 20
389.3433359038771
 30
0.0
 10
-242.1948082917394
 20
389.976270255752
 30
0.0
 10
-242.4648902566896
 20
390.1906357320051
 30
0.0
 10
-242.9658199538956
 20
390.6262200310411
 30
0.0
 10
-243.1971088881134
 20
390.8479220099103
 30
0.0
 10
-243.8271978110774
 20
391.5204587435174
 30
0.0
 10
-244.1572897012485
 20
391.9727734462354
 30
0.0
 10
-244.6493370828505
 20
392.8847977043247
 30
0.0
 10
-244.8097847084658
 20
393.3445735775524
 30
0.0
 10
-244.9237956626008
 20
394.0398080765817
 30
0.0
 10
-244.9408543931841
 20
394.272474093846
 30
0.0
 10
-244.9324407197854
 20
394.7396767017643
 30
0.0
 10
-244.9066890356449
 20
394.9750880493034
 30
0.0
 10
-244.7646272931856
 20
395.6759571135394
 30
0.0
 10
-244.5856211860426
 20
396.1366747678799
 30
0.0
 10
-244.0705021387118
 20
397.0459431088186
 30
0.0
 10
-243.7331961532187
 20
397.4944014013216
 30
0.0
 10
-243.1098568404387
 20
398.1579984477833
 30
0.0
 10
-242.8825419932484
 20
398.3776845905444
 30
0.0
 10
-242.3885629756902
 20
398.8140095105481
 30
0.0
 10
-242.1210500690658
 20
399.0312433001145
 30
0.0
 10
-241.2640754431373
 20
399.6739496296046
 30
0.0
 10
-240.6247898565271
 20
400.087612125257
 30
0.0
 10
-238.5155011349447
 20
401.286892477859
 30
0.0
 10
-236.8558624838707
 20
402.0311945906853
 30
0.0
 10
-234.9415008500008
 20
402.7200004030506
 30
0.0
  0
SPLINE
  5
519
330
4DA
100
AcDbEntity
  8
0
  6
Continuous
 62
     7
370
    25
100
AcDbSpline
210
0.0
220
0.0
230
1.0
 70
     8
 71
     3
 72
    25
 73
    21
 74
     0
 42
0.000000001
 43
0.00000001
 40
0.0
 40
0.0
 40
0.0
 40
0.0
 40
0.00390625
 40
0.00390625
 40
0.0078124999999999
 40
0.0156250000000001
 40
0.0312500000000001
 40
0.0625000000000003
 40
0.1250000000000003
 40
0.2500000000000004
 40
0.5000000000000006
 40
0.7500000000000004
 40
0.8750000000000004
 40
0.9375000000000007
 40
0.9687500000000006
 40
0.9843750000000004
 40
0.9921875000000004
 40
0.9960937500000002
 40
0.9960937500000002
 40
1.0
 40
1.0
 40
1.0
 40
1.0
 10
127.700047455178
 20
339.8039003939838
 30
0.0
 10
127.2392931744604
 20
339.8592250562125
 30
0.0
 10
126.7825129388844
 20
339.9180548235946
 30
0.0
 10
125.8664110332678
 20
340.033472814863
 30
0.0
 10
124.4922581748431
 20
340.2065998017663
 30
0.0
 10
121.2859015051851
 20
340.6105627712065
 30
0.0
 10
114.8731881658697
 20
341.418488710087
 30
0.0
 10
102.0477614872382
 20
343.0343405878486
 30
0.0
 10
76.39690812997513
 20
346.2660443433707
 30
0.0
 10
25.0952014154483
 20
352.7294518544145
 30
0.0
 10
-48.19295103387486
 20
361.9628911559059
 30
0.0
 10
-121.4811034831983
 20
371.1963304573977
 30
0.0
 10
-172.7828101977245
 20
377.6597379684423
 30
0.0
 10
-198.4336635549875
 20
380.8914417239641
 30
0.0
 10
-211.2590902336193
 20
382.5072936017251
 30
0.0
 10
-217.6718035729349
 20
383.315219540606
 30
0.0
 10
-220.8781602425928
 20
383.7191825100456
 30
0.0
 10
-222.2523131010178
 20
383.8923094969489
 30
0.0
 10
-223.1684150066343
 20
384.0077274882174
 30
0.0
 10
-223.627737056593
 20
384.0643157621822
 30
0.0
 10
-224.0830838707666
 20
384.1244089868778
 30
0.0
  0
SPLINE
  5
51A
330
4DA
100
AcDbEntity
  8
0
  6
Continuous
 62
     7
370
    25
100
AcDbSpline
210
0.0
220
0.0
230
1.0
 70
     8
 71
     3
 72
    46
 73
    42
 74
     0
 42
0.000000001
 43
0.00000001
 40
0.0
 40
0.0
 40
0.0
 40
0.0
 40
0.1249999999999995
 40
0.1249999999999995
 40
0.1562499999999996
 40
0.1562499999999996
 40
0.1874999999999996
 40
0.1874999999999996
 40
0.2499999999999998
 40
0.2499999999999998
 40
0.3124999999999999
 40
0.3124999999999999
 40
0.3437500000000003
 40
0.3437500000000003
 40
0.3750000000000007
 40
0.3750000000000007
 40
0.4375000000000018
 40
0.4375000000000018
 40
0.5000000000000029
 40
0.5000000000000029
 40
0.5312500000000034
 40
0.5312500000000034
 40
0.562500000000004
 40
0.562500000000004
 40
0.6250000000000048
 40
0.6250000000000048
 40
0.6562500000000048
 40
0.6562500000000048
 40
0.6875000000000048
 40
0.6875000000000048
 40
0.7500000000000046
 40
0.7500000000000046
 40
0.8125000000000044
 40
0.8125000000000044
 40
0.8437500000000041
 40
0.8437500000000041
 40
0.8750000000000038
 40
0.8750000000000038
 40
0.9375000000000019
 40
0.9375000000000019
 40
1.0
 40
1.0
 40
1.0
 40
1.0
 10
172.7433429711395
 20
351.3565380460156
 30
0.0
 10
172.8122807043866
 20
350.4182218254455
 30
0.0
 10
172.5805113082727
 20
349.491701556808
 30
0.0
 10
171.9101312050236
 20
348.3484838422094
 30
0.0
 10
171.7568345265003
 20
348.1205942752817
 30
0.0
 10
171.4105627840759
 20
347.66637162041
 30
0.0
 10
171.2178821714231
 20
347.4405875744146
 30
0.0
 10
170.5862152775009
 20
346.7731076601492
 30
0.0
 10
170.0920593498233
 20
346.3389710266314
 30
0.0
 10
168.9580997889817
 20
345.4923321131343
 30
0.0
 10
168.3179345698411
 20
345.0798835427471
 30
0.0
 10
167.2428243092652
 20
344.4782722292667
 30
0.0
 10
166.8641666318625
 20
344.2799518476245
 30
0.0
 10
166.0743090355266
 20
343.8924350996276
 30
0.0
 10
165.6637533109739
 20
343.7034618006069
 30
0.0
 10
164.3849309159964
 20
343.1509811645986
 30
0.0
 10
163.4695311479488
 20
342.8019063142357
 30
0.0
 10
161.5157264069714
 20
342.1414216740234
 30
0.0
 10
160.4763314722688
 20
341.8303150174447
 30
0.0
 10
158.8182913750548
 20
341.3939535140879
 30
0.0
 10
158.2530912831738
 20
341.254542379157
 30
0.0
 10
157.1036198149866
 20
340.9889754937263
 30
0.0
 10
156.5184500801916
 20
340.8626040618976
 30
0.0
 10
154.731486800954
 20
340.5028192524051
 30
0.0
 10
153.4986661065293
 20
340.2884730024113
 30
0.0
 10
151.5867771147791
 20
340.0054588441424
 30
0.0
 10
150.9389583291765
 20
339.9175871601427
 30
0.0
 10
149.6217242748633
 20
339.7551154880898
 30
0.0
 10
148.9515399119532
 20
339.680499696124
 30
0.0
 10
146.9371302463412
 20
339.4797765612272
 30
0.0
 10
145.5798543573007
 20
339.3754016642708
 30
0.0
 10
142.8370648109178
 20
339.2246407283276
 30
0.0
 10
141.4516259998662
 20
339.1781009855882
 30
0.0
 10
139.3518146897706
 20
339.1527579933165
 30
0.0
 10
138.6457243167183
 20
339.1517151113332
 30
0.0
 10
137.2407387784891
 20
339.1647229204892
 30
0.0
 10
136.542274732011
 20
339.1787325317119
 30
0.0
 10
134.458671031965
 20
339.2427238025725
 30
0.0
 10
133.0853064047241
 20
339.314642910215
 30
0.0
 10
130.3690963618451
 20
339.515339904321
 30
0.0
 10
129.0265231902849
 20
339.6446249947729
 30
0.0
 10
127.700047455178
 20
339.8039003939838
 30
0.0
  0
SPLINE
  5
51B
330
4DA
100
AcDbEntity
  8
0
  6
Continuous
 62
     7
370
    25
100
AcDbSpline
210
0.0
220
0.0
230
1.0
 70
     8
 71
     3
 72
    19
 73
    15
 74
     0
 42
0.000000001
 43
0.00000001
 40
0.0
 40
0.0
 40
0.0
 40
0.0
 40
0.4999999999999999
 40
0.7499999999999998
 40
0.8749999999999998
 40
0.9374999999999999
 40
0.9687499999999999
 40
0.9726562499999999
 40
0.9726562499999999
 40
0.9765624999999999
 40
0.9765624999999999
 40
0.9843749999999999
 40
0.9843749999999999
 40
1.0
 40
1.0
 40
1.0
 40
1.0
 10
138.8635835591528
 20
420.7549784635371
 30
0.0
 10
144.5721987793361
 20
409.191915792735
 30
0.0
 10
153.1351215548798
 20
391.8473217835295
 30
0.0
 10
163.125198167396
 20
371.6119621083743
 30
0.0
 10
168.1202364690933
 20
361.4942822705468
 30
0.0
 10
170.6177556199418
 20
356.4354423516326
 30
0.0
 10
171.7327195265707
 20
354.1770316735468
 30
0.0
 10
172.134106532957
 20
353.3640038294355
 30
0.0
 10
172.2233036454873
 20
353.1833309751885
 30
0.0
 10
172.2683169996303
 20
353.0930169249236
 30
0.0
 10
172.3921332304528
 20
352.8214692886645
 30
0.0
 10
172.4632669787309
 20
352.6398219806977
 30
0.0
 10
172.6423691382604
 20
352.0930297441561
 30
0.0
 10
172.7161955852703
 20
351.7260429790559
 30
0.0
 10
172.7433429711398
 20
351.3565380460157
 30
0.0
  0
SPLINE
  5
51C
330
4DA
100
AcDbEntity
  8
0
  6
Continuous
 62
     7
370
    25
100
AcDbSpline
210
0.0
220
0.0
230
1.0
 70
     8
 71
     3
 72
    26
 73
    22
 74
     0
 42
0.000000001
 43
0.00000001
 40
0.0
 40
0.0
 40
0.0
 40
0.0
 40
0.1249999999999996
 40
0.1249999999999996
 40
0.2499999999999992
 40
0.2499999999999992
 40
0.3124999999999991
 40
0.3124999999999991
 40
0.3749999999999991
 40
0.3749999999999991
 40
0.4999999999999993
 40
0.4999999999999993
 40
0.6249999999999996
 40
0.6249999999999996
 40
0.6874999999999994
 40
0.6874999999999994
 40
0.7499999999999992
 40
0.7499999999999992
 40
0.8749999999999996
 40
0.8749999999999996
 40
1.0
 40
1.0
 40
1.0
 40
1.0
 10
116.9772168279872
 20
429.6618920056818
 30
0.0
 10
118.4014829404617
 20
429.4824513419129
 30
0.0
 10
119.7725550272054
 20
429.2739225617063
 30
0.0
 10
122.4133427343934
 20
428.8014401927197
 30
0.0
 10
123.6830213629198
 20
428.5374663756301
 30
0.0
 10
125.5116577032048
 20
428.1000112742872
 30
0.0
 10
126.1085109687966
 20
427.9472524352186
 30
0.0
 10
127.2762504914592
 20
427.6275352044626
 30
0.0
 10
127.8492793717377
 20
427.4598807657453
 30
0.0
 10
129.5094392513005
 20
426.9407527260901
 30
0.0
 10
130.5370967309481
 20
426.5738103112251
 30
0.0
 10
132.4397825727052
 20
425.7996883229999
 30
0.0
 10
133.3151071692547
 20
425.3925868450402
 30
0.0
 10
134.5117842013629
 20
424.7512722063019
 30
0.0
 10
134.892157988901
 20
424.5317655547197
 30
0.0
 10
135.6082233977507
 20
424.0849024033833
 30
0.0
 10
135.9421666273266
 20
423.8587030655807
 30
0.0
 10
136.8736855025982
 20
423.1720266856502
 30
0.0
 10
137.4015992983461
 20
422.7035458397152
 30
0.0
 10
138.2727938407639
 20
421.7453707189404
 30
0.0
 10
138.6163749109205
 20
421.2557109497915
 30
0.0
 10
138.8635835591527
 20
420.7549784635371
 30
0.0
  0
SPLINE
  5
51E
330
4DA
100
AcDbEntity
  8
0
  6
Continuous
 62
     7
370
    25
100
AcDbSpline
210
0.0
220
0.0
230
1.0
 70
     8
 71
     3
 72
    26
 73
    22
 74
     0
 42
0.000000001
 43
0.00000001
 40
0.0
 40
0.0
 40
0.0
 40
0.0
 40
0.1250000000000003
 40
0.1250000000000003
 40
0.2500000000000006
 40
0.2500000000000006
 40
0.3125000000000003
 40
0.3125000000000003
 40
0.3750000000000001
 40
0.3750000000000001
 40
0.5000000000000004
 40
0.5000000000000004
 40
0.6250000000000008
 40
0.6250000000000008
 40
0.687500000000001
 40
0.687500000000001
 40
0.7500000000000011
 40
0.7500000000000011
 40
0.8750000000000006
 40
0.8750000000000006
 40
1.0
 40
1.0
 40
1.0
 40
1.0
 10
-71.82342024520636
 20
447.2990459027349
 30
0.0
 10
-70.64440671616626
 20
447.6200900176158
 30
0.0
 10
-69.41647570116757
 20
447.9112065393904
 30
0.0
 10
-66.86784107782758
 20
448.4366815470245
 30
0.0
 10
-65.54697901955247
 20
448.6709430936189
 30
0.0
 10
-63.49576643602191
 20
448.979558844171
 30
0.0
 10
-62.80029574637605
 20
449.0752524425659
 30
0.0
 10
-61.38531843631678
 20
449.2519345182356
 30
0.0
 10
-60.66296647742183
 20
449.333208209888
 30
0.0
 10
-58.48339434228048
 20
449.5520213353773
 30
0.0
 10
-57.01591090134557
 20
449.6648323896232
 30
0.0
 10
-54.05303257705554
 20
449.8265229686929
 30
0.0
 10
-52.5575802568347
 20
449.8752709336139
 30
0.0
 10
-50.29290907738305
 20
449.8991635683182
 30
0.0
 10
-49.53241528341035
 20
449.8988851556371
 30
0.0
 10
-48.01333531904891
 20
449.8815813625901
 30
0.0
 10
-47.25863644158972
 20
449.8646501841064
 30
0.0
 10
-45.00868451966438
 20
449.7896662927723
 30
0.0
 10
-43.52750867524018
 20
449.707538680688
 30
0.0
 10
-40.60257735182201
 20
449.4792869569042
 30
0.0
 10
-39.15881042951
 20
449.3331824156255
 30
0.0
 10
-37.73453654964538
 20
449.1537407738371
 30
0.0
  0
SPLINE
  5
51F
330
4DA
100
AcDbEntity
  8
0
  6
Continuous
 62
     7
370
    25
100
AcDbSpline
210
0.0
220
0.0
230
1.0
 70
     8
 71
     3
 72
    19
 73
    15
 74
     0
 42
0.000000001
 43
0.00000001
 40
0.0
 40
0.0
 40
0.0
 40
0.0
 40
0.0156250000000008
 40
0.0156250000000008
 40
0.0234375000000011
 40
0.0234375000000011
 40
0.0273437500000011
 40
0.0273437500000011
 40
0.0312500000000012
 40
0.0625000000000011
 40
0.1250000000000009
 40
0.2500000000000008
 40
0.5000000000000006
 40
1.0
 40
1.0
 40
1.0
 40
1.0
 10
-234.9415008500011
 20
402.7200004030506
 30
0.0
 10
-234.1881822032755
 20
402.9910517306824
 30
0.0
 10
-233.4047914479163
 20
403.249959579916
 30
0.0
 10
-232.1856363321624
 20
403.6205257696263
 30
0.0
 10
-231.7718811871838
 20
403.7410716954459
 30
0.0
 10
-231.1402117323531
 20
403.9174338171608
 30
0.0
 10
-230.9272416629873
 20
403.9752465567078
 30
0.0
 10
-230.5018303757739
 20
404.0910855923922
 30
0.0
 10
-228.587479583314
 20
404.612361252973
 30
0.0
 10
-223.2698384931475
 20
406.0603491990299
 30
0.0
 10
-211.3583224511747
 20
409.3038421981977
 30
0.0
 10
-187.5352903672288
 20
415.7908281965331
 30
0.0
 10
-139.8892261953736
 20
428.7648001915873
 30
0.0
 10
-99.049742634786
 20
439.8853476221574
 30
0.0
 10
-71.82342024520635
 20
447.2990459027349
 30
0.0
  0
LWPOLYLINE
  5
520
330
4DA
100
AcDbEntity
  8
0
  6
Continuous
 62
     7
370
    25
100
AcDbPolyline
 90
       47
 70
   128
 43
0.0
 10
197.3659604323
 20
408.8198675628
 10
199.7855052565
 20
408.4503121418
 10
202.0315509396
 20
407.9743783429
 10
204.0622579001
 20
407.4009319124
 10
205.8397979098
 20
406.7406550722
 10
207.3310587614
 20
406.0058475305
 10
208.5082610869
 20
405.2101973616
 10
209.3494758342
 20
404.3685260227
 10
209.8390327643
 20
403.4965122582
 10
209.9678123578
 20
402.6104000348
 10
209.7334156946
 20
401.7266959466
 10
209.1402091411
 20
400.8618617286
 10
208.1992430128
 20
400.0320076061
 10
206.9280457285
 20
399.2525921912
 10
205.3502972883
 20
398.5381345183
 10
203.4953881604
 20
397.9019435822
 10
201.3978717923
 20
397.3558704162
 10
199.0968209453
 20
396.9100873302
 10
196.6350998428
 20
396.5728984196
 10
194.0585656913
 20
396.3505848759
 10
191.4152144471
 20
396.2472879798
 10
188.7542867423
 20
396.2649319569
 10
186.1253506255
 20
396.4031881334
 10
183.5773782024
 20
396.6594810582
 10
181.1578333782
 20
397.0290364792
 10
178.9117876951
 20
397.5049702781
 10
176.8810807346
 20
398.0784167086
 10
175.1035407249
 20
398.7386935488
 10
173.6122798733
 20
399.4735010905
 10
172.4350775478
 20
400.2691512594
 10
171.5938628005
 20
401.1108225984
 10
171.1043058704
 20
401.9828363628
 10
170.9755262769
 20
402.8689485862
 10
171.2099229401
 20
403.7526526744
 10
171.8031294936
 20
404.6174868924
 10
172.7440956219
 20
405.4473410149
 10
174.0152929062
 20
406.2267564298
 10
175.5930413464
 20
406.9412141027
 10
177.4479504743
 20
407.5774050388
 10
179.5454668424
 20
408.1234782048
 10
181.8465176894
 20
408.5692612908
 10
184.3082387919
 20
408.9064502014
 10
186.8847729434
 20
409.1287637451
 10
189.5281241876
 20
409.2320606412
 10
192.1890518924
 20
409.2144166641
 10
194.8179880092
 20
409.0761604876
 10
197.3659604323
 20
408.8198675628
  0
SPLINE
  5
527
330
4DA
100
AcDbEntity
  8
0
  6
Continuous
 62
     7
370
    25
100
AcDbSpline
210
0.0
220
0.0
230
1.0
 70
     8
 71
     3
 72
    10
 73
     6
 74
     0
 42
0.000000001
 43
0.00000001
 40
0.0
 40
0.0
 40
0.0
 40
0.0
 40
0.5
 40
0.5
 40
1.0
 40
1.0
 40
1.0
 40
1.0
 10
-227.8292782435295
 20
398.38832188488
 30
0.0
 10
-228.4496861124354
 20
398.3365908477108
 30
0.0
 10
-229.0567350887359
 20
398.2786561829947
 30
0.0
 10
-230.2378339413397
 20
398.1465956276143
 30
0.0
 10
-230.8129469393378
 20
398.0719434453667
 30
0.0
 10
-231.372304079297
 20
397.9900445116264
 30
0.0
  0
SPLINE
  5
529
330
4DA
100
AcDbEntity
  8
0
  6
Continuous
 62
     7
370
    25
100
AcDbSpline
210
0.0
220
0.0
230
1.0
 70
     8
 71
     3
 72
    32
 73
    28
 74
     0
 42
0.000000001
 43
0.00000001
 40
0.0
 40
0.0
 40
0.0
 40
0.0
 40
0.007812500000001
 40
0.007812500000001
 40
0.0156250000000019
 40
0.0312500000000025
 40
0.0625000000000024
 40
0.0625000000000024
 40
0.1250000000000022
 40
0.1250000000000022
 40
0.2500000000000017
 40
0.2500000000000017
 40
0.3125000000000008
 40
0.3125000000000008
 40
0.3749999999999999
 40
0.3749999999999999
 40
0.5
 40
0.5
 40
0.625
 40
0.625
 40
0.6875
 40
0.6875
 40
0.7499999999999999
 40
0.7499999999999999
 40
0.875
 40
0.875
 40
1.0
 40
1.0
 40
1.0
 40
1.0
 10
-39.49504363269369
 20
443.3138638420847
 30
0.0
 10
-39.57015402251918
 20
443.3233268549681
 30
0.0
 10
-39.64749706484839
 20
443.3329526361722
 30
0.0
 10
-39.80014718583054
 20
443.3517113528853
 30
0.0
 10
-40.02931797762403
 20
443.3795195757946
 30
0.0
 10
-40.56541363581783
 20
443.4421030932102
 30
0.0
 10
-41.02724463155564
 20
443.4918203050065
 30
0.0
 10
-41.95396405352754
 20
443.5860628345991
 30
0.0
 10
-42.57585070593706
 20
443.6419722002858
 30
0.0
 10
-44.45355839074877
 20
443.7891317692671
 30
0.0
 10
-45.72138372343428
 20
443.8598832060415
 30
0.0
 10
-47.64723355037407
 20
443.9247067826593
 30
0.0
 10
-48.29321697073443
 20
443.9394020428256
 30
0.0
 10
-49.5934695050681
 20
443.9545573002856
 30
0.0
 10
-50.24440787543607
 20
443.9549350516038
 30
0.0
 10
-52.18283348649535
 20
443.934763819715
 30
0.0
 10
-53.46284185592401
 20
443.8930109740646
 30
0.0
 10
-55.99886544953041
 20
443.7543565362716
 30
0.0
 10
-57.254937820438
 20
443.6575899507568
 30
0.0
 10
-59.1205187868374
 20
443.4698809304089
 30
0.0
 10
-59.73882641430789
 20
443.4001543334757
 30
0.0
 10
-60.94998224467481
 20
443.2485632620472
 30
0.0
 10
-61.54526290102337
 20
443.1664482588189
 30
0.0
 10
-63.30096337069077
 20
442.9016939598457
 30
0.0
 10
-64.43154008284135
 20
442.7008133855911
 30
0.0
 10
-66.6130042246961
 20
442.2504813779537
 30
0.0
 10
-67.66404822821
 20
442.0011416495289
 30
0.0
 10
-68.67320354018064
 20
441.7263497443327
 30
0.0
  0
SPLINE
  5
52B
330
4DA
100
AcDbEntity
  8
0
  6
Continuous
 62
     7
370
    25
100
AcDbSpline
210
0.0
220
0.0
230
1.0
 70
     8
 71
     3
 72
    30
 73
    26
 74
     0
 42
0.000000001
 43
0.00000001
 40
0.0
 40
0.0
 40
0.0
 40
0.0
 40
0.0078125000000003
 40
0.0078125000000003
 40
0.0156250000000007
 40
0.0312500000000002
 40
0.0625000000000005
 40
0.0625000000000005
 40
0.1249999999999998
 40
0.1249999999999998
 40
0.2499999999999984
 40
0.2499999999999984
 40
0.3124999999999982
 40
0.3124999999999982
 40
0.3749999999999981
 40
0.3749999999999981
 40
0.4999999999999987
 40
0.4999999999999987
 40
0.6249999999999993
 40
0.6249999999999993
 40
0.6874999999999997
 40
0.6874999999999997
 40
0.75
 40
0.75
 40
1.0
 40
1.0
 40
1.0
 40
1.0
 10
133.9502040169405
 20
416.1981999349821
 30
0.0
 10
133.9371673417378
 20
416.2246063120743
 30
0.0
 10
133.9234302185779
 20
416.2517372687596
 30
0.0
 10
133.8956857955646
 20
416.3051653894594
 30
0.0
 10
133.8531003693451
 20
416.3851982512195
 30
0.0
 10
133.7469872019057
 20
416.5711799721796
 30
0.0
 10
133.6445770333656
 20
416.7292988086787
 30
0.0
 10
133.4247015869424
 20
417.0438332704232
 30
0.0
 10
133.2580718253839
 20
417.2512552413179
 30
0.0
 10
132.6988071540654
 20
417.8667790288238
 30
0.0
 10
132.2469392989863
 20
418.2681400167207
 30
0.0
 10
131.4496332938934
 20
418.8564913278915
 30
0.0
 10
131.1637956303519
 20
419.0503127728641
 30
0.0
 10
130.5508415224974
 20
419.4331725581035
 30
0.0
 10
130.225241979203
 20
419.6212167344714
 30
0.0
 10
129.2008977809778
 20
420.1705669207042
 30
0.0
 10
128.45166717397
 20
420.5192279259095
 30
0.0
 10
126.8231600117219
 20
421.1820723919028
 30
0.0
 10
125.9435861868068
 20
421.496172845369
 30
0.0
 10
124.5225772706214
 20
421.9402327689075
 30
0.0
 10
124.0320880451368
 20
422.0835954190281
 30
0.0
 10
123.0325556636598
 20
422.3569132772101
 30
0.0
 10
122.5216780932908
 20
422.4874645720875
 30
0.0
 10
119.9129980454276
 20
423.1104629408123
 30
0.0
 10
117.654911790124
 20
423.5148304898465
 30
0.0
 10
115.2167097265958
 20
423.8220150762404
 30
0.0
  0
SPLINE
  5
52D
330
4DA
100
AcDbEntity
  8
0
  6
Continuous
 62
     7
370
    25
100
AcDbSpline
210
0.0
220
0.0
230
1.0
 70
     8
 71
     3
 72
    10
 73
     6
 74
     0
 42
0.000000001
 43
0.00000001
 40
0.0
 40
0.0
 40
0.0
 40
0.0
 40
0.5
 40
0.5
 40
1.0
 40
1.0
 40
1.0
 40
1.0
 10
167.879361491204
 20
347.6890627450686
 30
0.0
 10
167.8332318698635
 20
347.847245840265
 30
0.0
 10
167.7634511989541
 20
348.0031469876982
 30
0.0
 10
167.5771100202342
 20
348.3074887933021
 30
0.0
 10
167.4603778155229
 20
348.4566113033111
 30
0.0
 10
167.32102703638
 20
348.6040629449259
 30
0.0
  0
SPLINE
  5
545
330
4DA
100
AcDbEntity
  8
0
  6
Continuous
 62
     8
370
    25
100
AcDbSpline
210
0.0
220
0.0
230
1.0
 70
     8
 71
     3
 72
     9
 73
     5
 74
     0
 42
0.000000001
 43
0.00000001
 40
0.0
 40
0.0
 40
0.0
 40
0.0
 40
0.1702287037127801
 40
1.0
 40
1.0
 40
1.0
 40
1.0
 10
167.7196601345625
 20
346.4658650723489
 30
0.0
 10
167.7685253988575
 20
346.5398199757162
 30
0.0
 10
168.0555819482482
 20
346.9742643540978
 30
0.0
 10
167.9592745805451
 20
347.3649133889916
 30
0.0
 10
167.8793614912041
 20
347.6890627450686
 30
0.0
  0
SPLINE
  5
547
330
4DA
100
AcDbEntity
  8
0
  6
Continuous
 62
     8
370
    25
100
AcDbSpline
210
0.0
220
0.0
230
1.0
 70
     8
 71
     3
 72
    14
 73
    10
 74
     0
 42
0.000000001
 43
0.00000001
 40
0.0
 40
0.0
 40
0.0
 40
0.0
 40
0.1508963799573429
 40
0.3055211779728406
 40
0.4556908349051236
 40
0.6111105538757006
 40
0.7524852717338701
 40
0.898964082728494
 40
1.0
 40
1.0
 40
1.0
 40
1.0
 10
-231.3723040792969
 20
397.9900445116278
 30
0.0
 10
-232.6368583802903
 20
397.7705638406192
 30
0.0
 10
-235.197212179098
 20
397.3261794679271
 30
0.0
 10
-238.1564887936355
 20
396.2825232430719
 30
0.0
 10
-240.3003411825397
 20
394.9569733058825
 30
0.0
 10
-241.3812247106555
 20
393.4391777802473
 30
0.0
 10
-241.3718598022783
 20
391.8084204606612
 30
0.0
 10
-240.5507689567271
 20
390.3311374541481
 30
0.0
 10
-239.3290859395719
 20
389.4301431965855
 30
0.0
 10
-238.8303929320165
 20
389.0623558656783
 30
0.0
  0
LWPOLYLINE
  5
549
330
4DA
100
AcDbEntity
  8
0
  6
Continuous
 62
     8
370
    25
100
AcDbPolyline
 90
        8
 70
   128
 43
0.0
 10
142.4015539943
 20
284.7237228509
 10
142.4362989651
 20
284.0983620004
 10
142.5135571244
 20
283.5368309983
 10
142.6309441399
 20
283.0564597506
 10
142.7848372267
 20
282.6720734204
 10
142.9704869539
 20
282.3955348948
 10
143.1821638207
 20
282.2353786744
 10
143.3143837766
 20
282.1979075058
  0
LWPOLYLINE
  5
54B
330
4DA
100
AcDbEntity
  8
0
  6
Continuous
 62
     8
370
    25
100
AcDbPolyline
 90
        8
 70
   128
 43
0.0
 10
-241.1183281626
 20
333.0426862094
 10
-241.0835831918
 20
332.4173253589
 10
-241.0063250325
 20
331.8557943568
 10
-240.888938017
 20
331.3754231091
 10
-240.7350449302
 20
330.9910367789
 10
-240.549395203
 20
330.7144982533
 10
-240.3377183362
 20
330.5543420329
 10
-240.2060527308
 20
330.516940352
  0
LWPOLYLINE
  5
54C
330
4DA
100
AcDbEntity
  8
0
  6
Continuous
 62
     8
370
    25
100
AcDbPolyline
 90
       14
 70
   128
 43
0.0
 10
-242.0438058351
 20
379.3176008887
 10
-245.8364645066
 20
379.8634171503
 10
-249.4618596517
 20
380.5235525204
 10
-252.8890606773
 20
381.2923749569
 10
-256.0888279127
 20
382.1633251378
 10
-259.0338620721
 20
383.1289724232
 10
-261.6990371623
 20
384.181078251
 10
-264.0616148492
 20
385.3106664252
 10
-266.1014384531
 20
386.5080996978
 10
-267.8011049181
 20
387.7631619903
 10
-269.1461132892
 20
389.0651455538
 10
-270.1249884293
 20
390.4029423236
 10
-270.7293789208
 20
391.7651386892
 10
-270.9473886275
 20
392.9764134491
  0
LWPOLYLINE
  5
54E
330
4DA
100
AcDbEntity
  8
0
  6
Continuous
 62
     8
370
    25
100
AcDbPolyline
 90
       14
 70
   128
 43
0.0
 10
-268.3307688679
 20
345.9116620556
 10
-268.1249757216
 20
344.7616874423
 10
-267.5559593403
 20
343.4792184798
 10
-266.6343763608
 20
342.2197210398
 10
-265.3680894041
 20
340.9939407104
 10
-263.7679019841
 20
339.8123354171
 10
-261.8474663356
 20
338.6849861997
 10
-259.6231669384
 20
337.6215112042
 10
-257.1139807308
 20
336.6309836243
 10
-254.3413152047
 20
335.7218542921
 10
-251.3288257648
 20
334.9018795785
 10
-248.1022139089
 20
334.1780552186
 10
-244.6890079515
 20
333.5565566266
 10
-241.1183281626
 20
333.0426862094
  0
LWPOLYLINE
  5
54F
330
4DA
100
AcDbEntity
  8
0
  6
Continuous
 62
     8
370
    25
100
AcDbPolyline
 90
       15
 70
   128
 43
0.0
 10
196.6588536513
 20
406.3106399152
 10
194.2662185602
 20
406.5486091402
 10
191.7963373891
 20
406.6706536897
 10
189.2994897961
 20
406.6742890885
 10
186.8265043978
 20
406.5594413304
 10
184.4277240455
 20
406.3284483845
 10
182.1519809897
 20
405.9860126012
 10
180.0456027962
 20
405.5391049855
 10
178.1514692508
 20
404.9968232876
 10
176.5081394502
 20
404.3702067991
 10
175.1490668502
 20
403.6720116247
 10
174.1019182497
 20
402.9164510048
 10
173.3880105745
 20
402.1189059746
 10
173.021876926
 20
401.2956122511
 10
172.9719638139
 20
400.8202146155
  0
LWPOLYLINE
  5
550
330
4DA
100
AcDbEntity
  8
0
  6
Continuous
 62
     8
370
    25
100
AcDbPolyline
 90
       10
 70
   128
 43
0.0
 10
207.9716432937
 20
400.8641161974
 10
207.932367905
 20
401.2447827343
 10
207.5878246307
 20
402.0691112002
 10
206.894845793
 20
402.8687046507
 10
205.8675384429
 20
403.6272856692
 10
204.5268155954
 20
404.3294117335
 10
202.8999705013
 20
404.9607895818
 10
201.0201210354
 20
405.5085661819
 10
198.9255355118
 20
405.9615903818
 10
196.6588536513
 20
406.3106399152
  0
LINE
  5
551
330
4DA
100
AcDbEntity
  8
0
  6
Continuous
 62
     7
370
    25
100
AcDbLine
 10
-263.2999077884
 20
337.9282841346
 30
0.0
 11
-263.2999077884
 21
-401.5215699721
 31
0.0
  0
LINE
  5
552
330
4DA
100
AcDbEntity
  8
0
  6
Continuous
 62
     7
370
    25
100
AcDbLine
 10
-240.2060527308
 20
330.516940352
 30
0.0
 11
143.3138294261
 21
282.1979769935
 31
0.0
  0
LINE
  5
553
330
4DA
100
AcDbEntity
  8
0
  6
Continuous
 62
     7
370
    25
100
AcDbLine
 10
195.5848258076
 20
290.5585815968
 30
0.0
 11
278.6698725779
 21
363.8327054061
 31
0.0
  0
LINE
  5
554
330
4DA
100
AcDbEntity
  8
0
  6
Continuous
 62
     7
370
    25
100
AcDbLine
 10
-270.9479656346
 20
392.9866039135
 30
0.0
 11
-268.3307688679
 21
345.9116620556
 31
0.0
  0
LINE
  5
555
330
4DA
100
AcDbEntity
  8
0
  6
Continuous
 62
     7
370
    25
100
AcDbLine
 10
-183.6185793871
 20
475.2160278329
 30
0.0
 11
-266.7036261574
 21
401.9419040236
 31
0.0
  0
LINE
  5
556
330
4DA
100
AcDbEntity
  8
0
  6
Continuous
 62
     7
370
    25
100
AcDbLine
 10
-238.3362162153
 20
281.911966634
 30
0.0
 11
-238.3362162153
 21
-364.8550359106
 31
0.0
  0
LINE
  5
557
330
4DA
100
AcDbEntity
  8
0
  6
Continuous
 62
     7
370
    25
100
AcDbLine
 10
-238.3362162153
 20
281.911966634
 30
0.0
 11
-48.4883453706
 21
257.9933831607
 31
0.0
  0
LINE
  5
558
330
4DA
100
AcDbEntity
  8
0
  6
Continuous
 62
     7
370
    25
100
AcDbLine
 10
-48.4883453706
 20
-388.7736193839
 30
0.0
 11
-48.4883453706
 21
257.9933831607
 31
0.0
  0
LINE
  5
559
330
4DA
100
AcDbEntity
  8
0
  6
Continuous
 62
     7
370
    25
100
AcDbLine
 10
-238.3362162153
 20
-364.8550359106
 30
0.0
 11
-48.4883453706
 21
-388.7736193839
 31
0.0
  0
LINE
  5
55A
330
4DA
100
AcDbEntity
  8
0
  6
Continuous
 62
     7
370
    25
100
AcDbLine
 10
-48.4883453706
 20
-388.7736193839
 30
0.0
 11
-46.6175166772
 21
-387.123703561
 31
0.0
  0
LINE
  5
55B
330
4DA
100
AcDbEntity
  8
0
  6
Continuous
 62
     7
370
    25
100
AcDbLine
 10
-48.4883453706
 20
257.9933831607
 30
0.0
 11
-46.6175166771
 21
259.6432989836
 31
0.0
  0
LINE
  5
55C
330
4DA
100
AcDbEntity
  8
0
  6
Continuous
 62
     7
370
    25
100
AcDbLine
 10
-259.2898353215
 20
287.987214206
 30
0.0
 11
-256.4439317012
 21
288.6925848241
 31
0.0
  0
LINE
  5
55D
330
4DA
100
AcDbEntity
  8
0
  6
Continuous
 62
     7
370
    25
100
AcDbLine
 10
-259.2898353215
 20
287.987214206
 30
0.0
 11
-259.2898353215
 21
-358.7797883385
 31
0.0
  0
LINE
  5
55E
330
4DA
100
AcDbEntity
  8
0
  6
Continuous
 62
     7
370
    25
100
AcDbLine
 10
171.2699985186
 20
282.213174639
 30
0.0
 11
171.2699985186
 21
-461.7573228164
 31
0.0
  0
LINE
  5
55F
330
4DA
100
AcDbEntity
  8
0
  6
Continuous
 62
     7
370
    25
100
AcDbLine
 10
-237.4420434089
 20
283.6849295327
 30
0.0
 11
142.3361813611
 21
235.8373706948
 31
0.0
  0
LINE
  5
560
330
4DA
100
AcDbEntity
  8
0
  6
Continuous
 62
     7
370
    25
100
AcDbLine
 10
-258.9757293444
 20
335.4065545976
 30
0.0
 11
-258.9757293444
 21
288.065066852
 31
0.0
  0
LINE
  5
561
330
4DA
100
AcDbEntity
  8
0
  6
Continuous
 62
     7
370
    25
100
AcDbLine
 10
-258.9757293444
 20
-358.9676496078
 30
0.0
 11
-258.9757293444
 21
-407.5514562447
 31
0.0
  0
LINE
  5
562
330
4DA
100
AcDbEntity
  8
0
  6
Continuous
 62
     7
370
    25
100
AcDbLine
 10
275.9192774494
 20
-381.7444645529
 30
0.0
 11
275.9192774494
 21
361.4069085169
 31
0.0
  0
LINE
  5
563
330
4DA
100
AcDbEntity
  8
0
  6
Continuous
 62
     7
370
    25
100
AcDbLine
 10
193.8948908506
 20
-454.0831740157
 30
0.0
 11
275.9192774494
 21
-381.7444645529
 31
0.0
  0
LINE
  5
564
330
4DA
100
AcDbEntity
  8
0
  6
Continuous
 62
     7
370
    25
100
AcDbLine
 10
-237.4420434089
 20
-366.8533091783
 30
0.0
 11
142.3361813611
 21
-414.7008680162
 31
0.0
  0
LINE
  5
565
330
4DA
100
AcDbEntity
  8
0
  6
Continuous
 62
     7
370
    25
100
AcDbLine
 10
-257.0703179869
 20
-359.9778211413
 30
0.0
 11
-258.9757293444
 21
-360.4110041642
 31
0.0
  0
LINE
  5
566
330
4DA
100
AcDbEntity
  8
0
  6
Continuous
 62
     7
370
    25
100
AcDbLine
 10
170.1068859233
 20
-413.09531278
 30
0.0
 11
171.2699985186
 21
-414.6168707359
 31
0.0
  0
LINE
  5
567
330
4DA
100
AcDbEntity
  8
0
  6
Continuous
 62
     7
370
    25
100
AcDbLine
 10
142.3361813611
 20
-461.8413200967
 30
0.0
 11
142.3361813611
 21
-414.7008680162
 31
0.0
  0
LINE
  5
568
330
4DA
100
AcDbEntity
  8
0
  6
Continuous
 62
     7
370
    25
100
AcDbLine
 10
-237.4420434089
 20
-413.9937612588
 30
0.0
 11
142.3361813611
 21
-461.8413200967
 31
0.0
  0
LINE
  5
569
330
4DA
100
AcDbEntity
  8
0
  6
Continuous
 62
     7
370
    25
100
AcDbLine
 10
-237.4420434089
 20
-366.8533091783
 30
0.0
 11
-237.4420434089
 21
-413.9937612588
 31
0.0
  0
LINE
  5
56A
330
4DA
100
AcDbEntity
  8
0
  6
Continuous
 62
     7
370
    25
100
AcDbLine
 10
196.675604072
 20
292.8904518688
 30
0.0
 11
199.1241878381
 21
339.6730685791
 31
0.0
  0
LINE
  5
56B
330
4DA
100
AcDbEntity
  8
0
  6
Continuous
 62
     7
370
    25
100
AcDbLine
 10
142.4015539943
 20
284.7237228509
 30
0.0
 11
141.4760763218
 21
330.9986375302
 31
0.0
  0
LINE
  5
56C
330
4DA
100
AcDbEntity
  8
0
  6
Continuous
 62
     7
370
    25
100
AcDbLine
 10
194.4535258687
 20
345.2222759472
 30
0.0
 11
277.5385726391
 21
418.4963997565
 31
0.0
  0
LINE
  5
56D
330
4DA
100
AcDbEntity
  8
0
  6
Continuous
 62
     7
370
    25
100
AcDbLine
 10
-240.2784615457
 20
385.8352474832
 30
0.0
 11
143.2414206112
 21
337.5162841247
 31
0.0
  0
LINE
  5
56E
330
4DA
100
AcDbEntity
  8
0
  6
Continuous
 62
     7
370
    25
100
AcDbLine
 10
-180.3113902482
 20
476.180073041
 30
0.0
 11
-263.3964370186
 21
402.9059492317
 31
0.0
  0
LINE
  5
56F
330
4DA
100
AcDbEntity
  8
0
  6
Continuous
 62
     7
370
    25
100
AcDbLine
 10
277.5385726391
 20
418.4963997565
 30
0.0
 11
-180.3113902482
 21
476.180073041
 31
0.0
  0
LINE
  5
570
330
4DA
100
AcDbEntity
  8
0
  6
Continuous
 62
     7
370
    25
100
AcDbLine
 10
-37.7345365496
 20
449.1537407738
 30
0.0
 11
116.977216828
 21
429.6618920057
 31
0.0
  0
LINE
  5
571
330
4DA
100
AcDbEntity
  8
0
  6
Continuous
 62
     7
370
    25
100
AcDbLine
 10
141.4760763218
 20
330.9986375302
 30
0.0
 11
-242.0438058351
 21
379.3176008887
 31
0.0
  0
LINE
  5
572
330
4DA
100
AcDbEntity
  8
0
  6
Continuous
 62
     7
370
    25
100
AcDbLine
 10
-241.1183281626
 20
333.0426862094
 30
0.0
 11
142.4015539943
 21
284.7237228509
 31
0.0
  0
LINE
  5
573
330
4DA
100
AcDbEntity
  8
0
  6
Continuous
 62
     7
370
    25
100
AcDbLine
 10
-241.1183281626
 20
333.0426862094
 30
0.0
 11
-242.0438058351
 21
379.3176008887
 31
0.0
  0
LINE
  5
574
330
4DA
100
AcDbEntity
  8
0
  6
Continuous
 62
     7
370
    25
100
AcDbLine
 10
-238.830392932
 20
389.0623558657
 30
0.0
 11
-238.7511278351
 21
388.9985859273
 31
0.0
  0
LINE
  5
575
330
4DA
100
AcDbEntity
  8
0
  6
Continuous
 62
     7
370
    25
100
AcDbLine
 10
-68.6732035402
 20
441.7263497443
 30
0.0
 11
-227.8292782435
 21
398.3883218849
 31
0.0
  0
LINE
  5
576
330
4DA
100
AcDbEntity
  8
0
  6
Continuous
 62
     7
370
    25
100
AcDbLine
 10
115.2167097266
 20
423.8220150762
 30
0.0
 11
-39.4950436461
 21
443.3138638438
 31
0.0
  0
LINE
  5
577
330
4DA
100
AcDbEntity
  8
0
  6
Continuous
 62
     7
370
    25
100
AcDbLine
 10
167.3210270364
 20
348.6040629449
 30
0.0
 11
133.9502040144
 21
416.1981999401
 31
0.0
  0
LINE
  5
578
330
4DA
100
AcDbEntity
  8
0
  6
Continuous
 62
     7
370
    25
100
AcDbLine
 10
282.2092346084
 20
412.9471923884
 30
0.0
 11
199.1241878381
 21
339.6730685791
 31
0.0
  0
LINE
  5
579
330
4DA
100
AcDbEntity
  8
0
  6
Continuous
 62
     7
370
    25
100
AcDbLine
 10
279.7606508423
 20
366.1645756781
 30
0.0
 11
282.2092346084
 21
412.9471923884
 31
0.0
  0
LINE
  5
57A
330
4DA
100
AcDbEntity
  8
0
  6
Continuous
 62
     7
370
    25
100
AcDbLine
 10
196.675604072
 20
292.8904518688
 30
0.0
 11
279.7606508423
 21
366.1645756781
 31
0.0
  0
LINE
  5
57B
330
4DA
100
AcDbEntity
  8
0
  6
Continuous
 62
     7
370
    25
100
AcDbLine
 10
143.2303541676
 20
-412.9279051174
 30
0.0
 11
143.2303541676
 21
233.8390974271
 31
0.0
  0
LINE
  5
57C
330
4DA
100
AcDbEntity
  8
0
  6
Continuous
 62
     7
370
    25
100
AcDbLine
 10
171.0007641716
 20
-412.9913082042
 30
0.0
 11
171.0007641717
 21
233.7756943404
 31
0.0
  0
LINE
  5
57D
330
4DA
100
AcDbEntity
  8
0
  6
Continuous
 62
     7
370
    25
100
AcDbLine
 10
171.0007641717
 20
233.7756943404
 30
0.0
 11
169.7576012833
 21
235.7324195408
 31
0.0
  0
LINE
  5
57E
330
4DA
100
AcDbEntity
  8
0
  6
Continuous
 62
     7
370
    25
100
AcDbLine
 10
143.2303541676
 20
233.8390974271
 30
0.0
 11
-46.6175166772
 21
257.7576809004
 31
0.0
  0
LINE
  5
57F
330
4DA
100
AcDbEntity
  8
0
  6
Continuous
 62
     7
370
    25
100
AcDbLine
 10
-46.6175166772
 20
257.7576809004
 30
0.0
 11
-44.7466879836
 21
259.4075967233
 31
0.0
  0
LINE
  5
580
330
4DA
100
AcDbEntity
  8
0
  6
Continuous
 62
     7
370
    25
100
AcDbLine
 10
143.2303541676
 20
-412.9279051174
 30
0.0
 11
-46.6175166772
 21
-389.0093216441
 31
0.0
  0
LINE
  5
581
330
4DA
100
AcDbEntity
  8
0
  6
Continuous
 62
     7
370
    25
100
AcDbLine
 10
-46.6175166772
 20
257.7576809004
 30
0.0
 11
-46.6175166772
 21
-389.0093216441
 31
0.0
  0
LINE
  5
582
330
4DA
100
AcDbEntity
  8
0
  6
Continuous
 62
     8
370
    25
100
AcDbLine
 10
142.3361813611
 20
235.8373706948
 30
0.0
 11
142.3361813611
 21
282.321149072
 31
0.0
  0
LINE
  5
583
330
4DA
100
AcDbEntity
  8
0
  6
Continuous
 62
     8
370
    25
100
AcDbLine
 10
-237.4420434089
 20
330.1687079099
 30
0.0
 11
-237.4420434089
 21
283.6849295327
 31
0.0
  0
LINE
  5
584
330
4DA
100
AcDbEntity
  8
0
  6
Continuous
 62
     8
370
    25
100
AcDbLine
 10
193.8948908506
 20
289.2786496636
 30
0.0
 11
193.8948908506
 21
-454.0831740157
 31
0.0
  0
ARC
  5
585
330
4DA
100
AcDbEntity
  8
0
  6
Continuous
 62
     7
370
    25
100
AcDbCircle
 10
156.4696204902
 20
350.7467084444
 30
0.0
 40
115.7752564396903
100
AcDbArc
 50
262.9880409958
 51
277.3446269068
  0
ARC
  5
586
330
4DA
100
AcDbEntity
  8
0
  6
Continuous
 62
     7
370
    25
100
AcDbCircle
 10
156.4696204902
 20
-299.7915302665
 30
0.0
 40
115.7752564396907
100
AcDbArc
 50
262.9880409958
 51
277.3446269068
  0
ARC
  5
587
330
4DA
100
AcDbEntity
  8
0
  6
Continuous
 62
     7
370
    25
100
AcDbCircle
 10
156.4696204902
 20
-346.9319823471
 30
0.0
 40
115.7752564396908
100
AcDbArc
 50
262.9880409958
 51
277.3446269068
  0
ARC
  5
588
330
4DA
100
AcDbEntity
  8
0
  6
Continuous
 62
     7
370
    25
100
AcDbCircle
 10
151.477790938
 20
331.7875126156
 30
0.0
 40
10.03277724084531
100
AcDbArc
 50
145.1796242243
 51
184.5098098987
  0
ARC
  5
589
330
4DA
100
AcDbEntity
  8
0
  6
Continuous
 62
     7
370
    25
100
AcDbCircle
 10
193.6798439561
 20
339.8308754238
 30
0.0
 40
5.44663045427321
100
AcDbArc
 50
358.3397199897
 51
81.8336386034
  0
ARC
  5
58A
330
4DA
100
AcDbEntity
  8
0
  6
Continuous
 62
     7
370
    25
100
AcDbCircle
 10
172.6952062662
 20
346.3612189463
 30
0.0
 40
4.995551025738166
100
AcDbArc
 50
89.4478941959
 51
164.5851923306
  0
ARC
  5
58B
330
4DA
100
AcDbEntity
  8
0
  6
Continuous
 62
     7
370
    25
100
AcDbCircle
 10
-232.0420912189
 20
380.1064759741
 30
0.0
 40
10.03277724084531
100
AcDbArc
 50
145.1796242243
 51
184.5098098987
  0
ARC
  5
58C
330
4DA
100
AcDbEntity
  8
0
  6
Continuous
 62
     7
370
    25
100
AcDbCircle
 10
276.7648907264
 20
413.1049992331
 30
0.0
 40
5.446630454273429
100
AcDbArc
 50
358.3397199897
 51
81.8336386034
  0
ARC
  5
58D
330
4DA
100
AcDbEntity
  8
0
  6
Continuous
 62
     7
370
    25
100
AcDbCircle
 10
139.0983320301
 20
415.5745263645
 30
0.0
 40
5.185768100737013
100
AcDbArc
 50
92.594542258
 51
173.0925234243
  0
ARC
  5
58E
330
4DA
100
AcDbEntity
  8
0
  6
Continuous
 62
     7
370
    25
100
AcDbCircle
 10
276.4772180398
 20
366.2794144164
 30
0.0
 40
3.285440443025818
100
AcDbArc
 50
311.8655775907
 51
357.9968848279
  0
ARC
  5
58F
330
4DA
100
AcDbEntity
  8
0
  6
Continuous
 62
     7
370
    25
100
AcDbCircle
 10
-237.2730748815
 20
397.2489830702
 30
0.0
 40
5.947122675759106
100
AcDbArc
 50
7.1581419469
 51
66.9178353012
  0
ARC
  5
590
330
4DA
100
AcDbEntity
  8
0
  6
Continuous
 62
     7
370
    25
100
AcDbCircle
 10
-75.1929475781
 20
441.7175204994
 30
0.0
 40
6.519750016309993
100
AcDbArc
 50
0.0775917213
 51
58.8809172334
  0
ARC
  5
591
330
4DA
100
AcDbEntity
  8
0
  6
Continuous
 62
     7
370
    25
100
AcDbCircle
 10
-180.9041974678
 20
472.0589841643
 30
0.0
 40
4.163507407109795
100
AcDbArc
 50
81.8143121084
 51
130.6884816552
  0
ARC
  5
592
330
4DA
100
AcDbEntity
  8
0
  6
Continuous
 62
     7
370
    25
100
AcDbCircle
 10
124.6831536146
 20
424.1535344278
 30
0.0
 40
9.47224709165787
100
AcDbArc
 50
144.4420577795
 51
182.0057056667
  0
ARC
  5
593
330
4DA
100
AcDbEntity
  8
0
  6
Continuous
 62
     7
370
    25
100
AcDbCircle
 10
-30.0285997372
 20
443.6453831962
 30
0.0
 40
9.47224711247885
100
AcDbArc
 50
144.4420578715
 51
182.0057056677
  0
ARC
  5
594
330
4DA
100
AcDbEntity
  8
0
  6
Continuous
 62
     7
370
    25
100
AcDbCircle
 10
157.3787785026
 20
349.0968742875
 30
0.0
 40
116.1229221040043
100
AcDbArc
 50
263.0016901449
 51
276.7366844081
  0
ARC
  5
595
330
4DA
100
AcDbEntity
  8
0
  6
Continuous
 62
     7
370
    25
100
AcDbCircle
 10
157.3787785026
 20
-297.670128257
 30
0.0
 40
116.1229221040045
100
AcDbArc
 50
263.0016901449
 51
276.7366844081
  0
ARC
  5
596
330
4DA
100
AcDbEntity
  8
0
  6
Continuous
 62
     8
370
    25
100
AcDbCircle
 10
128.2542018328
 20
339.3191270651
 30
0.0
 40
0.7362691454997605
100
AcDbArc
 50
86.7413760512
 51
138.820619544
  0
ARC
  5
597
330
4DA
100
AcDbEntity
  8
0
  6
Continuous
 62
     8
370
    25
100
AcDbCircle
 10
193.3922895162
 20
293.0052576546
 30
0.0
 40
3.285321116821767
100
AcDbArc
 50
311.8296320084
 51
357.9973870837
  0
ARC
  5
598
330
4DA
100
AcDbEntity
  8
0
  6
Continuous
 62
     8
370
    25
100
AcDbCircle
 10
-223.500054001
 20
383.5510827674
 30
0.0
 40
0.817696021161703
100
AcDbArc
 50
82.7107049878
 51
135.4807906145
  0
ARC
  5
599
330
4DA
100
AcDbEntity
  8
0
  6
Continuous
 62
     8
370
    25
100
AcDbCircle
 10
-263.9892532757
 20
398.7849887237
 30
0.0
 40
4.163381633160037
100
AcDbArc
 50
81.8139374729
 51
130.7141949652
  0
VIEWPORT
  5
5A8
330
4DA
100
AcDbEntity
  8
0
100
AcDbViewport
 10
0.0
 20
0.0
 30
0.0
 40
205.6
 41
156.0
 68
     1
 69
     1
 12
0.0
 22
4.5
 13
0.0
 23
0.0
 14
10.0
 24
10.0
 15
10.0
 25
10.0
 16
0.0
 26
0.0
 36
1.0
 17
0.0
 27
0.0
 37
0.0
 42
50.0
 43
0.0
 44
0.0
 45
865.98
 50
0.0
 51
0.0
 72
   100
 90
   557152
  1

281
     0
 71
     1
 74
     0
110
0.0
120
0.0
130
0.0
111
1.0
121
0.0
131
0.0
112
0.0
122
1.0
132
0.0
 79
     0
146
0.0
  0
ENDBLK
  5
4DD
330
4DA
100
AcDbEntity
  8
0
100
AcDbBlockEnd
  0
ENDSEC
  0
SECTION
  2
ENTITIES
  0
SPLINE
  5
C3
330
1F
100
AcDbEntity
  8
0
  6
Continuous
 62
     7
370
    25
100
AcDbSpline
210
0.0
220
0.0
230
1.0
 70
     8
 71
     3
 72
     9
 73
     5
 74
     0
 42
0.000000001
 43
0.00000001
 40
0.0
 40
0.0
 40
0.0
 40
0.0
 40
0.8296530150341918
 40
1.0
 40
1.0
 40
1.0
 40
1.0
 10
-200.5328221913428
 20
320.0
 30
0.0
 10
-200.3768339393262
 20
319.414980488783
 30
0.0
 10
-200.1888176853139
 20
318.7098429184786
 30
0.0
 10
-199.8277736978273
 20
318.1033194450154
 30
0.0
 10
-199.7662709431189
 20
318.0
 30
0.0
  0
LWPOLYLINE
  5
C5
330
1F
100
AcDbEntity
  8
0
  6
Continuous
 62
     7
370
    25
100
AcDbPolyline
 90
        3
 70
   128
 43
0.0
 10
1.0
 20
289.5042819505
 10
0.0
 20
289.5021645022
 10
-1.0
 20
289.5042819505
  0
LINE
  5
D4
330
1F
100
AcDbEntity
  8
0
  6
Continuous
 62
     7
370
    25
100
AcDbLine
 10
-204.599185584
 20
370.0247137535
 30
0.0
 11
-204.5978903871
 21
370.0
 31
0.0
  0
LINE
  5
D5
330
1F
100
AcDbEntity
  8
0
  6
Continuous
 62
     7
370
    25
100
AcDbLine
 10
204.5975206994
 20
370.0
 30
0.0
 11
204.5988158929
 21
370.0247137535
 31
0.0
  0
LINE
  5
D6
330
1F
100
AcDbEntity
  8
0
  6
Continuous
 62
     7
370
    25
100
AcDbLine
 10
-203.9559109389
 20
318.0
 30
0.0
 11
-203.9559109389
 21
-368.0
 31
0.0
  0
LINE
  5
D7
330
1F
100
AcDbEntity
  8
0
  6
Continuous
 62
     7
370
    25
100
AcDbLine
 10
-230.0
 20
318.0
 30
0.0
 11
-1.0
 21
318.0
 31
0.0
  0
LINE
  5
D8
330
1F
100
AcDbEntity
  8
0
  6
Continuous
 62
     7
370
    25
100
AcDbLine
 10
-230.0
 20
-368.0
 30
0.0
 11
-1.0
 21
-368.0
 31
0.0
  0
LINE
  5
D9
330
1F
100
AcDbEntity
  8
0
  6
Continuous
 62
     7
370
    25
100
AcDbLine
 10
-1.0
 20
-368.0
 30
0.0
 11
-1.0
 21
318.0
 31
0.0
  0
LINE
  5
DA
330
1F
100
AcDbEntity
  8
0
  6
Continuous
 62
     7
370
    25
100
AcDbLine
 10
-230.0
 20
318.0
 30
0.0
 11
-230.0
 21
-368.0
 31
0.0
  0
LINE
  5
DB
330
1F
100
AcDbEntity
  8
0
  6
Continuous
 62
     7
370
    25
100
AcDbLine
 10
203.0
 20
320.0
 30
0.0
 11
203.0
 21
370.0
 31
0.0
  0
LINE
  5
DC
330
1F
100
AcDbEntity
  8
0
  6
Continuous
 62
     7
370
    25
100
AcDbLine
 10
-203.0
 20
370.0
 30
0.0
 11
-203.0
 21
320.0
 31
0.0
  0
LINE
  5
DD
330
1F
100
AcDbEntity
  8
0
  6
Continuous
 62
     7
370
    25
100
AcDbLine
 10
-243.0
 20
370.0
 30
0.0
 11
243.0
 21
370.0
 31
0.0
  0
LINE
  5
DE
330
1F
100
AcDbEntity
  8
0
  6
Continuous
 62
     7
370
    25
100
AcDbLine
 10
-229.9760151048
 20
320.0
 30
0.0
 11
229.9760151048
 21
320.0
 31
0.0
  0
LINE
  5
DF
330
1F
100
AcDbEntity
  8
0
  6
Continuous
 62
     7
370
    25
100
AcDbLine
 10
229.9760151048
 20
370.0
 30
0.0
 11
229.9760151048
 21
318.0
 31
0.0
  0
LINE
  5
E0
330
1F
100
AcDbEntity
  8
0
  6
Continuous
 62
     7
370
    25
100
AcDbLine
 10
-229.9760151048
 20
370.0
 30
0.0
 11
-229.9760151048
 21
318.0
 31
0.0
  0
LINE
  5
E1
330
1F
100
AcDbEntity
  8
0
  6
Continuous
 62
     7
370
    25
100
AcDbLine
 10
-229.9760151048
 20
-368.0
 30
0.0
 11
-229.9760151048
 21
-420.0
 31
0.0
  0
LINE
  5
E2
330
1F
100
AcDbEntity
  8
0
  6
Continuous
 62
     7
370
    25
100
AcDbLine
 10
-224.0
 20
-370.0
 30
0.0
 11
-224.0
 21
-368.0
 31
0.0
  0
LINE
  5
E3
330
1F
100
AcDbEntity
  8
0
  6
Continuous
 62
     7
370
    25
100
AcDbLine
 10
-224.0
 20
318.0
 30
0.0
 11
-224.0
 21
320.0
 31
0.0
  0
LINE
  5
E4
330
1F
100
AcDbEntity
  8
0
  6
Continuous
 62
     7
370
    25
100
AcDbLine
 10
-243.0
 20
-420.0
 30
0.0
 11
-243.0
 21
370.0
 31
0.0
  0
LINE
  5
E5
330
1F
100
AcDbEntity
  8
0
  6
Continuous
 62
     7
370
    25
100
AcDbLine
 10
224.0
 20
-370.0
 30
0.0
 11
224.0
 21
-368.0
 31
0.0
  0
LINE
  5
E6
330
1F
100
AcDbEntity
  8
0
  6
Continuous
 62
     7
370
    25
100
AcDbLine
 10
224.0
 20
318.0
 30
0.0
 11
224.0
 21
320.0
 31
0.0
  0
LINE
  5
E7
330
1F
100
AcDbEntity
  8
0
  6
Continuous
 62
     7
370
    25
100
AcDbLine
 10
229.9760151048
 20
-368.0
 30
0.0
 11
229.9760151048
 21
-420.0
 31
0.0
  0
LINE
  5
E8
330
1F
100
AcDbEntity
  8
0
  6
Continuous
 62
     7
370
    25
100
AcDbLine
 10
243.0
 20
370.0
 30
0.0
 11
243.0
 21
-420.0
 31
0.0
  0
LINE
  5
E9
330
1F
100
AcDbEntity
  8
0
  6
Continuous
 62
     7
370
    25
100
AcDbLine
 10
-243.0
 20
-420.0
 30
0.0
 11
243.0
 21
-420.0
 31
0.0
  0
LINE
  5
EA
330
1F
100
AcDbEntity
  8
0
  6
Continuous
 62
     7
370
    25
100
AcDbLine
 10
203.0
 20
-420.0
 30
0.0
 11
203.0
 21
-370.0
 31
0.0
  0
LINE
  5
EB
330
1F
100
AcDbEntity
  8
0
  6
Continuous
 62
     7
370
    25
100
AcDbLine
 10
-229.9760151048
 20
-370.0
 30
0.0
 11
229.9760151048
 21
-370.0
 31
0.0
  0
LINE
  5
EC
330
1F
100
AcDbEntity
  8
0
  6
Continuous
 62
     7
370
    25
100
AcDbLine
 10
-203.0
 20
-370.0
 30
0.0
 11
-203.0
 21
-420.0
 31
0.0
  0
LINE
  5
ED
330
1F
100
AcDbEntity
  8
0
  6
Continuous
 62
     7
370
    25
100
AcDbLine
 10
-223.0
 20
-369.0
 30
0.0
 11
223.0
 21
-369.0
 31
0.0
  0
LINE
  5
EE
330
1F
100
AcDbEntity
  8
0
  6
Continuous
 62
     7
370
    25
100
AcDbLine
 10
-224.0
 20
-370.0
 30
0.0
 11
-223.0
 21
-369.0
 31
0.0
  0
LINE
  5
EF
330
1F
100
AcDbEntity
  8
0
  6
Continuous
 62
     7
370
    25
100
AcDbLine
 10
224.0
 20
-370.0
 30
0.0
 11
223.0
 21
-369.0
 31
0.0
  0
LINE
  5
F0
330
1F
100
AcDbEntity
  8
0
  6
Continuous
 62
     7
370
    25
100
AcDbLine
 10
-1.0
 20
-354.0
 30
0.0
 11
1.0
 21
-354.0
 31
0.0
  0
LINE
  5
F1
330
1F
100
AcDbEntity
  8
0
  6
Continuous
 62
     7
370
    25
100
AcDbLine
 10
-1.0
 20
42.0
 30
0.0
 11
1.0
 21
42.0
 31
0.0
  0
LINE
  5
F2
330
1F
100
AcDbEntity
  8
0
  6
Continuous
 62
     7
370
    25
100
AcDbLine
 10
1.0
 20
26.0
 30
0.0
 11
-1.0
 21
26.0
 31
0.0
  0
LINE
  5
F3
330
1F
100
AcDbEntity
  8
0
  6
Continuous
 62
     7
370
    25
100
AcDbLine
 10
-208.0
 20
370.0
 30
0.0
 11
-208.0
 21
370.0247137535
 31
0.0
  0
LINE
  5
F4
330
1F
100
AcDbEntity
  8
0
  6
Continuous
 62
     7
370
    25
100
AcDbLine
 10
-224.0
 20
370.0
 30
0.0
 11
-224.0
 21
370.0247137535
 31
0.0
  0
LINE
  5
F5
330
1F
100
AcDbEntity
  8
0
  6
Continuous
 62
     7
370
    25
100
AcDbLine
 10
224.0
 20
370.0
 30
0.0
 11
224.0
 21
370.0247137535
 31
0.0
  0
LINE
  5
F6
330
1F
100
AcDbEntity
  8
0
  6
Continuous
 62
     7
370
    25
100
AcDbLine
 10
208.0
 20
370.0
 30
0.0
 11
208.0
 21
370.0247137535
 31
0.0
  0
LINE
  5
F7
330
1F
100
AcDbEntity
  8
0
  6
Continuous
 62
     7
370
    25
100
AcDbLine
 10
-1.0
 20
102.0
 30
0.0
 11
1.0
 21
102.0
 31
0.0
  0
LINE
  5
F8
330
1F
100
AcDbEntity
  8
0
  6
Continuous
 62
     7
370
    25
100
AcDbLine
 10
-205.0
 20
370.0247137535
 30
0.0
 11
-205.0
 21
429.0
 31
0.0
  0
LINE
  5
F9
330
1F
100
AcDbEntity
  8
0
  6
Continuous
 62
     7
370
    25
100
AcDbLine
 10
249.7242470474
 20
423.7383202188
 30
0.0
 11
-249.7242470474
 21
423.7383202188
 31
0.0
  0
LINE
  5
FA
330
1F
100
AcDbEntity
  8
0
  6
Continuous
 62
     7
370
    25
100
AcDbLine
 10
205.0
 20
370.0247137535
 30
0.0
 11
205.0
 21
429.0
 31
0.0
  0
LINE
  5
FB
330
1F
100
AcDbEntity
  8
0
  6
Continuous
 62
     7
370
    25
100
AcDbLine
 10
-244.7310993736
 20
429.0
 30
0.0
 11
244.7310993736
 21
429.0
 31
0.0
  0
LINE
  5
FC
330
1F
100
AcDbEntity
  8
0
  6
Continuous
 62
     7
370
    25
100
AcDbLine
 10
-247.1066008945
 20
373.790656175
 30
0.0
 11
247.1066008945
 21
373.790656175
 31
0.0
  0
LINE
  5
FD
330
1F
100
AcDbEntity
  8
0
  6
Continuous
 62
     7
370
    25
100
AcDbLine
 10
-247.1066008945
 20
373.790656175
 30
0.0
 11
-249.7242470474
 21
423.7383202188
 31
0.0
  0
LINE
  5
FE
330
1F
100
AcDbEntity
  8
0
  6
Continuous
 62
     7
370
    25
100
AcDbLine
 10
247.1066008945
 20
373.790656175
 30
0.0
 11
249.7242470474
 21
423.7383202188
 31
0.0
  0
LINE
  5
FF
330
1F
100
AcDbEntity
  8
0
  6
Continuous
 62
     7
370
    25
100
AcDbLine
 10
243.5560413777
 20
370.0247137535
 30
0.0
 11
-243.5560413777
 21
370.0247137535
 31
0.0
  0
LINE
  5
100
330
1F
100
AcDbEntity
  8
0
  6
Continuous
 62
     7
370
    25
100
AcDbLine
 10
1.0
 20
284.0
 30
0.0
 11
-1.0
 21
284.0
 31
0.0
  0
LINE
  5
101
330
1F
100
AcDbEntity
  8
0
  6
Continuous
 62
     7
370
    25
100
AcDbLine
 10
199.7876357093
 20
318.0
 30
0.0
 11
200.5325662631
 21
320.0
 31
0.0
  0
LINE
  5
102
330
1F
100
AcDbEntity
  8
0
  6
Continuous
 62
     7
370
    25
100
AcDbLine
 10
0.0
 20
293.7878787879
 30
0.0
 11
1.0
 21
293.7857613396
 31
0.0
  0
LINE
  5
103
330
1F
100
AcDbEntity
  8
0
  6
Continuous
 62
     7
370
    25
100
AcDbLine
 10
-1.0
 20
293.7857613396
 30
0.0
 11
0.0
 21
293.7878787879
 31
0.0
  0
LINE
  5
104
330
1F
100
AcDbEntity
  8
0
  6
Continuous
 62
     7
370
    25
100
AcDbLine
 10
203.9559109389
 20
-368.0
 30
0.0
 11
203.9559109389
 21
318.0
 31
0.0
  0
LINE
  5
105
330
1F
100
AcDbEntity
  8
0
  6
Continuous
 62
     7
370
    25
100
AcDbLine
 10
230.0
 20
318.0
 30
0.0
 11
1.0
 21
318.0
 31
0.0
  0
LINE
  5
106
330
1F
100
AcDbEntity
  8
0
  6
Continuous
 62
     7
370
    25
100
AcDbLine
 10
230.0
 20
-368.0
 30
0.0
 11
230.0
 21
318.0
 31
0.0
  0
LINE
  5
107
330
1F
100
AcDbEntity
  8
0
  6
Continuous
 62
     7
370
    25
100
AcDbLine
 10
230.0
 20
-368.0
 30
0.0
 11
1.0
 21
-368.0
 31
0.0
  0
LINE
  5
108
330
1F
100
AcDbEntity
  8
0
  6
Continuous
 62
     7
370
    25
100
AcDbLine
 10
1.0
 20
318.0
 30
0.0
 11
1.0
 21
-368.0
 31
0.0
  0
LINE
  5
109
330
1F
100
AcDbEntity
  8
0
  6
Continuous
 62
     8
370
    25
100
AcDbLine
 10
223.0
 20
-369.0
 30
0.0
 11
223.0
 21
-368.0
 31
0.0
  0
LINE
  5
10A
330
1F
100
AcDbEntity
  8
0
  6
Continuous
 62
     8
370
    25
100
AcDbLine
 10
-223.0
 20
-368.0
 30
0.0
 11
-223.0
 21
-369.0
 31
0.0
  0
LINE
  5
10B
330
1F
100
AcDbEntity
  8
0
  6
Continuous
 62
     8
370
    25
100
AcDbLine
 10
1.0
 20
-355.0
 30
0.0
 11
-1.0
 21
-355.0
 31
0.0
  0
LINE
  5
10C
330
1F
100
AcDbEntity
  8
0
  6
Continuous
 62
     8
370
    25
100
AcDbLine
 10
-1.0
 20
27.0
 30
0.0
 11
1.0
 21
27.0
 31
0.0
  0
LINE
  5
10D
330
1F
100
AcDbEntity
  8
0
  6
Continuous
 62
     8
370
    25
100
AcDbLine
 10
1.0
 20
41.0
 30
0.0
 11
-1.0
 21
41.0
 31
0.0
  0
LINE
  5
10E
330
1F
100
AcDbEntity
  8
0
  6
Continuous
 62
     8
370
    25
100
AcDbLine
 10
-1.0
 20
294.0
 30
0.0
 11
1.0
 21
294.0
 31
0.0
  0
ARC
  5
10F
330
1F
100
AcDbEntity
  8
0
  6
Continuous
 62
     7
370
    25
100
AcDbCircle
 10
-244.7310993736
 20
424.0
 30
0.0
 40
5.00000000000007
100
AcDbArc
 50
90.0
 51
183.0
  0
ARC
  5
110
330
1F
100
AcDbEntity
  8
0
  6
Continuous
 62
     7
370
    25
100
AcDbCircle
 10
244.7310993736
 20
424.0
 30
0.0
 40
5.000000000000065
100
AcDbArc
 50
357.0
 51
90.0
  0
ARC
  5
111
330
1F
100
AcDbEntity
  8
0
  6
Continuous
 62
     7
370
    25
100
AcDbCircle
 10
-243.1120827554
 20
374.0
 30
0.0
 40
4.000000000000009
100
AcDbArc
 50
183.0
 51
263.6276319916
  0
ARC
  5
112
330
1F
100
AcDbEntity
  8
0
  6
Continuous
 62
     7
370
    25
100
AcDbCircle
 10
243.1120827554
 20
374.0
 30
0.0
 40
3.999999999999949
100
AcDbArc
 50
276.3723680084
 51
357.0
  0
CIRCLE
  5
116
330
1B
100
AcDbEntity
 67
     1
  8
0
  6
Continuous
 62
     7
370
    25
100
AcDbCircle
 10
127.0
 20
268.0
 30
0.0
 40
0.9999999999999858
  0
CIRCLE
  5
117
330
1B
100
AcDbEntity
 67
     1
  8
0
  6
Continuous
 62
     7
370
    25
100
AcDbCircle
 10
31.0
 20
108.0
 30
0.0
 40
1.000000000000004
  0
CIRCLE
  5
118
330
1B
100
AcDbEntity
 67
     1
  8
0
  6
Continuous
 62
     7
370
    25
100
AcDbCircle
 10
191.0
 20
268.0
 30
0.0
 40
1.0
  0
CIRCLE
  5
119
330
1B
100
AcDbEntity
 67
     1
  8
0
  6
Continuous
 62
     7
370
    25
100
AcDbCircle
 10
31.0
 20
268.0
 30
0.0
 40
1.000000000000004
  0
CIRCLE
  5
11A
330
1B
100
AcDbEntity
 67
     1
  8
0
  6
Continuous
 62
     7
370
    25
100
AcDbCircle
 10
31.0
 20
172.0
 30
0.0
 40
1.000000000000004
  0
CIRCLE
  5
11B
330
1B
100
AcDbEntity
 67
     1
  8
0
  6
Continuous
 62
     7
370
    25
100
AcDbCircle
 10
47.0
 20
268.0
 30
0.0
 40
1.0
  0
CIRCLE
  5
11C
330
1B
100
AcDbEntity
 67
     1
  8
0
  6
Continuous
 62
     7
370
    25
100
AcDbCircle
 10
206.9999999999
 20
273.71
 30
0.0
 40
3.0
  0
CIRCLE
  5
11D
330
1B
100
AcDbEntity
 67
     1
  8
0
  6
Continuous
 62
     7
370
    25
100
AcDbCircle
 10
206.9999999999
 20
233.41
 30
0.0
 40
2.999999999999716
  0
SPLINE
  5
145
330
1B
100
AcDbEntity
 67
     1
  8
0
  6
Continuous
 62
     7
370
    25
100
AcDbSpline
210
0.0
220
0.0
230
1.0
 70
     8
 71
     3
 72
    47
 73
    43
 74
     0
 42
0.000000001
 43
0.00000001
 40
0.0
 40
0.0
 40
0.0
 40
0.0
 40
0.4999999999999996
 40
0.4999999999999996
 40
0.5312499999999994
 40
0.5312499999999994
 40
0.5390624999999996
 40
0.5390624999999996
 40
0.5468749999999997
 40
0.5468749999999997
 40
0.5624999999999999
 40
0.5624999999999999
 40
0.5937500000000004
 40
0.5937500000000004
 40
0.6015625000000006
 40
0.6015625000000006
 40
0.6093750000000007
 40
0.6093750000000007
 40
0.6250000000000006
 40
0.6250000000000006
 40
0.6562500000000001
 40
0.6562500000000001
 40
0.671875
 40
0.671875
 40
0.6874999999999998
 40
0.6874999999999998
 40
0.7187499999999998
 40
0.7187499999999998
 40
0.7343749999999998
 40
0.7343749999999998
 40
0.7499999999999998
 40
0.7499999999999998
 40
0.7578124999999997
 40
0.7578124999999997
 40
0.7656249999999996
 40
0.7656249999999996
 40
0.7812499999999996
 40
0.7812499999999996
 40
0.8124999999999994
 40
0.8124999999999994
 40
0.8749999999999996
 40
1.0
 40
1.0
 40
1.0
 40
1.0
 10
-167.2742565647882
 20
294.0000000000001
 30
0.0
 10
-151.7852897379243
 20
291.475280549445
 30
0.0
 10
-136.2963232247113
 20
288.9505610815933
 30
0.0
 10
-119.839295663966
 20
286.2680466823193
 30
0.0
 10
-118.8712409146842
 20
286.1102513251878
 30
0.0
 10
-117.661158296735
 20
285.9130081059224
 30
0.0
 10
-117.4194655054629
 20
285.8735371561033
 30
0.0
 10
-116.917391323358
 20
285.7958829476869
 30
0.0
 10
-116.6593933940668
 20
285.7575354626318
 30
0.0
 10
-115.8645416350184
 20
285.6439301738145
 30
0.0
 10
-115.3069599190766
 20
285.5701005732195
 30
0.0
 10
-113.5516588784342
 20
285.3543000787959
 30
0.0
 10
-112.2710727539813
 20
285.218038914594
 30
0.0
 10
-110.5281398254885
 20
285.057510413573
 30
0.0
 10
-110.1717804957152
 20
285.0258459802739
 30
0.0
 10
-109.45041251413
 20
284.9640117891577
 30
0.0
 10
-109.0848815414943
 20
284.9337900091372
 30
0.0
 10
-107.9739586166064
 20
284.8451803558584
 30
0.0
 10
-107.2142638372597
 20
284.7888442703384
 30
0.0
 10
-104.8786357217072
 20
284.6279474052259
 30
0.0
 10
-103.2464720177182
 20
284.5314530574213
 30
0.0
 10
-100.684736094221
 20
284.4029921033904
 30
0.0
 10
-99.81171366474373
 20
284.3628952717923
 30
0.0
 10
-98.02689227996925
 20
284.2883363568351
 30
0.0
 10
-97.12583917231679
 20
284.2543222472798
 30
0.0
 10
-94.39745257570408
 20
284.161811493193
 30
0.0
 10
-92.54503277913135
 20
284.1127931622985
 30
0.0
 10
-89.71635073753816
 20
284.0581768524084
 30
0.0
 10
-88.76507975010558
 20
284.0431364723518
 30
0.0
 10
-86.84536867107207
 20
284.019542683406
 30
0.0
 10
-85.87451365011242
 20
284.0109794401002
 30
0.0
 10
-84.41439027976683
 20
284.0032541559667
 30
0.0
 10
-83.92734276829393
 20
284.0015391973286
 30
0.0
 10
-82.95258154313949
 20
283.9997960287311
 30
0.0
 10
-82.46478011536082
 20
283.9999991422557
 30
0.0
 10
-81.00163227919283
 20
284.0000021129362
 30
0.0
 10
-80.02620038841411
 20
284.0000000960333
 30
0.0
 10
-77.09990471607816
 20
284.0000000693096
 30
0.0
 10
-75.14904093452083
 20
283.9999999925683
 30
0.0
 10
-69.29644958984888
 20
284.0000000026938
 30
0.0
 10
-57.5912669013526
 20
284.0000000025478
 30
0.0
 10
-45.88608421116103
 20
284.0000000000001
 30
0.0
 10
-38.08262908493175
 20
284.0000000000001
 30
0.0
  0
SPLINE
  5
146
330
1B
100
AcDbEntity
 67
     1
  8
0
  6
Continuous
 62
     7
370
    25
100
AcDbSpline
210
0.0
220
0.0
230
1.0
 70
     8
 71
     3
 72
    18
 73
    14
 74
     0
 42
0.000000001
 43
0.00000001
 40
0.0
 40
0.0
 40
0.0
 40
0.0
 40
0.127343060820385
 40
0.2556492455943453
 40
0.3870728206495732
 40
0.5196151046306787
 40
0.6548971190149919
 40
0.7232521615131228
 40
0.7921906999909526
 40
0.8570506412927523
 40
0.9226859182961022
 40
0.9903382678191003
 40
1.0
 40
1.0
 40
1.0
 40
1.0
 10
-167.2742565647882
 20
294.0000000000001
 30
0.0
 10
-169.1279836523974
 20
294.3934621185703
 30
0.0
 10
-172.8494579787725
 20
295.1833621974157
 30
0.0
 10
-178.4483994037795
 20
297.593394682805
 30
0.0
 10
-184.0330768180581
 20
300.9450441738127
 30
0.0
 10
-189.6030204172487
 20
305.3704136185529
 30
0.0
 10
-194.0635208439074
 20
309.9594451051973
 30
0.0
 10
-197.7065447286193
 20
314.1429888189268
 30
0.0
 10
-199.7847877468807
 20
317.6640849946635
 30
0.0
 10
-201.1975495398901
 20
321.5025103798249
 30
0.0
 10
-202.0757561341768
 20
325.6377945079872
 30
0.0
 10
-202.4765998524059
 20
328.7559426601075
 30
0.0
 10
-202.5161284508985
 20
330.5597002829644
 30
0.0
 10
-202.5210682331956
 20
330.7851110061757
 30
0.0
  0
SPLINE
  5
147
330
1B
100
AcDbEntity
 67
     1
  8
0
  6
Continuous
 62
     7
370
    25
100
AcDbSpline
210
0.0
220
0.0
230
1.0
 70
     8
 71
     3
 72
    18
 73
    14
 74
     0
 42
0.000000001
 43
0.00000001
 40
0.0
 40
0.0
 40
0.0
 40
0.0
 40
0.0035938917419284
 40
0.0670967198203546
 40
0.1321224904314754
 40
0.1978371003587346
 40
0.268822709663424
 40
0.3409256632128804
 40
0.4873354418069745
 40
0.6129835328713831
 40
0.7396201513779912
 40
0.8692996362107097
 40
1.0
 40
1.0
 40
1.0
 40
1.0
 10
202.5310160410727
 20
330.7133085852075
 30
0.0
 10
202.5292369368031
 20
330.6295286594622
 30
0.0
 10
202.4960216734396
 20
329.0653863290968
 30
0.0
 10
202.1508735742739
 20
326.171437298742
 30
0.0
 10
201.3574822718111
 20
322.0797123275134
 30
0.0
 10
200.0090816026355
 20
318.1534142634614
 30
0.0
 10
197.961945743036
 20
314.4648898020159
 30
0.0
 10
194.1118399097255
 20
309.993482468053
 30
0.0
 10
189.543136151409
 20
305.3124526765163
 30
0.0
 10
183.9844657851567
 20
300.9267948987271
 30
0.0
 10
178.5532476832007
 20
297.6515930923651
 30
0.0
 10
172.962061079212
 20
295.2139837331306
 30
0.0
 10
169.1751405669041
 20
294.4057175753693
 30
0.0
 10
167.2742565652458
 20
294.0000000000001
 30
0.0
  0
SPLINE
  5
148
330
1B
100
AcDbEntity
 67
     1
  8
0
  6
Continuous
 62
     7
370
    25
100
AcDbSpline
210
0.0
220
0.0
230
1.0
 70
     8
 71
     3
 72
    42
 73
    38
 74
     0
 42
0.000000001
 43
0.00000001
 40
0.0
 40
0.0
 40
0.0
 40
0.0
 40
0.1250000000000036
 40
0.1562500000000044
 40
0.1562500000000044
 40
0.1718750000000047
 40
0.1718750000000047
 40
0.1796875000000048
 40
0.1796875000000048
 40
0.1875000000000049
 40
0.1875000000000049
 40
0.218750000000005
 40
0.218750000000005
 40
0.2343750000000049
 40
0.2343750000000049
 40
0.2500000000000048
 40
0.2500000000000048
 40
0.2812500000000048
 40
0.2812500000000048
 40
0.3125000000000047
 40
0.3125000000000047
 40
0.3281250000000046
 40
0.3281250000000046
 40
0.3437500000000044
 40
0.3437500000000044
 40
0.3750000000000039
 40
0.3750000000000039
 40
0.4062500000000036
 40
0.4062500000000036
 40
0.4218750000000033
 40
0.4218750000000033
 40
0.4296875000000032
 40
0.4296875000000032
 40
0.4375000000000031
 40
0.4375000000000031
 40
0.5000000000000026
 40
1.0
 40
1.0
 40
1.0
 40
1.0
 10
52.81945396868522
 20
283.9999999999996
 30
0.0
 10
59.95687728501051
 20
284.00000000134
 30
0.0
 10
68.8786564304172
 20
284.000003013448
 30
0.0
 10
77.8004355758237
 20
284.000000967612
 30
0.0
 10
80.47696931944562
 20
283.9999999235766
 30
0.0
 10
81.3691472339834
 20
283.9999965312901
 30
0.0
 10
82.70741410580084
 20
283.999999826638
 30
0.0
 10
83.15349747158962
 20
284.0000169004288
 30
0.0
 10
84.04295149752444
 20
284.0019334956477
 30
0.0
 10
84.48665102998933
 20
284.0036089583232
 30
0.0
 10
86.7001609653098
 20
284.015467625902
 30
0.0
 10
88.45505955483618
 20
284.0360590395852
 30
0.0
 10
91.06388249458075
 20
284.0833661976307
 30
0.0
 10
91.9295594572933
 20
284.101878805201
 30
0.0
 10
93.65294469885417
 20
284.1444660350696
 30
0.0
 10
94.5103219188627
 20
284.168559086474
 30
0.0
 10
97.03454394587688
 20
284.2481194127303
 30
0.0
 10
98.66602364636731
 20
284.3111174932602
 30
0.0
 10
101.8294445613628
 20
284.4564219413471
 30
0.0
 10
103.3614981223147
 20
284.5387065161531
 30
0.0
 10
105.5833130906924
 20
284.6769271910122
 30
0.0
 10
106.3134905765506
 20
284.7256455810974
 30
0.0
 10
107.7360365326798
 20
284.8273662057258
 30
0.0
 10
108.4260720252317
 20
284.8801757193053
 30
0.0
 10
110.4339173544699
 20
285.0443186610847
 30
0.0
 10
111.6896773600944
 20
285.1613470953703
 30
0.0
 10
114.0366005172578
 20
285.4105108557678
 30
0.0
 10
115.1282376545002
 20
285.5427212219096
 30
0.0
 10
116.6347069615695
 20
285.7526988018495
 30
0.0
 10
117.1112622345488
 20
285.8241095365156
 30
0.0
 10
117.7875839446713
 20
285.933359013954
 30
0.0
 10
118.0103376468507
 20
285.9699243487962
 30
0.0
 10
118.4581930489496
 20
286.0429249482467
 30
0.0
 10
118.6821182713023
 20
286.0794253852823
 30
0.0
 10
120.6974604285189
 20
286.4079284790159
 30
0.0
 10
136.8201973434189
 20
289.0359532478769
 30
0.0
 10
152.9429346057022
 20
291.6639779974944
 30
0.0
 10
167.2742565652458
 20
294.0000000000001
 30
0.0
  0
CIRCLE
  5
155
330
1B
100
AcDbEntity
 67
     1
  8
0
  6
Continuous
 62
     7
370
    25
100
AcDbCircle
 10
-206.9999999999
 20
233.4150000001
 30
0.0
 40
2.999999999999972
  0
CIRCLE
  5
156
330
1B
100
AcDbEntity
 67
     1
  8
0
  6
Continuous
 62
     7
370
    25
100
AcDbCircle
 10
-206.9999999999
 20
273.7150000001
 30
0.0
 40
2.999999999999972
  0
LINE
  5
15D
330
1B
100
AcDbEntity
 67
     1
  8
0
  6
Continuous
 62
     7
370
    25
100
AcDbLine
 10
-204.9643753069
 20
377.0
 30
0.0
 11
-202.542296294
 21
330.7839984986
 31
0.0
  0
LINE
  5
15E
330
1B
100
AcDbEntity
 67
     1
  8
0
  6
Continuous
 62
     7
370
    25
100
AcDbLine
 10
202.5389340939
 20
330.7128936244
 30
0.0
 11
204.9647459635
 21
377.0
 31
0.0
  0
LINE
  5
15F
330
1B
100
AcDbEntity
 67
     1
  8
0
  6
Continuous
 62
     7
370
    25
100
AcDbLine
 10
199.7709188996
 20
318.0
 30
0.0
 11
224.0
 21
318.0
 31
0.0
  0
LINE
  5
160
330
1B
100
AcDbEntity
 67
     1
  8
0
  6
Continuous
 62
     7
370
    25
100
AcDbLine
 10
1.0
 20
102.0
 30
0.0
 11
1.0
 21
284.0
 31
0.0
  0
LINE
  5
161
330
1B
100
AcDbEntity
 67
     1
  8
0
  6
Continuous
 62
     7
370
    25
100
AcDbLine
 10
-224.0
 20
320.0
 30
0.0
 11
-200.5328255912
 21
320.0
 31
0.0
  0
LINE
  5
162
330
1B
100
AcDbEntity
 67
     1
  8
0
  6
Continuous
 62
     7
370
    25
100
AcDbLine
 10
200.5313581931
 20
320.0
 30
0.0
 11
224.0
 21
320.0
 31
0.0
  0
LINE
  5
163
330
1B
100
AcDbEntity
 67
     1
  8
0
  6
Continuous
 62
     7
370
    25
100
AcDbLine
 10
-208.0
 20
370.0
 30
0.0
 11
-204.5975206994
 21
370.0
 31
0.0
  0
LINE
  5
164
330
1B
100
AcDbEntity
 67
     1
  8
0
  6
Continuous
 62
     7
370
    25
100
AcDbLine
 10
204.5978903871
 20
370.0
 30
0.0
 11
208.0
 21
370.0
 31
0.0
  0
LINE
  5
165
330
1B
100
AcDbEntity
 67
     1
  8
0
  6
Continuous
 62
     7
370
    25
100
AcDbLine
 10
224.0
 20
-420.0
 30
0.0
 11
224.0
 21
377.0
 31
0.0
  0
LINE
  5
166
330
1B
100
AcDbEntity
 67
     1
  8
0
  6
Continuous
 62
     7
370
    25
100
AcDbLine
 10
224.0
 20
370.0
 30
0.0
 11
243.0
 21
370.0
 31
0.0
  0
LINE
  5
167
330
1B
100
AcDbEntity
 67
     1
  8
0
  6
Continuous
 62
     7
370
    25
100
AcDbLine
 10
243.0
 20
-420.0
 30
0.0
 11
243.0
 21
370.0
 31
0.0
  0
LINE
  5
168
330
1B
100
AcDbEntity
 67
     1
  8
0
  6
Continuous
 62
     7
370
    25
100
AcDbLine
 10
243.0
 20
-420.0
 30
0.0
 11
-243.0
 21
-420.0
 31
0.0
  0
LINE
  5
169
330
1B
100
AcDbEntity
 67
     1
  8
0
  6
Continuous
 62
     7
370
    25
100
AcDbLine
 10
-243.0
 20
-420.0
 30
0.0
 11
-243.0
 21
370.0
 31
0.0
  0
LINE
  5
16A
330
1B
100
AcDbEntity
 67
     1
  8
0
  6
Continuous
 62
     7
370
    25
100
AcDbLine
 10
-243.0
 20
370.0
 30
0.0
 11
-224.0
 21
370.0
 31
0.0
  0
LINE
  5
16B
330
1B
100
AcDbEntity
 67
     1
  8
0
  6
Continuous
 62
     7
370
    25
100
AcDbLine
 10
-224.0
 20
-420.0
 30
0.0
 11
-224.0
 21
377.0
 31
0.0
  0
LINE
  5
16C
330
1B
100
AcDbEntity
 67
     1
  8
0
  6
Continuous
 62
     7
370
    25
100
AcDbLine
 10
-224.0
 20
-354.0
 30
0.0
 11
224.0
 21
-354.0
 31
0.0
  0
LINE
  5
16D
330
1B
100
AcDbEntity
 67
     1
  8
0
  6
Continuous
 62
     7
370
    25
100
AcDbLine
 10
224.0
 20
-370.0
 30
0.0
 11
-224.0
 21
-370.0
 31
0.0
  0
LINE
  5
16E
330
1B
100
AcDbEntity
 67
     1
  8
0
  6
Continuous
 62
     7
370
    25
100
AcDbLine
 10
208.0
 20
327.0
 30
0.0
 11
224.0
 21
327.0
 31
0.0
  0
LINE
  5
16F
330
1B
100
AcDbEntity
 67
     1
  8
0
  6
Continuous
 62
     7
370
    25
100
AcDbLine
 10
208.0
 20
327.0
 30
0.0
 11
208.0
 21
377.0
 31
0.0
  0
LINE
  5
170
330
1B
100
AcDbEntity
 67
     1
  8
0
  6
Continuous
 62
     7
370
    25
100
AcDbLine
 10
-224.0
 20
327.0
 30
0.0
 11
-208.0
 21
327.0
 31
0.0
  0
LINE
  5
171
330
1B
100
AcDbEntity
 67
     1
  8
0
  6
Continuous
 62
     7
370
    25
100
AcDbLine
 10
-240.0
 20
377.0
 30
0.0
 11
240.0
 21
377.0
 31
0.0
  0
LINE
  5
172
330
1B
100
AcDbEntity
 67
     1
  8
0
  6
Continuous
 62
     7
370
    25
100
AcDbLine
 10
-208.0
 20
327.0
 30
0.0
 11
-208.0
 21
377.0
 31
0.0
  0
LINE
  5
173
330
1B
100
AcDbEntity
 67
     1
  8
0
  6
Continuous
 62
     7
370
    25
100
AcDbLine
 10
-224.0
 20
102.0
 30
0.0
 11
224.0
 21
102.0
 31
0.0
  0
LINE
  5
174
330
1B
100
AcDbEntity
 67
     1
  8
0
  6
Continuous
 62
     7
370
    25
100
AcDbLine
 10
-247.1066008945
 20
373.790656175
 30
0.0
 11
-249.7242470474
 21
423.7383202188
 31
0.0
  0
LINE
  5
175
330
1B
100
AcDbEntity
 67
     1
  8
0
  6
Continuous
 62
     7
370
    25
100
AcDbLine
 10
-244.7310993736
 20
429.0
 30
0.0
 11
244.7310993736
 21
429.0
 31
0.0
  0
LINE
  5
176
330
1B
100
AcDbEntity
 67
     1
  8
0
  6
Continuous
 62
     7
370
    25
100
AcDbLine
 10
247.1066008945
 20
373.790656175
 30
0.0
 11
249.7242470474
 21
423.7383202188
 31
0.0
  0
LINE
  5
177
330
1B
100
AcDbEntity
 67
     1
  8
0
  6
Continuous
 62
     7
370
    25
100
AcDbLine
 10
240.0
 20
374.0
 30
0.0
 11
240.0
 21
377.0
 31
0.0
  0
LINE
  5
178
330
1B
100
AcDbEntity
 67
     1
  8
0
  6
Continuous
 62
     7
370
    25
100
AcDbLine
 10
-240.0
 20
374.0
 30
0.0
 11
-240.0
 21
377.0
 31
0.0
  0
LINE
  5
179
330
1B
100
AcDbEntity
 67
     1
  8
0
  6
Continuous
 62
     7
370
    25
100
AcDbLine
 10
-38.0826290849
 20
284.0
 30
0.0
 11
52.8194539687
 21
284.0
 31
0.0
  0
LINE
  5
17A
330
1B
100
AcDbEntity
 67
     1
  8
0
  6
Continuous
 62
     7
370
    25
100
AcDbLine
 10
204.599185584
 20
370.0247137535
 30
0.0
 11
208.0
 21
370.0247137535
 31
0.0
  0
LINE
  5
17B
330
1B
100
AcDbEntity
 67
     1
  8
0
  6
Continuous
 62
     7
370
    25
100
AcDbLine
 10
224.0
 20
370.0247137535
 30
0.0
 11
243.5560413777
 21
370.0247137535
 31
0.0
  0
LINE
  5
17C
330
1B
100
AcDbEntity
 67
     1
  8
0
  6
Continuous
 62
     7
370
    25
100
AcDbLine
 10
205.0
 20
370.0247137535
 30
0.0
 11
205.0
 21
377.0
 31
0.0
  0
LINE
  5
17D
330
1B
100
AcDbEntity
 67
     1
  8
0
  6
Continuous
 62
     7
370
    25
100
AcDbLine
 10
-243.5560413777
 20
370.0247137535
 30
0.0
 11
-224.0
 21
370.0247137535
 31
0.0
  0
LINE
  5
17E
330
1B
100
AcDbEntity
 67
     1
  8
0
  6
Continuous
 62
     7
370
    25
100
AcDbLine
 10
-208.0
 20
370.0247137535
 30
0.0
 11
-204.5988158929
 21
370.0247137535
 31
0.0
  0
LINE
  5
17F
330
1B
100
AcDbEntity
 67
     1
  8
0
  6
Continuous
 62
     7
370
    25
100
AcDbLine
 10
-205.0
 20
370.0247137535
 30
0.0
 11
-205.0
 21
377.0
 31
0.0
  0
LINE
  5
180
330
1B
100
AcDbEntity
 67
     1
  8
0
  6
Continuous
 62
     7
370
    25
100
AcDbLine
 10
-199.7876592759
 20
318.0
 30
0.0
 11
-224.0
 21
318.0
 31
0.0
  0
LINE
  5
181
330
1B
100
AcDbEntity
 67
     1
  8
0
  6
Continuous
 62
     7
370
    25
100
AcDbLine
 10
-1.0
 20
284.0
 30
0.0
 11
-1.0
 21
102.0
 31
0.0
  0
LINE
  5
182
330
1B
100
AcDbEntity
 67
     1
  8
0
  6
Continuous
 62
     8
370
    25
100
AcDbLine
 10
204.807522145
 20
374.0
 30
0.0
 11
208.0
 21
374.0
 31
0.0
  0
LINE
  5
183
330
1B
100
AcDbEntity
 67
     1
  8
0
  6
Continuous
 62
     8
370
    25
100
AcDbLine
 10
224.0
 20
374.0
 30
0.0
 11
240.0
 21
374.0
 31
0.0
  0
LINE
  5
184
330
1B
100
AcDbEntity
 67
     1
  8
0
  6
Continuous
 62
     8
370
    25
100
AcDbLine
 10
-240.0
 20
374.0
 30
0.0
 11
-224.0
 21
374.0
 31
0.0
  0
LINE
  5
185
330
1B
100
AcDbEntity
 67
     1
  8
0
  6
Continuous
 62
     8
370
    25
100
AcDbLine
 10
-208.0
 20
374.0
 30
0.0
 11
-204.8071519037
 21
374.0
 31
0.0
  0
ARC
  5
186
330
1B
100
AcDbEntity
 67
     1
  8
0
  6
Continuous
 62
     7
370
    25
100
AcDbCircle
 10
-244.7310993736
 20
424.0
 30
0.0
 40
5.00000000000007
100
AcDbArc
 50
90.0
 51
183.0
  0
ARC
  5
187
330
1B
100
AcDbEntity
 67
     1
  8
0
  6
Continuous
 62
     7
370
    25
100
AcDbCircle
 10
244.7310993736
 20
424.0
 30
0.0
 40
5.000000000000065
100
AcDbArc
 50
357.0
 51
90.0
  0
ARC
  5
188
330
1B
100
AcDbEntity
 67
     1
  8
0
  6
Continuous
 62
     7
370
    25
100
AcDbCircle
 10
243.1120827554
 20
374.0
 30
0.0
 40
4.000000000000037
100
AcDbArc
 50
276.3723680084
 51
357.0
  0
ARC
  5
189
330
1B
100
AcDbEntity
 67
     1
  8
0
  6
Continuous
 62
     7
370
    25
100
AcDbCircle
 10
244.0
 20
374.0
 30
0.0
 40
3.999999999999943
100
AcDbArc
 50
180.0
 51
263.6276319916
  0
ARC
  5
18A
330
1B
100
AcDbEntity
 67
     1
  8
0
  6
Continuous
 62
     7
370
    25
100
AcDbCircle
 10
-244.0
 20
374.0
 30
0.0
 40
4.000000000000028
100
AcDbArc
 50
276.3723680084
 51
0.0
  0
ARC
  5
18B
330
1B
100
AcDbEntity
 67
     1
  8
0
  6
Continuous
 62
     7
370
    25
100
AcDbCircle
 10
-243.1120827554
 20
374.0
 30
0.0
 40
3.999999999999932
100
AcDbArc
 50
183.0
 51
263.6276319916
  0
VIEWPORT
  5
59A
330
1B
100
AcDbEntity
 67
     1
  8
0
100
AcDbViewport
 10
0.0
 20
0.0
 30
0.0
 40
205.6
 41
156.0
 68
     1
 69
     1
 12
0.0
 22
4.5
 13
0.0
 23
0.0
 14
10.0
 24
10.0
 15
10.0
 25
10.0
 16
0.0
 26
0.0
 36
1.0
 17
0.0
 27
0.0
 37
0.0
 42
50.0
 43
0.0
 44
0.0
 45
865.98
 50
0.0
 51
0.0
 72
   100
 90
   557152
  1

281
     0
 71
     1
 74
     0
110
0.0
120
0.0
130
0.0
111
1.0
121
0.0
131
0.0
112
0.0
122
1.0
132
0.0
 79
     0
146
0.0
  0
ENDSEC
  0
SECTION
  2
OBJECTS
  0
DICTIONARY
  5
C
330
0
100
AcDbDictionary
281
     1
  3
ACAD_GROUP
350
D
  3
ACAD_LAYOUT
350
1A
  3
ACAD_MLINESTYLE
350
17
  3
ACAD_PLOTSETTINGS
350
19
  3
ACAD_PLOTSTYLENAME
350
E
  3
ACAD_SCALELIST
350
47
  0
DICTIONARY
  5
D
102
{ACAD_REACTORS
330
C
102
}
330
C
100
AcDbDictionary
281
     1
  0
DICTIONARY
  5
1A
102
{ACAD_REACTORS
330
C
102
}
330
C
100
AcDbDictionary
281
     1
  3
_Back
350
1E
  3
_Bottom
350
28E
  3
_Dimetric
350
4DB
  3
_Isometric
350
311
  3
_Left
350
26
  3
_Right
350
1CB
  3
_Top
350
20D
  3
_Trimetric
350
3FB
  3
Model
350
22
  0
DICTIONARY
  5
17
102
{ACAD_REACTORS
330
C
102
}
330
C
100
AcDbDictionary
281
     1
  3
Standard
350
18
  0
DICTIONARY
  5
19
102
{ACAD_REACTORS
330
C
102
}
330
C
100
AcDbDictionary
281
     1
  0
ACDBDICTIONARYWDFLT
  5
E
102
{ACAD_REACTORS
330
C
102
}
330
C
100
AcDbDictionary
281
     1
  3
Normal
350
F
100
AcDbDictionaryWithDefault
340
F
  0
DICTIONARY
  5
47
102
{ACAD_REACTORS
330
C
102
}
330
C
100
AcDbDictionary
281
     1
  3
A0
350
48
  3
A1
350
49
  3
A2
350
4A
  3
A3
350
4B
  3
A4
350
4C
  3
A5
350
4D
  3
A6
350
4E
  3
A7
350
4F
  3
A8
350
50
  3
A9
350
51
  3
B0
350
52
  3
B1
350
53
  3
B2
350
54
  3
B3
350
55
  3
B4
350
56
  3
B5
350
57
  3
B6
350
58
  3
B7
350
59
  3
B8
350
5A
  3
B9
350
5B
  3
C0
350
5C
  3
C1
350
5D
  3
C2
350
5E
  3
C3
350
5F
  3
C4
350
60
  3
C5
350
61
  3
C6
350
62
  3
C7
350
63
  3
C8
350
64
  3
C9
350
65
  3
D0
350
66
  3
D1
350
67
  3
D2
350
68
  0
LAYOUT
  5
1E
102
{ACAD_REACTORS
330
1A
102
}
330
1A
100
AcDbPlotSettings
  1

  2
none_device
  4
ISO_A4_(210.00_x_297.00_MM)
  6

 40
7.5
 41
20.0
 42
7.5
 43
20.0
 44
210.0
 45
297.0
 46
0.0
 47
0.0
 48
0.0
 49
0.0
140
0.0
141
0.0
142
1.0
143
4.3538461538
 70
   688
 72
     1
 73
     1
 74
     1
  7

 75
     0
147
0.2296819788
148
249.7310993736
149
420.0
100
AcDbLayout
  1
_Back
 70
     1
 71
     1
 10
-336.8080224505
 20
-452.6538461538
 11
956.2842852418
 21
461.6538461538
 12
0.0
 22
0.0
 32
0.0
 14
-249.7310993736
 24
-420.0
 34
0.0
 15
249.7310993736
 25
429.0
 35
0.0
146
0.0
 13
0.0
 23
0.0
 33
0.0
 16
1.0
 26
0.0
 36
0.0
 17
0.0
 27
1.0
 37
0.0
 76
     0
330
1B
331
59A
  0
LAYOUT
  5
28E
102
{ACAD_REACTORS
330
1A
102
}
330
1A
100
AcDbPlotSettings
  1

  2
none_device
  4
ISO_A4_(210.00_x_297.00_MM)
  6

 40
7.5
 41
20.0
 42
7.5
 43
20.0
 44
210.0
 45
297.0
 46
0.0
 47
0.0
 48
0.0
 49
0.0
140
0.0
141
0.0
142
1.0
143
4.3538461538
 70
   688
 72
     1
 73
     1
 74
     1
  7

 75
     0
147
0.2296819788
148
249.7310993736
149
420.0
100
AcDbLayout
  1
_Bottom
 70
     1
 71
     5
 10
0.0
 20
0.0
 11
0.0
 21
0.0
 12
0.0
 22
0.0
 32
0.0
 14
0.0
 24
0.0
 34
0.0
 15
0.0
 25
0.0
 35
0.0
146
0.0
 13
0.0
 23
0.0
 33
0.0
 16
1.0
 26
0.0
 36
0.0
 17
0.0
 27
1.0
 37
0.0
 76
     0
330
28D
331
5A2
  0
LAYOUT
  5
4DB
102
{ACAD_REACTORS
330
1A
102
}
330
1A
100
AcDbPlotSettings
  1

  2
none_device
  4
ISO_A4_(210.00_x_297.00_MM)
  6

 40
7.5
 41
20.0
 42
7.5
 43
20.0
 44
210.0
 45
297.0
 46
0.0
 47
0.0
 48
0.0
 49
0.0
140
0.0
141
0.0
142
1.0
143
4.3538461538
 70
   688
 72
     1
 73
     1
 74
     1
  7

 75
     0
147
0.2296819788
148
249.7310993736
149
420.0
100
AcDbLayout
  1
_Dimetric
 70
     1
 71
     8
 10
0.0
 20
0.0
 11
0.0
 21
0.0
 12
0.0
 22
0.0
 32
0.0
 14
0.0
 24
0.0
 34
0.0
 15
0.0
 25
0.0
 35
0.0
146
0.0
 13
0.0
 23
0.0
 33
0.0
 16
1.0
 26
0.0
 36
0.0
 17
0.0
 27
1.0
 37
0.0
 76
     0
330
4DA
331
5A8
  0
LAYOUT
  5
311
102
{ACAD_REACTORS
330
1A
102
}
330
1A
100
AcDbPlotSettings
  1

  2
none_device
  4
ISO_A4_(210.00_x_297.00_MM)
  6

 40
7.5
 41
20.0
 42
7.5
 43
20.0
 44
210.0
 45
297.0
 46
0.0
 47
0.0
 48
0.0
 49
0.0
140
0.0
141
0.0
142
1.0
143
4.3538461538
 70
   688
 72
     1
 73
     1
 74
     1
  7

 75
     0
147
0.2296819788
148
249.7310993736
149
420.0
100
AcDbLayout
  1
_Isometric
 70
     1
 71
     6
 10
0.0
 20
0.0
 11
0.0
 21
0.0
 12
0.0
 22
0.0
 32
0.0
 14
0.0
 24
0.0
 34
0.0
 15
0.0
 25
0.0
 35
0.0
146
0.0
 13
0.0
 23
0.0
 33
0.0
 16
1.0
 26
0.0
 36
0.0
 17
0.0
 27
1.0
 37
0.0
 76
     0
330
310
331
5A4
  0
LAYOUT
  5
26
102
{ACAD_REACTORS
330
1A
102
}
330
1A
100
AcDbPlotSettings
  1

  2
none_device
  4
ISO_A4_(210.00_x_297.00_MM)
  6

 40
7.5
 41
20.0
 42
7.5
 43
20.0
 44
210.0
 45
297.0
 46
0.0
 47
0.0
 48
0.0
 49
0.0
140
0.0
141
0.0
142
1.0
143
4.3538461538
 70
   688
 72
     1
 73
     1
 74
     1
  7

 75
     0
147
0.2296819788
148
249.7310993736
149
420.0
100
AcDbLayout
  1
_Left
 70
     1
 71
     2
 10
0.0
 20
0.0
 11
0.0
 21
0.0
 12
0.0
 22
0.0
 32
0.0
 14
0.0
 24
0.0
 34
0.0
 15
0.0
 25
0.0
 35
0.0
146
0.0
 13
0.0
 23
0.0
 33
0.0
 16
1.0
 26
0.0
 36
0.0
 17
0.0
 27
1.0
 37
0.0
 76
     0
330
23
331
59C
  0
LAYOUT
  5
1CB
102
{ACAD_REACTORS
330
1A
102
}
330
1A
100
AcDbPlotSettings
  1

  2
none_device
  4
ISO_A4_(210.00_x_297.00_MM)
  6

 40
7.5
 41
20.0
 42
7.5
 43
20.0
 44
210.0
 45
297.0
 46
0.0
 47
0.0
 48
0.0
 49
0.0
140
0.0
141
0.0
142
1.0
143
4.3538461538
 70
   688
 72
     1
 73
     1
 74
     1
  7

 75
     0
147
0.2296819788
148
249.7310993736
149
420.0
100
AcDbLayout
  1
_Right
 70
     1
 71
     3
 10
0.0
 20
0.0
 11
0.0
 21
0.0
 12
0.0
 22
0.0
 32
0.0
 14
0.0
 24
0.0
 34
0.0
 15
0.0
 25
0.0
 35
0.0
146
0.0
 13
0.0
 23
0.0
 33
0.0
 16
1.0
 26
0.0
 36
0.0
 17
0.0
 27
1.0
 37
0.0
 76
     0
330
1CA
331
59E
  0
LAYOUT
  5
20D
102
{ACAD_REACTORS
330
1A
102
}
330
1A
100
AcDbPlotSettings
  1

  2
none_device
  4
ISO_A4_(210.00_x_297.00_MM)
  6

 40
7.5
 41
20.0
 42
7.5
 43
20.0
 44
210.0
 45
297.0
 46
0.0
 47
0.0
 48
0.0
 49
0.0
140
0.0
141
0.0
142
1.0
143
4.3538461538
 70
   688
 72
     1
 73
     1
 74
     1
  7

 75
     0
147
0.2296819788
148
249.7310993736
149
420.0
100
AcDbLayout
  1
_Top
 70
     1
 71
     4
 10
0.0
 20
0.0
 11
0.0
 21
0.0
 12
0.0
 22
0.0
 32
0.0
 14
0.0
 24
0.0
 34
0.0
 15
0.0
 25
0.0
 35
0.0
146
0.0
 13
0.0
 23
0.0
 33
0.0
 16
1.0
 26
0.0
 36
0.0
 17
0.0
 27
1.0
 37
0.0
 76
     0
330
20C
331
5A0
  0
LAYOUT
  5
3FB
102
{ACAD_REACTORS
330
1A
102
}
330
1A
100
AcDbPlotSettings
  1

  2
none_device
  4
ISO_A4_(210.00_x_297.00_MM)
  6

 40
7.5
 41
20.0
 42
7.5
 43
20.0
 44
210.0
 45
297.0
 46
0.0
 47
0.0
 48
0.0
 49
0.0
140
0.0
141
0.0
142
1.0
143
4.3538461538
 70
   688
 72
     1
 73
     1
 74
     1
  7

 75
     0
147
0.2296819788
148
249.7310993736
149
420.0
100
AcDbLayout
  1
_Trimetric
 70
     1
 71
     7
 10
0.0
 20
0.0
 11
0.0
 21
0.0
 12
0.0
 22
0.0
 32
0.0
 14
0.0
 24
0.0
 34
0.0
 15
0.0
 25
0.0
 35
0.0
146
0.0
 13
0.0
 23
0.0
 33
0.0
 16
1.0
 26
0.0
 36
0.0
 17
0.0
 27
1.0
 37
0.0
 76
     0
330
3FA
331
5A6
  0
LAYOUT
  5
22
102
{ACAD_REACTORS
330
1A
102
}
330
1A
100
AcDbPlotSettings
  1

  2
none_device
  4
ANSI_A_(11.00_x_8.50_Inches)
  6

 40
6.35
 41
19.05
 42
6.35000508
 43
19.05000254
 44
279.4
 45
215.9
 46
133.34999746
 47
87.7670959031
 48
0.0
 49
0.0
140
0.0
141
0.0
142
0.0099116608
143
1.0
 70
  1696
 72
     0
 73
     0
 74
     0
  7

 75
     0
147
0.0179189148
148
-1300.4909072572
149
0.0
100
AcDbLayout
  1
Model
 70
     1
 71
     0
 10
0.0
 20
0.0
 11
420.0
 21
297.0
 12
0.0
 22
0.0
 32
0.0
 14
-249.7310993736
 24
-420.0
 34
0.0
 15
249.7310993736
 25
429.0
 35
0.0
146
0.0
 13
0.0
 23
0.0
 33
0.0
 16
1.0
 26
0.0
 36
0.0
 17
0.0
 27
1.0
 37
0.0
 76
     0
330
1F
331
29
  0
MLINESTYLE
  5
18
102
{ACAD_REACTORS
330
17
102
}
330
17
100
AcDbMlineStyle
  2
Standard
 70
     0
  3

 62
   256
 51
90.0
 52
90.0
 71
     2
 49
0.5
 62
   256
  6
BYLAYER
 49
-0.5
 62
   256
  6
BYLAYER
  0
ACDBPLACEHOLDER
  5
F
102
{ACAD_REACTORS
330
E
102
}
330
E
  0
SCALE
  5
48
102
{ACAD_REACTORS
330
47
102
}
330
47
100
AcDbScale
 70
     0
300
1:1
140
1.0
141
1.0
290
     1
  0
SCALE
  5
49
102
{ACAD_REACTORS
330
47
102
}
330
47
100
AcDbScale
 70
     0
300
1:2
140
1.0
141
2.0
290
     0
  0
SCALE
  5
4A
102
{ACAD_REACTORS
330
47
102
}
330
47
100
AcDbScale
 70
     0
300
1:4
140
1.0
141
4.0
290
     0
  0
SCALE
  5
4B
102
{ACAD_REACTORS
330
47
102
}
330
47
100
AcDbScale
 70
     0
300
1:5
140
1.0
141
5.0
290
     0
  0
SCALE
  5
4C
102
{ACAD_REACTORS
330
47
102
}
330
47
100
AcDbScale
 70
     0
300
1:8
140
1.0
141
8.0
290
     0
  0
SCALE
  5
4D
102
{ACAD_REACTORS
330
47
102
}
330
47
100
AcDbScale
 70
     0
300
1:10
140
1.0
141
10.0
290
     0
  0
SCALE
  5
4E
102
{ACAD_REACTORS
330
47
102
}
330
47
100
AcDbScale
 70
     0
300
1:16
140
1.0
141
16.0
290
     0
  0
SCALE
  5
4F
102
{ACAD_REACTORS
330
47
102
}
330
47
100
AcDbScale
 70
     0
300
1:20
140
1.0
141
20.0
290
     0
  0
SCALE
  5
50
102
{ACAD_REACTORS
330
47
102
}
330
47
100
AcDbScale
 70
     0
300
1:30
140
1.0
141
30.0
290
     0
  0
SCALE
  5
51
102
{ACAD_REACTORS
330
47
102
}
330
47
100
AcDbScale
 70
     0
300
1:40
140
1.0
141
40.0
290
     0
  0
SCALE
  5
52
102
{ACAD_REACTORS
330
47
102
}
330
47
100
AcDbScale
 70
     0
300
1:50
140
1.0
141
50.0
290
     0
  0
SCALE
  5
53
102
{ACAD_REACTORS
330
47
102
}
330
47
100
AcDbScale
 70
     0
300
1:100
140
1.0
141
100.0
290
     0
  0
SCALE
  5
54
102
{ACAD_REACTORS
330
47
102
}
330
47
100
AcDbScale
 70
     0
300
2:1
140
2.0
141
1.0
290
     0
  0
SCALE
  5
55
102
{ACAD_REACTORS
330
47
102
}
330
47
100
AcDbScale
 70
     0
300
4:1
140
4.0
141
1.0
290
     0
  0
SCALE
  5
56
102
{ACAD_REACTORS
330
47
102
}
330
47
100
AcDbScale
 70
     0
300
8:1
140
8.0
141
1.0
290
     0
  0
SCALE
  5
57
102
{ACAD_REACTORS
330
47
102
}
330
47
100
AcDbScale
 70
     0
300
10:1
140
10.0
141
1.0
290
     0
  0
SCALE
  5
58
102
{ACAD_REACTORS
330
47
102
}
330
47
100
AcDbScale
 70
     0
300
100:1
140
100.0
141
1.0
290
     0
  0
SCALE
  5
59
102
{ACAD_REACTORS
330
47
102
}
330
47
100
AcDbScale
 70
     0
300
1/128" = 1'-0"
140
0.0078125
141
12.0
290
     0
  0
SCALE
  5
5A
102
{ACAD_REACTORS
330
47
102
}
330
47
100
AcDbScale
 70
     0
300
1/64" = 1'-0"
140
0.015625
141
12.0
290
     0
  0
SCALE
  5
5B
102
{ACAD_REACTORS
330
47
102
}
330
47
100
AcDbScale
 70
     0
300
1/32" = 1'-0"
140
0.03125
141
12.0
290
     0
  0
SCALE
  5
5C
102
{ACAD_REACTORS
330
47
102
}
330
47
100
AcDbScale
 70
     0
300
1/16" = 1'-0"
140
0.0625
141
12.0
290
     0
  0
SCALE
  5
5D
102
{ACAD_REACTORS
330
47
102
}
330
47
100
AcDbScale
 70
     0
300
3/32" = 1'-0"
140
0.09375
141
12.0
290
     0
  0
SCALE
  5
5E
102
{ACAD_REACTORS
330
47
102
}
330
47
100
AcDbScale
 70
     0
300
1/8" = 1'-0"
140
0.125
141
12.0
290
     0
  0
SCALE
  5
5F
102
{ACAD_REACTORS
330
47
102
}
330
47
100
AcDbScale
 70
     0
300
3/16" = 1'-0"
140
0.1875
141
12.0
290
     0
  0
SCALE
  5
60
102
{ACAD_REACTORS
330
47
102
}
330
47
100
AcDbScale
 70
     0
300
1/4" = 1'-0"
140
0.25
141
12.0
290
     0
  0
SCALE
  5
61
102
{ACAD_REACTORS
330
47
102
}
330
47
100
AcDbScale
 70
     0
300
3/8" = 1'-0"
140
0.375
141
12.0
290
     0
  0
SCALE
  5
62
102
{ACAD_REACTORS
330
47
102
}
330
47
100
AcDbScale
 70
     0
300
1/2" = 1'-0"
140
0.5
141
12.0
290
     0
  0
SCALE
  5
63
102
{ACAD_REACTORS
330
47
102
}
330
47
100
AcDbScale
 70
     0
300
3/4" = 1'-0"
140
0.75
141
12.0
290
     0
  0
SCALE
  5
64
102
{ACAD_REACTORS
330
47
102
}
330
47
100
AcDbScale
 70
     0
300
1" = 1'-0"
140
1.0
141
12.0
290
     0
  0
SCALE
  5
65
102
{ACAD_REACTORS
330
47
102
}
330
47
100
AcDbScale
 70
     0
300
1-1/2" = 1'-0"
140
1.5
141
12.0
290
     0
  0
SCALE
  5
66
102
{ACAD_REACTORS
330
47
102
}
330
47
100
AcDbScale
 70
     0
300
3" = 1'-0"
140
3.0
141
12.0
290
     0
  0
SCALE
  5
67
102
{ACAD_REACTORS
330
47
102
}
330
47
100
AcDbScale
 70
     0
300
6" = 1'-0"
140
6.0
141
12.0
290
     0
  0
SCALE
  5
68
102
{ACAD_REACTORS
330
47
102
}
330
47
100
AcDbScale
 70
     0
300
1'-0" = 1'-0"
140
12.0
141
12.0
290
     0
  0
ENDSEC
  0
EOF
