  0
SECTION
  2
HEADER
  9
$ACADVER
  1
AC1015
  9
$ACADMAINTVER
 70
     6
  9
$DWGCODEPAGE
  3
ANSI_1252
  9
$INSBASE
 10
0.0
 20
0.0
 30
0.0
  9
$EXTMIN
 10
-500.0
 20
-400.0
 30
0.0
  9
$EXTMAX
 10
500.0
 20
400.0
 30
0.0
  9
$LIMMIN
 10
0.0
 20
0.0
  9
$LIMMAX
 10
420.0
 20
297.0
  9
$ORTHOMODE
 70
     0
  9
$REGENMODE
 70
     1
  9
$FILLMODE
 70
     1
  9
$QTEXTMODE
 70
     0
  9
$MIRRTEXT
 70
     1
  9
$LTSCALE
 40
1.0
  9
$ATTMODE
 70
     1
  9
$TEXTSIZE
 40
3.5
  9
$TRACEWID
 40
1.0
  9
$TEXTSTYLE
  7
Standard
  9
$CLAYER
  8
0
  9
$CELTYPE
  6
ByLayer
  9
$CECOLOR
 62
   256
  9
$CELTSCALE
 40
1.0
  9
$DISPSILH
 70
     0
  9
$DIMSCALE
 40
1.0
  9
$DIMASZ
 40
3.302
  9
$DIMEXO
 40
1.0
  9
$DIMDLI
 40
3.75
  9
$DIMRND
 40
0.0
  9
$DIMDLE
 40
0.0
  9
$DIMEXE
 40
1.0
  9
$DIMTP
 40
0.0
  9
$DIMTM
 40
0.0
  9
$DIMTXT
 40
3.5
  9
$DIMCEN
 40
2.5
  9
$DIMTSZ
 40
0.0
  9
$DIMTOL
 70
     0
  9
$DIMLIM
 70
     0
  9
$DIMTIH
 70
     1
  9
$DIMTOH
 70
     1
  9
$DIMSE1
 70
     0
  9
$DIMSE2
 70
     0
  9
$DIMTAD
 70
     1
  9
$DIMZIN
 70
     1
  9
$DIMBLK
  1

  9
$DIMASO
 70
     1
  9
$DIMSHO
 70
     1
  9
$DIMPOST
  1

  9
$DIMAPOST
  1

  9
$DIMALT
 70
     0
  9
$DIMALTD
 70
     3
  9
$DIMALTF
 40
0.0393700787
  9
$DIMLFAC
 40
1.0
  9
$DIMTOFL
 70
     1
  9
$DIMTVP
 40
0.0
  9
$DIMTIX
 70
     0
  9
$DIMSOXD
 70
     0
  9
$DIMSAH
 70
     0
  9
$DIMBLK1
  1

  9
$DIMBLK2
  1

  9
$DIMSTYLE
  2
ISO-25
  9
$DIMCLRD
 70
     0
  9
$DIMCLRE
 70
     0
  9
$DIMCLRT
 70
     0
  9
$DIMTFAC
 40
1.0
  9
$DIMGAP
 40
1.524
  9
$DIMJUST
 70
     0
  9
$DIMSD1
 70
     0
  9
$DIMSD2
 70
     0
  9
$DIMTOLJ
 70
     0
  9
$DIMTZIN
 70
     1
  9
$DIMALTZ
 70
     0
  9
$DIMALTTZ
 70
     0
  9
$DIMUPT
 70
     0
  9
$DIMDEC
 70
     2
  9
$DIMTDEC
 70
     2
  9
$DIMALTU
 70
     2
  9
$DIMALTTD
 70
     3
  9
$DIMTXSTY
  7
Standard
  9
$DIMAUNIT
 70
     0
  9
$DIMADEC
 70
     2
  9
$DIMALTRND
 40
0.0
  9
$DIMAZIN
 70
     0
  9
$DIMDSEP
 70
    44
  9
$DIMATFIT
 70
     3
  9
$DIMFRAC
 70
     0
  9
$DIMLDRBLK
  1

  9
$DIMLUNIT
 70
     2
  9
$DIMLWD
 70
    -2
  9
$DIMLWE
 70
    -2
  9
$DIMTMOVE
 70
     0
  9
$LUNITS
 70
     2
  9
$LUPREC
 70
     2
  9
$SKETCHINC
 40
1.0
  9
$FILLETRAD
 40
10.0
  9
$AUNITS
 70
     0
  9
$AUPREC
 70
     2
  9
$MENU
  1
.
  9
$ELEVATION
 40
0.0
  9
$PELEVATION
 40
0.0
  9
$THICKNESS
 40
0.0
  9
$LIMCHECK
 70
     0
  9
$CHAMFERA
 40
0.0
  9
$CHAMFERB
 40
0.0
  9
$CHAMFERC
 40
0.0
  9
$CHAMFERD
 40
0.0
  9
$SKPOLY
 70
     0
  9
$TDCREATE
 40
2459122.416017222
  9
$TDUCREATE
 40
2459122.374350556
  9
$TDUPDATE
 40
2459122.416052072
  9
$TDUUPDATE
 40
2459122.374385405
  9
$TDINDWG
 40
0.0000000116
  9
$TDUSRTIMER
 40
0.0000000116
  9
$USRTIMER
 70
     1
  9
$ANGBASE
 50
0.0
  9
$ANGDIR
 70
     0
  9
$PDMODE
 70
     0
  9
$PDSIZE
 40
-1.0
  9
$PLINEWID
 40
0.0
  9
$SPLFRAME
 70
     0
  9
$SPLINETYPE
 70
     6
  9
$SPLINESEGS
 70
     8
  9
$HANDSEED
  5
463
  9
$SURFTAB1
 70
     6
  9
$SURFTAB2
 70
     6
  9
$SURFTYPE
 70
     6
  9
$SURFU
 70
     6
  9
$SURFV
 70
     6
  9
$UCSBASE
  2

  9
$UCSNAME
  2

  9
$UCSORG
 10
0.0
 20
0.0
 30
0.0
  9
$UCSXDIR
 10
1.0
 20
0.0
 30
0.0
  9
$UCSYDIR
 10
0.0
 20
1.0
 30
0.0
  9
$UCSORTHOREF
  2

  9
$UCSORTHOVIEW
 70
     0
  9
$UCSORGTOP
 10
0.0
 20
0.0
 30
0.0
  9
$UCSORGBOTTOM
 10
0.0
 20
0.0
 30
0.0
  9
$UCSORGLEFT
 10
0.0
 20
0.0
 30
0.0
  9
$UCSORGRIGHT
 10
0.0
 20
0.0
 30
0.0
  9
$UCSORGFRONT
 10
0.0
 20
0.0
 30
0.0
  9
$UCSORGBACK
 10
0.0
 20
0.0
 30
0.0
  9
$PUCSBASE
  2

  9
$PUCSNAME
  2

  9
$PUCSORG
 10
0.0
 20
0.0
 30
0.0
  9
$PUCSXDIR
 10
1.0
 20
0.0
 30
0.0
  9
$PUCSYDIR
 10
0.0
 20
1.0
 30
0.0
  9
$PUCSORTHOREF
  2

  9
$PUCSORTHOVIEW
 70
     0
  9
$PUCSORGTOP
 10
0.0
 20
0.0
 30
0.0
  9
$PUCSORGBOTTOM
 10
0.0
 20
0.0
 30
0.0
  9
$PUCSORGLEFT
 10
0.0
 20
0.0
 30
0.0
  9
$PUCSORGRIGHT
 10
0.0
 20
0.0
 30
0.0
  9
$PUCSORGFRONT
 10
0.0
 20
0.0
 30
0.0
  9
$PUCSORGBACK
 10
0.0
 20
0.0
 30
0.0
  9
$USERI1
 70
     0
  9
$USERI2
 70
     0
  9
$USERI3
 70
     0
  9
$USERI4
 70
     0
  9
$USERI5
 70
     0
  9
$USERR1
 40
0.0
  9
$USERR2
 40
0.0
  9
$USERR3
 40
0.0
  9
$USERR4
 40
0.0
  9
$USERR5
 40
0.0
  9
$WORLDVIEW
 70
     1
  9
$SHADEDGE
 70
     3
  9
$SHADEDIF
 70
    70
  9
$TILEMODE
 70
     1
  9
$MAXACTVP
 70
    64
  9
$PINSBASE
 10
0.0
 20
0.0
 30
0.0
  9
$PLIMCHECK
 70
     0
  9
$PEXTMIN
 10
-500.0
 20
0.0
 30
0.0
  9
$PEXTMAX
 10
500.0
 20
25.0
 30
0.0
  9
$PLIMMIN
 10
-577.8210116732
 20
-29.1828793774
  9
$PLIMMAX
 10
577.8210116732
 20
787.9377431907
  9
$UNITMODE
 70
     0
  9
$VISRETAIN
 70
     1
  9
$PLINEGEN
 70
     0
  9
$PSLTSCALE
 70
     1
  9
$TREEDEPTH
 70
  3020
  9
$CMLSTYLE
  2
Standard
  9
$CMLJUST
 70
     0
  9
$CMLSCALE
 40
20.0
  9
$PROXYGRAPHICS
 70
     1
  9
$MEASUREMENT
 70
     1
  9
$CELWEIGHT
370
    -1
  9
$ENDCAPS
280
     0
  9
$JOINSTYLE
280
     0
  9
$LWDISPLAY
290
     1
  9
$INSUNITS
 70
     4
  9
$HYPERLINKBASE
  1

  9
$STYLESHEET
  1

  9
$XEDIT
290
     1
  9
$CEPSNTYPE
380
     0
  9
$PSTYLEMODE
290
     1
  9
$FINGERPRINTGUID
  2
{3fff6e80-f07c-4a84-a966-e75f1dcc177e}
  9
$VERSIONGUID
  2
{FAEB1C32-E019-11D5-929B-00C0DF256EC4}
  9
$EXTNAMES
290
     1
  9
$PSVPSCALE
 40
0.0
  9
$OLESTARTUP
290
     0
  0
ENDSEC
  0
SECTION
  2
CLASSES
  0
CLASS
  1
ACDBDICTIONARYWDFLT
  2
AcDbDictionaryWithDefault
  3
ObjectDBX Classes
 90
        0
280
     0
281
     0
  0
CLASS
  1
VISUALSTYLE
  2
AcDbVisualStyle
  3
ObjectDBX Classes
 90
     4095
280
     0
281
     0
  0
CLASS
  1
MATERIAL
  2
AcDbMaterial
  3
ObjectDBX Classes
 90
     1153
280
     0
281
     0
  0
CLASS
  1
SCALE
  2
AcDbScale
  3
ObjectDBX Classes
 90
     1153
280
     0
281
     0
  0
CLASS
  1
TABLESTYLE
  2
AcDbTableStyle
  3
ObjectDBX Classes
 90
     4095
280
     0
281
     0
  0
CLASS
  1
MLEADERSTYLE
  2
AcDbMLeaderStyle
  3
ACDB_MLEADERSTYLE_CLASS
 90
     4095
280
     0
281
     0
  0
CLASS
  1
SUN
  2
AcDbSun
  3
SCENEOE
 90
     1153
280
     0
281
     0
  0
CLASS
  1
ACDBPLACEHOLDER
  2
AcDbPlaceHolder
  3
ObjectDBX Classes
 90
        0
280
     0
281
     0
  0
CLASS
  1
LAYOUT
  2
AcDbLayout
  3
ObjectDBX Classes
 90
        0
280
     0
281
     0
  0
ENDSEC
  0
SECTION
  2
TABLES
  0
TABLE
  2
VPORT
  5
8
330
0
100
AcDbSymbolTable
 70
     1
  0
VPORT
  5
29
330
8
100
AcDbSymbolTableRecord
100
AcDbViewportTableRecord
  2
*Active
 70
     0
 10
0.0
 20
0.0
 11
1.0
 21
1.0
 12
0.0
 22
0.0
 13
0.0
 23
0.0
 14
10.0
 24
10.0
 15
10.0
 25
10.0
 16
0.0
 26
0.0
 36
1.0
 17
0.0
 27
0.0
 37
0.0
 40
816.0
 41
1.25
 42
50.0
 43
0.0
 44
0.0
 50
0.0
 51
0.0
 71
     0
 72
   100
 73
     1
 74
     3
 75
     0
 76
     0
 77
     0
 78
     0
281
     0
 65
     1
110
0.0
120
0.0
130
0.0
111
1.0
121
0.0
131
0.0
112
0.0
122
1.0
132
0.0
 79
     0
146
0.0
  0
ENDTAB
  0
TABLE
  2
LTYPE
  5
5
330
0
100
AcDbSymbolTable
 70
     6
  0
LTYPE
  5
14
330
5
100
AcDbSymbolTableRecord
100
AcDbLinetypeTableRecord
  2
ByBlock
 70
     0
  3

 72
    65
 73
     0
 40
0.0
  0
LTYPE
  5
15
330
5
100
AcDbSymbolTableRecord
100
AcDbLinetypeTableRecord
  2
ByLayer
 70
     0
  3

 72
    65
 73
     0
 40
0.0
  0
LTYPE
  5
16
330
5
100
AcDbSymbolTableRecord
100
AcDbLinetypeTableRecord
  2
Continuous
 70
     0
  3
Solid line
 72
    65
 73
     0
 40
0.0
  0
LTYPE
  5
6E
330
5
100
AcDbSymbolTableRecord
100
AcDbLinetypeTableRecord
  2
HIDDEN
 70
     0
  3
Hidden __ __ __ __ __ __ __ __ __ __ __ __ __ __
 72
    65
 73
     2
 40
1.905
 49
1.27
 74
     0
 49
-0.635
 74
     0
  0
LTYPE
  5
6F
330
5
100
AcDbSymbolTableRecord
100
AcDbLinetypeTableRecord
  2
PHANTOM
 70
     0
  3
Phantom ______  __  __  ______  __  __  ______
 72
    65
 73
     6
 40
12.7
 49
6.35
 74
     0
 49
-1.27
 74
     0
 49
1.27
 74
     0
 49
-1.27
 74
     0
 49
1.27
 74
     0
 49
-1.27
 74
     0
  0
LTYPE
  5
70
330
5
100
AcDbSymbolTableRecord
100
AcDbLinetypeTableRecord
  2
CENTER
 70
     0
  3
Center ____ _ ____ _ ____ _ ____ _ ____ _ ____
 72
    65
 73
     4
 40
10.16
 49
6.35
 74
     0
 49
-1.27
 74
     0
 49
1.27
 74
     0
 49
-1.27
 74
     0
  0
LTYPE
  5
71
330
5
100
AcDbSymbolTableRecord
100
AcDbLinetypeTableRecord
  2
CENTERX2
 70
     0
  3
Center (2x) ________  __  ________  __  _____
 72
    65
 73
     4
 40
20.32
 49
12.7
 74
     0
 49
-2.54
 74
     0
 49
2.54
 74
     0
 49
-2.54
 74
     0
  0
LTYPE
  5
72
330
5
100
AcDbSymbolTableRecord
100
AcDbLinetypeTableRecord
  2
DOT2
 70
     0
  3
Dot (.5x) ........................................
 72
    65
 73
     2
 40
0.635
 49
0.0
 74
     0
 49
-0.635
 74
     0
  0
ENDTAB
  0
TABLE
  2
LAYER
  5
2
330
0
100
AcDbSymbolTable
 70
     1
  0
LAYER
  5
10
330
2
100
AcDbSymbolTableRecord
100
AcDbLayerTableRecord
  2
0
 70
     0
 62
     7
  6
Continuous
370
    -3
390
F
  0
ENDTAB
  0
TABLE
  2
STYLE
  5
3
330
0
100
AcDbSymbolTable
 70
     1
  0
STYLE
  5
11
330
3
100
AcDbSymbolTableRecord
100
AcDbTextStyleTableRecord
  2
Standard
 70
     0
 40
0.0
 41
1.0
 50
0.0
 71
     0
 42
3.5
  3
txt
  4

  0
ENDTAB
  0
TABLE
  2
VIEW
  5
6
330
0
100
AcDbSymbolTable
 70
     0
  0
ENDTAB
  0
TABLE
  2
UCS
  5
7
330
0
100
AcDbSymbolTable
 70
     0
  0
ENDTAB
  0
TABLE
  2
APPID
  5
9
330
0
100
AcDbSymbolTable
 70
     1
  0
APPID
  5
12
330
9
100
AcDbSymbolTableRecord
100
AcDbRegAppTableRecord
  2
ACAD
 70
     0
  0
ENDTAB
  0
TABLE
  2
DIMSTYLE
  5
A
330
0
100
AcDbSymbolTable
 70
     1
100
AcDbDimStyleTable
  0
DIMSTYLE
105
27
330
A
100
AcDbSymbolTableRecord
100
AcDbDimStyleTableRecord
  2
ISO-25
 70
     0
 41
2.5
 42
0.625
 43
3.75
 44
1.25
 73
     0
 74
     0
 77
     1
 78
     8
140
2.5
141
2.5
143
0.0393700787
147
0.625
171
     3
172
     1
178
     0
271
     2
272
     2
274
     3
278
    44
283
     0
284
     8
340
11
  0
ENDTAB
  0
TABLE
  2
BLOCK_RECORD
  5
1
330
0
100
AcDbSymbolTable
 70
     7
  0
BLOCK_RECORD
  5
1F
330
1
100
AcDbSymbolTableRecord
100
AcDbBlockTableRecord
  2
*Model_Space
340
22
  0
BLOCK_RECORD
  5
1B
330
1
100
AcDbSymbolTableRecord
100
AcDbBlockTableRecord
  2
*Paper_Space
340
1E
  0
BLOCK_RECORD
  5
23
330
1
100
AcDbSymbolTableRecord
100
AcDbBlockTableRecord
  2
*Paper_Space0
340
26
  0
BLOCK_RECORD
  5
161
330
1
100
AcDbSymbolTableRecord
100
AcDbBlockTableRecord
  2
*Paper_Space1
340
162
  0
BLOCK_RECORD
  5
17D
330
1
100
AcDbSymbolTableRecord
100
AcDbBlockTableRecord
  2
*Paper_Space2
340
17E
  0
BLOCK_RECORD
  5
199
330
1
100
AcDbSymbolTableRecord
100
AcDbBlockTableRecord
  2
*Paper_Space3
340
19A
  0
BLOCK_RECORD
  5
1AE
330
1
100
AcDbSymbolTableRecord
100
AcDbBlockTableRecord
  2
*Paper_Space4
340
1AF
  0
BLOCK_RECORD
  5
297
330
1
100
AcDbSymbolTableRecord
100
AcDbBlockTableRecord
  2
*Paper_Space5
340
298
  0
BLOCK_RECORD
  5
37C
330
1
100
AcDbSymbolTableRecord
100
AcDbBlockTableRecord
  2
*Paper_Space6
340
37D
  0
ENDTAB
  0
ENDSEC
  0
SECTION
  2
BLOCKS
  0
BLOCK
  5
20
330
1F
100
AcDbEntity
  8
0
100
AcDbBlockBegin
  2
*Model_Space
 70
     0
 10
0.0
 20
0.0
 30
0.0
  3
*Model_Space
  1

  0
ENDBLK
  5
21
330
1F
100
AcDbEntity
  8
0
100
AcDbBlockEnd
  0
BLOCK
  5
1C
330
1B
100
AcDbEntity
 67
     1
  8
0
100
AcDbBlockBegin
  2
*Paper_Space
 70
     0
 10
0.0
 20
0.0
 30
0.0
  3
*Paper_Space
  1

  0
ENDBLK
  5
1D
330
1B
100
AcDbEntity
 67
     1
  8
0
100
AcDbBlockEnd
  0
BLOCK
  5
24
330
23
100
AcDbEntity
  8
0
100
AcDbBlockBegin
  2
*Paper_Space0
 70
     0
 10
0.0
 20
0.0
 30
0.0
  3
*Paper_Space0
  1

  0
LINE
  5
158
330
23
100
AcDbEntity
  8
0
  6
Continuous
 62
     7
370
    25
100
AcDbLine
 10
495.0
 20
0.0
 30
0.0
 11
495.0
 21
25.0
 31
0.0
  0
LINE
  5
159
330
23
100
AcDbEntity
  8
0
  6
Continuous
 62
     7
370
    25
100
AcDbLine
 10
500.0
 20
20.0
 30
0.0
 11
-500.0
 21
20.0
 31
0.0
  0
LINE
  5
15A
330
23
100
AcDbEntity
  8
0
  6
Continuous
 62
     7
370
    25
100
AcDbLine
 10
500.0
 20
20.0
 30
0.0
 11
500.0
 21
0.0
 31
0.0
  0
LINE
  5
15B
330
23
100
AcDbEntity
  8
0
  6
Continuous
 62
     7
370
    25
100
AcDbLine
 10
-500.0
 20
0.0
 30
0.0
 11
500.0
 21
0.0
 31
0.0
  0
LINE
  5
15C
330
23
100
AcDbEntity
  8
0
  6
Continuous
 62
     7
370
    25
100
AcDbLine
 10
-495.0
 20
25.0
 30
0.0
 11
-495.0
 21
0.0
 31
0.0
  0
LINE
  5
15D
330
23
100
AcDbEntity
  8
0
  6
Continuous
 62
     7
370
    25
100
AcDbLine
 10
-500.0
 20
0.0
 30
0.0
 11
-500.0
 21
20.0
 31
0.0
  0
LINE
  5
15E
330
23
100
AcDbEntity
  8
0
  6
Continuous
 62
     7
370
    25
100
AcDbLine
 10
-495.0
 20
25.0
 30
0.0
 11
495.0
 21
25.0
 31
0.0
  0
ARC
  5
15F
330
23
100
AcDbEntity
  8
0
  6
Continuous
 62
     7
370
    25
100
AcDbCircle
 10
495.0
 20
20.0
 30
0.0
 40
5.0
100
AcDbArc
 50
0.0
 51
90.0
  0
ARC
  5
160
330
23
100
AcDbEntity
  8
0
  6
Continuous
 62
     7
370
    25
100
AcDbCircle
 10
-495.0
 20
20.0
 30
0.0
 40
5.0
100
AcDbArc
 50
90.0
 51
180.0
  0
VIEWPORT
  5
455
330
23
100
AcDbEntity
  8
0
100
AcDbViewport
 10
0.0
 20
0.0
 30
0.0
 40
205.6
 41
156.0
 68
     1
 69
     1
 12
0.0
 22
0.0
 13
0.0
 23
0.0
 14
10.0
 24
10.0
 15
10.0
 25
10.0
 16
0.0
 26
0.0
 36
1.0
 17
0.0
 27
0.0
 37
0.0
 42
50.0
 43
0.0
 44
0.0
 45
816.0
 50
0.0
 51
0.0
 72
   100
 90
   557152
  1

281
     0
 71
     1
 74
     0
110
0.0
120
0.0
130
0.0
111
1.0
121
0.0
131
0.0
112
0.0
122
1.0
132
0.0
 79
     0
146
0.0
  0
ENDBLK
  5
25
330
23
100
AcDbEntity
  8
0
100
AcDbBlockEnd
  0
BLOCK
  5
163
330
161
100
AcDbEntity
  8
0
100
AcDbBlockBegin
  2
*Paper_Space1
 70
     0
 10
0.0
 20
0.0
 30
0.0
  3
*Paper_Space1
  1

  0
LINE
  5
174
330
161
100
AcDbEntity
  8
0
  6
Continuous
 62
     7
370
    25
100
AcDbLine
 10
-395.0
 20
25.0
 30
0.0
 11
395.0
 21
25.0
 31
0.0
  0
LINE
  5
175
330
161
100
AcDbEntity
  8
0
  6
Continuous
 62
     7
370
    25
100
AcDbLine
 10
395.0
 20
0.0
 30
0.0
 11
395.0
 21
25.0
 31
0.0
  0
LINE
  5
176
330
161
100
AcDbEntity
  8
0
  6
Continuous
 62
     7
370
    25
100
AcDbLine
 10
400.0
 20
20.0
 30
0.0
 11
-400.0
 21
20.0
 31
0.0
  0
LINE
  5
177
330
161
100
AcDbEntity
  8
0
  6
Continuous
 62
     7
370
    25
100
AcDbLine
 10
-395.0
 20
25.0
 30
0.0
 11
-395.0
 21
0.0
 31
0.0
  0
LINE
  5
178
330
161
100
AcDbEntity
  8
0
  6
Continuous
 62
     7
370
    25
100
AcDbLine
 10
-400.0
 20
0.0
 30
0.0
 11
-400.0
 21
20.0
 31
0.0
  0
LINE
  5
179
330
161
100
AcDbEntity
  8
0
  6
Continuous
 62
     7
370
    25
100
AcDbLine
 10
-400.0
 20
0.0
 30
0.0
 11
400.0
 21
0.0
 31
0.0
  0
LINE
  5
17A
330
161
100
AcDbEntity
  8
0
  6
Continuous
 62
     7
370
    25
100
AcDbLine
 10
400.0
 20
20.0
 30
0.0
 11
400.0
 21
0.0
 31
0.0
  0
ARC
  5
17B
330
161
100
AcDbEntity
  8
0
  6
Continuous
 62
     7
370
    25
100
AcDbCircle
 10
395.0
 20
20.0
 30
0.0
 40
5.0
100
AcDbArc
 50
0.0
 51
90.0
  0
ARC
  5
17C
330
161
100
AcDbEntity
  8
0
  6
Continuous
 62
     7
370
    25
100
AcDbCircle
 10
-395.0
 20
20.0
 30
0.0
 40
5.0
100
AcDbArc
 50
90.0
 51
180.0
  0
VIEWPORT
  5
457
330
161
100
AcDbEntity
  8
0
100
AcDbViewport
 10
0.0
 20
0.0
 30
0.0
 40
205.6
 41
156.0
 68
     1
 69
     1
 12
0.0
 22
0.0
 13
0.0
 23
0.0
 14
10.0
 24
10.0
 15
10.0
 25
10.0
 16
0.0
 26
0.0
 36
1.0
 17
0.0
 27
0.0
 37
0.0
 42
50.0
 43
0.0
 44
0.0
 45
816.0
 50
0.0
 51
0.0
 72
   100
 90
   557152
  1

281
     0
 71
     1
 74
     0
110
0.0
120
0.0
130
0.0
111
1.0
121
0.0
131
0.0
112
0.0
122
1.0
132
0.0
 79
     0
146
0.0
  0
ENDBLK
  5
164
330
161
100
AcDbEntity
  8
0
100
AcDbBlockEnd
  0
BLOCK
  5
17F
330
17D
100
AcDbEntity
  8
0
100
AcDbBlockBegin
  2
*Paper_Space2
 70
     0
 10
0.0
 20
0.0
 30
0.0
  3
*Paper_Space2
  1

  0
LINE
  5
190
330
17D
100
AcDbEntity
  8
0
  6
Continuous
 62
     7
370
    25
100
AcDbLine
 10
-395.0
 20
25.0
 30
0.0
 11
395.0
 21
25.0
 31
0.0
  0
LINE
  5
191
330
17D
100
AcDbEntity
  8
0
  6
Continuous
 62
     7
370
    25
100
AcDbLine
 10
395.0
 20
0.0
 30
0.0
 11
395.0
 21
25.0
 31
0.0
  0
LINE
  5
192
330
17D
100
AcDbEntity
  8
0
  6
Continuous
 62
     7
370
    25
100
AcDbLine
 10
400.0
 20
20.0
 30
0.0
 11
-400.0
 21
20.0
 31
0.0
  0
LINE
  5
193
330
17D
100
AcDbEntity
  8
0
  6
Continuous
 62
     7
370
    25
100
AcDbLine
 10
-395.0
 20
25.0
 30
0.0
 11
-395.0
 21
0.0
 31
0.0
  0
LINE
  5
194
330
17D
100
AcDbEntity
  8
0
  6
Continuous
 62
     7
370
    25
100
AcDbLine
 10
-400.0
 20
0.0
 30
0.0
 11
400.0
 21
0.0
 31
0.0
  0
LINE
  5
195
330
17D
100
AcDbEntity
  8
0
  6
Continuous
 62
     7
370
    25
100
AcDbLine
 10
400.0
 20
20.0
 30
0.0
 11
400.0
 21
0.0
 31
0.0
  0
LINE
  5
196
330
17D
100
AcDbEntity
  8
0
  6
Continuous
 62
     7
370
    25
100
AcDbLine
 10
-400.0
 20
0.0
 30
0.0
 11
-400.0
 21
20.0
 31
0.0
  0
ARC
  5
197
330
17D
100
AcDbEntity
  8
0
  6
Continuous
 62
     7
370
    25
100
AcDbCircle
 10
-395.0
 20
20.0
 30
0.0
 40
5.0
100
AcDbArc
 50
90.0
 51
180.0
  0
ARC
  5
198
330
17D
100
AcDbEntity
  8
0
  6
Continuous
 62
     7
370
    25
100
AcDbCircle
 10
395.0
 20
20.0
 30
0.0
 40
5.0
100
AcDbArc
 50
0.0
 51
90.0
  0
VIEWPORT
  5
459
330
17D
100
AcDbEntity
  8
0
100
AcDbViewport
 10
0.0
 20
0.0
 30
0.0
 40
205.6
 41
156.0
 68
     1
 69
     1
 12
0.0
 22
0.0
 13
0.0
 23
0.0
 14
10.0
 24
10.0
 15
10.0
 25
10.0
 16
0.0
 26
0.0
 36
1.0
 17
0.0
 27
0.0
 37
0.0
 42
50.0
 43
0.0
 44
0.0
 45
816.0
 50
0.0
 51
0.0
 72
   100
 90
   557152
  1

281
     0
 71
     1
 74
     0
110
0.0
120
0.0
130
0.0
111
1.0
121
0.0
131
0.0
112
0.0
122
1.0
132
0.0
 79
     0
146
0.0
  0
ENDBLK
  5
180
330
17D
100
AcDbEntity
  8
0
100
AcDbBlockEnd
  0
BLOCK
  5
19B
330
199
100
AcDbEntity
  8
0
100
AcDbBlockBegin
  2
*Paper_Space3
 70
     0
 10
0.0
 20
0.0
 30
0.0
  3
*Paper_Space3
  1

  0
CIRCLE
  5
1A5
330
199
100
AcDbEntity
  8
0
  6
Continuous
 62
     7
370
    25
100
AcDbCircle
 10
0.0
 20
0.0
 30
0.0
 40
45.00000000000004
  0
LINE
  5
1A6
330
199
100
AcDbEntity
  8
0
  6
Continuous
 62
     7
370
    25
100
AcDbLine
 10
-495.0
 20
400.0
 30
0.0
 11
495.0
 21
400.0
 31
0.0
  0
LINE
  5
1A7
330
199
100
AcDbEntity
  8
0
  6
Continuous
 62
     7
370
    25
100
AcDbLine
 10
500.0
 20
395.0
 30
0.0
 11
500.0
 21
-395.0
 31
0.0
  0
LINE
  5
1A8
330
199
100
AcDbEntity
  8
0
  6
Continuous
 62
     7
370
    25
100
AcDbLine
 10
495.0
 20
-400.0
 30
0.0
 11
-495.0
 21
-400.0
 31
0.0
  0
LINE
  5
1A9
330
199
100
AcDbEntity
  8
0
  6
Continuous
 62
     7
370
    25
100
AcDbLine
 10
-500.0
 20
-395.0
 30
0.0
 11
-500.0
 21
395.0
 31
0.0
  0
ARC
  5
1AA
330
199
100
AcDbEntity
  8
0
  6
Continuous
 62
     7
370
    25
100
AcDbCircle
 10
-495.0
 20
395.0
 30
0.0
 40
5.0
100
AcDbArc
 50
90.0
 51
180.0
  0
ARC
  5
1AB
330
199
100
AcDbEntity
  8
0
  6
Continuous
 62
     7
370
    25
100
AcDbCircle
 10
495.0
 20
395.0
 30
0.0
 40
5.0
100
AcDbArc
 50
0.0
 51
90.0
  0
ARC
  5
1AC
330
199
100
AcDbEntity
  8
0
  6
Continuous
 62
     7
370
    25
100
AcDbCircle
 10
495.0
 20
-395.0
 30
0.0
 40
5.0
100
AcDbArc
 50
270.0
 51
0.0
  0
ARC
  5
1AD
330
199
100
AcDbEntity
  8
0
  6
Continuous
 62
     7
370
    25
100
AcDbCircle
 10
-495.0
 20
-395.0
 30
0.0
 40
5.0
100
AcDbArc
 50
180.0
 51
270.0
  0
VIEWPORT
  5
45B
330
199
100
AcDbEntity
  8
0
100
AcDbViewport
 10
0.0
 20
0.0
 30
0.0
 40
205.6
 41
156.0
 68
     1
 69
     1
 12
0.0
 22
0.0
 13
0.0
 23
0.0
 14
10.0
 24
10.0
 15
10.0
 25
10.0
 16
0.0
 26
0.0
 36
1.0
 17
0.0
 27
0.0
 37
0.0
 42
50.0
 43
0.0
 44
0.0
 45
816.0
 50
0.0
 51
0.0
 72
   100
 90
   557152
  1

281
     0
 71
     1
 74
     0
110
0.0
120
0.0
130
0.0
111
1.0
121
0.0
131
0.0
112
0.0
122
1.0
132
0.0
 79
     0
146
0.0
  0
ENDBLK
  5
19C
330
199
100
AcDbEntity
  8
0
100
AcDbBlockEnd
  0
BLOCK
  5
1B0
330
1AE
100
AcDbEntity
  8
0
100
AcDbBlockBegin
  2
*Paper_Space4
 70
     0
 10
0.0
 20
0.0
 30
0.0
  3
*Paper_Space4
  1

  0
SPLINE
  5
1B2
330
1AE
100
AcDbEntity
  8
0
  6
Continuous
 62
     7
370
    25
100
AcDbSpline
210
0.0
220
0.0
230
1.0
 70
     8
 71
     3
 72
    14
 73
    10
 74
     0
 42
0.000000001
 43
0.00000001
 40
0.0
 40
0.0
 40
0.0
 40
0.0
 40
0.0921576924548193
 40
0.248975888339421
 40
0.4215221065608052
 40
0.6064499300097779
 40
0.7941582977256106
 40
0.9519955072591748
 40
1.0
 40
1.0
 40
1.0
 40
1.0
 10
72.53918651076394
 20
-297.8866272127229
 30
0.0
 10
72.46669313108609
 20
-297.9251538931703
 30
0.0
 10
72.27084291909352
 20
-298.0292386877616
 30
0.0
 10
71.77106625558238
 20
-298.1941546066131
 30
0.0
 10
71.04688715607288
 20
-298.3050053037102
 30
0.0
 10
70.22944356057268
 20
-298.2949868391353
 30
0.0
 10
69.49826288446178
 20
-298.1569506418095
 30
0.0
 10
69.07168474746614
 20
-297.9912427620326
 30
0.0
 10
68.91800864248876
 20
-297.9064109103951
 30
0.0
 10
68.88216972654368
 20
-297.8866272127229
 30
0.0
  0
SPLINE
  5
1B5
330
1AE
100
AcDbEntity
  8
0
  6
Continuous
 62
     7
370
    25
100
AcDbSpline
210
0.0
220
0.0
230
1.0
 70
     8
 71
     3
 72
    11
 73
     7
 74
     0
 42
0.000000001
 43
0.00000001
 40
0.0
 40
0.0
 40
0.0
 40
0.0
 40
0.2152507755841969
 40
0.4847097099834827
 40
0.7838548741828069
 40
1.0
 40
1.0
 40
1.0
 40
1.0
 10
0.0258039693888448
 20
-46.89954978578027
 30
0.0
 10
-6.886694742242544
 20
-42.97291261232793
 30
0.0
 10
-22.45251668496284
 20
-34.13076484125069
 30
0.0
 10
-47.62143362218819
 20
-19.74819394484095
 30
0.0
 10
-72.81901872250087
 20
-5.062579707508955
 30
0.0
 10
-89.36670905151486
 20
4.643057765173479
 30
0.0
 10
-96.30785014702055
 20
8.7142119734194
 30
0.0
  0
SPLINE
  5
1B6
330
1AE
100
AcDbEntity
  8
0
  6
Continuous
 62
     7
370
    25
100
AcDbSpline
210
0.0
220
0.0
230
1.0
 70
     8
 71
     3
 72
     9
 73
     5
 74
     0
 42
0.000000001
 43
0.00000001
 40
0.0
 40
0.0
 40
0.0
 40
0.0
 40
0.3667519587315951
 40
1.0
 40
1.0
 40
1.0
 40
1.0
 10
10.099779212361
 20
-41.34045528533733
 30
0.0
 10
8.865394652345454
 20
-42.02600819563278
 30
0.0
 10
5.499674222972331
 20
-43.89526313476499
 30
0.0
 10
2.134462820866927
 20
-45.72787264594133
 30
0.0
 10
0.0034492920295698
 20
-46.88836902930359
 30
0.0
  0
SPLINE
  5
1B7
330
1AE
100
AcDbEntity
  8
0
  6
Continuous
 62
     7
370
    25
100
AcDbSpline
210
0.0
220
0.0
230
1.0
 70
     8
 71
     3
 72
    10
 73
     6
 74
     0
 42
0.000000001
 43
0.00000001
 40
0.0
 40
0.0
 40
0.0
 40
0.0
 40
0.279518342857969
 40
0.6525426972559104
 40
0.9999999999999999
 40
0.9999999999999999
 40
0.9999999999999999
 40
0.9999999999999999
 10
86.01410044544832
 20
2.477968313999178
 30
0.0
 10
78.95672745080381
 20
-1.65154594120457
 30
0.0
 10
62.48111027885179
 20
-11.29200224505661
 30
0.0
 10
37.23717914359865
 20
-25.89010451509735
 30
0.0
 10
19.04684784559077
 20
-36.25077388510415
 30
0.0
 10
10.27443374430955
 20
-41.247278928974
 30
0.0
  0
SPLINE
  5
1BA
330
1AE
100
AcDbEntity
  8
0
  6
Continuous
 62
     7
370
    25
100
AcDbSpline
210
0.0
220
0.0
230
1.0
 70
     8
 71
     3
 72
     9
 73
     5
 74
     0
 42
0.000000001
 43
0.00000001
 40
0.0
 40
0.0
 40
0.0
 40
0.0
 40
0.5578815206816738
 40
1.0
 40
1.0
 40
1.0
 40
1.0
 10
550.7772566452829
 20
-21.76576043602169
 30
0.0
 10
550.7721758880482
 20
-21.77621229926993
 30
0.0
 10
550.7630686546189
 20
-21.79494721494801
 30
0.0
 10
550.610724679489
 20
-21.89600562574426
 30
0.0
 10
550.543370592871
 20
-21.94068541664779
 30
0.0
  0
SPLINE
  5
1BD
330
1AE
100
AcDbEntity
  8
0
  6
Continuous
 62
     7
370
    25
100
AcDbSpline
210
0.0
220
0.0
230
1.0
 70
     8
 71
     3
 72
    46
 73
    42
 74
     0
 42
0.000000001
 43
0.00000001
 40
0.0
 40
0.0
 40
0.0
 40
0.0
 40
0.0004468760240939
 40
0.0280759727976397
 40
0.0556743966511618
 40
0.0830162812359502
 40
0.1100272060588175
 40
0.1367399201334546
 40
0.1632332157175599
 40
0.1895873036823198
 40
0.2158656611704541
 40
0.2421123344248121
 40
0.2683529468588254
 40
0.2946013425478305
 40
0.3208677849292842
 40
0.3471565019086787
 40
0.3734679474434556
 40
0.3998003095402523
 40
0.4261504702429099
 40
0.4525145925619953
 40
0.4788884630695021
 40
0.5052676797494481
 40
0.5316477460695704
 40
0.5580228557343128
 40
0.5843881817181714
 40
0.6107391624749116
 40
0.6370713271207182
 40
0.6633804577741792
 40
0.6896628922428644
 40
0.715916049972662
 40
0.7421393006194836
 40
0.768335337532762
 40
0.7945122535831007
 40
0.8206839887168929
 40
0.8468708967174347
 40
0.8731123892593825
 40
0.8994666247481321
 40
0.9260102371536195
 40
0.9528275441173231
 40
0.9799799043968302
 40
1.0
 40
1.0
 40
1.0
 40
1.0
 10
44.99517161017276
 20
2.19668850079802
 30
0.0
 10
44.99579206992919
 20
2.185502390766731
 30
0.0
 10
45.03477382393771
 20
1.48271033208168
 30
0.0
 10
44.82511432719811
 20
0.0888141829487894
 30
0.0
 10
44.33900145935473
 20
-1.974106309136607
 30
0.0
 10
43.50398001488133
 20
-4.010156743222201
 30
0.0
 10
42.37712712976763
 20
-6.000722150571629
 30
0.0
 10
40.95687194509156
 20
-7.931941093452693
 30
0.0
 10
39.25716608523014
 20
-9.792420773406826
 30
0.0
 10
37.28773203445798
 20
-11.57131781468579
 30
0.0
 10
35.06038028464457
 20
-13.25737749364594
 30
0.0
 10
32.5884790619943
 20
-14.83886366719202
 30
0.0
 10
29.8877162804558
 20
-16.30394607223885
 30
0.0
 10
26.97588983189999
 20
-17.6412296588091
 30
0.0
 10
23.87267448380956
 20
-18.84011103115524
 30
0.0
 10
20.59936217756135
 20
-19.89099094173905
 30
0.0
 10
17.17880227941693
 20
-20.7853719125394
 30
0.0
 10
13.63513922744484
 20
-21.51599243126422
 30
0.0
 10
9.993560203698213
 20
-22.07691287841198
 30
0.0
 10
6.280056743717313
 20
-22.46356924201952
 30
0.0
 10
2.52119979671522
 20
-22.67280597749025
 30
0.0
 10
-1.256074355084156
 20
-22.70289542138734
 30
0.0
 10
-5.024610507790516
 20
-22.55355074602256
 30
0.0
 10
-8.757286173981617
 20
-22.22594194571928
 30
0.0
 10
-12.42722993424315
 20
-21.72269668241988
 30
0.0
 10
-16.0080818372477
 20
-21.04788006829487
 30
0.0
 10
-19.47414901872348
 20
-20.20698388723113
 30
0.0
 10
-22.80060542640758
 20
-19.2069116831791
 30
0.0
 10
-25.96371549948192
 20
-18.05595240133018
 30
0.0
 10
-28.94107486066675
 20
-16.7637362298314
 30
0.0
 10
-31.71187137754691
 20
-15.34115979531156
 30
0.0
 10
-34.25717084558649
 20
-13.80025980625851
 30
0.0
 10
-36.56013347106882
 20
-12.15405625596553
 30
0.0
 10
-38.6062205865416
 20
-10.41636214802972
 30
0.0
 10
-40.38351913703035
 20
-8.601255417181227
 30
0.0
 10
-41.88330755448796
 20
-6.722324058940751
 30
0.0
 10
-43.09838975584896
 20
-4.791621920630413
 30
0.0
 10
-44.02775759870021
 20
-2.818833494407524
 30
0.0
 10
-44.65400346210144
 20
-0.8109354500672409
 30
0.0
 10
-44.98786405384042
 20
1.040224254724838
 30
0.0
 10
-44.97284189884988
 20
2.221263944686023
 30
0.0
 10
-44.96646646273044
 20
2.722499826128525
 30
0.0
  0
SPLINE
  5
1BE
330
1AE
100
AcDbEntity
  8
0
  6
Continuous
 62
     7
370
    25
100
AcDbSpline
210
0.0
220
0.0
230
1.0
 70
     8
 71
     3
 72
     9
 73
     5
 74
     0
 42
0.000000001
 43
0.00000001
 40
0.0
 40
0.0
 40
0.0
 40
0.0
 40
0.5424903445388513
 40
1.0
 40
1.0
 40
1.0
 40
1.0
 10
96.26259851429373
 20
8.677843064533848
 30
0.0
 10
94.44116380697524
 20
7.566835461230617
 30
0.0
 10
91.08362071767515
 20
5.51885872857991
 30
0.0
 10
87.72556081114394
 20
3.507208878896765
 30
0.0
 10
86.18921598028895
 20
2.586859649259754
 30
0.0
  0
SPLINE
  5
1C1
330
1AE
100
AcDbEntity
  8
0
  6
Continuous
 62
     7
370
    25
100
AcDbSpline
210
0.0
220
0.0
230
1.0
 70
     8
 71
     3
 72
     9
 73
     5
 74
     0
 42
0.000000001
 43
0.00000001
 40
0.0
 40
0.0
 40
0.0
 40
0.0
 40
0.3767948999165374
 40
1.0
 40
1.0
 40
1.0
 40
1.0
 10
-550.5433705928709
 20
59.70012576562419
 30
0.0
 10
-550.6015204286736
 20
59.73782040519687
 30
0.0
 10
-550.7558479841038
 20
59.83786061163563
 30
0.0
 10
-550.773679853094
 20
59.86545087331571
 30
0.0
 10
-550.7847927647929
 20
59.88264526510734
 30
0.0
  0
SPLINE
  5
1DF
330
1AE
100
AcDbEntity
  8
0
  6
Continuous
 62
     7
370
    25
100
AcDbSpline
210
0.0
220
0.0
230
1.0
 70
     8
 71
     3
 72
    10
 73
     6
 74
     0
 42
0.000000001
 43
0.00000001
 40
0.0
 40
0.0
 40
0.0
 40
0.0
 40
0.5
 40
0.5
 40
1.0
 40
1.0
 40
1.0
 40
1.0
 10
86.98444680301802
 20
2.391183846156442
 30
0.0
 10
74.35820382731686
 20
-4.991041780224641
 30
0.0
 10
61.72990707039345
 20
-12.36501861727252
 30
0.0
 10
36.48277596183914
 20
-26.93987717138838
 30
0.0
 10
23.86460568524044
 20
-34.14037552652385
 30
0.0
 10
11.2444331621272
 20
-41.33259534192101
 30
0.0
  0
SPLINE
  5
1E0
330
1AE
100
AcDbEntity
  8
0
  6
Continuous
 62
     7
370
    25
100
AcDbSpline
210
0.0
220
0.0
230
1.0
 70
     8
 71
     3
 72
     8
 73
     4
 74
     0
 42
0.000000001
 43
0.00000001
 40
0.0000000000000013
 40
0.0000000000000013
 40
0.0000000000000013
 40
0.0000000000000013
 40
0.0002508647251014
 40
0.0002508647251014
 40
0.0002508647251014
 40
0.0002508647251014
 10
11.2444331621291
 20
-41.33259534192204
 30
0.0
 10
11.19084442005548
 20
-41.36907257999322
 30
0.0
 10
11.13725883345328
 20
-41.40508826439432
 30
0.0
 10
11.08368371751317
 20
-41.4406377711495
 30
0.0
  0
SPLINE
  5
1E1
330
1AE
100
AcDbEntity
  8
0
  6
Continuous
 62
     7
370
    25
100
AcDbSpline
210
0.0
220
0.0
230
1.0
 70
     8
 71
     3
 72
     8
 73
     4
 74
     0
 42
0.000000001
 43
0.00000001
 40
0.0
 40
0.0
 40
0.0
 40
0.0
 40
1.0
 40
1.0
 40
1.0
 40
1.0
 10
11.08368371751228
 20
-41.44063777114908
 30
0.0
 10
7.397400825488322
 20
-43.47931471904562
 30
0.0
 10
3.711484977726137
 20
-45.50630617510347
 30
0.0
 10
0.0257427595456716
 20
-47.52446622587571
 30
0.0
  0
SPLINE
  5
1E2
330
1AE
100
AcDbEntity
  8
0
  6
Continuous
 62
     7
370
    25
100
AcDbSpline
210
0.0
220
0.0
230
1.0
 70
     8
 71
     3
 72
     8
 73
     4
 74
     0
 42
0.000000001
 43
0.00000001
 40
0.0
 40
0.0
 40
0.0
 40
0.0
 40
1.0
 40
1.0
 40
1.0
 40
1.0
 10
-98.24012840945898
 20
9.20321371737185
 30
0.0
 10
-94.55258663174278
 20
11.22033553600927
 30
0.0
 10
-90.86483795146755
 20
13.24626765127495
 30
0.0
 10
-87.1770036581561
 20
15.28404963190373
 30
0.0
  0
SPLINE
  5
1E3
330
1AE
100
AcDbEntity
  8
0
  6
Continuous
 62
     7
370
    25
100
AcDbSpline
210
0.0
220
0.0
230
1.0
 70
     8
 71
     3
 72
    14
 73
    10
 74
     0
 42
0.000000001
 43
0.00000001
 40
0.0
 40
0.0
 40
0.0
 40
0.0
 40
0.25
 40
0.25
 40
0.5
 40
0.5
 40
0.75
 40
0.75
 40
1.0
 40
1.0
 40
1.0
 40
1.0
 10
0.0257427595456716
 20
-47.52446622587571
 30
0.0
 10
-8.160982983251984
 20
-42.86960884868419
 30
0.0
 10
-16.34693691783978
 20
-38.21634014053438
 30
0.0
 10
-32.71861162374428
 20
-28.87960779535259
 30
0.0
 10
-40.90454453275678
 20
-24.19320065463406
 30
0.0
 10
-57.28268921804671
 20
-14.73829898020642
 30
0.0
 10
-65.47449234304275
 20
-9.970040356583379
 30
0.0
 10
-81.85794568843215
 20
-0.3976397702553681
 30
0.0
 10
-90.0494130800043
 20
4.403575608478694
 30
0.0
 10
-98.24012840945898
 20
9.20321371737185
 30
0.0
  0
SPLINE
  5
1E4
330
1AE
100
AcDbEntity
  8
0
  6
Continuous
 62
     7
370
    25
100
AcDbSpline
210
0.0
220
0.0
230
1.0
 70
     8
 71
     3
 72
     8
 73
     4
 74
     0
 42
0.000000001
 43
0.00000001
 40
0.0
 40
0.0
 40
0.0
 40
0.0
 40
0.0002508647251016
 40
0.0002508647251016
 40
0.0002508647251016
 40
0.0002508647251016
 10
87.17700365815807
 20
2.487100802377129
 30
0.0
 10
87.1128250017722
 20
2.454672503317147
 30
0.0
 10
87.048636461941
 20
2.422698631730127
 30
0.0
 10
86.98444680302495
 20
2.39118384616032
 30
0.0
  0
SPLINE
  5
1E5
330
1AE
100
AcDbEntity
  8
0
  6
Continuous
 62
     7
370
    25
100
AcDbSpline
210
0.0
220
0.0
230
1.0
 70
     8
 71
     3
 72
     8
 73
     4
 74
     0
 42
0.000000001
 43
0.00000001
 40
0.0
 40
0.0
 40
0.0
 40
0.0
 40
1.0
 40
1.0
 40
1.0
 40
1.0
 10
98.240128409459
 20
9.17349175984971
 30
0.0
 10
94.55258663174286
 20
6.935145545384408
 30
0.0
 10
90.86483795146773
 20
4.705411106730804
 30
0.0
 10
87.17700365815634
 20
2.487100802378333
 30
0.0
  0
SPLINE
  5
1E6
330
1AE
100
AcDbEntity
  8
0
  6
Continuous
 62
     7
370
    25
100
AcDbSpline
210
0.0
220
0.0
230
1.0
 70
     8
 71
     3
 72
    14
 73
    10
 74
     0
 42
0.000000001
 43
0.00000001
 40
0.0
 40
0.0
 40
0.0
 40
0.0
 40
0.25
 40
0.25
 40
0.5
 40
0.5
 40
0.75
 40
0.75
 40
1.0
 40
1.0
 40
1.0
 40
1.0
 10
-0.0257427595456161
 20
65.90117170309728
 30
0.0
 10
8.16098298325206
 20
61.09923041048614
 30
0.0
 10
16.34693691783985
 20
56.29483213745414
 30
0.0
 10
32.71861162374434
 20
46.71563178559991
 30
0.0
 10
40.90454453275683
 20
41.9439842164404
 30
0.0
 10
57.28268921804676
 20
32.48908254385537
 30
0.0
 10
65.47449234304278
 20
27.80606434892233
 30
0.0
 10
81.85794568843215
 20
18.47613176861373
 30
0.0
 10
90.04941308000433
 20
13.82604595400811
 30
0.0
 10
98.240128409459
 20
9.17349175984971
 30
0.0
  0
SPLINE
  5
1E7
330
1AE
100
AcDbEntity
  8
0
  6
Continuous
 62
     7
370
    25
100
AcDbSpline
210
0.0
220
0.0
230
1.0
 70
     8
 71
     3
 72
     8
 73
     4
 74
     0
 42
0.000000001
 43
0.00000001
 40
0.0
 40
0.0
 40
0.0
 40
0.0
 40
1.0
 40
1.0
 40
1.0
 40
1.0
 10
-11.08368371751223
 20
59.21178820543108
 30
0.0
 10
-7.397400825476866
 20
61.43099344943201
 30
0.0
 10
-3.711484977737489
 20
63.66178729018549
 30
0.0
 10
-0.0257427595456369
 20
65.90117170309726
 30
0.0
  0
SPLINE
  5
1E8
330
1AE
100
AcDbEntity
  8
0
  6
Continuous
 62
     7
370
    25
100
AcDbSpline
210
0.0
220
0.0
230
1.0
 70
     8
 71
     3
 72
    14
 73
    10
 74
     0
 42
0.000000001
 43
0.00000001
 40
0.0
 40
0.0
 40
0.0
 40
0.0
 40
0.5
 40
0.5
 40
0.75
 40
0.75
 40
0.875
 40
0.875
 40
1.0
 40
1.0
 40
1.0
 40
1.0
 10
-70.06346495878648
 20
333.1335798863843
 30
0.0
 10
-60.21756729126538
 20
287.4815688551046
 30
0.0
 10
-50.37252956104773
 20
241.8294504006885
 30
0.0
 10
-35.61414334053637
 20
173.3502648243558
 30
0.0
 10
-30.69603631637827
 20
150.5237146912365
 30
0.0
 10
-23.32715884350006
 20
116.2830483751456
 30
0.0
 10
-20.87224236540824
 20
104.8693511038169
 30
0.0
 10
-15.96942181039462
 20
82.04130695550721
 30
0.0
 10
-13.52074291195724
 20
70.62700436936763
 30
0.0
 10
-11.08368371751232
 20
59.21178820543102
 30
0.0
  0
SPLINE
  5
1EA
330
1AE
100
AcDbEntity
  8
0
  6
Continuous
 62
     7
370
    25
100
AcDbSpline
210
0.0
220
0.0
230
1.0
 70
     8
 71
     3
 72
    14
 73
    10
 74
     0
 42
0.000000001
 43
0.00000001
 40
0.0
 40
0.0
 40
0.0
 40
0.0
 40
0.125
 40
0.125
 40
0.2499999999999999
 40
0.2499999999999999
 40
0.5
 40
0.5
 40
1.0
 40
1.0
 40
1.0
 40
1.0
 10
-11.24443316212639
 20
59.09750922196521
 30
0.0
 10
-13.73559607523875
 20
70.52377226622608
 30
0.0
 10
-16.2150801159051
 20
81.95084812212946
 30
0.0
 10
-21.16857599857895
 20
104.8053037568381
 30
0.0
 10
-23.64180604449548
 20
116.2327486220193
 30
0.0
 10
-31.05735631574841
 20
150.5153169254016
 30
0.0
 10
-35.99551827763828
 20
173.370679911882
 30
0.0
 10
-50.80593084026444
 20
241.9369799833503
 30
0.0
 10
-60.67341154946393
 20
287.6481759272419
 30
0.0
 10
-70.54003174658446
 20
333.359413058041
 30
0.0
  0
SPLINE
  5
1EB
330
1AE
100
AcDbEntity
  8
0
  6
Continuous
 62
     7
370
    25
100
AcDbSpline
210
0.0
220
0.0
230
1.0
 70
     8
 71
     3
 72
    10
 73
     6
 74
     0
 42
0.000000001
 43
0.00000001
 40
0.0
 40
0.0
 40
0.0
 40
0.0
 40
0.5
 40
0.5
 40
1.0
 40
1.0
 40
1.0
 40
1.0
 10
-86.9844468030124
 20
15.37373003389424
 30
0.0
 10
-74.35820382731345
 20
22.56244546817871
 30
0.0
 10
-61.72990707039229
 20
29.7570979888593
 30
0.0
 10
-36.48277596184239
 20
44.33195654354156
 30
0.0
 10
-23.86460568524494
 20
51.71177921469501
 30
0.0
 10
-11.24443316213389
 20
59.0975092219647
 30
0.0
  0
SPLINE
  5
1EC
330
1AE
100
AcDbEntity
  8
0
  6
Continuous
 62
     7
370
    25
100
AcDbSpline
210
0.0
220
0.0
230
1.0
 70
     8
 71
     3
 72
     8
 73
     4
 74
     0
 42
0.000000001
 43
0.00000001
 40
0.0
 40
0.0
 40
0.0
 40
0.0
 40
0.000250864725056
 40
0.000250864725056
 40
0.000250864725056
 40
0.000250864725056
 10
-87.17700365815786
 20
15.28404963190495
 30
0.0
 10
-87.11282500176759
 20
15.31347784505859
 30
0.0
 10
-87.04863646194335
 20
15.34337257485837
 30
0.0
 10
-86.9844468030229
 20
15.37373003390174
 30
0.0
  0
SPLINE
  5
1ED
330
1AE
100
AcDbEntity
  8
0
  6
Continuous
 62
     7
370
    25
100
AcDbSpline
210
0.0
220
0.0
230
1.0
 70
     8
 71
     3
 72
    11
 73
     7
 74
     0
 42
0.000000001
 43
0.00000001
 40
0.0
 40
0.0
 40
0.0
 40
0.0
 40
0.0044033239665569
 40
0.4087037465301875
 40
0.9364668600788475
 40
1.0
 40
1.0
 40
1.0
 40
1.0
 10
0.0257427595456716
 20
-47.52446622587571
 30
0.0
 10
0.0257418844135313
 20
-47.52280521870984
 30
0.0
 10
0.0256606571882867
 20
-47.36863535592782
 30
0.0
 10
0.0244648959783766
 20
-47.08606520545959
 30
0.0
 10
0.0218834878615293
 20
-46.859632844757
 30
0.0
 10
0.0184915807109262
 20
-46.90624508332353
 30
0.0
 10
0.0181271297097149
 20
-46.91125343887714
 30
0.0
  0
SPLINE
  5
1EE
330
1AE
100
AcDbEntity
  8
0
  6
Continuous
 62
     7
370
    25
100
AcDbSpline
210
0.0
220
0.0
230
1.0
 70
     8
 71
     3
 72
    11
 73
     7
 74
     0
 42
0.000000001
 43
0.00000001
 40
0.0
 40
0.0
 40
0.0
 40
0.0
 40
0.0043705971216846
 40
0.4056661358045405
 40
0.9295067531491571
 40
1.0
 40
1.0
 40
1.0
 40
1.0
 10
-98.24012840945898
 20
9.20321371737185
 30
0.0
 10
-98.2371477223484
 20
9.203153497613682
 30
0.0
 10
-97.96048899848797
 20
9.197564074494839
 30
0.0
 10
-97.33743346628276
 20
9.120214709559049
 30
0.0
 10
-96.65464181766662
 20
8.950921011555701
 30
0.0
 10
-96.35291389273415
 20
8.726880433355438
 30
0.0
 10
-96.31712629526511
 20
8.70030724152655
 30
0.0
  0
LWPOLYLINE
  5
1EF
330
1AE
100
AcDbEntity
  8
0
  6
Continuous
 62
     7
370
    25
100
AcDbPolyline
 90
       73
 70
   128
 43
0.0
 10
33.2340187158
 20
23.2682946873
 10
36.0040888266
 20
21.5231533214
 10
38.5001460816
 20
19.6452796059
 10
40.7031939779
 20
17.6489652934
 10
42.5964659907
 20
15.5494035415
 10
44.1655531769
 20
13.3625732827
 10
45.3985138356
 20
11.1051176158
 10
46.2859643916
 20
8.7942171415
 10
46.8211508103
 20
6.4474592077
 10
47.0
 20
4.0827040594
 10
46.8211508103
 20
1.7179489111
 10
46.2859643916
 20
-0.6288090227
 10
45.3985138356
 20
-2.939709497
 10
44.1655531769
 20
-5.1971651639
 10
42.5964659907
 20
-7.3839954226
 10
40.7031939779
 20
-9.4835571746
 10
38.5001460816
 20
-11.479871487
 10
36.0040888266
 20
-13.3577452026
 10
33.2340187158
 20
-15.1028865684
 10
30.2110176553
 20
-16.702014005
 10
26.9580925085
 20
-18.142957187
 10
23.5
 20
-19.4147496666
 10
19.8630583018
 20
-20.5077123353
 10
16.0749467363
 20
-21.4135270871
 10
12.1644951198
 20
-22.1253001248
 10
8.1614643503
 20
-22.6376144259
 10
4.0963199091
 20
-22.9465709691
 10
0.0
 20
-23.0498184086
 10
-4.0963199091
 20
-22.9465709691
 10
-8.1614643503
 20
-22.6376144259
 10
-12.1644951198
 20
-22.1253001248
 10
-16.0749467363
 20
-21.4135270871
 10
-19.8630583018
 20
-20.5077123353
 10
-23.5
 20
-19.4147496666
 10
-26.9580925085
 20
-18.142957187
 10
-30.2110176553
 20
-16.702014005
 10
-33.2340187158
 20
-15.1028865684
 10
-36.0040888266
 20
-13.3577452026
 10
-38.5001460816
 20
-11.479871487
 10
-40.7031939779
 20
-9.4835571746
 10
-42.5964659907
 20
-7.3839954226
 10
-44.1655531769
 20
-5.1971651639
 10
-45.3985138356
 20
-2.939709497
 10
-46.2859643916
 20
-0.6288090226
 10
-46.8211508103
 20
1.7179489111
 10
-47.0
 20
4.0827040594
 10
-46.8211508103
 20
6.4474592077
 10
-46.2859643916
 20
8.7942171415
 10
-45.3985138356
 20
11.1051176158
 10
-44.1655531769
 20
13.3625732827
 10
-42.5964659907
 20
15.5494035415
 10
-40.7031939779
 20
17.6489652934
 10
-38.5001460816
 20
19.6452796059
 10
-36.0040888266
 20
21.5231533214
 10
-33.2340187158
 20
23.2682946873
 10
-30.2110176553
 20
24.8674221239
 10
-26.9580925085
 20
26.3083653058
 10
-23.5
 20
27.5801577855
 10
-19.8630583018
 20
28.6731204541
 10
-16.0749467363
 20
29.5789352059
 10
-12.1644951198
 20
30.2907082437
 10
-8.1614643503
 20
30.8030225447
 10
-4.0963199091
 20
31.1119790879
 10
0.0
 20
31.2152265274
 10
4.0963199091
 20
31.1119790879
 10
8.1614643503
 20
30.8030225447
 10
12.1644951198
 20
30.2907082437
 10
16.0749467363
 20
29.5789352059
 10
19.8630583018
 20
28.6731204541
 10
23.5
 20
27.5801577855
 10
26.9580925085
 20
26.3083653058
 10
30.2110176553
 20
24.8674221239
 10
33.2340187158
 20
23.2682946873
  0
SPLINE
  5
1F6
330
1AE
100
AcDbEntity
  8
0
  6
Continuous
 62
     7
370
    25
100
AcDbSpline
210
0.0
220
0.0
230
1.0
 70
     8
 71
     3
 72
     8
 73
     4
 74
     0
 42
0.000000001
 43
0.00000001
 40
0.0
 40
0.0
 40
0.0
 40
0.0
 40
0.0005550165122555
 40
0.0005550165122555
 40
0.0005550165122555
 40
0.0005550165122555
 10
549.5293157245112
 20
-21.33955143052082
 30
0.0
 10
549.660134370995
 20
-21.41506940627752
 30
0.0
 10
549.7909639782122
 20
-21.48863239414525
 30
0.0
 10
549.921738565452
 20
-21.56020660746264
 30
0.0
  0
LWPOLYLINE
  5
1F7
330
1AE
100
AcDbEntity
  8
0
  6
Continuous
 62
     7
370
    25
100
AcDbPolyline
 90
        4
 70
   128
 43
0.0
 10
-68.6967045177
 20
335.5547333468
 10
111.7601504984
 20
231.3767489813
 10
292.8167655681
 20
126.8544304457
 10
549.5293157245
 20
-21.3395514305
  0
SPLINE
  5
1F9
330
1AE
100
AcDbEntity
  8
0
  6
Continuous
 62
     7
370
    25
100
AcDbSpline
210
0.0
220
0.0
230
1.0
 70
     8
 71
     3
 72
     8
 73
     4
 74
     0
 42
0.000000001
 43
0.00000001
 40
0.0
 40
0.0
 40
0.0
 40
0.0
 40
0.0005550165122372
 40
0.0005550165122372
 40
0.0005550165122372
 40
0.0005550165122372
 10
-69.0891273585855
 20
335.7871599379164
 30
0.0
 10
-68.95835277134995
 20
335.7077450267033
 30
0.0
 10
-68.82752316413718
 20
335.6302553653268
 30
0.0
 10
-68.69670451765772
 20
335.5547333468325
 30
0.0
  0
LWPOLYLINE
  5
1FE
330
1AE
100
AcDbEntity
  8
0
  6
Continuous
 62
     7
370
    25
100
AcDbPolyline
 90
       37
 70
   128
 43
0.0
 10
44.9952953249
 20
0.3756358528
 10
44.9752230277
 20
0.8619417096
 10
44.66726765
 20
3.1532383156
 10
44.0097303407
 20
5.4198565565
 10
43.007757221
 20
7.6440570713
 10
41.6691900889
 20
9.8084324754
 10
40.0045050472
 20
11.8960435965
 10
38.0267305134
 20
13.8905520473
 10
35.7513452548
 20
15.7763480947
 10
33.1961572461
 20
17.538672828
 10
30.3811642979
 20
19.1637336666
 10
27.3283975468
 20
20.6388123061
 10
24.0617490317
 20
21.9523642562
 10
20.6067847062
 20
23.0941091918
 10
16.9905443508
 20
24.0551114109
 10
13.2413299492
 20
24.827849768
 10
9.3884841874
 20
25.4062765379
 10
5.4621608075
 20
25.7858647468
 10
1.4930886135
 20
25.9636436022
 10
-2.4876690234
 20
25.9382217437
 10
-6.4489572773
 20
25.7097981316
 10
-10.3597736966
 20
25.2801604906
 10
-14.1895108405
 20
24.6526713176
 10
-17.9081958232
 20
23.8322415662
 10
-21.4867248928
 20
22.8252922116
 10
-24.8970912073
 20
21.6397039978
 10
-28.1126040263
 20
20.28475576
 10
-31.1080976024
 20
18.7710518053
 10
-33.8601281368
 20
17.1104389195
 10
-36.3471572593
 20
15.31591365
 10
-38.549720595
 20
13.40152059
 10
-40.4505800993
 20
11.382242461
 10
-42.0348589695
 20
9.2738828521
 10
-43.2901580752
 20
7.0929425359
 10
-44.2066529991
 20
4.8564903274
 10
-44.7771709256
 20
2.5820294974
 10
-44.96288395
 20
1.0548844086
  0
SPLINE
  5
1FF
330
1AE
100
AcDbEntity
  8
0
  6
Continuous
 62
     7
370
    25
100
AcDbSpline
210
0.0
220
0.0
230
1.0
 70
     8
 71
     3
 72
    11
 73
     7
 74
     0
 42
0.000000001
 43
0.00000001
 40
0.0
 40
0.0
 40
0.0
 40
0.0
 40
0.0927513975341089
 40
0.6040480249019543
 40
0.9957340620526034
 40
0.9999999999999999
 40
0.9999999999999999
 40
0.9999999999999999
 40
0.9999999999999999
 10
96.27924264683884
 20
8.652862858790067
 30
0.0
 10
96.32729377190428
 20
8.688267590724442
 30
0.0
 10
96.64022908028534
 20
8.91884264366934
 30
0.0
 10
97.33662603476478
 20
9.092884299561419
 30
0.0
 10
97.96049028430764
 20
9.167935451347333
 30
0.0
 10
98.237147736054
 20
9.17343253494618
 30
0.0
 10
98.24012840945899
 20
9.1734917598497
 30
0.0
  0
SPLINE
  5
200
330
1AE
100
AcDbEntity
  8
0
  6
Continuous
 62
     7
370
    25
100
AcDbSpline
210
0.0
220
0.0
230
1.0
 70
     8
 71
     3
 72
    18
 73
    14
 74
     0
 42
0.000000001
 43
0.00000001
 40
0.0
 40
0.0
 40
0.0
 40
0.0
 40
0.125
 40
0.125
 40
0.2500000000000001
 40
0.2500000000000001
 40
0.3750000000000001
 40
0.3750000000000001
 40
0.5000000000000001
 40
0.5000000000000001
 40
0.75
 40
0.75
 40
1.0
 40
1.0
 40
1.0
 40
1.0
 10
-0.0002275754020717
 20
62.65085895660777
 30
0.0
 10
-0.0022457832959608
 20
62.78195923733993
 30
0.0
 10
-0.0041924872474924
 20
62.92391140331146
 30
0.0
 10
-0.0079634165531181
 20
63.22706355081228
 30
0.0
 10
-0.0097405718440524
 20
63.38480174420165
 30
0.0
 10
-0.0129990191957141
 20
63.69958233778374
 30
0.0
 10
-0.0144923380765299
 20
63.85782082489109
 30
0.0
 10
-0.0171450134708387
 20
64.16290976038547
 30
0.0
 10
-0.0183279931886479
 20
64.31220912218555
 30
0.0
 10
-0.0214814598170077
 20
64.74809700303797
 30
0.0
 10
-0.0229887459500949
 20
65.0113692915005
 30
0.0
 10
-0.0250906068974058
 20
65.49636443516782
 30
0.0
 10
-0.0256536748543326
 20
65.71459652703246
 30
0.0
 10
-0.0257427595456439
 20
65.90117170309729
 30
0.0
  0
SPLINE
  5
202
330
1AE
100
AcDbEntity
  8
0
  6
Continuous
 62
     7
370
    25
100
AcDbSpline
210
0.0
220
0.0
230
1.0
 70
     8
 71
     3
 72
     8
 73
     4
 74
     0
 42
0.000000001
 43
0.00000001
 40
0.0
 40
0.0
 40
0.0
 40
0.0
 40
0.000035891426921
 40
0.000035891426921
 40
0.000035891426921
 40
0.000035891426921
 10
-0.0002275754020717
 20
62.65085895660777
 30
0.0
 10
-0.0000758645595719
 20
62.64100400851147
 30
0.0
 10
0.0000000000001735
 20
62.63119088181396
 30
0.0
 10
0.0000000000001735
 20
62.62142194352136
 30
0.0
  0
SPLINE
  5
204
330
1AE
100
AcDbEntity
  8
0
  6
Continuous
 62
     7
370
    25
100
AcDbSpline
210
0.0
220
0.0
230
1.0
 70
     8
 71
     3
 72
     8
 73
     4
 74
     0
 42
0.000000001
 43
0.00000001
 40
0.0
 40
0.0
 40
0.0
 40
0.0
 40
0.000278975405222
 40
0.000278975405222
 40
0.000278975405222
 40
0.000278975405222
 10
-85.60909220263093
 20
12.93623669037001
 30
0.0
 10
-85.67484588995958
 20
12.89878150664495
 30
0.0
 10
-85.74059814287524
 20
12.86188020103078
 30
0.0
 10
-85.80633850733584
 20
12.82553835568653
 30
0.0
  0
SPLINE
  5
205
330
1AE
100
AcDbEntity
  8
0
  6
Continuous
 62
     7
370
    25
100
AcDbSpline
210
0.0
220
0.0
230
1.0
 70
     8
 71
     3
 72
    10
 73
     6
 74
     0
 42
0.000000001
 43
0.00000001
 40
0.0
 40
0.0
 40
0.0
 40
0.0
 40
0.5
 40
0.5
 40
1.0
 40
1.0
 40
1.0
 40
1.0
 10
-9.850323257603675
 20
56.67084308506151
 30
0.0
 10
-22.47665706743447
 20
49.2851097726377
 30
0.0
 10
-35.10301735060475
 20
41.90654171315947
 30
0.0
 10
-60.35639804508313
 20
27.32807534933723
 30
0.0
 10
-72.9827583784951
 20
20.12855810030578
 30
0.0
 10
-85.60909220263093
 20
12.93623669037
 30
0.0
  0
SPLINE
  5
206
330
1AE
100
AcDbEntity
  8
0
  6
Continuous
 62
     7
370
    25
100
AcDbSpline
210
0.0
220
0.0
230
1.0
 70
     8
 71
     3
 72
     8
 73
     4
 74
     0
 42
0.000000001
 43
0.00000001
 40
0.0
 40
0.0
 40
0.0
 40
0.0
 40
0.0002789754052943
 40
0.0002789754052943
 40
0.0002789754052943
 40
0.0002789754052943
 10
-9.653076952847652
 20
56.78788048632879
 30
0.0
 10
-9.718817317325282
 20
56.74832012248046
 30
0.0
 10
-9.784569570257966
 20
56.70930549278332
 30
0.0
 10
-9.850323257603675
 20
56.67084308506153
 30
0.0
  0
SPLINE
  5
207
330
1AE
100
AcDbEntity
  8
0
  6
Continuous
 62
     7
370
    25
100
AcDbSpline
210
0.0
220
0.0
230
1.0
 70
     8
 71
     3
 72
     8
 73
     4
 74
     0
 42
0.000000001
 43
0.00000001
 40
0.0
 40
0.0
 40
0.0
 40
0.0
 40
1.0
 40
1.0
 40
1.0
 40
1.0
 10
0.0000000000001735
 20
62.62142194352136
 30
0.0
 10
-3.217538805086822
 20
60.66942393976374
 30
0.0
 10
-6.435218214369251
 20
58.72428080169394
 30
0.0
 10
-9.653076952847652
 20
56.78788048632879
 30
0.0
  0
LWPOLYLINE
  5
210
330
1AE
100
AcDbEntity
  8
0
  6
Continuous
 62
     7
370
    25
100
AcDbPolyline
 90
        4
 70
   128
 43
0.0
 10
-550.1290757631
 20
59.9671270684
 10
-369.1731459419
 20
164.4298479728
 10
-220.6490188121
 20
250.1710932166
 10
-72.124891681
 20
335.9130688644
  0
SPLINE
  5
213
330
1AE
100
AcDbEntity
  8
0
  6
Continuous
 62
     7
370
    25
100
AcDbSpline
210
0.0
220
0.0
230
1.0
 70
     8
 71
     3
 72
     8
 73
     4
 74
     0
 42
0.000000001
 43
0.00000001
 40
0.000000000000004
 40
0.000000000000004
 40
0.000000000000004
 40
0.000000000000004
 40
0.0002508647251015
 40
0.0002508647251015
 40
0.0002508647251015
 40
0.0002508647251015
 10
-11.24443316220895
 20
59.09750922200982
 30
0.0
 10
-11.19084442013525
 20
59.13514378660903
 30
0.0
 10
-11.13725883346146
 20
59.17323861277163
 30
0.0
 10
-11.0836837175213
 20
59.21178820543552
 30
0.0
  0
SPLINE
  5
214
330
1AE
100
AcDbEntity
  8
0
  6
Continuous
 62
     7
370
    25
100
AcDbSpline
210
0.0
220
0.0
230
1.0
 70
     8
 71
     3
 72
     8
 73
     4
 74
     0
 42
0.000000001
 43
0.00000001
 40
0.0000000000000001
 40
0.0000000000000001
 40
0.0000000000000001
 40
0.0000000000000001
 40
0.0006105840372009
 40
0.0006105840372009
 40
0.0006105840372009
 40
0.0006105840372009
 10
-70.06346495878637
 20
333.1335798863844
 30
0.0
 10
-70.22232384967744
 20
333.2064158141663
 30
0.0
 10
-70.38121393564636
 20
333.281711019707
 30
0.0
 10
-70.54003174658428
 20
333.3594130580409
 30
0.0
  0
SPLINE
  5
21E
330
1AE
100
AcDbEntity
  8
0
  6
Continuous
 62
     8
370
    25
100
AcDbSpline
210
0.0
220
0.0
230
1.0
 70
     8
 71
     3
 72
    11
 73
     7
 74
     0
 42
0.000000001
 43
0.00000001
 40
0.0
 40
0.0
 40
0.0
 40
0.0
 40
0.2056057832205911
 40
0.5030848405528621
 40
0.7812498097462751
 40
1.0
 40
1.0
 40
1.0
 40
1.0
 10
11.24443316212735
 20
-41.33259534192216
 30
0.0
 10
15.29880529301532
 20
-58.93925927754307
 30
0.0
 10
25.21921280811612
 20
-102.0199819107992
 30
0.0
 10
40.53705952520209
 20
-168.9284948726466
 30
0.0
 10
56.11748560439292
 20
-236.9624511056718
 30
0.0
 10
65.85800309895131
 20
-279.5200352353876
 30
0.0
 10
70.1459384025854
 20
-298.2545806565252
 30
0.0
  0
SPLINE
  5
21F
330
1AE
100
AcDbEntity
  8
0
  6
Continuous
 62
     8
370
    25
100
AcDbSpline
210
0.0
220
0.0
230
1.0
 70
     8
 71
     3
 72
    10
 73
     6
 74
     0
 42
0.000000001
 43
0.00000001
 40
0.0
 40
0.0
 40
0.0
 40
0.0
 40
0.393595802916816
 40
0.7951082137994357
 40
1.0
 40
1.0
 40
1.0
 40
1.0
 10
547.0695726875726
 20
-23.94606626164511
 30
0.0
 10
486.7056900820505
 20
-20.49655046656601
 30
0.0
 10
364.763793037434
 20
-13.52813687583987
 30
0.0
 10
211.3974029366561
 20
-4.76959451251844
 30
0.0
 10
118.404783318845
 20
0.5827382249245991
 30
0.0
 10
86.98444680301904
 20
2.391183846161001
 30
0.0
  0
SPLINE
  5
220
330
1AE
100
AcDbEntity
  8
0
  6
Continuous
 62
     8
370
    25
100
AcDbSpline
210
0.0
220
0.0
230
1.0
 70
     8
 71
     3
 72
    12
 73
     8
 74
     0
 42
0.000000001
 43
0.00000001
 40
0.0
 40
0.0
 40
0.0
 40
0.0
 40
0.1926280604277086
 40
0.3914468891735158
 40
0.5930224609816833
 40
0.7945980352730075
 40
1.0
 40
1.0
 40
1.0
 40
1.0
 10
69.70002021463817
 20
-298.1721391792668
 30
0.0
 10
65.93033276270596
 20
-281.6878461215048
 30
0.0
 10
58.26980592700609
 20
-248.1894802896628
 30
0.0
 10
46.66664064377199
 20
-197.4410782719719
 30
0.0
 10
34.89516358738685
 20
-145.9266816709248
 30
0.0
 10
22.99550876146236
 20
-93.84910185153605
 30
0.0
 10
15.07910200396947
 20
-59.0192820997328
 30
0.0
 10
11.08368371752223
 20
-41.44063777119304
 30
0.0
  0
SPLINE
  5
221
330
1AE
100
AcDbEntity
  8
0
  6
Continuous
 62
     8
370
    25
100
AcDbSpline
210
0.0
220
0.0
230
1.0
 70
     8
 71
     3
 72
    11
 73
     7
 74
     0
 42
0.000000001
 43
0.00000001
 40
0.0
 40
0.0
 40
0.0
 40
0.0
 40
0.2052300845836777
 40
0.5026992231121126
 40
0.7808549416108491
 40
1.0
 40
1.0
 40
1.0
 40
1.0
 10
-87.17700365815608
 20
15.28404963190369
 30
0.0
 10
-118.5474872596928
 20
18.12196364766893
 30
0.0
 10
-195.3876725918484
 20
25.07326990414755
 30
0.0
 10
-314.7342668164677
 20
35.91975003788682
 30
0.0
 10
-436.2082549494093
 20
46.95650694805327
 30
0.0
 10
-512.2158597513073
 20
53.86538521918116
 30
0.0
 10
-545.7100583660152
 20
56.90991400838755
 30
0.0
  0
SPLINE
  5
222
330
1AE
100
AcDbEntity
  8
0
  6
Continuous
 62
     8
370
    25
100
AcDbSpline
210
0.0
220
0.0
230
1.0
 70
     8
 71
     3
 72
    14
 73
    10
 74
     0
 42
0.000000001
 43
0.00000001
 40
0.0
 40
0.0
 40
0.0
 40
0.0
 40
0.1250000000000001
 40
0.1250000000000001
 40
0.2500000000000002
 40
0.2500000000000002
 40
0.5000000000000001
 40
0.5000000000000001
 40
1.0
 40
1.0
 40
1.0
 40
1.0
 10
87.17700365815631
 20
2.487100802378371
 30
0.0
 10
106.3580581678118
 20
1.407192587821661
 30
0.0
 10
125.53763725062
 20
0.3205358658899052
 30
0.0
 10
163.8961034743137
 20
-1.856091042662607
 30
0.0
 10
183.0748923134449
 20
-2.946493621378832
 30
0.0
 10
240.6107331434419
 20
-6.220204742331014
 30
0.0
 10
278.9672580681396
 20
-8.406019300843182
 30
0.0
 10
394.0363165859382
 20
-14.96597773005259
 30
0.0
 10
470.7482447004904
 20
-19.34303626418045
 30
0.0
 10
547.460063527419
 20
-23.72063648033101
 30
0.0
  0
LWPOLYLINE
  5
223
330
1AE
100
AcDbEntity
  8
0
  6
Continuous
 62
     8
370
    25
100
AcDbPolyline
 90
        8
 70
   128
 43
0.0
 10
547.7766094169
 20
-23.5379026458
 10
545.3342052944
 20
-22.1279299805
 10
534.0206538299
 20
-15.5967428289
 10
488.7664381787
 20
10.5280115727
 10
307.7489384359
 20
115.0273524429
 10
118.8437049488
 20
224.0799898015
 10
110.3956161055
 20
228.956960948
 10
-70.0634649588
 20
333.1335798864
  0
SPLINE
  5
224
330
1AE
100
AcDbEntity
  8
0
  6
Continuous
 62
     8
370
    25
100
AcDbSpline
210
0.0
220
0.0
230
1.0
 70
     8
 71
     3
 72
    10
 73
     6
 74
     0
 42
0.000000001
 43
0.00000001
 40
0.0
 40
0.0
 40
0.0
 40
0.0
 40
0.3924678128485093
 40
0.794727088634138
 40
1.0
 40
1.0
 40
1.0
 40
1.0
 10
-546.215323604367
 20
57.20159742183198
 30
0.0
 10
-486.1361901426977
 20
51.73581681222925
 30
0.0
 10
-364.479042064457
 20
40.66789284808196
 30
0.0
 10
-211.3974028640795
 20
26.74659517642858
 30
0.0
 10
-118.4047833005582
 20
18.24593290594469
 30
0.0
 10
-86.98444680309106
 20
15.37373003389333
 30
0.0
  0
LWPOLYLINE
  5
225
330
1AE
100
AcDbEntity
  8
0
  6
Continuous
 62
     8
370
    25
100
AcDbPolyline
 90
        6
 70
   128
 43
0.0
 10
-70.7473723282
 20
333.4853224619
 10
-73.5758175369
 20
331.8524969927
 10
-84.8895972477
 20
325.3211957049
 10
-130.1446948559
 20
299.1960016089
 10
-311.1645546465
 20
194.6954969603
 10
-547.7760007892
 20
58.1025571832
  0
LWPOLYLINE
  5
22E
330
1AE
100
AcDbEntity
  8
0
  6
Continuous
 62
     8
370
    25
100
AcDbPolyline
 90
        3
 70
   128
 43
0.0
 10
550.1290757631
 20
-21.6736841139
 10
550.3778014254
 20
-21.8486444883
 10
550.4978103622
 20
-21.966986778
  0
LWPOLYLINE
  5
230
330
1AE
100
AcDbEntity
  8
0
  6
Continuous
 62
     8
370
    25
100
AcDbPolyline
 90
        3
 70
   128
 43
0.0
 10
550.074042394
 20
-22.2116228188
 10
550.1090626307
 20
-22.0119944993
 10
550.1290757631
 20
-21.6736841139
  0
LWPOLYLINE
  5
233
330
1AE
100
AcDbEntity
  8
0
  6
Continuous
 62
     8
370
    25
100
AcDbPolyline
 90
       28
 70
   128
 43
0.0
 10
31.8198051534
 20
20.8188049517
 10
28.8830508866
 20
22.3703933443
 10
25.7202475855
 20
23.7660746949
 10
22.3561484742
 20
24.9949259048
 10
18.8170821895
 20
26.0473295469
 10
15.1307467236
 20
26.9150491359
 10
11.3259926495
 20
27.5912935896
 10
7.4325973266
 20
28.0707703781
 10
3.4810318522
 20
28.3497269456
 10
-0.4977774163
 20
28.4259800786
 10
-4.4726909016
 20
28.298932993
 10
-8.4125995163
 20
27.9695800044
 10
-12.2866681335
 20
27.4404987467
 10
-16.0645769137
 20
26.715829998
 10
-19.7167585984
 20
25.8012452737
 10
-23.2146299141
 20
24.7039024395
 10
-26.5308152752
 20
23.4323896907
 10
-29.6393610349
 20
21.9966583387
 10
-32.515938608
 20
20.4079449279
 10
-35.1380348748
 20
18.6786832948
 10
-37.4851283767
 20
16.8224072563
 10
-39.5388499249
 20
14.8536446892
 10
-41.2831263637
 20
12.78780383
 10
-42.7043063649
 20
10.6410526844
 10
-43.7912672682
 20
8.4301924907
 10
-44.5355021307
 20
6.1725262276
 10
-44.9311863056
 20
3.8857231946
 10
-44.9969971707
 20
2.7497263408
  0
LWPOLYLINE
  5
234
330
1AE
100
AcDbEntity
  8
0
  6
Continuous
 62
     8
370
    25
100
AcDbPolyline
 90
       10
 70
   128
 43
0.0
 10
45.0
 20
2.4496224357
 10
44.8651581658
 20
4.4591793493
 10
44.3819388601
 20
6.7403695412
 10
43.5513707075
 20
8.9879788194
 10
42.37995403
 20
11.1844165939
 10
40.8768567514
 20
13.312492761
 10
39.0538426458
 20
15.3555522394
 10
36.9251792703
 20
17.2976053185
 10
34.507526302
 20
19.1234528
 10
31.8198051534
 20
20.8188049517
  0
SPLINE
  5
236
330
1AE
100
AcDbEntity
  8
0
  6
Continuous
 62
     8
370
    25
100
AcDbSpline
210
0.0
220
0.0
230
1.0
 70
     8
 71
     3
 72
    14
 73
    10
 74
     0
 42
0.000000001
 43
0.00000001
 40
0.0
 40
0.0
 40
0.0
 40
0.0
 40
0.2500000000000001
 40
0.2500000000000001
 40
0.5000000000000001
 40
0.5000000000000001
 40
0.7500000000000001
 40
0.7500000000000001
 40
1.0
 40
1.0
 40
1.0
 40
1.0
 10
94.9099509131362
 20
7.85544519065862
 30
0.0
 10
87.00086542131656
 20
12.35027629741255
 30
0.0
 10
79.09178488036773
 20
16.84394532730343
 30
0.0
 10
63.2734840189042
 20
25.86182279129552
 30
0.0
 10
55.36424238815984
 20
30.38895768306327
 30
0.0
 10
39.54542570178871
 20
39.52266912807607
 30
0.0
 10
31.63620316450409
 20
44.12885711410354
 30
0.0
 10
15.8179219191104
 20
53.37591321349581
 30
0.0
 10
7.908850316089115
 20
58.01405171081632
 30
0.0
 10
-0.0002275754020717
 20
62.65085895660777
 30
0.0
  0
SPLINE
  5
237
330
1AE
100
AcDbEntity
  8
0
  6
Continuous
 62
     8
370
    25
100
AcDbSpline
210
0.0
220
0.0
230
1.0
 70
     8
 71
     3
 72
     9
 73
     5
 74
     0
 42
0.000000001
 43
0.00000001
 40
0.0
 40
0.0
 40
0.0
 40
0.0
 40
0.534288148022259
 40
1.0
 40
1.0
 40
1.0
 40
1.0
 10
-85.80633850733584
 20
12.82553835568654
 30
0.0
 10
-87.41524233220014
 20
11.93719649022777
 30
0.0
 10
-90.42654593460993
 20
10.27453212316839
 30
0.0
 10
-93.43762466674885
 20
8.62309047026311
 30
0.0
 10
-94.83991971954404
 20
7.853994519655416
 30
0.0
  0
LWPOLYLINE
  5
23D
330
1AE
100
AcDbEntity
  8
0
  6
Continuous
 62
     8
370
    25
100
AcDbPolyline
 90
        3
 70
   128
 43
0.0
 10
-550.4978103622
 20
59.6738244043
 10
-550.3778014254
 20
59.792166694
 10
-550.1290757631
 20
59.9671270684
  0
LWPOLYLINE
  5
23F
330
1AE
100
AcDbEntity
  8
0
  6
Continuous
 62
     8
370
    25
100
AcDbPolyline
 90
        3
 70
   128
 43
0.0
 10
-550.1290757631
 20
59.9671270684
 10
-550.1027915802
 20
59.6385515272
 10
-550.0594348183
 20
59.4207555895
  0
LINE
  5
240
330
1AE
100
AcDbEntity
  8
0
  6
Continuous
 62
     7
370
    25
100
AcDbLine
 10
68.8821697265
 20
-297.8866272127
 30
0.0
 11
-550.5433705929
 21
59.7001257656
 31
0.0
  0
LINE
  5
241
330
1AE
100
AcDbEntity
  8
0
  6
Continuous
 62
     7
370
    25
100
AcDbLine
 10
550.5433705929
 20
-21.9406854166
 30
0.0
 11
72.5391865108
 21
-297.8866272127
 31
0.0
  0
LINE
  5
242
330
1AE
100
AcDbEntity
  8
0
  6
Continuous
 62
     7
370
    25
100
AcDbLine
 10
10.2747415168
 20
-41.2482027955
 30
0.0
 11
10.0997332222
 21
-41.3473260207
 31
0.0
  0
LINE
  5
243
330
1AE
100
AcDbEntity
  8
0
  6
Continuous
 62
     7
370
    25
100
AcDbLine
 10
634.325035256
 20
-40.8204055911
 30
0.0
 11
634.325035256
 21
-24.4895893534
 31
0.0
  0
LINE
  5
244
330
1AE
100
AcDbEntity
  8
0
  6
Continuous
 62
     7
370
    25
100
AcDbLine
 10
631.8248320876
 20
-20.1593450415
 30
0.0
 11
-68.2108812871
 21
383.9626703107
 31
0.0
  0
LINE
  5
245
330
1AE
100
AcDbEntity
  8
0
  6
Continuous
 62
     7
370
    25
100
AcDbLine
 10
86.1893893536
 20
2.5792336198
 30
0.0
 11
86.013461571
 21
2.4739326274
 31
0.0
  0
LINE
  5
246
330
1AE
100
AcDbEntity
  8
0
  6
Continuous
 62
     7
370
    25
100
AcDbLine
 10
-634.325035256
 20
57.1512218289
 30
0.0
 11
-634.325035256
 21
40.8204055911
 31
0.0
  0
LINE
  5
247
330
1AE
100
AcDbEntity
  8
0
  6
Continuous
 62
     7
370
    25
100
AcDbLine
 10
-73.2104749502
 20
383.9626703107
 30
0.0
 11
-631.8248320876
 21
61.4814661408
 31
0.0
  0
LINE
  5
248
330
1AE
100
AcDbEntity
  8
0
  6
Continuous
 62
     7
370
    25
100
AcDbLine
 10
67.1751442127
 20
-365.3426300407
 30
0.0
 11
67.1751442127
 21
-349.0118138029
 31
0.0
  0
LINE
  5
249
330
1AE
100
AcDbEntity
  8
0
  6
Continuous
 62
     7
370
    25
100
AcDbLine
 10
74.2462120246
 20
-349.0118138029
 30
0.0
 11
74.2462120246
 21
-365.3426300407
 31
0.0
  0
LINE
  5
24A
330
1AE
100
AcDbEntity
  8
0
  6
Continuous
 62
     7
370
    25
100
AcDbLine
 10
70.7106781187
 20
-342.888089464
 30
0.0
 11
629.325035256
 21
-20.406885294
 31
0.0
  0
LINE
  5
24B
330
1AE
100
AcDbEntity
  8
0
  6
Continuous
 62
     7
370
    25
100
AcDbLine
 10
632.860569162
 20
-26.530609633
 30
0.0
 11
74.2462120246
 21
-349.0118138029
 31
0.0
  0
LINE
  5
24C
330
1AE
100
AcDbEntity
  8
0
  6
Continuous
 62
     7
370
    25
100
AcDbLine
 10
-629.325035256
 20
61.2339258883
 30
0.0
 11
70.7106781187
 21
-342.888089464
 31
0.0
  0
LINE
  5
24D
330
1AE
100
AcDbEntity
  8
0
  6
Continuous
 62
     7
370
    25
100
AcDbLine
 10
67.1751442127
 20
-349.0118138029
 30
0.0
 11
-632.860569162
 21
55.1102015493
 31
0.0
  0
LINE
  5
24E
330
1AE
100
AcDbEntity
  8
0
  6
Continuous
 62
     7
370
    25
100
AcDbLine
 10
632.860569162
 20
-42.8614258707
 30
0.0
 11
632.860569162
 21
-26.530609633
 31
0.0
  0
LINE
  5
24F
330
1AE
100
AcDbEntity
  8
0
  6
Continuous
 62
     7
370
    25
100
AcDbLine
 10
74.2462120246
 20
-365.3426300407
 30
0.0
 11
632.860569162
 21
-42.8614258707
 31
0.0
  0
LINE
  5
250
330
1AE
100
AcDbEntity
  8
0
  6
Continuous
 62
     7
370
    25
100
AcDbLine
 10
-632.860569162
 20
55.1102015493
 30
0.0
 11
-632.860569162
 21
38.7793853116
 31
0.0
  0
LINE
  5
251
330
1AE
100
AcDbEntity
  8
0
  6
Continuous
 62
     7
370
    25
100
AcDbLine
 10
-632.860569162
 20
38.7793853116
 30
0.0
 11
67.1751442127
 21
-365.3426300407
 31
0.0
  0
LINE
  5
252
330
1AE
100
AcDbEntity
  8
0
  6
Continuous
 62
     7
370
    25
100
AcDbLine
 10
-551.5432893255
 20
62.8667421119
 30
0.0
 11
-73.5391052434
 21
338.812683908
 31
0.0
  0
LINE
  5
253
330
1AE
100
AcDbEntity
  8
0
  6
Continuous
 62
     7
370
    25
100
AcDbLine
 10
67.8822509939
 20
-297.9856433137
 30
0.0
 11
-551.5432893255
 21
59.6011096646
 31
0.0
  0
LINE
  5
254
330
1AE
100
AcDbEntity
  8
0
  6
Continuous
 62
     7
370
    25
100
AcDbLine
 10
551.5432893255
 20
-22.0397015176
 30
0.0
 11
73.5391052434
 21
-297.9856433137
 31
0.0
  0
LINE
  5
255
330
1AE
100
AcDbEntity
  8
0
  6
Continuous
 62
     7
370
    25
100
AcDbLine
 10
-67.8822509939
 20
338.812683908
 30
0.0
 11
551.5432893255
 21
-18.7740690703
 31
0.0
  0
LINE
  5
256
330
1AE
100
AcDbEntity
  8
0
  6
Continuous
 62
     7
370
    25
100
AcDbLine
 10
-70.7106781187
 20
383.7151300582
 30
0.0
 11
-629.325035256
 21
61.2339258883
 31
0.0
  0
LINE
  5
257
330
1AE
100
AcDbEntity
  8
0
  6
Continuous
 62
     7
370
    25
100
AcDbLine
 10
629.325035256
 20
-20.406885294
 30
0.0
 11
-70.7106781187
 21
383.7151300582
 31
0.0
  0
LINE
  5
258
330
1AE
100
AcDbEntity
  8
0
  6
Continuous
 62
     7
370
    25
100
AcDbLine
 10
-70.5400317466
 20
333.359413058
 30
0.0
 11
-70.7473723282
 21
333.4853224619
 31
0.0
  0
LINE
  5
259
330
1AE
100
AcDbEntity
  8
0
  6
Continuous
 62
     7
370
    25
100
AcDbLine
 10
550.1290757631
 20
-21.6736841139
 30
0.0
 11
550.1290757631
 21
-21.2235588059
 31
0.0
  0
LINE
  5
25A
330
1AE
100
AcDbEntity
  8
0
  6
Continuous
 62
     7
370
    25
100
AcDbLine
 10
550.1290757631
 20
-21.2235588059
 30
0.0
 11
-69.2964645563
 21
336.3631941724
 31
0.0
  0
LINE
  5
25B
330
1AE
100
AcDbEntity
  8
0
  6
Continuous
 62
     7
370
    25
100
AcDbLine
 10
549.9217385655
 20
-21.5602066075
 30
0.0
 11
550.1290757631
 21
-21.6736841139
 31
0.0
  0
LINE
  5
25C
330
1AE
100
AcDbEntity
  8
0
  6
Continuous
 62
     7
370
    25
100
AcDbLine
 10
-69.2964645563
 20
335.9130688644
 30
0.0
 11
-69.0891273586
 21
335.7871599379
 31
0.0
  0
LINE
  5
25D
330
1AE
100
AcDbEntity
  8
0
  6
Continuous
 62
     7
370
    25
100
AcDbLine
 10
-69.2964645563
 20
336.3631941724
 30
0.0
 11
-69.2964645563
 21
335.9130688644
 31
0.0
  0
LINE
  5
25E
330
1AE
100
AcDbEntity
  8
0
  6
Continuous
 62
     7
370
    25
100
AcDbLine
 10
-44.9969971707
 20
2.7497263408
 30
0.0
 11
-45.0
 21
2.4496224357
 31
0.0
  0
LINE
  5
25F
330
1AE
100
AcDbEntity
  8
0
  6
Continuous
 62
     7
370
    25
100
AcDbLine
 10
44.9974157319
 20
2.1712180242
 30
0.0
 11
45.0
 21
2.4496224357
 31
0.0
  0
LINE
  5
260
330
1AE
100
AcDbEntity
  8
0
  6
Continuous
 62
     7
370
    25
100
AcDbLine
 10
0.0
 20
57.5574353838
 30
0.0
 11
0.0
 21
62.6214219435
 31
0.0
  0
LINE
  5
261
330
1AE
100
AcDbEntity
  8
0
  6
Continuous
 62
     7
370
    25
100
AcDbLine
 10
-550.1290757631
 20
60.4172523763
 30
0.0
 11
-550.1290757631
 21
59.9671270684
 31
0.0
  0
LINE
  5
262
330
1AE
100
AcDbEntity
  8
0
  6
Continuous
 62
     7
370
    25
100
AcDbLine
 10
-72.124891681
 20
336.3631941724
 30
0.0
 11
-550.1290757631
 21
60.4172523763
 31
0.0
  0
LINE
  5
263
330
1AE
100
AcDbEntity
  8
0
  6
Continuous
 62
     7
370
    25
100
AcDbLine
 10
-72.124891681
 20
335.9130688644
 30
0.0
 11
-72.124891681
 21
336.3631941724
 31
0.0
  0
LINE
  5
264
330
1AE
100
AcDbEntity
  8
0
  6
Continuous
 62
     8
370
    25
100
AcDbLine
 10
90.615861276
 20
5.2460121491
 30
0.0
 11
0.0
 21
57.5574353838
 31
0.0
  0
LINE
  5
265
330
1AE
100
AcDbEntity
  8
0
  6
Continuous
 62
     8
370
    25
100
AcDbLine
 10
0.0
 20
57.5574353838
 30
0.0
 11
-90.5018276547
 21
5.3118423574
 31
0.0
  0
LINE
  5
266
330
1AE
100
AcDbEntity
  8
0
  6
Continuous
 62
     8
370
    25
100
AcDbLine
 10
0.0
 20
60.8233332312
 30
0.0
 11
93.3723673712
 21
6.9206128995
 31
0.0
  0
LINE
  5
267
330
1AE
100
AcDbEntity
  8
0
  6
Continuous
 62
     8
370
    25
100
AcDbLine
 10
-93.3092829912
 20
6.9570307369
 30
0.0
 11
0.0
 21
60.8233332312
 31
0.0
  0
ARC
  5
268
330
1AE
100
AcDbEntity
  8
0
  6
Continuous
 62
     7
370
    25
100
AcDbCircle
 10
629.325035256
 20
-24.4895893534
 30
0.0
 40
5.000000000000227
100
AcDbArc
 50
0.0
 51
60.0026882663
  0
ARC
  5
269
330
1AE
100
AcDbEntity
  8
0
  6
Continuous
 62
     7
370
    25
100
AcDbCircle
 10
-629.325035256
 20
57.1512218289
 30
0.0
 40
5.000000000000157
100
AcDbArc
 50
119.9973117337
 51
180.0
  0
ARC
  5
26A
330
1AE
100
AcDbEntity
  8
0
  6
Continuous
 62
     7
370
    25
100
AcDbCircle
 10
-70.7106781187
 20
379.6324259988
 30
0.0
 40
4.999999999999958
100
AcDbArc
 50
60.0026882663
 51
119.9973117337
  0
ARC
  5
26B
330
1AE
100
AcDbEntity
  8
0
  6
Continuous
 62
     7
370
    25
100
AcDbCircle
 10
66.5701315177
 20
-349.3611180643
 30
0.0
 40
7.68402403786058
100
AcDbArc
 50
2.6054784857
 51
57.39452166
  0
ARC
  5
26C
330
1AE
100
AcDbEntity
  8
0
  6
Continuous
 62
     7
370
    25
100
AcDbCircle
 10
70.7106781187
 20
-342.1882583782
 30
0.0
 40
7.685109539558287
100
AcDbArc
 50
242.6096722366
 51
297.3903277634
  0
ARC
  5
26D
330
1AE
100
AcDbEntity
  8
0
  6
Continuous
 62
     7
370
    25
100
AcDbCircle
 10
74.8512247196
 20
-349.3611180642
 30
0.0
 40
7.684024037860148
100
AcDbArc
 50
122.60547834
 51
177.3945215143
  0
ARC
  5
26E
330
1AE
100
AcDbEntity
  8
0
  6
Continuous
 62
     7
370
    25
100
AcDbCircle
 10
70.7106781187
 20
-358.5190746159
 30
0.0
 40
7.685109539558697
100
AcDbArc
 50
242.6096722366
 51
297.3903277634
  0
ARC
  5
26F
330
1AE
100
AcDbEntity
  8
0
  6
Continuous
 62
     7
370
    25
100
AcDbCircle
 10
625.1844886551
 20
-26.8799138943
 30
0.0
 40
7.684024037860748
100
AcDbArc
 50
2.6054784857
 51
57.39452166
  0
ARC
  5
270
330
1AE
100
AcDbEntity
  8
0
  6
Continuous
 62
     7
370
    25
100
AcDbCircle
 10
-625.1844886551
 20
54.760897288
 30
0.0
 40
7.684024037860748
100
AcDbArc
 50
122.60547834
 51
177.3945215143
  0
ARC
  5
271
330
1AE
100
AcDbEntity
  8
0
  6
Continuous
 62
     7
370
    25
100
AcDbCircle
 10
-550.9235812183
 20
61.2339258883
 30
0.0
 40
1.746461267337021
100
AcDbArc
 50
110.7834207995
 51
249.2165792005
  0
ARC
  5
272
330
1AE
100
AcDbEntity
  8
0
  6
Continuous
 62
     7
370
    25
100
AcDbCircle
 10
70.7106781187
 20
-292.5267989739
 30
0.0
 40
6.148087631646376
100
AcDbArc
 50
242.6096722366
 51
297.3903277634
  0
ARC
  5
273
330
1AE
100
AcDbEntity
  8
0
  6
Continuous
 62
     7
370
    25
100
AcDbCircle
 10
550.9235812183
 20
-20.406885294
 30
0.0
 40
1.746461267337085
100
AcDbArc
 50
290.7834207995
 51
69.2165792005
  0
ARC
  5
274
330
1AE
100
AcDbEntity
  8
0
  6
Continuous
 62
     7
370
    25
100
AcDbCircle
 10
-70.7106781187
 20
333.3538395682
 30
0.0
 40
6.148087631646921
100
AcDbArc
 50
62.6096722366
 51
117.3903277634
  0
ARC
  5
275
330
1AE
100
AcDbEntity
  8
0
  6
Continuous
 62
     7
370
    25
100
AcDbCircle
 10
553.1995079659
 20
-21.3632805105
 30
0.0
 40
3.073609615144113
100
AcDbArc
 50
122.60547834
 51
177.3945215143
  0
ARC
  5
276
330
1AE
100
AcDbEntity
  8
0
  6
Continuous
 62
     7
370
    25
100
AcDbCircle
 10
631.8227499436
 20
-40.5708737066
 30
0.0
 40
2.514696392468851
100
AcDbArc
 50
294.3746582936
 51
354.3052007488
  0
ARC
  5
277
330
1AE
100
AcDbEntity
  8
0
  6
Continuous
 62
     7
370
    25
100
AcDbCircle
 10
-66.2260323535
 20
336.2234724679
 30
0.0
 40
3.073609615144097
100
AcDbArc
 50
122.60547834
 51
177.3945215143
  0
ARC
  5
278
330
1AE
100
AcDbEntity
  8
0
  6
Continuous
 62
     7
370
    25
100
AcDbCircle
 10
-71.7815929022
 20
335.6998271312
 30
0.0
 40
3.088298649919742
100
AcDbArc
 50
303.8027002592
 51
357.3071507151
  0
ARC
  5
279
330
1AE
100
AcDbEntity
  8
0
  6
Continuous
 62
     7
370
    25
100
AcDbCircle
 10
-88.8284398933
 20
12.7520025016
 30
0.0
 40
3.022995916168268
100
AcDbArc
 50
1.3938853486
 51
56.8870522305
  0
ARC
  5
27A
330
1AE
100
AcDbEntity
  8
0
  6
Continuous
 62
     7
370
    25
100
AcDbCircle
 10
-88.6721313642
 20
12.8146864245
 30
0.0
 40
3.06544994619825
100
AcDbArc
 50
2.2724701417
 51
56.5952220702
  0
ARC
  5
27B
330
1AE
100
AcDbEntity
  8
0
  6
Continuous
 62
     7
370
    25
100
AcDbCircle
 10
-12.9466540274
 20
56.5058018769
 30
0.0
 40
3.100726178910354
100
AcDbArc
 50
3.0511031385
 51
56.7032843137
  0
ARC
  5
27C
330
1AE
100
AcDbEntity
  8
0
  6
Continuous
 62
     7
370
    25
100
AcDbCircle
 10
-553.1995079659
 20
60.2775306718
 30
0.0
 40
3.073609615144113
100
AcDbArc
 50
2.6054784857
 51
57.39452166
  0
ARC
  5
27D
330
1AE
100
AcDbEntity
  8
0
  6
Continuous
 62
     7
370
    25
100
AcDbCircle
 10
-631.8227499436
 20
41.0699374756
 30
0.0
 40
2.514696392468957
100
AcDbArc
 50
185.6947992512
 51
245.6253417064
  0
ARC
  5
27E
330
1AE
100
AcDbEntity
  8
0
  6
Continuous
 62
     7
370
    25
100
AcDbCircle
 10
-75.1953238838
 20
336.2234724679
 30
0.0
 40
3.073609615144087
100
AcDbArc
 50
2.6054784857
 51
57.39452166
  0
ARC
  5
27F
330
1AE
100
AcDbEntity
  8
0
  6
Continuous
 62
     7
370
    25
100
AcDbCircle
 10
-69.0431263056
 20
336.0570029112
 30
0.0
 40
3.085124768797579
100
AcDbArc
 50
182.6740597712
 51
236.4676660342
  0
ARC
  5
280
330
1AE
100
AcDbEntity
  8
0
  6
Continuous
 62
     7
370
    25
100
AcDbCircle
 10
-12.7819620424
 20
56.5753220634
 30
0.0
 40
3.136096775736481
100
AcDbArc
 50
3.8863738187
 51
57.2124108754
  0
ARC
  5
281
330
1AE
100
AcDbEntity
  8
0
  6
Continuous
 62
     7
370
    25
100
AcDbCircle
 10
-70.7106781187
 20
333.6337720025
 30
0.0
 40
3.074043815823587
100
AcDbArc
 50
62.6096722366
 51
117.3903277634
  0
ARC
  5
282
330
1AE
100
AcDbEntity
  8
0
  6
Continuous
 62
     7
370
    25
100
AcDbCircle
 10
-72.226249862
 20
336.0145829788
 30
0.0
 40
3.145355121637781
100
AcDbArc
 50
302.4183955083
 51
355.8536443913
  0
ARC
  5
283
330
1AE
100
AcDbEntity
  8
0
  6
Continuous
 62
     7
370
    25
100
AcDbCircle
 10
-70.7106781187
 20
333.1836466945
 30
0.0
 40
3.074043815823587
100
AcDbArc
 50
62.6096722366
 51
117.3903277634
  0
ARC
  5
284
330
1AE
100
AcDbEntity
  8
0
  6
Continuous
 62
     7
370
    25
100
AcDbCircle
 10
-72.4335904429
 20
336.1404967997
 30
0.0
 40
3.145358849870087
100
AcDbArc
 50
302.4183523624
 51
355.8535599252
  0
ARC
  5
285
330
1AE
100
AcDbEntity
  8
0
  6
Continuous
 62
     8
370
    25
100
AcDbCircle
 10
72.9532340033
 20
-298.80349265
 30
0.0
 40
1.006043064157027
100
AcDbArc
 50
54.3838561296
 51
114.2906628287
  0
ARC
  5
286
330
1AE
100
AcDbEntity
  8
0
  6
Continuous
 62
     8
370
    25
100
AcDbCircle
 10
68.468127182
 20
-298.8035064272
 30
0.0
 40
1.00605714561048
100
AcDbArc
 50
65.711952251
 51
125.6159160258
  0
ARC
  5
287
330
1AE
100
AcDbEntity
  8
0
  6
Continuous
 62
     8
370
    25
100
AcDbCircle
 10
-550.9574492158
 20
58.7833470064
 30
0.0
 40
1.005954471803626
100
AcDbArc
 50
65.6928809539
 51
125.6175774752
  0
ARC
  5
288
330
1AE
100
AcDbEntity
  8
0
  6
Continuous
 62
     8
370
    25
100
AcDbCircle
 10
550.9574492158
 20
-22.8574641759
 30
0.0
 40
1.005954471803644
100
AcDbArc
 50
54.3824225248
 51
114.3071190461
  0
ARC
  5
289
330
1AE
100
AcDbEntity
  8
0
  6
Continuous
 62
     8
370
    25
100
AcDbCircle
 10
10.5088761415
 20
-42.2702548677
 30
0.0
 40
1.009290977003314
100
AcDbArc
 50
55.2835032316
 51
113.6697619383
  0
ARC
  5
28A
330
1AE
100
AcDbEntity
  8
0
  6
Continuous
 62
     8
370
    25
100
AcDbCircle
 10
86.4265289389
 20
1.5790323263
 30
0.0
 40
0.9853235175933408
100
AcDbArc
 50
55.512383643
 51
114.5880733271
  0
ARC
  5
28B
330
1AE
100
AcDbEntity
  8
0
  6
Continuous
 62
     8
370
    25
100
AcDbCircle
 10
10.6860190726
 20
-42.1514913359
 30
0.0
 40
0.9911694831313189
100
AcDbArc
 50
55.7094973934
 51
114.4375170521
  0
ARC
  5
28C
330
1AE
100
AcDbEntity
  8
0
  6
Continuous
 62
     8
370
    25
100
AcDbCircle
 10
630.7896355303
 20
-22.4512919396
 30
0.0
 40
2.514886179508868
100
AcDbArc
 50
65.6928809539
 51
125.6175774752
  0
ARC
  5
28D
330
1AE
100
AcDbEntity
  8
0
  6
Continuous
 62
     8
370
    25
100
AcDbCircle
 10
631.8227499436
 20
-24.2400574689
 30
0.0
 40
2.51469639246881
100
AcDbArc
 50
294.3746582936
 51
354.3052007488
  0
ARC
  5
28E
330
1AE
100
AcDbEntity
  8
0
  6
Continuous
 62
     8
370
    25
100
AcDbCircle
 10
549.6617878414
 20
-22.2012299792
 30
0.0
 40
1.083604597995379
100
AcDbArc
 50
18.2101624093
 51
64.4540560899
  0
ARC
  5
28F
330
1AE
100
AcDbEntity
  8
0
  6
Continuous
 62
     8
370
    25
100
AcDbCircle
 10
-69.2460778444
 20
381.6707234127
 30
0.0
 40
2.514886179508853
100
AcDbArc
 50
65.6928809539
 51
125.6175774752
  0
ARC
  5
290
330
1AE
100
AcDbEntity
  8
0
  6
Continuous
 62
     8
370
    25
100
AcDbCircle
 10
547.3505489164
 20
-21.5696709422
 30
0.0
 40
2.571207067669698
100
AcDbArc
 50
341.7697359445
 51
0.2109000342
  0
ARC
  5
291
330
1AE
100
AcDbEntity
  8
0
  6
Continuous
 62
     8
370
    25
100
AcDbCircle
 10
546.5615630967
 20
-21.2177531493
 30
0.0
 40
2.970250912155896
100
AcDbArc
 50
328.2322247527
 51
357.6498670045
  0
ARC
  5
292
330
1AE
100
AcDbEntity
  8
0
  6
Continuous
 62
     8
370
    25
100
AcDbCircle
 10
86.606767561
 20
1.7040788895
 30
0.0
 40
0.968655007017395
100
AcDbArc
 50
53.9360021892
 51
115.2036923727
  0
ARC
  5
293
330
1AE
100
AcDbEntity
  8
0
  6
Continuous
 62
     8
370
    25
100
AcDbCircle
 10
-631.8227499436
 20
57.4007537133
 30
0.0
 40
2.514696392468839
100
AcDbArc
 50
185.6947992512
 51
245.6253417064
  0
ARC
  5
294
330
1AE
100
AcDbEntity
  8
0
  6
Continuous
 62
     8
370
    25
100
AcDbCircle
 10
-630.7896355303
 20
59.1895192427
 30
0.0
 40
2.514886179509134
100
AcDbArc
 50
54.3824225248
 51
114.3071190461
  0
ARC
  5
295
330
1AE
100
AcDbEntity
  8
0
  6
Continuous
 62
     8
370
    25
100
AcDbCircle
 10
-549.6616812198
 20
59.4394559126
 30
0.0
 40
1.083763619852248
100
AcDbArc
 50
115.5481732556
 51
161.7673843071
  0
ARC
  5
296
330
1AE
100
AcDbEntity
  8
0
  6
Continuous
 62
     8
370
    25
100
AcDbCircle
 10
-72.1752783929
 20
381.6707234127
 30
0.0
 40
2.514886179509209
100
AcDbArc
 50
54.3824225248
 51
114.3071190461
  0
VIEWPORT
  5
45D
330
1AE
100
AcDbEntity
  8
0
100
AcDbViewport
 10
0.0
 20
0.0
 30
0.0
 40
205.6
 41
156.0
 68
     1
 69
     1
 12
0.0
 22
0.0
 13
0.0
 23
0.0
 14
10.0
 24
10.0
 15
10.0
 25
10.0
 16
0.0
 26
0.0
 36
1.0
 17
0.0
 27
0.0
 37
0.0
 42
50.0
 43
0.0
 44
0.0
 45
816.0
 50
0.0
 51
0.0
 72
   100
 90
   557152
  1

281
     0
 71
     1
 74
     0
110
0.0
120
0.0
130
0.0
111
1.0
121
0.0
131
0.0
112
0.0
122
1.0
132
0.0
 79
     0
146
0.0
  0
ENDBLK
  5
1B1
330
1AE
100
AcDbEntity
  8
0
100
AcDbBlockEnd
  0
BLOCK
  5
299
330
297
100
AcDbEntity
  8
0
100
AcDbBlockBegin
  2
*Paper_Space5
 70
     0
 10
0.0
 20
0.0
 30
0.0
  3
*Paper_Space5
  1

  0
SPLINE
  5
29B
330
297
100
AcDbEntity
  8
0
  6
Continuous
 62
     7
370
    25
100
AcDbSpline
210
0.0
220
0.0
230
1.0
 70
     8
 71
     3
 72
    14
 73
    10
 74
     0
 42
0.000000001
 43
0.00000001
 40
0.0
 40
0.0
 40
0.0
 40
0.0
 40
0.0942572377566545
 40
0.2265823629478416
 40
0.3704284346870429
 40
0.5342405852089988
 40
0.7160959538447588
 40
0.9022294181857871
 40
1.0
 40
1.0
 40
1.0
 40
1.0
 10
231.772812005758
 20
-239.0576590881755
 30
0.0
 10
231.7581806883411
 20
-239.0712504910863
 30
0.0
 10
231.7230088696854
 20
-239.103922488066
 30
0.0
 10
231.4766829483813
 20
-239.2533537971401
 30
0.0
 10
231.0045880550722
 20
-239.4265134994574
 30
0.0
 10
230.322880610808
 20
-239.564722213005
 30
0.0
 10
229.5008513181946
 20
-239.6067355070196
 30
0.0
 10
228.7836042565001
 20
-239.539241096371
 30
0.0
 10
228.4163271679199
 20
-239.4501750704285
 30
0.0
 10
228.2898446639761
 20
-239.4195026045226
 30
0.0
  0
SPLINE
  5
2A1
330
297
100
AcDbEntity
  8
0
  6
Continuous
 62
     7
370
    25
100
AcDbSpline
210
0.0
220
0.0
230
1.0
 70
     8
 71
     3
 72
    11
 73
     7
 74
     0
 42
0.000000001
 43
0.00000001
 40
0.0
 40
0.0
 40
0.0
 40
0.0
 40
0.2291444950076233
 40
0.5817513378039739
 40
0.908364640406953
 40
1.0
 40
1.0
 40
1.0
 40
1.0
 10
-546.4604299254449
 20
-28.8589788614074
 30
0.0
 10
-546.5699895190744
 20
-28.82563325033752
 30
0.0
 10
-546.8481390777669
 20
-28.74097551570948
 30
0.0
 10
-547.1423408495075
 20
-28.59858437679586
 30
0.0
 10
-547.2713477899482
 20
-28.48040116870745
 30
0.0
 10
-547.251173204594
 20
-28.50781010650547
 30
0.0
 10
-547.2467530939024
 20
-28.51381521327134
 30
0.0
  0
SPLINE
  5
2A2
330
297
100
AcDbEntity
  8
0
  6
Continuous
 62
     7
370
    25
100
AcDbSpline
210
0.0
220
0.0
230
1.0
 70
     8
 71
     3
 72
    11
 73
     7
 74
     0
 42
0.000000001
 43
0.00000001
 40
0.0
 40
0.0
 40
0.0
 40
0.0
 40
0.2165104225592571
 40
0.4845297040324533
 40
0.7815245955781371
 40
1.0
 40
1.0
 40
1.0
 40
1.0
 10
28.60554403313986
 20
-38.25113390194741
 30
0.0
 10
19.87090625723011
 20
-35.94499318063134
 30
0.0
 10
0.3236188501588577
 20
-30.7840698959768
 30
0.0
 10
-31.20381030613247
 20
-22.3704836190822
 30
0.0
 10
-62.81053814308926
 20
-13.63427501143185
 30
0.0
 10
-83.60594785174617
 20
-7.821206902793119
 30
0.0
 10
-92.4198127470828
 20
-5.357413322635715
 30
0.0
  0
SPLINE
  5
2A3
330
297
100
AcDbEntity
  8
0
  6
Continuous
 62
     7
370
    25
100
AcDbSpline
210
0.0
220
0.0
230
1.0
 70
     8
 71
     3
 72
     9
 73
     5
 74
     0
 42
0.000000001
 43
0.00000001
 40
0.0
 40
0.0
 40
0.0
 40
0.0
 40
0.3707743020641374
 40
1.0
 40
1.0
 40
1.0
 40
1.0
 10
34.96867380330279
 20
-32.15277918357444
 30
0.0
 10
34.15417784704463
 20
-32.91939018632659
 30
0.0
 10
31.95743456757853
 20
-34.98698494271714
 30
0.0
 10
29.76082920039774
 20
-37.0167095756399
 30
0.0
 10
28.37866865514375
 20
-38.29386447440832
 30
0.0
  0
SPLINE
  5
2A5
330
297
100
AcDbEntity
  8
0
  6
Continuous
 62
     7
370
    25
100
AcDbSpline
210
0.0
220
0.0
230
1.0
 70
     8
 71
     3
 72
    10
 73
     6
 74
     0
 42
0.000000001
 43
0.00000001
 40
0.0
 40
0.0
 40
0.0
 40
0.0
 40
0.279515968401171
 40
0.6516950854911979
 40
1.0
 40
1.0
 40
1.0
 40
1.0
 10
85.06288426445852
 20
16.73457980555219
 30
0.0
 10
80.40485882839876
 20
12.1300738436738
 30
0.0
 10
69.54461244556477
 20
1.394608805181597
 30
0.0
 10
52.88757763478937
 20
-14.88982368452823
 30
0.0
 10
40.88202320408539
 20
-26.46030202564895
 30
0.0
 10
35.07815604503437
 20
-32.05383955414474
 30
0.0
  0
SPLINE
  5
2A6
330
297
100
AcDbEntity
  8
0
  6
Continuous
 62
     7
370
    25
100
AcDbSpline
210
0.0
220
0.0
230
1.0
 70
     8
 71
     3
 72
    46
 73
    42
 74
     0
 42
0.000000001
 43
0.00000001
 40
0.0
 40
0.0
 40
0.0
 40
0.0
 40
0.0120957714090861
 40
0.0403282770614506
 40
0.0682923482371914
 40
0.0957111996459295
 40
0.1226106457088761
 40
0.1491459159508797
 40
0.1754704343298915
 40
0.2016951317931625
 40
0.2278895679696633
 40
0.2540856286585371
 40
0.2803056400845482
 40
0.3065608330149771
 40
0.3328541504140724
 40
0.3591839513054484
 40
0.3855462264087686
 40
0.4119358662087415
 40
0.4383473487057097
 40
0.4647750813654636
 40
0.4912135417973256
 40
0.5176573041904774
 40
0.5441007587366263
 40
0.5705369964962224
 40
0.5969605367855447
 40
0.6233657350057429
 40
0.6497467619478307
 40
0.6760976623722573
 40
0.7024125560728917
 40
0.7286860886759094
 40
0.7549143081309888
 40
0.7810962457656115
 40
0.8072366200037965
 40
0.8333502311046547
 40
0.8594613083701299
 40
0.8856127462948967
 40
0.9118857346487278
 40
0.938402594789049
 40
0.9653197287606411
 40
0.9927770102580401
 40
1.0
 40
1.0
 40
1.0
 40
1.0
 10
44.9620524368186
 20
2.530832836423906
 30
0.0
 10
44.96985011512184
 20
2.271224546313566
 30
0.0
 10
44.99584820324812
 20
1.405669576983168
 30
0.0
 10
44.70971614362669
 20
-0.0620799225114679
 30
0.0
 10
44.10983609311688
 20
-1.866160293670377
 30
0.0
 10
43.18445724550902
 20
-3.642447138421167
 30
0.0
 10
41.96908896819421
 20
-5.375207852489437
 30
0.0
 10
40.46847312635614
 20
-7.054862637233612
 30
0.0
 10
38.69276178074775
 20
-8.673191834816068
 30
0.0
 10
36.65042985683442
 20
-10.2207693128266
 30
0.0
 10
34.35267880794447
 20
-11.68667830592555
 30
0.0
 10
31.81322390650664
 20
-13.05943162876027
 30
0.0
 10
29.04839068316033
 20
-14.32769669153336
 30
0.0
 10
26.07649637995622
 20
-15.48086132499612
 30
0.0
 10
22.91788199230232
 20
-16.50915539109004
 30
0.0
 10
19.59466600109269
 20
-17.40383453884026
 30
0.0
 10
16.13042487346315
 20
-18.15731567164901
 30
0.0
 10
12.54990651064674
 20
-18.76325019377562
 30
0.0
 10
8.878775676636169
 20
-19.21656169381654
 30
0.0
 10
5.143384246992996
 20
-19.51346427857673
 30
0.0
 10
1.370559403841908
 20
-19.65147085282612
 30
0.0
 10
-2.412584317646245
 20
-19.62939653107739
 30
0.0
 10
-6.17877574079994
 20
-19.4473654977669
 30
0.0
 10
-9.900850536668832
 20
-19.10682203508764
 30
0.0
 10
-13.5519549190534
 20
-18.61052890912959
 30
0.0
 10
-17.10579101121644
 20
-17.96255204040712
 30
0.0
 10
-20.53673591424038
 20
-17.16826737227267
 30
0.0
 10
-23.82004276525247
 20
-16.23436507877156
 30
0.0
 10
-26.93205754314769
 20
-15.16885250534541
 30
0.0
 10
-29.85046107855906
 20
-13.98105031923233
 30
0.0
 10
-32.5545458398198
 20
-12.68156980905328
 30
0.0
 10
-35.02554721205945
 20
-11.28224761628269
 30
0.0
 10
-37.24700979620568
 20
-9.795994946774842
 30
0.0
 10
-39.20509608340404
 20
-8.236636056891518
 30
0.0
 10
-40.88875369826712
 20
-6.618520059160166
 30
0.0
 10
-42.29118989389387
 20
-4.955544817573681
 30
0.0
 10
-43.40669714502052
 20
-3.259554862908133
 30
0.0
 10
-44.24209414887621
 20
-1.538319387947864
 30
0.0
 10
-44.76710359847714
 20
0.2059561475807204
 30
0.0
 10
-45.00866178345004
 20
1.529155065806444
 30
0.0
 10
-44.9760792542669
 20
2.273588783778306
 30
0.0
 10
-44.96929316910532
 20
2.428634777258815
 30
0.0
  0
SPLINE
  5
2A7
330
297
100
AcDbEntity
  8
0
  6
Continuous
 62
     7
370
    25
100
AcDbSpline
210
0.0
220
0.0
230
1.0
 70
     8
 71
     3
 72
     9
 73
     5
 74
     0
 42
0.000000001
 43
0.00000001
 40
0.0
 40
0.0
 40
0.0
 40
0.0
 40
0.1758114515988361
 40
1.0
 40
1.0
 40
1.0
 40
1.0
 10
91.73899686735842
 20
23.53293552024181
 30
0.0
 10
91.35423023105838
 20
23.13744868216776
 30
0.0
 10
89.16571160612817
 20
20.88795449690574
 30
0.0
 10
86.97703942380991
 20
18.6785613846209
 30
0.0
 10
85.17316087493901
 20
16.85760488255931
 30
0.0
  0
LWPOLYLINE
  5
2BD
330
297
100
AcDbEntity
  8
0
  6
Continuous
 62
     7
370
    25
100
AcDbPolyline
 90
        9
 70
   128
 43
0.0
 10
-548.6558512398
 20
-26.291136332
 10
-548.9520668698
 20
-26.6650721803
 10
-549.1009483295
 20
-27.0615863899
 10
-549.096774188
 20
-27.4654411419
 10
-548.9397048551
 20
-27.8611165248
 10
-548.6357764172
 20
-28.2334069554
 10
-548.1966686739
 20
-28.5680055214
 10
-547.6392562893
 20
-28.8520537874
 10
-546.9849603088
 20
-29.074635938
  0
LWPOLYLINE
  5
2C1
330
297
100
AcDbEntity
  8
0
  6
Continuous
 62
     7
370
    25
100
AcDbPolyline
 90
        9
 70
   128
 43
0.0
 10
548.6558512398
 20
69.1495013671
 10
548.9520668698
 20
69.5234372154
 10
549.1009483295
 20
69.919951425
 10
549.096774188
 20
70.323806177
 10
548.9397048551
 20
70.7194815599
 10
548.6357764172
 20
71.0917719905
 10
548.1966686739
 20
71.4263705565
 10
547.6392562893
 20
71.7104188225
 10
546.9849603088
 20
71.9330009731
  0
SPLINE
  5
2C9
330
297
100
AcDbEntity
  8
0
  6
Continuous
 62
     7
370
    25
100
AcDbSpline
210
0.0
220
0.0
230
1.0
 70
     8
 71
     3
 72
    10
 73
     6
 74
     0
 42
0.000000001
 43
0.00000001
 40
0.0
 40
0.0
 40
0.0
 40
0.0
 40
0.5
 40
0.5
 40
1.0
 40
1.0
 40
1.0
 40
1.0
 10
86.42465317039061
 20
17.02435667637466
 30
0.0
 10
78.08945201960455
 20
8.79211282071657
 30
0.0
 10
69.75169732212751
 20
0.5679875710853204
 30
0.0
 10
53.08841536024867
 20
-15.69588645995911
 30
0.0
 10
44.76332638996472
 20
-23.73520745331083
 30
0.0
 10
36.43571788626075
 20
-31.76637664258976
 30
0.0
  0
SPLINE
  5
2CA
330
297
100
AcDbEntity
  8
0
  6
Continuous
 62
     7
370
    25
100
AcDbSpline
210
0.0
220
0.0
230
1.0
 70
     8
 71
     3
 72
     8
 73
     4
 74
     0
 42
0.000000001
 43
0.00000001
 40
0.0000000000000013
 40
0.0000000000000013
 40
0.0000000000000013
 40
0.0000000000000013
 40
0.0002508647251014
 40
0.0002508647251014
 40
0.0002508647251014
 40
0.0002508647251014
 10
36.43571788626313
 20
-31.76637664259034
 30
0.0
 10
36.40348018545991
 20
-31.80550662456803
 30
0.0
 10
36.37124516878583
 20
-31.84415173603857
 30
0.0
 10
36.33901723627115
 20
-31.88230700882898
 30
0.0
  0
SPLINE
  5
2CB
330
297
100
AcDbEntity
  8
0
  6
Continuous
 62
     7
370
    25
100
AcDbSpline
210
0.0
220
0.0
230
1.0
 70
     8
 71
     3
 72
     8
 73
     4
 74
     0
 42
0.000000001
 43
0.00000001
 40
0.0
 40
0.0
 40
0.0
 40
0.0
 40
1.0
 40
1.0
 40
1.0
 40
1.0
 10
36.33901723627009
 20
-31.88230700882877
 30
0.0
 10
33.90650299112196
 20
-34.16297049821154
 30
0.0
 10
31.47431462465407
 20
-36.43132081631647
 30
0.0
 10
29.04223052843123
 20
-38.69039768321124
 30
0.0
  0
SPLINE
  5
2CC
330
297
100
AcDbEntity
  8
0
  6
Continuous
 62
     7
370
    25
100
AcDbSpline
210
0.0
220
0.0
230
1.0
 70
     8
 71
     3
 72
     8
 73
     4
 74
     0
 42
0.000000001
 43
0.00000001
 40
0.0
 40
0.0
 40
0.0
 40
0.0
 40
1.0
 40
1.0
 40
1.0
 40
1.0
 10
-93.86440750218154
 20
-5.287007037178867
 30
0.0
 10
-91.43007292760647
 20
-3.028541357315253
 30
0.0
 10
-88.99559146965142
 20
-0.7608151472821602
 30
0.0
 10
-86.56113713319345
 20
1.519321517031502
 30
0.0
  0
SPLINE
  5
2CD
330
297
100
AcDbEntity
  8
0
  6
Continuous
 62
     7
370
    25
100
AcDbSpline
210
0.0
220
0.0
230
1.0
 70
     8
 71
     3
 72
    14
 73
    10
 74
     0
 42
0.000000001
 43
0.00000001
 40
0.0
 40
0.0
 40
0.0
 40
0.0
 40
0.25
 40
0.25
 40
0.5
 40
0.5
 40
0.75
 40
0.75
 40
1.0
 40
1.0
 40
1.0
 40
1.0
 10
29.04223052843123
 20
-38.69039768321124
 30
0.0
 10
18.801454912522
 20
-35.9827324437264
 30
0.0
 10
8.561194528158858
 20
-33.27670320122483
 30
0.0
 10
-11.91925665474174
 20
-27.83297107914656
 30
0.0
 10
-22.15959614413865
 20
-25.09218969045326
 30
0.0
 10
-42.64466055660701
 20
-19.52478812406225
 30
0.0
 10
-52.88887435663235
 20
-16.69830685944008
 30
0.0
 10
-73.37709947157533
 20
-11.00763061662702
 30
0.0
 10
-83.62099875388128
 20
-8.1465041845569
 30
0.0
 10
-93.86440750218154
 20
-5.287007037178867
 30
0.0
  0
SPLINE
  5
2CF
330
297
100
AcDbEntity
  8
0
  6
Continuous
 62
     7
370
    25
100
AcDbSpline
210
0.0
220
0.0
230
1.0
 70
     8
 71
     3
 72
    14
 73
    10
 74
     0
 42
0.000000001
 43
0.00000001
 40
0.0
 40
0.0
 40
0.0
 40
0.0
 40
0.125
 40
0.125
 40
0.2499999999999999
 40
0.2499999999999999
 40
0.5
 40
0.5
 40
1.0
 40
1.0
 40
1.0
 40
1.0
 10
-36.43571788625827
 20
50.41517295026853
 30
0.0
 10
-44.49548940448203
 20
59.83977154499416
 30
0.0
 10
-52.54454841054159
 20
69.26682830997194
 30
0.0
 10
-68.63764760273826
 20
88.12201265130534
 30
0.0
 10
-76.68097068622238
 20
97.55031598561555
 30
0.0
 10
-100.8071421733352
 20
125.836040399861
 30
0.0
 10
-116.8861762100483
 20
144.6942844456593
 30
0.0
 10
-165.1195419714051
 20
201.2697979843569
 30
0.0
 10
-197.2694980771612
 20
238.987994854577
 30
0.0
 10
-229.4186648196616
 20
276.706353233721
 30
0.0
  0
SPLINE
  5
2D0
330
297
100
AcDbEntity
  8
0
  6
Continuous
 62
     7
370
    25
100
AcDbSpline
210
0.0
220
0.0
230
1.0
 70
     8
 71
     3
 72
    10
 73
     6
 74
     0
 42
0.000000001
 43
0.00000001
 40
0.0
 40
0.0
 40
0.0
 40
0.0
 40
0.5
 40
0.5
 40
1.0
 40
1.0
 40
1.0
 40
1.0
 10
-86.42465317038686
 20
1.624439631310346
 30
0.0
 10
-78.08945201960228
 20
9.653545313587
 30
0.0
 10
-69.75169732212673
 20
17.68942407513898
 30
0.0
 10
-53.08841536025079
 20
33.95329810677784
 30
0.0
 10
-44.76332638996767
 20
42.18086558784198
 30
0.0
 10
-36.43571788626517
 20
50.41517295026697
 30
0.0
  0
SPLINE
  5
2D1
330
297
100
AcDbEntity
  8
0
  6
Continuous
 62
     7
370
    25
100
AcDbSpline
210
0.0
220
0.0
230
1.0
 70
     8
 71
     3
 72
     8
 73
     4
 74
     0
 42
0.000000001
 43
0.00000001
 40
0.0
 40
0.0
 40
0.0
 40
0.0
 40
0.000250864725056
 40
0.000250864725056
 40
0.000250864725056
 40
0.000250864725056
 10
-86.56113713319576
 20
1.519321517032272
 30
0.0
 10
-86.51564675775751
 20
1.553872342019449
 30
0.0
 10
-86.4701500326395
 20
1.588913205302911
 30
0.0
 10
-86.4246531704006
 20
1.6244396313152
 30
0.0
  0
SPLINE
  5
2D2
330
297
100
AcDbEntity
  8
0
  6
Continuous
 62
     7
370
    25
100
AcDbSpline
210
0.0
220
0.0
230
1.0
 70
     8
 71
     3
 72
     8
 73
     4
 74
     0
 42
0.000000001
 43
0.00000001
 40
0.0
 40
0.0
 40
0.0
 40
0.0
 40
0.0002508647251016
 40
0.0002508647251016
 40
0.0002508647251016
 40
0.0002508647251016
 10
86.56113713319593
 20
17.13602164082633
 30
0.0
 10
86.51564675776079
 20
17.09832146249323
 30
0.0
 10
86.47015003263104
 20
17.06109801099118
 30
0.0
 10
86.42465317039527
 20
17.02435667637904
 30
0.0
  0
SPLINE
  5
2D3
330
297
100
AcDbEntity
  8
0
  6
Continuous
 62
     7
370
    25
100
AcDbSpline
210
0.0
220
0.0
230
1.0
 70
     8
 71
     3
 72
    14
 73
    10
 74
     0
 42
0.000000001
 43
0.00000001
 40
0.0
 40
0.0
 40
0.0
 40
0.0
 40
0.1250000000000001
 40
0.1250000000000001
 40
0.2500000000000001
 40
0.2500000000000001
 40
0.5
 40
0.5
 40
1.0
 40
1.0
 40
1.0
 40
1.0
 10
86.5611371331936
 20
17.13602164082711
 30
0.0
 10
105.634178080701
 20
19.20081323265446
 30
0.0
 10
124.7092376699109
 20
21.25959976011978
 30
0.0
 10
162.8603091083667
 20
25.37421005388953
 30
0.0
 10
181.9364554294207
 20
27.42965088095827
 30
0.0
 10
239.1656112504579
 20
33.59373447825305
 30
0.0
 10
277.3193415249772
 20
37.70013697926611
 30
0.0
 10
391.781240148679
 20
50.01709065327712
 30
0.0
 10
468.0902355806087
 20
58.2250322661564
 30
0.0
 10
544.3993807521698
 20
66.4324874298502
 30
0.0
  0
SPLINE
  5
2D4
330
297
100
AcDbEntity
  8
0
  6
Continuous
 62
     7
370
    25
100
AcDbSpline
210
0.0
220
0.0
230
1.0
 70
     8
 71
     3
 72
     8
 73
     4
 74
     0
 42
0.000000001
 43
0.00000001
 40
0.0
 40
0.0
 40
0.0
 40
0.0
 40
1.0
 40
1.0
 40
1.0
 40
1.0
 10
93.86440750218156
 20
24.57803425886798
 30
0.0
 10
91.43007292760655
 20
22.08733729863111
 30
0.0
 10
88.99559146965156
 20
19.60566870522614
 30
0.0
 10
86.56113713319365
 20
17.1360216408271
 30
0.0
  0
SPLINE
  5
2D5
330
297
100
AcDbEntity
  8
0
  6
Continuous
 62
     7
370
    25
100
AcDbSpline
210
0.0
220
0.0
230
1.0
 70
     8
 71
     3
 72
    14
 73
    10
 74
     0
 42
0.000000001
 43
0.00000001
 40
0.0
 40
0.0
 40
0.0
 40
0.0
 40
0.25
 40
0.25
 40
0.5
 40
0.5
 40
0.75
 40
0.75
 40
1.0
 40
1.0
 40
1.0
 40
1.0
 10
-29.04223052843116
 20
57.98142490490037
 30
0.0
 10
-18.80145491252192
 20
55.11935767971958
 30
0.0
 10
-8.561194528158774
 20
52.25467951324423
 30
0.0
 10
11.91925665474181
 20
46.55641553708011
 30
0.0
 10
22.1595961441387
 20
43.72615263454954
 30
0.0
 10
42.64466055660706
 20
38.15875107009283
 30
0.0
 10
52.88887435663238
 20
35.42175131956934
 30
0.0
 10
73.37709947157533
 20
29.98560693015659
 30
0.0
 10
83.62099875388132
 20
27.283129421269
 30
0.0
 10
93.86440750218156
 20
24.57803425886798
 30
0.0
  0
SPLINE
  5
2D6
330
297
100
AcDbEntity
  8
0
  6
Continuous
 62
     7
370
    25
100
AcDbSpline
210
0.0
220
0.0
230
1.0
 70
     8
 71
     3
 72
     8
 73
     4
 74
     0
 42
0.000000001
 43
0.00000001
 40
0.0
 40
0.0
 40
0.0
 40
0.0
 40
1.0
 40
1.0
 40
1.0
 40
1.0
 10
-36.33901723627003
 20
50.53765016668728
 30
0.0
 10
-33.90650299111439
 20
53.0078240271624
 30
0.0
 10
-31.47431462466153
 20
55.49011679299637
 30
0.0
 10
-29.04223052843119
 20
57.98142490490036
 30
0.0
  0
SPLINE
  5
2D7
330
297
100
AcDbEntity
  8
0
  6
Continuous
 62
     7
370
    25
100
AcDbSpline
210
0.0
220
0.0
230
1.0
 70
     8
 71
     3
 72
    14
 73
    10
 74
     0
 42
0.000000001
 43
0.00000001
 40
0.0
 40
0.0
 40
0.0
 40
0.0
 40
0.5
 40
0.5
 40
0.75
 40
0.75
 40
0.875
 40
0.875
 40
1.0
 40
1.0
 40
1.0
 40
1.0
 10
-228.8506340909246
 20
276.5852727205913
 30
0.0
 10
-196.7507398797205
 20
238.9145636999347
 30
0.0
 10
-164.6516350418133
 20
201.2436235102998
 30
0.0
 10
-116.5113946177336
 20
144.7348929584737
 30
0.0
 10
-100.4658915585467
 20
125.8983002623342
 30
0.0
 10
-76.40523887585537
 20
97.6413883612473
 30
0.0
 10
-68.38628409563641
 20
88.22207950447172
 30
0.0
 10
-52.35481126734503
 20
69.3818144541416
 30
0.0
 10
-44.34158213551882
 20
59.96101137593597
 30
0.0
 10
-36.3390172362701
 20
50.53765016668721
 30
0.0
  0
LWPOLYLINE
  5
2D8
330
297
100
AcDbEntity
  8
0
  6
Continuous
 62
     7
370
    25
100
AcDbPolyline
 90
        8
 70
   128
 43
0.0
 10
544.3993807522
 20
66.4324874298
 10
540.8617342109
 20
67.3939320633
 10
526.7111479091
 20
71.2397107628
 10
470.1087962382
 20
86.62283127
 10
243.6989690297
 20
148.1556283195
 10
7.4248065004
 20
212.3699874209
 10
-3.1416482798
 20
215.241745214
 10
-228.8506340909
 20
276.5852727206
  0
LWPOLYLINE
  5
2D9
330
297
100
AcDbEntity
  8
0
  6
Continuous
 62
     7
370
    25
100
AcDbPolyline
 90
        7
 70
   128
 43
0.0
 10
-624.4651258023
 20
-63.2224848532
 10
-625.2829957779
 20
-62.944257165
 10
-625.9797612587
 20
-62.5891968324
 10
-626.5286459379
 20
-62.170948625
 10
-626.9085564852
 20
-61.7055855867
 10
-627.1048931513
 20
-61.2109913581
 10
-627.1316488577
 20
-60.9449398191
  0
SPLINE
  5
2DF
330
297
100
AcDbEntity
  8
0
  6
Continuous
 62
     7
370
    25
100
AcDbSpline
210
0.0
220
0.0
230
1.0
 70
     8
 71
     3
 72
    10
 73
     6
 74
     0
 42
0.000000001
 43
0.00000001
 40
0.0
 40
0.0
 40
0.0
 40
0.0
 40
0.0057650227467438
 40
0.5350926739256736
 40
1.0
 40
1.0
 40
1.0
 40
1.0
 10
29.04223052843123
 20
-38.69039768321124
 30
0.0
 10
29.04134937301227
 20
-38.68899454873993
 30
0.0
 10
28.9595630852597
 20
-38.55875968079297
 30
0.0
 10
28.80372315670984
 20
-38.33997010625929
 30
0.0
 10
28.66321020513388
 20
-38.30276598308339
 30
0.0
 10
28.59750591782701
 20
-38.28536922092921
 30
0.0
  0
SPLINE
  5
2E0
330
297
100
AcDbEntity
  8
0
  6
Continuous
 62
     7
370
    25
100
AcDbSpline
210
0.0
220
0.0
230
1.0
 70
     8
 71
     3
 72
    10
 73
     6
 74
     0
 42
0.000000001
 43
0.00000001
 40
0.0
 40
0.0
 40
0.0
 40
0.0
 40
0.0057191318909557
 40
0.5308332179256678
 40
1.0
 40
1.0
 40
1.0
 40
1.0
 10
-93.86440750218154
 20
-5.287007037178867
 30
0.0
 10
-93.86155989289392
 20
-5.286617292052133
 30
0.0
 10
-93.59725306620076
 20
-5.250442280924521
 30
0.0
 10
-93.0909445858836
 20
-5.210631569599642
 30
0.0
 10
-92.6408635416592
 20
-5.334164924650469
 30
0.0
 10
-92.42848585044102
 20
-5.392456045929174
 30
0.0
  0
LWPOLYLINE
  5
2E1
330
297
100
AcDbEntity
  8
0
  6
Continuous
 62
     7
370
    25
100
AcDbPolyline
 90
       73
 70
   128
 43
0.0
 10
21.9346832797
 20
25.6947598233
 10
25.4740747474
 20
24.6286768067
 10
28.8195931246
 20
23.407772492
 10
31.9457769964
 20
22.0413386983
 10
34.8288342158
 20
20.5397748118
 10
37.4468229766
 20
18.9145086404
 10
39.7798188036
 20
17.1779094411
 10
41.8100661898
 20
15.3431937822
 10
43.5221137266
 20
13.4243249578
 10
44.9029316987
 20
11.4359067183
 10
45.9420112473
 20
9.3930721271
 10
46.6314443498
 20
7.311368389
 10
46.965984004
 20
5.2066385264
 10
46.9430841611
 20
3.0949008044
 10
46.5629191027
 20
0.9922268222
 10
45.8283821145
 20
-1.0853808016
 10
44.7450634664
 20
-3.1221102185
 10
43.3212078676
 20
-5.1024606878
 10
41.5676517188
 20
-7.0113605466
 10
39.4977406413
 20
-8.8342819145
 10
37.127227908
 20
-10.5573512591
 10
34.4741545523
 20
-12.1674549822
 10
31.5587120645
 20
-13.6523392224
 10
28.4030887221
 20
-15.0007031139
 10
25.0313007243
 20
-16.2022847934
 10
21.4690094137
 20
-17.2479394987
 10
17.7433259781
 20
-18.1297091663
 10
13.8826051181
 20
-18.8408829964
 10
9.9162292506
 20
-19.3760485268
 10
5.874384891
 20
-19.7311328247
 10
1.7878329152
 20
-19.9034334842
 10
-2.3123255485
 20
-19.8916391932
 10
-6.3948858186
 20
-19.6958397133
 10
-10.4287771463
 20
-19.317525197
 10
-14.3832991829
 20
-18.759574846
 10
-18.2283556277
 20
-18.0262349994
 10
-21.9346832797
 20
-17.1230868163
 10
-25.4740747474
 20
-16.0570037997
 10
-28.8195931246
 20
-14.836099485
 10
-31.9457769964
 20
-13.4696656913
 10
-34.8288342158
 20
-11.9681018048
 10
-37.4468229766
 20
-10.3428356334
 10
-39.7798188036
 20
-8.606236434
 10
-41.8100661898
 20
-6.7715207752
 10
-43.5221137266
 20
-4.8526519508
 10
-44.9029316987
 20
-2.8642337113
 10
-45.9420112473
 20
-0.8213991201
 10
-46.6314443498
 20
1.260304618
 10
-46.965984004
 20
3.3650344806
 10
-46.9430841611
 20
5.4767722026
 10
-46.5629191027
 20
7.5794461848
 10
-45.8283821145
 20
9.6570538086
 10
-44.7450634664
 20
11.6937832255
 10
-43.3212078676
 20
13.6741336948
 10
-41.5676517188
 20
15.5830335537
 10
-39.4977406413
 20
17.4059549215
 10
-37.127227908
 20
19.1290242661
 10
-34.4741545523
 20
20.7391279892
 10
-31.5587120645
 20
22.2240122294
 10
-28.4030887221
 20
23.5723761209
 10
-25.0313007243
 20
24.7739578004
 10
-21.4690094137
 20
25.8196125058
 10
-17.7433259781
 20
26.7013821733
 10
-13.8826051181
 20
27.4125560034
 10
-9.9162292506
 20
27.9477215338
 10
-5.874384891
 20
28.3028058317
 10
-1.7878329152
 20
28.4751064912
 10
2.3123255485
 20
28.4633122002
 10
6.3948858186
 20
28.2675127204
 10
10.4287771463
 20
27.889198204
 10
14.3832991829
 20
27.331247853
 10
18.2283556277
 20
26.5979080064
 10
21.9346832797
 20
25.6947598233
  0
LWPOLYLINE
  5
2E3
330
297
100
AcDbEntity
  8
0
  6
Continuous
 62
     7
370
    25
100
AcDbPolyline
 90
       37
 70
   128
 43
0.0
 10
44.9151671855
 20
1.4224524314
 10
44.8973814997
 20
1.5643203276
 10
44.4532539925
 20
3.6018881121
 10
43.6612195008
 20
5.6112662384
 10
42.5274767685
 20
7.5767285984
 10
41.0608988695
 20
9.4828927842
 10
39.2729637645
 20
11.3148404766
 10
37.1776644698
 20
13.0582342011
 10
34.7913995433
 20
14.6994295379
 10
32.1328447434
 20
16.2255819083
 10
29.2228068661
 20
17.6247471009
 10
26.0840609033
 20
18.8859747509
 10
22.7411717979
 20
19.9993940419
 10
19.2203021895
 20
20.9562909583
 10
15.5490076567
 20
21.7491764844
 10
11.7560210568
 20
22.3718452159
 10
7.8710276527
 20
22.8194239257
 10
3.9244327853
 20
23.0884097036
 10
-0.0528760895
 20
23.1766973711
 10
-4.0297711373
 20
23.0835959576
 10
-7.9751277622
 20
22.8098341078
 10
-11.8580681992
 20
22.3575543794
 10
-15.6482031748
 20
21.7302964744
 10
-19.315869744
 20
20.9329695366
 10
-22.832363443
 20
19.9718137301
 10
-26.1701629408
 20
18.8543514025
 10
-29.3031454307
 20
17.5893282114
 10
-32.206791077
 20
16.1866446786
 10
-34.8583749155
 20
14.6572787045
 10
-37.2371447076
 20
13.0131996514
 10
-39.3244833544
 20
11.2672746672
 10
-41.1040546008
 20
9.4331679819
 10
-42.561930889
 20
7.5252339673
 10
-43.6867023604
 20
5.5584047937
 10
-44.4695661532
 20
3.5480735663
 10
-44.9043952968
 20
1.5099738525
 10
-44.9611350899
 20
0.963042899
  0
SPLINE
  5
2E5
330
297
100
AcDbEntity
  8
0
  6
Continuous
 62
     7
370
    25
100
AcDbSpline
210
0.0
220
0.0
230
1.0
 70
     8
 71
     3
 72
     8
 73
     4
 74
     0
 42
0.000000001
 43
0.00000001
 40
0.0
 40
0.0
 40
0.0
 40
0.0
 40
0.000278975405222
 40
0.000278975405222
 40
0.000278975405222
 40
0.000278975405222
 10
-84.69888017083349
 20
-0.5662359362422591
 30
0.0
 10
-84.74227806136133
 20
-0.6080649389203635
 30
0.0
 10
-84.78567500516664
 20
-0.6493124508596577
 30
0.0
 10
-84.82906410250898
 20
-0.6899722130633522
 30
0.0
  0
SPLINE
  5
2E6
330
297
100
AcDbEntity
  8
0
  6
Continuous
 62
     7
370
    25
100
AcDbSpline
210
0.0
220
0.0
230
1.0
 70
     8
 71
     3
 72
    10
 73
     6
 74
     0
 42
0.000000001
 43
0.00000001
 40
0.0
 40
0.0
 40
0.0
 40
0.0
 40
0.5
 40
0.5
 40
1.0
 40
1.0
 40
1.0
 40
1.0
 10
-34.69756625565194
 20
48.23657930611274
 30
0.0
 10
-43.03103430449701
 20
40.00134151517333
 30
0.0
 10
-51.36451982593007
 20
31.77362446929368
 30
0.0
 10
-68.03192655795408
 20
15.50572453556875
 30
0.0
 10
-76.36541211254702
 20
7.46596686180985
 30
0.0
 10
-84.69888017083349
 20
-0.5662359362422625
 30
0.0
  0
SPLINE
  5
2E7
330
297
100
AcDbEntity
  8
0
  6
Continuous
 62
     7
370
    25
100
AcDbSpline
210
0.0
220
0.0
230
1.0
 70
     8
 71
     3
 72
     8
 73
     4
 74
     0
 42
0.000000001
 43
0.00000001
 40
0.0
 40
0.0
 40
0.0
 40
0.0
 40
0.0002789754052943
 40
0.0002789754052943
 40
0.0002789754052943
 40
0.0002789754052943
 10
-34.5673823239427
 20
48.3669700459014
 30
0.0
 10
-34.6107714212963
 20
48.3229316297728
 30
0.0
 10
-34.65416836511285
 20
48.27946564660232
 30
0.0
 10
-34.69756625565194
 20
48.23657930611276
 30
0.0
  0
SPLINE
  5
2E8
330
297
100
AcDbEntity
  8
0
  6
Continuous
 62
     7
370
    25
100
AcDbSpline
210
0.0
220
0.0
230
1.0
 70
     8
 71
     3
 72
     8
 73
     4
 74
     0
 42
0.000000001
 43
0.00000001
 40
0.0
 40
0.0
 40
0.0
 40
0.0
 40
1.0
 40
1.0
 40
1.0
 40
1.0
 10
-28.19628446044673
 20
54.85927847208362
 30
0.0
 10
-30.31988242894293
 20
52.6873249682323
 30
0.0
 10
-32.44357319718512
 20
50.52256202191462
 30
0.0
 10
-34.5673823239427
 20
48.3669700459014
 30
0.0
  0
SPLINE
  5
2ED
330
297
100
AcDbEntity
  8
0
  6
Continuous
 62
     7
370
    25
100
AcDbSpline
210
0.0
220
0.0
230
1.0
 70
     8
 71
     3
 72
    11
 73
     7
 74
     0
 42
0.000000001
 43
0.00000001
 40
0.0
 40
0.0
 40
0.0
 40
0.0
 40
0.2135993629347423
 40
0.6567898979198961
 40
0.9963022965145436
 40
1.0
 40
1.0
 40
1.0
 40
1.0
 10
91.75554599997339
 20
23.51536677378514
 30
0.0
 10
91.87565853020399
 20
23.63622431353857
 30
0.0
 10
92.24498873505657
 20
24.00784532451399
 30
0.0
 10
92.99721526512536
 20
24.35982833015959
 30
0.0
 10
93.5972279258873
 20
24.52964465188995
 30
0.0
 10
93.86155962492238
 20
24.57751847220791
 30
0.0
 10
93.86440750218156
 20
24.57803425886797
 30
0.0
  0
SPLINE
  5
2EE
330
297
100
AcDbEntity
  8
0
  6
Continuous
 62
     7
370
    25
100
AcDbSpline
210
0.0
220
0.0
230
1.0
 70
     8
 71
     3
 72
    18
 73
    14
 74
     0
 42
0.000000001
 43
0.00000001
 40
0.0
 40
0.0
 40
0.0
 40
0.0
 40
0.125
 40
0.125
 40
0.2500000000000001
 40
0.2500000000000001
 40
0.3750000000000001
 40
0.3750000000000001
 40
0.5000000000000001
 40
0.5000000000000001
 40
0.75
 40
0.75
 40
1.0
 40
1.0
 40
1.0
 40
1.0
 10
-28.19656910176987
 20
54.89011955212931
 30
0.0
 10
-28.19909338760922
 20
55.02720563917962
 30
0.0
 10
-28.20933659388491
 20
55.17269018413457
 30
0.0
 10
-28.24351811746201
 20
55.47855481099798
 30
0.0
 10
-28.26719459185328
 20
55.63539169371273
 30
0.0
 10
-28.32370638978809
 20
55.9447376194473
 30
0.0
 10
-28.35676738375547
 20
56.09841780181711
 30
0.0
 10
-28.42783127653151
 20
56.39184470211872
 30
0.0
 10
-28.46632838308394
 20
56.53397663060723
 30
0.0
 10
-28.58842740153911
 20
56.94512987060286
 30
0.0
 10
-28.67502044113034
 20
57.18842066221466
 30
0.0
 10
-28.85609802388536
 20
57.62814353158107
 30
0.0
 10
-28.94979934900731
 20
57.82120650302647
 30
0.0
 10
-29.0422305284312
 20
57.98142490490039
 30
0.0
  0
SPLINE
  5
2EF
330
297
100
AcDbEntity
  8
0
  6
Continuous
 62
     7
370
    25
100
AcDbSpline
210
0.0
220
0.0
230
1.0
 70
     8
 71
     3
 72
     8
 73
     4
 74
     0
 42
0.000000001
 43
0.00000001
 40
0.0
 40
0.0
 40
0.0
 40
0.0
 40
0.000035891426921
 40
0.000035891426921
 40
0.000035891426921
 40
0.000035891426921
 10
-28.19656910176987
 20
54.89011955212931
 30
0.0
 10
-28.19637934850779
 20
54.87981464458021
 30
0.0
 10
-28.19628446044673
 20
54.86953345792768
 30
0.0
 10
-28.19628446044673
 20
54.85927847208362
 30
0.0
  0
SPLINE
  5
2F0
330
297
100
AcDbEntity
  8
0
  6
Continuous
 62
     7
370
    25
100
AcDbSpline
210
0.0
220
0.0
230
1.0
 70
     8
 71
     3
 72
     8
 73
     4
 74
     0
 42
0.000000001
 43
0.00000001
 40
0.000000000000004
 40
0.000000000000004
 40
0.000000000000004
 40
0.000000000000004
 40
0.0002508647251015
 40
0.0002508647251015
 40
0.0002508647251015
 40
0.0002508647251015
 10
-36.435717886359
 20
50.41517295029436
 30
0.0
 10
-36.40348018555575
 20
50.45551784087383
 30
0.0
 10
-36.37124516879565
 20
50.49634554055059
 30
0.0
 10
-36.33901723628094
 20
50.5376501666897
 30
0.0
  0
SPLINE
  5
2F1
330
297
100
AcDbEntity
  8
0
  6
Continuous
 62
     7
370
    25
100
AcDbSpline
210
0.0
220
0.0
230
1.0
 70
     8
 71
     3
 72
     8
 73
     4
 74
     0
 42
0.000000001
 43
0.00000001
 40
0.0000000000000001
 40
0.0000000000000001
 40
0.0000000000000001
 40
0.0000000000000001
 40
0.0006105840372009
 40
0.0006105840372009
 40
0.0006105840372009
 40
0.0006105840372009
 10
-228.8506340909245
 20
276.5852727205914
 30
0.0
 10
-229.0399848343323
 20
276.6230675536264
 30
0.0
 10
-229.2293695185233
 20
276.6634376823643
 30
0.0
 10
-229.4186648196614
 20
276.706353233721
 30
0.0
  0
SPLINE
  5
2F7
330
297
100
AcDbEntity
  8
0
  6
Continuous
 62
     7
370
    25
100
AcDbSpline
210
0.0
220
0.0
230
1.0
 70
     8
 71
     3
 72
     8
 73
     4
 74
     0
 42
0.000000001
 43
0.00000001
 40
0.0
 40
0.0
 40
0.0
 40
0.0
 40
0.0005550165122555
 40
0.0005550165122555
 40
0.0005550165122555
 40
0.0005550165122555
 10
545.301416002598
 20
69.02629948004835
 30
0.0
 10
545.4650382230063
 20
68.9818325884835
 30
0.0
 10
545.6286741526187
 20
68.93942087048416
 30
0.0
 10
545.792241265659
 20
68.8990822374932
 30
0.0
  0
LWPOLYLINE
  5
2FB
330
297
100
AcDbEntity
  8
0
  6
Continuous
 62
     7
370
    25
100
AcDbPolyline
 90
        4
 70
   128
 43
0.0
 10
-227.9485515302
 20
279.1790719129
 10
-2.2410388836
 20
217.8340245332
 10
224.2166273101
 20
156.2870959628
 10
545.3014160026
 20
69.02629948
  0
SPLINE
  5
2FD
330
297
100
AcDbEntity
  8
0
  6
Continuous
 62
     7
370
    25
100
AcDbSpline
210
0.0
220
0.0
230
1.0
 70
     8
 71
     3
 72
     8
 73
     4
 74
     0
 42
0.000000001
 43
0.00000001
 40
0.0
 40
0.0
 40
0.0
 40
0.0
 40
0.0005550165122372
 40
0.0005550165122372
 40
0.0005550165122372
 40
0.0005550165122372
 10
-228.4393767932
 20
279.3186462490662
 30
0.0
 10
-228.2758096801652
 20
279.2700768090489
 30
0.0
 10
-228.1121737505582
 20
279.2235430483001
 30
0.0
 10
-227.9485515301552
 20
279.1790719128526
 30
0.0
  0
SPLINE
  5
308
330
297
100
AcDbEntity
  8
0
  6
Continuous
 62
     8
370
    25
100
AcDbSpline
210
0.0
220
0.0
230
1.0
 70
     8
 71
     3
 72
    11
 73
     7
 74
     0
 42
0.000000001
 43
0.00000001
 40
0.0
 40
0.0
 40
0.0
 40
0.0
 40
0.2067790305169458
 40
0.5059555911697472
 40
0.7857078517950193
 40
1.0
 40
1.0
 40
1.0
 40
1.0
 10
36.43571788626151
 20
-31.76637664259071
 30
0.0
 10
49.58994479981083
 20
-46.05184233708174
 30
0.0
 10
81.77625807242495
 20
-81.00611803187482
 30
0.0
 10
131.6784952902738
 20
-135.3073607708184
 30
0.0
 10
182.0623631110432
 20
-190.1268802072858
 30
0.0
 10
213.4381544561506
 20
-224.2715592834672
 30
0.0
 10
227.0474284582464
 20
-239.0818405015643
 30
0.0
  0
SPLINE
  5
309
330
297
100
AcDbEntity
  8
0
  6
Continuous
 62
     8
370
    25
100
AcDbSpline
210
0.0
220
0.0
230
1.0
 70
     8
 71
     3
 72
    14
 73
    10
 74
     0
 42
0.000000001
 43
0.00000001
 40
0.0
 40
0.0
 40
0.0
 40
0.0
 40
0.5
 40
0.5
 40
0.75
 40
0.75
 40
0.875
 40
0.875
 40
1.0
 40
1.0
 40
1.0
 40
1.0
 10
544.5514294080481
 20
66.22385466583043
 30
0.0
 10
468.1997168847762
 20
58.01604781898334
 30
0.0
 10
391.8478561532572
 20
49.80865761912506
 30
0.0
 10
277.3184816865377
 20
37.50207637051819
 30
0.0
 10
239.1417896494664
 20
33.40054525989223
 30
0.0
 10
181.8753203293412
 20
27.25234891376351
 30
0.0
 10
162.7862591899075
 20
25.20363014063366
 30
0.0
 10
124.6069292239848
 20
21.10969478740148
 30
0.0
 10
105.5167945040968
 20
19.06407201890617
 30
0.0
 10
86.4246531703892
 20
17.02435667637858
 30
0.0
  0
SPLINE
  5
30A
330
297
100
AcDbEntity
  8
0
  6
Continuous
 62
     8
370
    25
100
AcDbSpline
210
0.0
220
0.0
230
1.0
 70
     8
 71
     3
 72
    12
 73
     8
 74
     0
 42
0.000000001
 43
0.00000001
 40
0.0
 40
0.0
 40
0.0
 40
0.0
 40
0.187362837463712
 40
0.3874782501152491
 40
0.5903683837475833
 40
0.7932585198792679
 40
1.0
 40
1.0
 40
1.0
 40
1.0
 10
226.4254748343332
 20
-238.9128068334388
 30
0.0
 10
214.5484345343337
 20
-225.9839414359448
 30
0.0
 10
189.9859607039324
 20
-199.2462264866459
 30
0.0
 10
152.564116135077
 20
-158.5078457945624
 30
0.0
 10
114.1642298750876
 20
-116.6967568069023
 30
0.0
 10
75.34491498872497
 20
-74.42853181717328
 30
0.0
 10
49.42222460246549
 20
-46.1529971836577
 30
0.0
 10
36.33901723630276
 20
-31.88230700886445
 30
0.0
  0
SPLINE
  5
30B
330
297
100
AcDbEntity
  8
0
  6
Continuous
 62
     8
370
    25
100
AcDbSpline
210
0.0
220
0.0
230
1.0
 70
     8
 71
     3
 72
    11
 73
     7
 74
     0
 42
0.000000001
 43
0.00000001
 40
0.0
 40
0.0
 40
0.0
 40
0.0
 40
0.2067414752684317
 40
0.5064012871861294
 40
0.7866054478647874
 40
1.0
 40
1.0
 40
1.0
 40
1.0
 10
-86.56113713319344
 20
1.519321517031481
 30
0.0
 10
-117.7121818966827
 20
-0.7292648346691605
 30
0.0
 10
-194.014864485852
 20
-6.23704706062022
 30
0.0
 10
-312.5528996129033
 20
-14.74941850968819
 30
0.0
 10
-432.0926830005383
 20
-23.33648361549656
 30
0.0
 10
-506.4762836008505
 20
-28.67712240948496
 30
0.0
 10
-538.6340966668939
 20
-30.98600854304516
 30
0.0
  0
SPLINE
  5
30C
330
297
100
AcDbEntity
  8
0
  6
Continuous
 62
     8
370
    25
100
AcDbSpline
210
0.0
220
0.0
230
1.0
 70
     8
 71
     3
 72
    10
 73
     6
 74
     0
 42
0.000000001
 43
0.00000001
 40
0.0
 40
0.0
 40
0.0
 40
0.0
 40
0.3880101188723655
 40
0.7932209234632828
 40
1.0
 40
1.0
 40
1.0
 40
1.0
 10
-539.2689338838512
 20
-30.81347339039231
 30
0.0
 10
-480.7013364583134
 20
-26.61254917392116
 30
0.0
 10
-360.969810255017
 20
-18.02447163596223
 30
0.0
 10
-210.0279481219868
 20
-7.192885927253714
 30
0.0
 10
-117.640510767067
 20
-0.6023649140551174
 30
0.0
 10
-86.42465317046091
 20
1.624439631297842
 30
0.0
  0
LWPOLYLINE
  5
30D
330
297
100
AcDbEntity
  8
0
  6
Continuous
 62
     8
370
    25
100
AcDbPolyline
 90
        6
 70
   128
 43
0.0
 10
-229.6779965307
 20
276.7833579726
 10
-231.544800705
 20
274.961307428
 10
-239.0120159968
 20
267.6731061669
 10
-268.8808506038
 20
238.5203183782
 10
-388.3555253248
 20
121.9095936743
 10
-543.6178271785
 20
-29.6315373784
  0
LWPOLYLINE
  5
30F
330
297
100
AcDbEntity
  8
0
  6
Continuous
 62
     8
370
    25
100
AcDbPolyline
 90
        7
 70
   128
 43
0.0
 10
-627.1316488577
 20
-43.8015938051
 10
-627.1048931513
 20
-44.0676453441
 10
-626.9085564852
 20
-44.5622395726
 10
-626.5286459379
 20
-45.0276026109
 10
-625.9797612587
 20
-45.4458508184
 10
-625.2829957779
 20
-45.8009111509
 10
-624.4651258023
 20
-46.0791388391
  0
LWPOLYLINE
  5
313
330
297
100
AcDbEntity
  8
0
  6
Continuous
 62
     8
370
    25
100
AcDbPolyline
 90
        4
 70
   128
 43
0.0
 10
-546.7045283712
 20
-28.7806126653
 10
-427.4548439381
 20
87.6097772987
 10
-329.4278880093
 20
183.2871877066
 10
-231.4009320797
 20
278.9653648595
  0
LWPOLYLINE
  5
319
330
297
100
AcDbEntity
  8
0
  6
Continuous
 62
     8
370
    25
100
AcDbPolyline
 90
       25
 70
   128
 43
0.0
 10
21.0012925019
 20
23.0694072083
 10
17.4016872331
 20
23.9451555889
 10
13.6658901676
 20
24.6536261499
 10
9.8231389827
 20
25.1892741486
 10
5.9035084165
 20
25.5479074131
 10
1.9376748927
 20
25.726719152
 10
-2.0433235643
 20
25.7243099209
 10
-6.008330244
 20
25.5406985753
 10
-9.9263135932
 20
25.177322123
 10
-13.7666100799
 20
24.6370244773
 10
-17.4991641772
 20
23.9240342
 10
-21.0947635887
 20
23.0439314065
 10
-24.5252678737
 20
22.0036040947
 10
-27.763828685
 20
20.8111942362
 10
-30.7850998932
 20
19.4760340548
 10
-33.5654359548
 20
18.0085729894
 10
-36.0830769704
 20
16.4202959124
 10
-38.3183189854
 20
14.7236332453
 10
-40.2536682005
 20
12.931863674
 10
-41.873977884
 20
11.0590102248
 10
-43.1665669156
 20
9.1197305151
 10
-44.1213190338
 20
7.1292020381
 10
-44.7307620086
 20
5.103003378
 10
-44.9901261225
 20
3.0569922865
 10
-45.0
 20
2.5715019021
  0
LWPOLYLINE
  5
31A
330
297
100
AcDbEntity
  8
0
  6
Continuous
 62
     8
370
    25
100
AcDbPolyline
 90
       14
 70
   128
 43
0.0
 10
44.9999091901
 20
2.5249404087
 10
44.9877866636
 20
3.111445356
 10
44.7190876031
 20
5.1571368729
 10
44.1004010496
 20
7.1825922903
 10
43.1365690645
 20
9.1719596735
 10
41.8351349396
 20
11.1096695255
 10
40.2062841617
 20
12.9805566393
 10
38.2627646965
 20
14.7699787866
 10
36.0197872191
 20
16.463931313
 10
33.4949060691
 20
18.0491567433
 10
30.7078818652
 20
19.513248539
 10
27.6805268503
 20
20.8447481968
 10
24.4365341822
 20
22.0332349266
 10
21.0012925019
 20
23.0694072083
  0
SPLINE
  5
31B
330
297
100
AcDbEntity
  8
0
  6
Continuous
 62
     8
370
    25
100
AcDbSpline
210
0.0
220
0.0
230
1.0
 70
     8
 71
     3
 72
     9
 73
     5
 74
     0
 42
0.000000001
 43
0.00000001
 40
0.0
 40
0.0
 40
0.0
 40
0.0
 40
0.5691395265492588
 40
1.0
 40
1.0
 40
1.0
 40
1.0
 10
-84.82906410250898
 20
-0.6899722130633522
 30
0.0
 10
-85.89095272762468
 20
-1.684008810415649
 30
0.0
 10
-87.75673181268319
 20
-3.430569277546133
 30
0.0
 10
-89.62237157008174
 20
-5.166062009860719
 30
0.0
 10
-90.42620199924302
 20
-5.913817230176099
 30
0.0
  0
SPLINE
  5
31E
330
297
100
AcDbEntity
  8
0
  6
Continuous
 62
     8
370
    25
100
AcDbSpline
210
0.0
220
0.0
230
1.0
 70
     8
 71
     3
 72
    14
 73
    10
 74
     0
 42
0.000000001
 43
0.00000001
 40
0.0
 40
0.0
 40
0.0
 40
0.0
 40
0.25
 40
0.25
 40
0.5
 40
0.5
 40
0.75
 40
0.75
 40
1.0
 40
1.0
 40
1.0
 40
1.0
 10
90.78264765025229
 20
22.55097033510431
 30
0.0
 10
80.86783308690012
 20
25.17091246944198
 30
0.0
 10
70.95302517485725
 20
27.78954954259074
 30
0.0
 10
51.12323578720485
 20
33.058615286265
 30
0.0
 10
41.20823153606263
 20
35.71208853544602
 30
0.0
 10
21.37778894874276
 20
41.10266697541464
 30
0.0
 10
11.46280137599501
 20
43.83953019332551
 30
0.0
 10
-8.366966907423924
 20
49.35005300932934
 30
0.0
 10
-18.28176403389092
 20
52.12079262662288
 30
0.0
 10
-28.19656910176987
 20
54.89011955212931
 30
0.0
  0
LINE
  5
326
330
297
100
AcDbEntity
  8
0
  6
Continuous
 62
     7
370
    25
100
AcDbLine
 10
228.289844664
 20
-239.4195026045
 30
0.0
 11
-546.4604299254
 21
-28.8589788614
 31
0.0
  0
LINE
  5
327
330
297
100
AcDbEntity
  8
0
  6
Continuous
 62
     7
370
    25
100
AcDbLine
 10
547.2588949225
 20
68.8664295115
 30
0.0
 11
231.7728120058
 21
-239.0576590882
 31
0.0
  0
LINE
  5
328
330
297
100
AcDbEntity
  8
0
  6
Continuous
 62
     7
370
    25
100
AcDbLine
 10
-627.1316488577
 20
-43.8015938051
 30
0.0
 11
-627.1316488577
 21
-60.9449398191
 31
0.0
  0
LINE
  5
329
330
297
100
AcDbEntity
  8
0
  6
Continuous
 62
     7
370
    25
100
AcDbLine
 10
-256.9346823962
 20
319.6286784348
 30
0.0
 11
-625.624039651
 21
-40.2234369406
 31
0.0
  0
LINE
  5
32A
330
297
100
AcDbEntity
  8
0
  6
Continuous
 62
     7
370
    25
100
AcDbLine
 10
35.0787320051
 20
-32.0544828402
 30
0.0
 11
34.968629782
 21
-32.1600429585
 31
0.0
  0
LINE
  5
32B
330
297
100
AcDbEntity
  8
0
  6
Continuous
 62
     7
370
    25
100
AcDbLine
 10
85.1734669845
 20
16.842402145
 30
0.0
 11
85.0618805499
 21
16.7297127798
 31
0.0
  0
LINE
  5
32C
330
297
100
AcDbEntity
  8
0
  6
Continuous
 62
     7
370
    25
100
AcDbLine
 10
547.2598392522
 20
68.8673294871
 30
0.0
 11
547.2588949225
 21
68.8664295115
 31
0.0
  0
LINE
  5
32D
330
297
100
AcDbEntity
  8
0
  6
Continuous
 62
     7
370
    25
100
AcDbLine
 10
623.4429748161
 20
82.9132650281
 30
0.0
 11
-252.1309656446
 21
320.8755007651
 31
0.0
  0
LINE
  5
32E
330
297
100
AcDbEntity
  8
0
  6
Continuous
 62
     7
370
    25
100
AcDbLine
 10
627.1316488577
 20
60.9449398191
 30
0.0
 11
627.1316488577
 21
78.0882858332
 31
0.0
  0
LINE
  5
32F
330
297
100
AcDbEntity
  8
0
  6
Continuous
 62
     7
370
    25
100
AcDbLine
 10
-622.1316488577
 20
-39.5157573016
 30
0.0
 11
253.4422916029
 21
-277.4779930387
 31
0.0
  0
LINE
  5
330
330
297
100
AcDbEntity
  8
0
  6
Continuous
 62
     7
370
    25
100
AcDbLine
 10
251.1088146583
 20
-284.0413745762
 30
0.0
 11
-624.4651258023
 21
-46.0791388391
 31
0.0
  0
LINE
  5
331
330
297
100
AcDbEntity
  8
0
  6
Continuous
 62
     7
370
    25
100
AcDbLine
 10
251.1088146583
 20
-301.1847205903
 30
0.0
 11
251.1088146583
 21
-284.0413745762
 31
0.0
  0
LINE
  5
332
330
297
100
AcDbEntity
  8
0
  6
Continuous
 62
     7
370
    25
100
AcDbLine
 10
257.8643822113
 20
-282.9656590156
 30
0.0
 11
257.8643822113
 21
-300.1090050296
 31
0.0
  0
LINE
  5
333
330
297
100
AcDbEntity
  8
0
  6
Continuous
 62
     7
370
    25
100
AcDbLine
 10
253.4422916029
 20
-277.4779930387
 30
0.0
 11
622.1316488577
 21
82.3741223367
 31
0.0
  0
LINE
  5
334
330
297
100
AcDbEntity
  8
0
  6
Continuous
 62
     7
370
    25
100
AcDbLine
 10
626.5537394661
 20
76.8864563598
 30
0.0
 11
257.8643822113
 21
-282.9656590156
 31
0.0
  0
LINE
  5
335
330
297
100
AcDbEntity
  8
0
  6
Continuous
 62
     7
370
    25
100
AcDbLine
 10
-624.4651258023
 20
-46.0791388391
 30
0.0
 11
-624.4651258023
 21
-63.2224848532
 31
0.0
  0
LINE
  5
336
330
297
100
AcDbEntity
  8
0
  6
Continuous
 62
     7
370
    25
100
AcDbLine
 10
-624.4651258023
 20
-63.2224848532
 30
0.0
 11
251.1088146583
 21
-301.1847205903
 31
0.0
  0
LINE
  5
337
330
297
100
AcDbEntity
  8
0
  6
Continuous
 62
     7
370
    25
100
AcDbLine
 10
-548.6558512398
 20
-26.291136332
 30
0.0
 11
-233.1697683231
 21
281.6329522677
 31
0.0
  0
LINE
  5
338
330
297
100
AcDbEntity
  8
0
  6
Continuous
 62
     7
370
    25
100
AcDbLine
 10
227.7653142806
 20
-239.6351596811
 30
0.0
 11
-546.9849603088
 21
-29.074635938
 31
0.0
  0
LINE
  5
339
330
297
100
AcDbEntity
  8
0
  6
Continuous
 62
     7
370
    25
100
AcDbLine
 10
548.6558512398
 20
69.1495013671
 30
0.0
 11
233.1697683231
 21
-238.7745872326
 31
0.0
  0
LINE
  5
33A
330
297
100
AcDbEntity
  8
0
  6
Continuous
 62
     7
370
    25
100
AcDbLine
 10
-227.7653142806
 20
282.4935247162
 30
0.0
 11
546.9849603088
 21
71.9330009731
 31
0.0
  0
LINE
  5
33B
330
297
100
AcDbEntity
  8
0
  6
Continuous
 62
     7
370
    25
100
AcDbLine
 10
-253.4422916029
 20
320.3363580738
 30
0.0
 11
-622.1316488577
 21
-39.5157573016
 31
0.0
  0
LINE
  5
33C
330
297
100
AcDbEntity
  8
0
  6
Continuous
 62
     7
370
    25
100
AcDbLine
 10
622.1316488577
 20
82.3741223367
 30
0.0
 11
-253.4422916029
 21
320.3363580738
 31
0.0
  0
LINE
  5
33D
330
297
100
AcDbEntity
  8
0
  6
Continuous
 62
     7
370
    25
100
AcDbLine
 10
626.5537394661
 20
59.7431103457
 30
0.0
 11
626.5537394661
 21
76.8864563598
 31
0.0
  0
LINE
  5
33E
330
297
100
AcDbEntity
  8
0
  6
Continuous
 62
     7
370
    25
100
AcDbLine
 10
257.8643822113
 20
-300.1090050296
 30
0.0
 11
626.5537394661
 21
59.7431103457
 31
0.0
  0
LINE
  5
33F
330
297
100
AcDbEntity
  8
0
  6
Continuous
 62
     7
370
    25
100
AcDbLine
 10
-229.4186648197
 20
276.7063532337
 30
0.0
 11
-229.6779965307
 21
276.7833579726
 31
0.0
  0
LINE
  5
340
330
297
100
AcDbEntity
  8
0
  6
Continuous
 62
     7
370
    25
100
AcDbLine
 10
-231.4009320797
 20
279.4378858769
 30
0.0
 11
-546.8870149964
 21
-28.4862027228
 31
0.0
  0
LINE
  5
341
330
297
100
AcDbEntity
  8
0
  6
Continuous
 62
     7
370
    25
100
AcDbLine
 10
-231.4009320797
 20
278.9653648595
 30
0.0
 11
-231.4009320797
 21
279.4378858769
 31
0.0
  0
LINE
  5
342
330
297
100
AcDbEntity
  8
0
  6
Continuous
 62
     7
370
    25
100
AcDbLine
 10
-45.0
 20
2.5715019021
 30
0.0
 11
-44.9988797788
 21
2.407967256
 31
0.0
  0
LINE
  5
343
330
297
100
AcDbEntity
  8
0
  6
Continuous
 62
     7
370
    25
100
AcDbLine
 10
-28.1962844604
 20
52.9717269554
 30
0.0
 11
-28.1962844604
 21
54.8592784721
 31
0.0
  0
LINE
  5
344
330
297
100
AcDbEntity
  8
0
  6
Continuous
 62
     7
370
    25
100
AcDbLine
 10
546.0515695309
 20
68.8351273406
 30
0.0
 11
546.0515695309
 21
69.307648358
 31
0.0
  0
LINE
  5
345
330
297
100
AcDbEntity
  8
0
  6
Continuous
 62
     7
370
    25
100
AcDbLine
 10
545.7922412657
 20
68.8990822375
 30
0.0
 11
546.0515695309
 21
68.8351273406
 31
0.0
  0
LINE
  5
346
330
297
100
AcDbEntity
  8
0
  6
Continuous
 62
     7
370
    25
100
AcDbLine
 10
546.0515695309
 20
69.307648358
 30
0.0
 11
-228.6987050585
 21
279.8681721012
 31
0.0
  0
LINE
  5
347
330
297
100
AcDbEntity
  8
0
  6
Continuous
 62
     7
370
    25
100
AcDbLine
 10
-228.6987050585
 20
279.3956510837
 30
0.0
 11
-228.4393767932
 21
279.3186462491
 31
0.0
  0
LINE
  5
348
330
297
100
AcDbEntity
  8
0
  6
Continuous
 62
     7
370
    25
100
AcDbLine
 10
-228.6987050585
 20
279.8681721012
 30
0.0
 11
-228.6987050585
 21
279.3956510837
 31
0.0
  0
LINE
  5
349
330
297
100
AcDbEntity
  8
0
  6
Continuous
 62
     8
370
    25
100
AcDbLine
 10
544.671156954
 20
66.3407179235
 30
0.0
 11
544.3993807522
 21
66.4324874298
 31
0.0
  0
LINE
  5
34A
330
297
100
AcDbEntity
  8
0
  6
Continuous
 62
     8
370
    25
100
AcDbLine
 10
-546.8870149964
 20
-28.4862027228
 30
0.0
 11
-546.8870149964
 21
-28.7054541862
 31
0.0
  0
LINE
  5
34B
330
297
100
AcDbEntity
  8
0
  6
Continuous
 62
     8
370
    25
100
AcDbLine
 10
87.0574098905
 20
18.7692141904
 30
0.0
 11
-27.360838995
 21
49.865642551
 31
0.0
  0
LINE
  5
34C
330
297
100
AcDbEntity
  8
0
  6
Continuous
 62
     8
370
    25
100
AcDbLine
 10
-27.360838995
 20
49.865642551
 30
0.0
 11
-85.8256470706
 21
-7.1978024524
 31
0.0
  0
LINE
  5
34D
330
297
100
AcDbEntity
  8
0
  6
Continuous
 62
     8
370
    25
100
AcDbLine
 10
-88.9500428556
 20
-6.3258037308
 30
0.0
 11
-28.1962844604
 21
52.9717269554
 31
0.0
  0
LINE
  5
34E
330
297
100
AcDbEntity
  8
0
  6
Continuous
 62
     8
370
    25
100
AcDbLine
 10
-28.1962844604
 20
52.9717269554
 30
0.0
 11
89.2956359959
 21
21.0399405227
 31
0.0
  0
ARC
  5
34F
330
297
100
AcDbEntity
  8
0
  6
Continuous
 62
     7
370
    25
100
AcDbCircle
 10
-622.1316488577
 20
-43.8015938051
 30
0.0
 40
5.000000000000357
100
AcDbArc
 50
134.305033619
 51
180.0
  0
ARC
  5
350
330
297
100
AcDbEntity
  8
0
  6
Continuous
 62
     7
370
    25
100
AcDbCircle
 10
622.1316488577
 20
78.0882858332
 30
0.0
 40
5.000000000000115
100
AcDbArc
 50
0.0
 51
74.7954868413
  0
ARC
  5
351
330
297
100
AcDbEntity
  8
0
  6
Continuous
 62
     7
370
    25
100
AcDbCircle
 10
-253.4422916029
 20
316.0505215703
 30
0.0
 40
4.999999999999842
100
AcDbArc
 50
74.7954868413
 51
134.305033619
  0
ARC
  5
352
330
297
100
AcDbEntity
  8
0
  6
Continuous
 62
     7
370
    25
100
AcDbCircle
 10
251.8025212372
 20
-283.3249040717
 30
0.0
 40
6.072496643082788
100
AcDbArc
 50
3.391562315
 51
74.3338098233
  0
ARC
  5
353
330
297
100
AcDbEntity
  8
0
  6
Continuous
 62
     7
370
    25
100
AcDbCircle
 10
253.4007812568
 20
-276.684510392
 30
0.0
 40
7.705618827393794
100
AcDbArc
 50
252.6960345908
 51
305.398914916
  0
ARC
  5
354
330
297
100
AcDbEntity
  8
0
  6
Continuous
 62
     7
370
    25
100
AcDbCircle
 10
261.3335919001
 20
-283.9800854421
 30
0.0
 40
10.22496092917835
100
AcDbArc
 50
140.5129436103
 51
180.3434369839
  0
ARC
  5
355
330
297
100
AcDbEntity
  8
0
  6
Continuous
 62
     7
370
    25
100
AcDbCircle
 10
-614.2403485605
 20
-46.017849705
 30
0.0
 40
10.22496092917803
100
AcDbArc
 50
140.5129436103
 51
180.3434369839
  0
ARC
  5
356
330
297
100
AcDbEntity
  8
0
  6
Continuous
 62
     7
370
    25
100
AcDbCircle
 10
253.4007812568
 20
-293.8278564061
 30
0.0
 40
7.705618827393669
100
AcDbArc
 50
252.6960345908
 51
305.398914916
  0
ARC
  5
357
330
297
100
AcDbEntity
  8
0
  6
Continuous
 62
     7
370
    25
100
AcDbCircle
 10
620.4918784919
 20
76.5272113037
 30
0.0
 40
6.07249664308263
100
AcDbArc
 50
3.391562315
 51
74.3338098233
  0
ARC
  5
358
330
297
100
AcDbEntity
  8
0
  6
Continuous
 62
     7
370
    25
100
AcDbCircle
 10
229.5988875594
 20
-233.7496683337
 30
0.0
 40
6.164495061915667
100
AcDbArc
 50
252.6960345908
 51
305.398914916
  0
ARC
  5
359
330
297
100
AcDbEntity
  8
0
  6
Continuous
 62
     7
370
    25
100
AcDbCircle
 10
-229.5988875594
 20
276.6080333688
 30
0.0
 40
6.164495061914829
100
AcDbArc
 50
72.6960345908
 51
125.398914916
  0
ARC
  5
35A
330
297
100
AcDbEntity
  8
0
  6
Continuous
 62
     7
370
    25
100
AcDbCircle
 10
548.2037983401
 20
67.7918596502
 30
0.0
 40
1.430923776969697
100
AcDbArc
 50
71.583829316
 51
131.326192755
  0
ARC
  5
35B
330
297
100
AcDbEntity
  8
0
  6
Continuous
 62
     7
370
    25
100
AcDbCircle
 10
-549.3117593861
 20
-28.6299007452
 30
0.0
 40
2.428998657232921
100
AcDbArc
 50
3.391562315
 51
74.3338098233
  0
ARC
  5
35C
330
297
100
AcDbEntity
  8
0
  6
Continuous
 62
     7
370
    25
100
AcDbCircle
 10
-233.8256764694
 20
279.2941878545
 30
0.0
 40
2.428998657233305
100
AcDbArc
 50
3.391562315
 51
74.3338098233
  0
ARC
  5
35D
330
297
100
AcDbEntity
  8
0
  6
Continuous
 62
     7
370
    25
100
AcDbCircle
 10
-228.9753442837
 20
279.1094070083
 30
0.0
 40
2.429860962423875
100
AcDbArc
 50
183.3984860291
 51
253.1914979647
  0
ARC
  5
35E
330
297
100
AcDbEntity
  8
0
  6
Continuous
 62
     7
370
    25
100
AcDbCircle
 10
-87.2353365711
 20
-0.7928610954
 30
0.0
 40
2.408471157196101
100
AcDbArc
 50
2.4483968705
 51
73.7440695368
  0
ARC
  5
35F
330
297
100
AcDbEntity
  8
0
  6
Continuous
 62
     7
370
    25
100
AcDbCircle
 10
-21.2833948081
 20
53.1656938631
 30
0.0
 40
6.915610349585932
100
AcDbArc
 50
181.6072251393
 51
208.5019538662
  0
ARC
  5
360
330
297
100
AcDbEntity
  8
0
  6
Continuous
 62
     7
370
    25
100
AcDbCircle
 10
-87.1185116925
 20
-0.6972725941
 30
0.0
 40
2.423177109990975
100
AcDbArc
 50
3.0998606729
 51
73.3608887347
  0
ARC
  5
361
330
297
100
AcDbEntity
  8
0
  6
Continuous
 62
     7
370
    25
100
AcDbCircle
 10
-37.1288587302
 20
48.0794897537
 30
0.0
 40
2.436362088095731
100
AcDbArc
 50
3.6968299731
 51
73.4711387873
  0
ARC
  5
362
330
297
100
AcDbEntity
  8
0
  6
Continuous
 62
     7
370
    25
100
AcDbCircle
 10
-37.011366508
 20
48.1805876872
 30
0.0
 40
2.451080797426792
100
AcDbArc
 50
4.3610315578
 51
74.0792640113
  0
ARC
  5
363
330
297
100
AcDbEntity
  8
0
  6
Continuous
 62
     7
370
    25
100
AcDbCircle
 10
545.828690992
 20
67.8667100907
 30
0.0
 40
1.458073363525299
100
AcDbArc
 50
33.0919064734
 51
81.2073973116
  0
ARC
  5
364
330
297
100
AcDbEntity
  8
0
  6
Continuous
 62
     7
370
    25
100
AcDbCircle
 10
550.1414804277
 20
69.3321640117
 30
0.0
 40
4.089984371670123
100
AcDbArc
 50
140.5129436103
 51
180.3434369839
  0
ARC
  5
365
330
297
100
AcDbEntity
  8
0
  6
Continuous
 62
     7
370
    25
100
AcDbCircle
 10
541.151379899
 20
69.0157800531
 30
0.0
 40
4.15004943575112
100
AcDbArc
 50
321.5030675989
 51
0.1452318636
  0
ARC
  5
366
330
297
100
AcDbEntity
  8
0
  6
Continuous
 62
     7
370
    25
100
AcDbCircle
 10
-224.6087941618
 20
279.8926877548
 30
0.0
 40
4.089984371670745
100
AcDbArc
 50
140.5129436103
 51
180.3434369839
  0
ARC
  5
367
330
297
100
AcDbEntity
  8
0
  6
Continuous
 62
     7
370
    25
100
AcDbCircle
 10
-232.0987370866
 20
279.1686765115
 30
0.0
 40
4.150198575675809
100
AcDbArc
 50
321.5027442251
 51
0.1435143973
  0
ARC
  5
368
330
297
100
AcDbEntity
  8
0
  6
Continuous
 62
     7
370
    25
100
AcDbCircle
 10
625.472369714
 20
61.002956641
 30
0.0
 40
1.660293115197822
100
AcDbArc
 50
310.6406362013
 51
357.9974645044
  0
ARC
  5
369
330
297
100
AcDbEntity
  8
0
  6
Continuous
 62
     7
370
    25
100
AcDbCircle
 10
-229.6154916979
 20
276.9254264275
 30
0.0
 40
3.082247530956873
100
AcDbArc
 50
72.6960345908
 51
125.398914916
  0
ARC
  5
36A
330
297
100
AcDbEntity
  8
0
  6
Continuous
 62
     7
370
    25
100
AcDbCircle
 10
-232.6773224342
 20
279.4176510326
 30
0.0
 40
4.239101933570208
100
AcDbArc
 50
320.2385601206
 51
358.661727847
  0
ARC
  5
36B
330
297
100
AcDbEntity
  8
0
  6
Continuous
 62
     7
370
    25
100
AcDbCircle
 10
-229.6154916979
 20
276.4529054101
 30
0.0
 40
3.082247530957699
100
AcDbArc
 50
72.6960345908
 51
125.398914916
  0
ARC
  5
36C
330
297
100
AcDbEntity
  8
0
  6
Continuous
 62
     7
370
    25
100
AcDbCircle
 10
-232.936657455
 20
279.4946625987
 30
0.0
 40
4.23910884448834
100
AcDbArc
 50
320.2385177988
 51
358.6616390225
  0
ARC
  5
36D
330
297
100
AcDbEntity
  8
0
  6
Continuous
 62
     8
370
    25
100
AcDbCircle
 10
232.7177057109
 20
-240.1323779023
 30
0.0
 40
1.431068170292942
100
AcDbArc
 50
71.5853443806
 51
131.2920035839
  0
ARC
  5
36E
330
297
100
AcDbEntity
  8
0
  6
Continuous
 62
     8
370
    25
100
AcDbCircle
 10
228.2035960812
 20
-239.9546939701
 30
0.0
 40
0.5423957029835975
100
AcDbArc
 50
81.1489328588
 51
143.9056585626
  0
ARC
  5
36F
330
297
100
AcDbEntity
  8
0
  6
Continuous
 62
     8
370
    25
100
AcDbCircle
 10
-546.5475446117
 20
-29.3928159649
 30
0.0
 40
0.5408983468813895
100
AcDbArc
 50
80.7318299955
 51
143.9675277133
  0
ARC
  5
370
330
297
100
AcDbEntity
  8
0
  6
Continuous
 62
     8
370
    25
100
AcDbCircle
 10
-623.2731014303
 20
-42.8539959288
 30
0.0
 40
3.527995338413577
100
AcDbArc
 50
71.12277008
 51
131.7872519911
  0
ARC
  5
371
330
297
100
AcDbEntity
  8
0
  6
Continuous
 62
     8
370
    25
100
AcDbCircle
 10
-254.5724238521
 20
316.9422537816
 30
0.0
 40
3.577309442425136
100
AcDbArc
 50
71.583829316
 51
131.326192755
  0
ARC
  5
372
330
297
100
AcDbEntity
  8
0
  6
Continuous
 62
     8
370
    25
100
AcDbCircle
 10
35.9037973458
 20
-33.2533001275
 30
0.0
 40
1.438415268372178
100
AcDbArc
 50
72.3880303694
 51
130.3023405969
  0
ARC
  5
373
330
297
100
AcDbEntity
  8
0
  6
Continuous
 62
     8
370
    25
100
AcDbCircle
 10
36.0164958209
 20
-33.1260366511
 30
0.0
 40
1.422822012383274
100
AcDbArc
 50
72.8639732122
 51
131.1583760652
  0
ARC
  5
374
330
297
100
AcDbEntity
  8
0
  6
Continuous
 62
     8
370
    25
100
AcDbCircle
 10
86.0039434304
 20
15.6726520629
 30
0.0
 40
1.415663112232361
100
AcDbArc
 50
72.7115679844
 51
131.5127252058
  0
ARC
  5
375
330
297
100
AcDbEntity
  8
0
  6
Continuous
 62
     8
370
    25
100
AcDbCircle
 10
86.1215257976
 20
15.7901096733
 30
0.0
 40
1.415887407489403
100
AcDbArc
 50
71.9115585766
 51
131.549243289
  0
ARC
  5
376
330
297
100
AcDbEntity
  8
0
  6
Continuous
 62
     8
370
    25
100
AcDbCircle
 10
545.5889062784
 20
66.8944429445
 30
0.0
 40
1.995072231926189
100
AcDbArc
 50
51.3521039887
 51
76.5908642644
  0
ARC
  5
377
330
297
100
AcDbEntity
  8
0
  6
Continuous
 62
     8
370
    25
100
AcDbCircle
 10
541.641248158
 20
68.7897298897
 30
0.0
 40
4.410555015068973
100
AcDbArc
 50
342.9992576353
 51
0.5897507821
  0
ARC
  5
378
330
297
100
AcDbEntity
  8
0
  6
Continuous
 62
     8
370
    25
100
AcDbCircle
 10
541.2885140563
 20
68.8622789274
 30
0.0
 40
4.503877580485582
100
AcDbArc
 50
336.5990305327
 51
0.4681960755
  0
ARC
  5
379
330
297
100
AcDbEntity
  8
0
  6
Continuous
 62
     8
370
    25
100
AcDbCircle
 10
623.2251881005
 20
81.5786722692
 30
0.0
 40
1.352245867205908
100
AcDbArc
 50
80.7318299956
 51
143.9675277132
  0
ARC
  5
37A
330
297
100
AcDbEntity
  8
0
  6
Continuous
 62
     8
370
    25
100
AcDbCircle
 10
625.472369714
 20
78.146302655
 30
0.0
 40
1.660293115197821
100
AcDbArc
 50
310.6406362013
 51
357.9974645044
  0
ARC
  5
37B
330
297
100
AcDbEntity
  8
0
  6
Continuous
 62
     8
370
    25
100
AcDbCircle
 10
-252.3487523601
 20
319.5409080063
 30
0.0
 40
1.352245867208064
100
AcDbArc
 50
80.7318299957
 51
143.9675277131
  0
VIEWPORT
  5
45F
330
297
100
AcDbEntity
  8
0
100
AcDbViewport
 10
0.0
 20
0.0
 30
0.0
 40
205.6
 41
156.0
 68
     1
 69
     1
 12
0.0
 22
0.0
 13
0.0
 23
0.0
 14
10.0
 24
10.0
 15
10.0
 25
10.0
 16
0.0
 26
0.0
 36
1.0
 17
0.0
 27
0.0
 37
0.0
 42
50.0
 43
0.0
 44
0.0
 45
816.0
 50
0.0
 51
0.0
 72
   100
 90
   557152
  1

281
     0
 71
     1
 74
     0
110
0.0
120
0.0
130
0.0
111
1.0
121
0.0
131
0.0
112
0.0
122
1.0
132
0.0
 79
     0
146
0.0
  0
ENDBLK
  5
29A
330
297
100
AcDbEntity
  8
0
100
AcDbBlockEnd
  0
BLOCK
  5
37E
330
37C
100
AcDbEntity
  8
0
100
AcDbBlockBegin
  2
*Paper_Space6
 70
     0
 10
0.0
 20
0.0
 30
0.0
  3
*Paper_Space6
  1

  0
SPLINE
  5
380
330
37C
100
AcDbEntity
  8
0
  6
Continuous
 62
     7
370
    25
100
AcDbSpline
210
0.0
220
0.0
230
1.0
 70
     8
 71
     3
 72
    15
 73
    11
 74
     0
 42
0.000000001
 43
0.00000001
 40
0.0
 40
0.0
 40
0.0
 40
0.0
 40
0.0178895971609295
 40
0.1212131012403486
 40
0.2426176112959854
 40
0.3946520098559803
 40
0.5751551339592347
 40
0.767965176504425
 40
0.954530622908424
 40
1.0
 40
1.0
 40
1.0
 40
1.0
 10
292.6697745484564
 20
-134.2633307617805
 30
0.0
 10
292.6730651507318
 20
-134.2607884256526
 30
0.0
 10
292.6953610192833
 20
-134.2435625237117
 30
0.0
 10
292.5875340749873
 20
-134.3092995551123
 30
0.0
 10
292.3080028446232
 20
-134.4073148470924
 30
0.0
 10
291.776001960758
 20
-134.537842577547
 30
0.0
 10
291.0157795529514
 20
-134.6379948196412
 30
0.0
 10
290.1230595823963
 20
-134.6707322254567
 30
0.0
 10
289.4490533842296
 20
-134.634760447477
 30
0.0
 10
289.1122283092739
 20
-134.5949167965088
 30
0.0
 10
289.0462243098899
 20
-134.5871090633277
 30
0.0
  0
SPLINE
  5
386
330
37C
100
AcDbEntity
  8
0
  6
Continuous
 62
     7
370
    25
100
AcDbSpline
210
0.0
220
0.0
230
1.0
 70
     8
 71
     3
 72
    11
 73
     7
 74
     0
 42
0.000000001
 43
0.00000001
 40
0.0
 40
0.0
 40
0.0
 40
0.0
 40
0.2045034724921471
 40
0.5400128678914522
 40
0.8114827582715666
 40
1.0
 40
1.0
 40
1.0
 40
1.0
 10
-530.3767434204578
 20
-31.34951905833883
 30
0.0
 10
-530.5187631925631
 20
-31.3291365530244
 30
0.0
 10
-530.893781296155
 20
-31.27531440997952
 30
0.0
 10
-531.3480475307855
 20
-31.16249919157924
 30
0.0
 10
-531.6451743656517
 20
-31.04127313508603
 30
0.0
 10
-531.6639077819071
 20
-31.02877713583966
 30
0.0
 10
-531.6715853270257
 20
-31.02365588103462
 30
0.0
  0
SPLINE
  5
387
330
37C
100
AcDbEntity
  8
0
  6
Continuous
 62
     7
370
    25
100
AcDbSpline
210
0.0
220
0.0
230
1.0
 70
     8
 71
     3
 72
    11
 73
     7
 74
     0
 42
0.000000001
 43
0.00000001
 40
0.0
 40
0.0
 40
0.0
 40
0.0
 40
0.2182082795075101
 40
0.4844869429752399
 40
0.7792323630463591
 40
1.0
 40
1.0
 40
1.0
 40
1.0
 10
40.06787112873632
 20
-19.08006070112132
 30
0.0
 10
30.7013124722161
 20
-17.97556206465316
 30
0.0
 10
9.90478092016946
 20
-15.52324829768463
 30
0.0
 10
-23.54276915199013
 20
-11.48038342262792
 30
0.0
 10
-57.10021143661455
 20
-7.09134854304304
 30
0.0
 10
-79.22844835288164
 20
-4.124834533157167
 30
0.0
 10
-88.7048301969209
 20
-2.854429683021787
 30
0.0
  0
SPLINE
  5
388
330
37C
100
AcDbEntity
  8
0
  6
Continuous
 62
     7
370
    25
100
AcDbSpline
210
0.0
220
0.0
230
1.0
 70
     8
 71
     3
 72
     9
 73
     5
 74
     0
 42
0.000000001
 43
0.00000001
 40
0.0
 40
0.0
 40
0.0
 40
0.0
 40
0.366058604735034
 40
0.9999999999999999
 40
0.9999999999999999
 40
0.9999999999999999
 40
0.9999999999999999
 10
44.69980185485812
 20
-15.05523637678695
 30
0.0
 10
44.08343360360448
 20
-15.56763568985585
 30
0.0
 10
42.39963695661728
 20
-16.96740967806679
 30
0.0
 10
40.7154299541959
 20
-18.32552765930305
 30
0.0
 10
39.64774141716588
 20
-19.18649486726241
 30
0.0
  0
SPLINE
  5
38A
330
37C
100
AcDbEntity
  8
0
  6
Continuous
 62
     7
370
    25
100
AcDbSpline
210
0.0
220
0.0
230
1.0
 70
     8
 71
     3
 72
    10
 73
     6
 74
     0
 42
0.000000001
 43
0.00000001
 40
0.0
 40
0.0
 40
0.0
 40
0.0
 40
0.279518450111589
 40
0.6501374783627947
 40
1.0
 40
1.0
 40
1.0
 40
1.0
 10
82.6155874774381
 20
18.37735235928387
 30
0.0
 10
79.08676216705032
 20
15.20129637492871
 30
0.0
 10
70.87899774948713
 20
7.814045093364343
 30
0.0
 10
58.27231178404828
 20
-3.333947310050657
 30
0.0
 10
49.17891149738122
 20
-11.19169596098036
 30
0.0
 10
44.76319820806443
 20
-15.00738250816732
 30
0.0
  0
SPLINE
  5
38B
330
37C
100
AcDbEntity
  8
0
  6
Continuous
 62
     7
370
    25
100
AcDbSpline
210
0.0
220
0.0
230
1.0
 70
     8
 71
     3
 72
    46
 73
    42
 74
     0
 42
0.000000001
 43
0.00000001
 40
0.0
 40
0.0
 40
0.0
 40
0.0
 40
0.022772123184067
 40
0.0492362701301751
 40
0.0739785855872661
 40
0.1002624883533318
 40
0.1257295541364528
 40
0.1510112286520225
 40
0.17632316130147
 40
0.2017695339565518
 40
0.2273758391432208
 40
0.2531311992686606
 40
0.279013329709989
 40
0.3049987121264544
 40
0.331066286150982
 40
0.3571983696674667
 40
0.3833804881629226
 40
0.4096008490504738
 40
0.4358497616780723
 40
0.4621191099767898
 40
0.4884019026819636
 40
0.514691893924034
 40
0.5409831991450883
 40
0.5672682719853795
 40
0.593541144704182
 40
0.6197952890241074
 40
0.646023271886362
 40
0.6722163513630571
 40
0.6983639930157376
 40
0.724453300697686
 40
0.7504683934139462
 40
0.7763898572322576
 40
0.8021946350533563
 40
0.8278572502659947
 40
0.8533544216209383
 40
0.8786775312991011
 40
0.9038621107827051
 40
0.9290251005620639
 40
0.9544152823819865
 40
0.980707809569702
 40
1.0
 40
1.0
 40
1.0
 40
1.0
 10
44.97530695386371
 20
2.866507097611539
 30
0.0
 10
44.97378066412964
 20
2.633333981399278
 30
0.0
 10
44.9704806286856
 20
2.129183602265801
 30
0.0
 10
44.68500678954192
 20
1.316045847059549
 30
0.0
 10
44.14908012222783
 20
0.3794665187503848
 30
0.0
 10
43.31927594144383
 20
-0.6113379745317036
 30
0.0
 10
42.17309689951112
 20
-1.644000946891605
 30
0.0
 10
40.74332539355511
 20
-2.669276748660911
 30
0.0
 10
39.02978130669312
 20
-3.678158326049905
 30
0.0
 10
37.03820783391627
 20
-4.658479232616581
 30
0.0
 10
34.77884518782078
 20
-5.598225755240787
 30
0.0
 10
32.26627073774525
 20
-6.485990754053027
 30
0.0
 10
29.51841804074565
 20
-7.311502448665444
 30
0.0
 10
26.5555927414012
 20
-8.06580148287295
 30
0.0
 10
23.39984958224424
 20
-8.74120449069884
 30
0.0
 10
20.07458149733932
 20
-9.331206301454614
 30
0.0
 10
16.60423994272035
 20
-9.830380837686247
 30
0.0
 10
13.01412520355822
 20
-10.23430032047095
 30
0.0
 10
9.330211856850967
 20
-10.53947564759354
 30
0.0
 10
5.578989705553423
 20
-10.74331491036939
 30
0.0
 10
1.787310351145533
 20
-10.84409576705203
 30
0.0
 10
-2.017762153875362
 20
-10.84094792439898
 30
0.0
 10
-5.809017803693891
 20
-10.73384587671019
 30
0.0
 10
-9.55934029041138
 20
-10.52361340109971
 30
0.0
 10
-13.24186470936206
 20
-10.21192535210362
 30
0.0
 10
-16.83020508167128
 20
-9.80130397599588
 30
0.0
 10
-20.29851073001047
 20
-9.295140556039405
 30
0.0
 10
-23.62160686374843
 20
-8.697728591178603
 30
0.0
 10
-26.77513287788221
 20
-8.014318099079219
 30
0.0
 10
-29.73568365919019
 20
-7.251201506586572
 30
0.0
 10
-32.48096547695724
 20
-6.415845754390375
 30
0.0
 10
-34.98999472490326
 20
-5.517089283014848
 30
0.0
 10
-37.24337940835625
 20
-4.565423856592339
 30
0.0
 10
-39.2238107345143
 20
-3.573369273066439
 30
0.0
 10
-40.91678252893959
 20
-2.555907768742753
 30
0.0
 10
-42.31226668674076
 20
-1.53079986269008
 30
0.0
 10
-43.4053577106346
 20
-0.5186856233254967
 30
0.0
 10
-44.20302515539497
 20
0.4578482765889933
 30
0.0
 10
-44.71326727496141
 20
1.380922435464749
 30
0.0
 10
-44.97282512060065
 20
2.155398170581706
 30
0.0
 10
-44.97320199231067
 20
2.622480329873311
 30
0.0
 10
-44.9733614905192
 20
2.820157060903173
 30
0.0
  0
SPLINE
  5
38C
330
37C
100
AcDbEntity
  8
0
  6
Continuous
 62
     7
370
    25
100
AcDbSpline
210
0.0
220
0.0
230
1.0
 70
     8
 71
     3
 72
     9
 73
     5
 74
     0
 42
0.000000001
 43
0.00000001
 40
0.0
 40
0.0
 40
0.0
 40
0.0
 40
0.1559020347050631
 40
1.0
 40
1.0
 40
1.0
 40
1.0
 10
87.70172559709663
 20
23.17505741674188
 30
0.0
 10
87.4407760963023
 20
22.92527894272744
 30
0.0
 10
85.76697176598682
 20
21.32312875599658
 30
0.0
 10
84.0936255160714
 20
19.76624913012608
 30
0.0
 10
82.68115735128387
 20
18.45209020571963
 30
0.0
  0
LWPOLYLINE
  5
3A3
330
37C
100
AcDbEntity
  8
0
  6
Continuous
 62
     7
370
    25
100
AcDbPolyline
 90
        9
 70
   128
 43
0.0
 10
-532.9541872452
 20
-29.7295908092
 10
-533.1581917269
 20
-29.9819690963
 10
-533.2105666357
 20
-30.2427644387
 10
-533.1092992333
 20
-30.5019546177
 10
-532.8582811692
 20
-30.7495791001
 10
-532.4671589268
 20
-30.9761218158
 10
-531.9509631144
 20
-31.1728768553
 10
-531.3295308478
 20
-31.3322830329
 10
-530.6267434203
 20
-31.4482144584
  0
LWPOLYLINE
  5
3A7
330
37C
100
AcDbEntity
  8
0
  6
Continuous
 62
     7
370
    25
100
AcDbPolyline
 90
        9
 70
   128
 43
0.0
 10
532.9541872452
 20
76.8700428897
 10
533.1581917269
 20
77.1224211768
 10
533.2105666357
 20
77.3832165193
 10
533.1092992333
 20
77.6424066983
 10
532.8582811692
 20
77.8900311806
 10
532.4671589268
 20
78.1165738963
 10
531.9509631144
 20
78.3133289358
 10
531.3295308478
 20
78.4727351134
 10
530.6267434203
 20
78.5886665389
  0
SPLINE
  5
3AC
330
37C
100
AcDbEntity
  8
0
  6
Continuous
 62
     7
370
    25
100
AcDbSpline
210
0.0
220
0.0
230
1.0
 70
     8
 71
     3
 72
    10
 73
     6
 74
     0
 42
0.000000001
 43
0.00000001
 40
0.0
 40
0.0
 40
0.0
 40
0.0
 40
0.5
 40
0.5
 40
1.0
 40
1.0
 40
1.0
 40
1.0
 10
83.90730039605837
 20
18.76938559471918
 30
0.0
 10
77.59168130177366
 20
13.09186294411312
 30
0.0
 10
71.27336652848979
 20
7.422856698032898
 30
0.0
 10
58.64980097712239
 20
-3.710081671210938
 30
0.0
 10
52.34488223653016
 20
-9.17372096532087
 30
0.0
 10
46.03729358430069
 20
-14.62882113016819
 30
0.0
  0
SPLINE
  5
3AD
330
37C
100
AcDbEntity
  8
0
  6
Continuous
 62
     7
370
    25
100
AcDbSpline
210
0.0
220
0.0
230
1.0
 70
     8
 71
     3
 72
     8
 73
     4
 74
     0
 42
0.000000001
 43
0.00000001
 40
0.0000000000000013
 40
0.0000000000000013
 40
0.0000000000000013
 40
0.0000000000000013
 40
0.0002508647251014
 40
0.0002508647251014
 40
0.0002508647251014
 40
0.0002508647251014
 10
46.03729358430319
 20
-14.62882113016844
 30
0.0
 10
46.01486083147131
 20
-14.65500408988112
 30
0.0
 10
45.99243049422056
 20
-14.68065409537608
 30
0.0
 10
45.97000563390509
 20
-14.70576798361874
 30
0.0
  0
SPLINE
  5
3AE
330
37C
100
AcDbEntity
  8
0
  6
Continuous
 62
     7
370
    25
100
AcDbSpline
210
0.0
220
0.0
230
1.0
 70
     8
 71
     3
 72
     8
 73
     4
 74
     0
 42
0.000000001
 43
0.00000001
 40
0.0
 40
0.0
 40
0.0
 40
0.0
 40
1.0
 40
1.0
 40
1.0
 40
1.0
 10
45.97000563390399
 20
-14.70576798361865
 30
0.0
 10
44.12750226129663
 20
-16.22751469840441
 30
0.0
 10
42.28529889774818
 20
-17.73574900434571
 30
0.0
 10
40.44316796485925
 20
-19.23383808685875
 30
0.0
  0
SPLINE
  5
3AF
330
37C
100
AcDbEntity
  8
0
  6
Continuous
 62
     7
370
    25
100
AcDbSpline
210
0.0
220
0.0
230
1.0
 70
     8
 71
     3
 72
     8
 73
     4
 74
     0
 42
0.000000001
 43
0.00000001
 40
0.0
 40
0.0
 40
0.0
 40
0.0
 40
1.0
 40
1.0
 40
1.0
 40
1.0
 10
-89.55036077855024
 20
-2.856192899678551
 30
0.0
 10
-87.70584971422386
 20
-1.358403422012419
 30
0.0
 10
-85.8612208148098
 20
0.1495247632106629
 30
0.0
 10
-84.01666559549764
 20
1.671013238006048
 30
0.0
  0
SPLINE
  5
3B0
330
37C
100
AcDbEntity
  8
0
  6
Continuous
 62
     7
370
    25
100
AcDbSpline
210
0.0
220
0.0
230
1.0
 70
     8
 71
     3
 72
    14
 73
    10
 74
     0
 42
0.000000001
 43
0.00000001
 40
0.0
 40
0.0
 40
0.0
 40
0.0
 40
0.25
 40
0.25
 40
0.5
 40
0.5
 40
0.75
 40
0.75
 40
1.0
 40
1.0
 40
1.0
 40
1.0
 10
40.44316796485925
 20
-19.23383808685875
 30
0.0
 10
29.61150629827827
 20
-17.95308603692626
 30
0.0
 10
18.78023866046893
 20
-16.67433528123526
 30
0.0
 10
-2.882297462953265
 20
-14.08212569155618
 30
0.0
 10
-13.7136841060161
 20
-12.76523097613447
 30
0.0
 10
-35.37993299363148
 20
-10.03554019550194
 30
0.0
 10
-46.21425464340501
 20
-8.622812239719046
 30
0.0
 10
-67.88268001432816
 20
-5.755833823758613
 30
0.0
 10
-78.71670435001619
 20
-4.305014360122748
 30
0.0
 10
-89.55036077855024
 20
-2.856192899678551
 30
0.0
  0
SPLINE
  5
3B2
330
37C
100
AcDbEntity
  8
0
  6
Continuous
 62
     7
370
    25
100
AcDbSpline
210
0.0
220
0.0
230
1.0
 70
     8
 71
     3
 72
    14
 73
    10
 74
     0
 42
0.000000001
 43
0.00000001
 40
0.0
 40
0.0
 40
0.0
 40
0.0
 40
0.125
 40
0.125
 40
0.2499999999999999
 40
0.2499999999999999
 40
0.5
 40
0.5
 40
1.0
 40
1.0
 40
1.0
 40
1.0
 10
-46.03729358429757
 20
35.14086558126149
 30
0.0
 10
-56.2193755250706
 20
41.01716936727658
 30
0.0
 10
-66.39143312779827
 20
46.89546654002796
 30
0.0
 10
-86.73085219105603
 20
58.65290535888636
 30
0.0
 10
-96.89754261771036
 20
64.53219276598851
 30
0.0
 10
-127.3940598990056
 20
82.17069931418821
 30
0.0
 10
-147.7203173419748
 20
93.93057085448848
 30
0.0
 10
-208.6955933139321
 20
129.2107972385934
 30
0.0
 10
-249.3405171278737
 20
152.7318823088203
 30
0.0
 10
-289.9847022628962
 20
176.2530927258827
 30
0.0
  0
SPLINE
  5
3B3
330
37C
100
AcDbEntity
  8
0
  6
Continuous
 62
     7
370
    25
100
AcDbSpline
210
0.0
220
0.0
230
1.0
 70
     8
 71
     3
 72
    10
 73
     6
 74
     0
 42
0.000000001
 43
0.00000001
 40
0.0
 40
0.0
 40
0.0
 40
0.0
 40
0.5
 40
0.5
 40
1.0
 40
1.0
 40
1.0
 40
1.0
 10
-83.90730039605553
 20
1.742658856378147
 30
0.0
 10
-77.59168130177193
 20
7.196747287780092
 30
0.0
 10
-71.2733665284892
 20
12.65869886569157
 30
0.0
 10
-58.64980097712399
 20
23.79163723559041
 30
0.0
 10
-52.34488223653238
 20
29.46233119746651
 30
0.0
 10
-46.03729358430402
 20
35.14086558126021
 30
0.0
  0
SPLINE
  5
3B4
330
37C
100
AcDbEntity
  8
0
  6
Continuous
 62
     7
370
    25
100
AcDbSpline
210
0.0
220
0.0
230
1.0
 70
     8
 71
     3
 72
     8
 73
     4
 74
     0
 42
0.000000001
 43
0.00000001
 40
0.0
 40
0.0
 40
0.0
 40
0.0
 40
0.000250864725056
 40
0.000250864725056
 40
0.000250864725056
 40
0.000250864725056
 10
-84.0166655955001
 20
1.671013238006457
 30
0.0
 10
-83.98021356966358
 20
1.694359869511001
 30
0.0
 10
-83.94375684372221
 20
1.718242716139316
 30
0.0
 10
-83.90730039607026
 20
1.742658856380829
 30
0.0
  0
LWPOLYLINE
  5
3B5
330
37C
100
AcDbEntity
  8
0
  6
Continuous
 62
     7
370
    25
100
AcDbPolyline
 90
        8
 70
   128
 43
0.0
 10
-604.4514578333
 20
-66.3856034462
 10
-605.3299421176
 20
-66.2406891643
 10
-606.1067324509
 20
-66.0414314424
 10
-606.7519772163
 20
-65.795487643
 10
-607.2408800194
 20
-65.5123092483
 10
-607.5546525996
 20
-65.2027786454
 10
-607.6812368526
 20
-64.8787909216
 10
-607.6836908808
 20
-64.8265795354
  0
SPLINE
  5
3B9
330
37C
100
AcDbEntity
  8
0
  6
Continuous
 62
     7
370
    25
100
AcDbSpline
210
0.0
220
0.0
230
1.0
 70
     8
 71
     3
 72
     8
 73
     4
 74
     0
 42
0.000000001
 43
0.00000001
 40
0.0
 40
0.0
 40
0.0
 40
0.0
 40
0.0002508647251016
 40
0.0002508647251016
 40
0.0002508647251016
 40
0.0002508647251016
 10
84.01666559550026
 20
18.848232175533
 30
0.0
 10
83.9802135696662
 20
18.82142153086767
 30
0.0
 10
83.94375684371141
 20
18.79513802813845
 30
0.0
 10
83.90730039606198
 20
18.76938559472221
 30
0.0
  0
SPLINE
  5
3BA
330
37C
100
AcDbEntity
  8
0
  6
Continuous
 62
     7
370
    25
100
AcDbSpline
210
0.0
220
0.0
230
1.0
 70
     8
 71
     3
 72
     8
 73
     4
 74
     0
 42
0.000000001
 43
0.00000001
 40
0.0
 40
0.0
 40
0.0
 40
0.0
 40
1.0
 40
1.0
 40
1.0
 40
1.0
 10
89.55036077855027
 20
24.07463517069957
 30
0.0
 10
87.70584971422392
 20
22.32141160134415
 30
0.0
 10
85.86122081480991
 20
20.57816551113167
 30
0.0
 10
84.0166655954978
 20
18.84823217553339
 30
0.0
  0
SPLINE
  5
3BB
330
37C
100
AcDbEntity
  8
0
  6
Continuous
 62
     7
370
    25
100
AcDbSpline
210
0.0
220
0.0
230
1.0
 70
     8
 71
     3
 72
    14
 73
    10
 74
     0
 42
0.000000001
 43
0.00000001
 40
0.0
 40
0.0
 40
0.0
 40
0.0
 40
0.25
 40
0.25
 40
0.5
 40
0.5
 40
0.75
 40
0.75
 40
1.0
 40
1.0
 40
1.0
 40
1.0
 10
-40.4431679648592
 20
40.45228035787977
 30
0.0
 10
-29.6115062982782
 20
39.00169963151804
 30
0.0
 10
-18.78023866046885
 20
37.54844893883497
 30
0.0
 10
2.882297462953334
 20
34.67627657734533
 30
0.0
 10
13.71368410601616
 20
33.26096002498043
 30
0.0
 10
35.37993299363155
 20
30.53126924647546
 30
0.0
 10
46.21425464340505
 20
29.21696312792329
 30
0.0
 10
67.88268001432819
 20
26.62994748301936
 30
0.0
 10
78.71670435001622
 20
25.35362795550527
 30
0.0
 10
89.55036077855027
 20
24.07463517069957
 30
0.0
  0
SPLINE
  5
3BC
330
37C
100
AcDbEntity
  8
0
  6
Continuous
 62
     7
370
    25
100
AcDbSpline
210
0.0
220
0.0
230
1.0
 70
     8
 71
     3
 72
     8
 73
     4
 74
     0
 42
0.000000001
 43
0.00000001
 40
0.0
 40
0.0
 40
0.0
 40
0.0
 40
1.0
 40
1.0
 40
1.0
 40
1.0
 10
-45.97000563390395
 20
35.22501339715803
 30
0.0
 10
-44.12750226129091
 20
36.95520494085383
 30
0.0
 10
-42.28529889775382
 20
38.69875722257786
 30
0.0
 10
-40.44316796485921
 20
40.45228035787977
 30
0.0
  0
SPLINE
  5
3BD
330
37C
100
AcDbEntity
  8
0
  6
Continuous
 62
     7
370
    25
100
AcDbSpline
210
0.0
220
0.0
230
1.0
 70
     8
 71
     3
 72
    14
 73
    10
 74
     0
 42
0.000000001
 43
0.00000001
 40
0.0
 40
0.0
 40
0.0
 40
0.0
 40
0.5
 40
0.5
 40
0.75
 40
0.75
 40
0.875
 40
0.875
 40
1.0
 40
1.0
 40
1.0
 40
1.0
 10
-289.3933189199612
 20
176.1961357112175
 30
0.0
 10
-248.8090773213786
 20
152.7042705996087
 30
0.0
 10
-208.2255746567324
 20
129.2122030544152
 30
0.0
 10
-147.3581991955251
 20
93.97210322455796
 30
0.0
 10
-127.0702382677864
 20
82.2251009772606
 30
0.0
 10
-96.64541236304258
 20
64.60287307973661
 30
0.0
 10
-86.50498567325793
 20
58.72850829382289
 30
0.0
 10
-66.23015761681616
 20
46.97838966483267
 30
0.0
 10
-56.09509067545403
 20
41.1027574063816
 30
0.0
 10
-45.97000563390399
 20
35.22501339715797
 30
0.0
  0
SPLINE
  5
3BE
330
37C
100
AcDbEntity
  8
0
  6
Continuous
 62
     7
370
    25
100
AcDbSpline
210
0.0
220
0.0
230
1.0
 70
     8
 71
     3
 72
    10
 73
     6
 74
     0
 42
0.000000001
 43
0.00000001
 40
0.0
 40
0.0
 40
0.0
 40
0.0
 40
0.009641843276017
 40
0.8949278999896819
 40
0.9999999999999999
 40
0.9999999999999999
 40
0.9999999999999999
 40
0.9999999999999999
 10
40.44316796485925
 20
-19.23383808685875
 30
0.0
 10
40.44194104393474
 20
-19.23300318128748
 30
0.0
 10
40.32806180580585
 20
-19.1555096701202
 30
0.0
 10
40.1954910236101
 20
-19.06051536719821
 30
0.0
 10
40.07817011765879
 20
-19.08923009710085
 30
0.0
 10
40.06572295005611
 20
-19.09227658785938
 30
0.0
  0
SPLINE
  5
3BF
330
37C
100
AcDbEntity
  8
0
  6
Continuous
 62
     7
370
    25
100
AcDbSpline
210
0.0
220
0.0
230
1.0
 70
     8
 71
     3
 72
    10
 73
     6
 74
     0
 42
0.000000001
 43
0.00000001
 40
0.0
 40
0.0
 40
0.0
 40
0.0
 40
0.0095271599867689
 40
0.8842833300394611
 40
1.0
 40
1.0
 40
1.0
 40
1.0
 10
-89.55036077855024
 20
-2.856192899678551
 30
0.0
 10
-89.54764427065797
 20
-2.855854790377983
 30
0.0
 10
-89.29550589485515
 20
-2.824472466722149
 30
0.0
 10
-88.99859152769703
 20
-2.783492071546975
 30
0.0
 10
-88.73815354865955
 20
-2.860750768093775
 30
0.0
 10
-88.70772665107285
 20
-2.869776880399654
 30
0.0
  0
LWPOLYLINE
  5
3C0
330
37C
100
AcDbEntity
  8
0
  6
Continuous
 62
     7
370
    25
100
AcDbPolyline
 90
       73
 70
   128
 43
0.0
 10
16.6170093541
 20
19.3688699699
 10
20.3855330284
 20
18.8303480066
 10
23.9989104874
 20
18.1843924553
 10
27.4296417465
 20
17.4359194278
 10
30.6516168695
 20
16.5906252558
 10
33.6403146802
 20
15.6549431384
 10
36.3729893836
 20
14.6359941815
 10
38.8288436751
 20
13.5415332018
 10
40.9891870208
 20
12.3798897083
 10
42.8375779033
 20
11.1599045094
 10
44.359948952
 20
9.8908624291
 10
45.5447140038
 20
8.5824216439
 10
46.3828562814
 20
7.2445401783
 10
46.867997016
 20
5.8874001179
 10
46.9964439936
 20
4.5213301182
 10
46.7672196552
 20
3.1567267967
 10
46.1820685364
 20
1.8039756087
 10
45.2454439906
 20
0.4733718074
 10
43.964474296
 20
-0.8249579087
 10
42.3489084056
 20
-2.0811324665
 10
40.4110417512
 20
-3.2855916192
 10
38.1656226683
 20
-4.4291687053
 10
35.6297401518
 20
-5.5031604127
 10
32.8226937989
 20
-6.499393016
 10
29.7658469274
 20
-7.4102845836
 10
26.4824639876
 20
-8.2289026806
 10
22.9975335063
 20
-8.949017129
 10
19.3375779087
 20
-9.565147423
 10
15.5304516669
 20
-10.0726044391
 10
11.6051293104
 20
-10.4675261229
 10
7.5914849125
 20
-10.7469068821
 10
3.5200647305
 20
-10.9086204602
 10
-0.5781452696
 20
-10.9514361194
 10
-4.6719552351
 20
-10.8750280067
 10
-8.7302088002
 20
-10.6799776338
 10
-12.7220202049
 20
-10.3677694519
 10
-16.6170093541
 20
-9.9407795538
 10
-20.3855330284
 20
-9.4022575905
 10
-23.9989104874
 20
-8.7563020392
 10
-27.4296417465
 20
-8.0078290117
 10
-30.6516168695
 20
-7.1625348397
 10
-33.6403146802
 20
-6.2268527223
 10
-36.3729893836
 20
-5.2079037654
 10
-38.8288436751
 20
-4.1134427857
 10
-40.9891870208
 20
-2.9517992922
 10
-42.8375779033
 20
-1.7318140933
 10
-44.359948952
 20
-0.462772013
 10
-45.5447140038
 20
0.8456687722
 10
-46.3828562814
 20
2.1835502378
 10
-46.867997016
 20
3.5406902982
 10
-46.9964439936
 20
4.9067602979
 10
-46.7672196552
 20
6.2713636194
 10
-46.1820685364
 20
7.6241148074
 10
-45.2454439906
 20
8.9547186087
 10
-43.964474296
 20
10.2530483248
 10
-42.3489084056
 20
11.5092228826
 10
-40.4110417512
 20
12.7136820353
 10
-38.1656226683
 20
13.8572591214
 10
-35.6297401518
 20
14.9312508288
 10
-32.8226937989
 20
15.9274834321
 10
-29.7658469274
 20
16.8383749997
 10
-26.4824639876
 20
17.6569930967
 10
-22.9975335063
 20
18.3771075451
 10
-19.3375779087
 20
18.9932378391
 10
-15.5304516669
 20
19.5006948552
 10
-11.6051293104
 20
19.895616539
 10
-7.5914849125
 20
20.1749972982
 10
-3.5200647305
 20
20.3367108763
 10
0.5781452696
 20
20.3795265355
 10
4.6719552351
 20
20.3031184228
 10
8.7302088002
 20
20.1080680499
 10
12.7220202049
 20
19.795859868
 10
16.6170093541
 20
19.3688699699
  0
LWPOLYLINE
  5
3C2
330
37C
100
AcDbEntity
  8
0
  6
Continuous
 62
     7
370
    25
100
AcDbPolyline
 90
       36
 70
   128
 43
0.0
 10
44.8230884376
 20
1.3287731564
 10
44.7604217464
 20
1.5457700374
 10
44.1754202992
 20
2.8583647492
 10
43.2446862929
 20
4.1485888813
 10
41.9755039831
 20
5.4063446805
 10
40.3778064422
 20
6.6217885024
 10
38.4640978195
 20
7.7854078511
 10
36.2493554799
 20
8.8880958275
 10
33.750912785
 20
9.9212224032
 10
30.9883234363
 20
10.8767019618
 10
27.9832084412
 20
11.7470565805
 10
24.7590868991
 20
12.5254745541
 10
21.3411919323
 20
13.2058637067
 10
17.7562732032
 20
13.7828990706
 10
14.0323875615
 20
14.2520645618
 10
10.1986794612
 20
14.609688324
 10
6.2851528663
 20
14.8529714666
 10
2.3224364285
 20
14.9800099691
 10
-1.6584562232
 20
14.9898095829
 10
-5.6263692064
 20
14.8822936128
 10
-9.550248222
 20
14.658303517
 10
-13.3993835965
 20
14.3195923218
 10
-17.1436506269
 20
13.8688109014
 10
-20.7537453469
 20
13.3094872316
 10
-24.2014138706
 20
12.6459987786
 10
-27.4596735173
 20
11.8835382391
 10
-30.5030239874
 20
11.0280729006
 10
-33.3076469374
 20
10.0862979392
 10
-35.8515923899
 20
9.0655840209
 10
-38.1149505226
 20
7.9739196161
 10
-40.0800074892
 20
6.8198484788
 10
-41.7313840548
 20
5.6124027805
 10
-43.0561559586
 20
4.3610324209
 10
-44.0439550644
 20
3.0755310697
 10
-44.6870505048
 20
1.7659595179
 10
-44.8046630473
 20
1.3961124283
  0
SPLINE
  5
3C4
330
37C
100
AcDbEntity
  8
0
  6
Continuous
 62
     7
370
    25
100
AcDbSpline
210
0.0
220
0.0
230
1.0
 70
     8
 71
     3
 72
     8
 73
     4
 74
     0
 42
0.000000001
 43
0.00000001
 40
0.0
 40
0.0
 40
0.0
 40
0.0
 40
0.000278975405222
 40
0.000278975405222
 40
0.000278975405222
 40
0.000278975405222
 10
-82.08016063580412
 20
-0.3774318617757108
 30
0.0
 10
-82.1130374794609
 20
-0.405845022972133
 30
0.0
 10
-82.14591360591119
 20
-0.4336189790632439
 30
0.0
 10
-82.17878378813394
 20
-0.460749643105697
 30
0.0
  0
SPLINE
  5
3C5
330
37C
100
AcDbEntity
  8
0
  6
Continuous
 62
     7
370
    25
100
AcDbSpline
210
0.0
220
0.0
230
1.0
 70
     8
 71
     3
 72
    10
 73
     6
 74
     0
 42
0.000000001
 43
0.00000001
 40
0.0
 40
0.0
 40
0.0
 40
0.0
 40
0.5
 40
0.5
 40
1.0
 40
1.0
 40
1.0
 40
1.0
 10
-44.20077617198036
 20
33.02904517486098
 30
0.0
 10
-50.51394307544746
 20
27.34969493427149
 30
0.0
 10
-56.82712321558431
 20
21.67862393931874
 30
0.0
 10
-69.4538135599268
 20
10.54292976107327
 30
0.0
 10
-75.7669937251845
 20
5.078597645297986
 30
0.0
 10
-82.08016063580412
 20
-0.3774318617757108
 30
0.0
  0
SPLINE
  5
3C6
330
37C
100
AcDbEntity
  8
0
  6
Continuous
 62
     7
370
    25
100
AcDbSpline
210
0.0
220
0.0
230
1.0
 70
     8
 71
     3
 72
     8
 73
     4
 74
     0
 42
0.000000001
 43
0.00000001
 40
0.0
 40
0.0
 40
0.0
 40
0.0
 40
0.0002789754052943
 40
0.0002789754052943
 40
0.0002789754052943
 40
0.0002789754052943
 10
-44.10215301962497
 20
33.11968228327684
 30
0.0
 10
-44.13502320185624
 20
33.08883539550262
 30
0.0
 10
-44.16789932831504
 20
33.05862131514441
 30
0.0
 10
-44.20077617198036
 20
33.02904517486101
 30
0.0
  0
SPLINE
  5
3C7
330
37C
100
AcDbEntity
  8
0
  6
Continuous
 62
     7
370
    25
100
AcDbSpline
210
0.0
220
0.0
230
1.0
 70
     8
 71
     3
 72
     8
 73
     4
 74
     0
 42
0.000000001
 43
0.00000001
 40
0.0
 40
0.0
 40
0.0
 40
0.0
 40
1.0
 40
1.0
 40
1.0
 40
1.0
 10
-39.2756145443083
 20
37.67757890839201
 30
0.0
 10
-40.88438394648274
 20
36.14960387699258
 30
0.0
 10
-42.49322365075488
 20
34.62957545420551
 30
0.0
 10
-44.10215301962497
 20
33.11968228327684
 30
0.0
  0
SPLINE
  5
3CC
330
37C
100
AcDbEntity
  8
0
  6
Continuous
 62
     7
370
    25
100
AcDbSpline
210
0.0
220
0.0
230
1.0
 70
     8
 71
     3
 72
    11
 73
     7
 74
     0
 42
0.000000001
 43
0.00000001
 40
0.0
 40
0.0
 40
0.0
 40
0.0
 40
0.1177693937794052
 40
0.6149666694712558
 40
0.9958516981881241
 40
1.0
 40
1.0
 40
1.0
 40
1.0
 10
87.71868563395779
 20
23.15882315880665
 30
0.0
 10
87.7759262629626
 20
23.22138667528472
 30
0.0
 10
88.07482462566833
 20
23.54808002169859
 30
0.0
 10
88.72557406731727
 20
23.85822171893219
 30
0.0
 10
89.29545546691602
 20
24.0298369823369
 30
0.0
 10
89.54764373314464
 20
24.07415766510703
 30
0.0
 10
89.55036077855027
 20
24.07463517069957
 30
0.0
  0
SPLINE
  5
3CD
330
37C
100
AcDbEntity
  8
0
  6
Continuous
 62
     7
370
    25
100
AcDbSpline
210
0.0
220
0.0
230
1.0
 70
     8
 71
     3
 72
    18
 73
    14
 74
     0
 42
0.000000001
 43
0.00000001
 40
0.0
 40
0.0
 40
0.0
 40
0.0
 40
0.125
 40
0.125
 40
0.2500000000000001
 40
0.2500000000000001
 40
0.3750000000000001
 40
0.3750000000000001
 40
0.5000000000000001
 40
0.5000000000000001
 40
0.75
 40
0.75
 40
1.0
 40
1.0
 40
1.0
 40
1.0
 10
-39.27591559826775
 20
37.7114542389624
 30
0.0
 10
-39.27858543635847
 20
37.86181871827886
 30
0.0
 10
-39.29203722018357
 20
38.01515960125781
 30
0.0
 10
-39.33806855957702
 20
38.32711993110522
 30
0.0
 10
-39.37030312348206
 20
38.48201506033222
 30
0.0
 10
-39.44765400977529
 20
38.77944750738463
 30
0.0
 10
-39.49307963316505
 20
38.92310119119853
 30
0.0
 10
-39.59095468242766
 20
39.19084437328949
 30
0.0
 10
-39.64408260164073
 20
39.31717902694515
 30
0.0
 10
-39.81283629994937
 20
39.67379095247659
 30
0.0
 10
-39.93282276994082
 20
39.87299310979678
 30
0.0
 10
-40.18417081094766
 20
40.21278571442618
 30
0.0
 10
-40.31445462181585
 20
40.35027480806261
 30
0.0
 10
-40.44316796485924
 20
40.45228035787979
 30
0.0
  0
SPLINE
  5
3CE
330
37C
100
AcDbEntity
  8
0
  6
Continuous
 62
     7
370
    25
100
AcDbSpline
210
0.0
220
0.0
230
1.0
 70
     8
 71
     3
 72
     8
 73
     4
 74
     0
 42
0.000000001
 43
0.00000001
 40
0.0
 40
0.0
 40
0.0
 40
0.0
 40
0.000035891426921
 40
0.000035891426921
 40
0.000035891426921
 40
0.000035891426921
 10
-39.27591559826775
 20
37.7114542389624
 30
0.0
 10
-39.27571490368751
 20
37.7001511804875
 30
0.0
 10
-39.2756145443083
 20
37.68885849566448
 30
0.0
 10
-39.2756145443083
 20
37.67757890839201
 30
0.0
  0
SPLINE
  5
3CF
330
37C
100
AcDbEntity
  8
0
  6
Continuous
 62
     7
370
    25
100
AcDbSpline
210
0.0
220
0.0
230
1.0
 70
     8
 71
     3
 72
     8
 73
     4
 74
     0
 42
0.000000001
 43
0.00000001
 40
0.000000000000004
 40
0.000000000000004
 40
0.000000000000004
 40
0.000000000000004
 40
0.0002508647251015
 40
0.0002508647251015
 40
0.0002508647251015
 40
0.0002508647251015
 10
-46.03729358440326
 20
35.14086558127482
 30
0.0
 10
-46.01486083157135
 20
35.16838483416333
 30
0.0
 10
-45.99243049423081
 20
35.1964354957537
 30
0.0
 10
-45.97000563391533
 20
35.22501339715917
 30
0.0
  0
SPLINE
  5
3D0
330
37C
100
AcDbEntity
  8
0
  6
Continuous
 62
     7
370
    25
100
AcDbSpline
210
0.0
220
0.0
230
1.0
 70
     8
 71
     3
 72
     8
 73
     4
 74
     0
 42
0.000000001
 43
0.00000001
 40
0.0000000000000001
 40
0.0000000000000001
 40
0.0000000000000001
 40
0.0000000000000001
 40
0.0006105840372009
 40
0.0006105840372009
 40
0.0006105840372009
 40
0.0006105840372009
 10
-289.3933189199612
 20
176.1961357112176
 30
0.0
 10
-289.5904553026044
 20
176.2122966043859
 30
0.0
 10
-289.7876258810079
 20
176.2312877134923
 30
0.0
 10
-289.984702262896
 20
176.2530927258827
 30
0.0
  0
SPLINE
  5
3D5
330
37C
100
AcDbEntity
  8
0
  6
Continuous
 62
     7
370
    25
100
AcDbSpline
210
0.0
220
0.0
230
1.0
 70
     8
 71
     3
 72
     8
 73
     4
 74
     0
 42
0.000000001
 43
0.00000001
 40
0.0
 40
0.0
 40
0.0
 40
0.0
 40
0.0005550165122555
 40
0.0005550165122555
 40
0.0005550165122555
 40
0.0005550165122555
 10
529.1262286850292
 20
75.64569436110793
 30
0.0
 10
529.299285487758
 20
75.62389358732146
 30
0.0
 10
529.472356790174
 20
75.60435559600035
 30
0.0
 10
529.6453553080016
 20
75.58708641530055
 30
0.0
  0
LWPOLYLINE
  5
3D6
330
37C
100
AcDbEntity
  8
0
  6
Continuous
 62
     7
370
    25
100
AcDbPolyline
 90
        4
 70
   128
 43
0.0
 10
-288.7099231368
 20
178.6833643533
 10
-49.9879427542
 20
148.6043821444
 10
189.5274456024
 20
118.4276336685
 10
529.126228685
 20
75.6456943611
  0
SPLINE
  5
3DA
330
37C
100
AcDbEntity
  8
0
  6
Continuous
 62
     7
370
    25
100
AcDbSpline
210
0.0
220
0.0
230
1.0
 70
     8
 71
     3
 72
     8
 73
     4
 74
     0
 42
0.000000001
 43
0.00000001
 40
0.0
 40
0.0
 40
0.0
 40
0.0
 40
0.0005550165122372
 40
0.0005550165122372
 40
0.0005550165122372
 40
0.0005550165122372
 10
-289.2290497597111
 20
178.7555640210917
 30
0.0
 10
-289.0560512418893
 20
178.729241672733
 30
0.0
 10
-288.882979939479
 20
178.705169795003
 30
0.0
 10
-288.7099231367559
 20
178.683364353316
 30
0.0
  0
LWPOLYLINE
  5
3DD
330
37C
100
AcDbEntity
  8
0
  6
Continuous
 62
     7
370
    25
100
AcDbPolyline
 90
        3
 70
   128
 43
0.0
 10
607.6836908808
 20
64.8265795354
 10
607.6157682165
 20
64.5527967436
 10
607.3607626144
 20
64.2373238847
  0
LWPOLYLINE
  5
3E3
330
37C
100
AcDbEntity
  8
0
  6
Continuous
 62
     8
370
    25
100
AcDbPolyline
 90
        3
 70
   128
 43
0.0
 10
289.047465152
 20
-134.5872689444
 10
288.9341739996
 20
-134.6003758954
 10
288.79622431
 20
-134.6858044634
  0
LWPOLYLINE
  5
3E4
330
37C
100
AcDbEntity
  8
0
  6
Continuous
 62
     8
370
    25
100
AcDbPolyline
 90
        3
 70
   128
 43
0.0
 10
-530.6267434203
 20
-31.4482144584
 10
-530.4887937307
 20
-31.3627858904
 10
-530.3767434205
 20
-31.3495190583
  0
SPLINE
  5
3E6
330
37C
100
AcDbEntity
  8
0
  6
Continuous
 62
     8
370
    25
100
AcDbSpline
210
0.0
220
0.0
230
1.0
 70
     8
 71
     3
 72
    11
 73
     7
 74
     0
 42
0.000000001
 43
0.00000001
 40
0.0
 40
0.0
 40
0.0
 40
0.0
 40
0.2110983981439797
 40
0.5165244007620542
 40
0.8021203528637469
 40
1.0
 40
1.0
 40
1.0
 40
1.0
 10
46.03729358430167
 20
-14.62882113016875
 30
0.0
 10
62.66009817692167
 20
-23.00452824272283
 30
0.0
 10
103.3334725685721
 20
-43.49855915583164
 30
0.0
 10
166.4205676175039
 20
-75.34089642272262
 30
0.0
 10
228.4721665221499
 20
-106.6577114456745
 30
0.0
 10
266.4958102234698
 20
-125.851128004677
 30
0.0
 10
282.0583437004669
 20
-133.7067188597707
 30
0.0
  0
SPLINE
  5
3E7
330
37C
100
AcDbEntity
  8
0
  6
Continuous
 62
     8
370
    25
100
AcDbSpline
210
0.0
220
0.0
230
1.0
 70
     8
 71
     3
 72
    10
 73
     6
 74
     0
 42
0.000000001
 43
0.00000001
 40
0.0
 40
0.0
 40
0.0
 40
0.0
 40
0.393596906456291
 40
0.7951085866632372
 40
1.0
 40
1.0
 40
1.0
 40
1.0
 10
527.5657156799891
 20
72.8989062369762
 30
0.0
 10
469.3612852229863
 20
65.79399740192792
 30
0.0
 10
351.7820012421419
 20
51.44130831941424
 30
0.0
 10
203.9065168861971
 20
33.38693040177228
 30
0.0
 10
114.212952483494
 20
22.46102825916698
 30
0.0
 10
83.90730039605602
 20
18.76938559472169
 30
0.0
  0
SPLINE
  5
3E8
330
37C
100
AcDbEntity
  8
0
  6
Continuous
 62
     8
370
    25
100
AcDbSpline
210
0.0
220
0.0
230
1.0
 70
     8
 71
     3
 72
    12
 73
     8
 74
     0
 42
0.000000001
 43
0.00000001
 40
0.0
 40
0.0
 40
0.0
 40
0.0
 40
0.1703258815245811
 40
0.3746367181922245
 40
0.5817804479268955
 40
0.7889241802133159
 40
1.0
 40
1.0
 40
1.0
 40
1.0
 10
281.3899209715656
 20
-133.6225055116539
 30
0.0
 10
268.0193591109777
 20
-126.8717284207611
 30
0.0
 10
238.6104203695465
 20
-112.0231983445241
 30
0.0
 10
192.9424957076114
 20
-88.96438842353551
 30
0.0
 10
144.3902503812546
 20
-64.44534694827266
 30
0.0
 10
95.3075261233839
 20
-39.65831850672078
 30
0.0
 10
62.51860594030653
 20
-23.07525597441018
 30
0.0
 10
45.97000563394532
 20
-14.70576798363958
 30
0.0
  0
SPLINE
  5
3E9
330
37C
100
AcDbEntity
  8
0
  6
Continuous
 62
     8
370
    25
100
AcDbSpline
210
0.0
220
0.0
230
1.0
 70
     8
 71
     3
 72
    11
 73
     7
 74
     0
 42
0.000000001
 43
0.00000001
 40
0.0
 40
0.0
 40
0.0
 40
0.0
 40
0.2110758070078233
 40
0.5170179821142747
 40
0.8030966185630325
 40
0.9999999999999999
 40
0.9999999999999999
 40
0.9999999999999999
 40
0.9999999999999999
 10
-84.01666559549761
 20
1.671013238006031
 30
0.0
 10
-114.252943060862
 20
-0.8040258642544769
 30
0.0
 10
-188.3149560570295
 20
-6.866491006255472
 30
0.0
 10
-303.3831653346551
 20
-16.2572817070046
 30
0.0
 10
-416.4193105710676
 20
-25.48413731977903
 30
0.0
 10
-485.6219441026059
 20
-31.13135399687702
 30
0.0
 10
-513.8346560506668
 20
-33.43362616902842
 30
0.0
  0
SPLINE
  5
3EA
330
37C
100
AcDbEntity
  8
0
  6
Continuous
 62
     8
370
    25
100
AcDbSpline
210
0.0
220
0.0
230
1.0
 70
     8
 71
     3
 72
    10
 73
     6
 74
     0
 42
0.000000001
 43
0.00000001
 40
0.0
 40
0.0
 40
0.0
 40
0.0
 40
0.3752261125816082
 40
0.7889014647650906
 40
1.0
 40
1.0
 40
1.0
 40
1.0
 10
-514.5211589507996
 20
-33.347134933449
 30
0.0
 10
-460.6649335932772
 20
-28.95482128527174
 30
0.0
 10
-347.4338613234129
 20
-19.72011571823557
 30
0.0
 10
-203.9065195908142
 20
-8.011448023806262
 30
0.0
 10
-114.2129531665827
 20
-0.7207286404866571
 30
0.0
 10
-83.90730039612568
 20
1.742658856367645
 30
0.0
  0
LWPOLYLINE
  5
3EB
330
37C
100
AcDbEntity
  8
0
  6
Continuous
 62
     8
370
    25
100
AcDbPolyline
 90
        6
 70
   128
 43
0.0
 10
-290.2589869749
 20
176.2948256462
 10
-291.6732244598
 20
175.0475868022
 10
-297.3301729127
 20
170.058632668
 10
-319.9579386329
 20
150.1028395114
 10
-410.4682995357
 20
70.2802459089
 10
-526.2894447026
 20
-31.8644702934
  0
LWPOLYLINE
  5
3EC
330
37C
100
AcDbEntity
  8
0
  6
Continuous
 62
     8
370
    25
100
AcDbPolyline
 90
        8
 70
   128
 43
0.0
 10
-607.6836908808
 20
-45.9703987032
 10
-607.6812368526
 20
-46.0226100894
 10
-607.5546525996
 20
-46.3465978132
 10
-607.2408800194
 20
-46.6561284161
 10
-606.7519772163
 20
-46.9393068107
 10
-606.1067324509
 20
-47.1852506102
 10
-605.3299421176
 20
-47.3845083321
 10
-604.4514578333
 20
-47.529422614
  0
LWPOLYLINE
  5
3F1
330
37C
100
AcDbEntity
  8
0
  6
Continuous
 62
     8
370
    25
100
AcDbPolyline
 90
        4
 70
   128
 43
0.0
 10
-529.9819039796
 20
-31.399264152
 10
-440.6053936619
 20
47.4223666916
 10
-366.343330114
 20
112.9154565755
 10
-292.0812665655
 20
178.4093898116
  0
SPLINE
  5
3F2
330
37C
100
AcDbEntity
  8
0
  6
Continuous
 62
     8
370
    25
100
AcDbSpline
210
0.0
220
0.0
230
1.0
 70
     8
 71
     3
 72
    14
 73
    10
 74
     0
 42
0.000000001
 43
0.00000001
 40
0.0
 40
0.0
 40
0.0
 40
0.0
 40
0.125
 40
0.125
 40
0.2500000000000002
 40
0.2500000000000002
 40
0.5000000000000002
 40
0.5000000000000002
 40
1.0
 40
1.0
 40
1.0
 40
1.0
 10
84.01666559549774
 20
18.8482321755334
 30
0.0
 10
102.5002080025648
 20
21.11462252716868
 30
0.0
 10
120.9871731579344
 20
23.37722171593144
 30
0.0
 10
157.9627195776074
 20
27.9004802163824
 30
0.0
 10
176.4515284419326
 20
30.16090644445223
 30
0.0
 10
231.919173566409
 20
36.94071927890683
 30
0.0
 10
268.8992341820445
 20
41.45864305019872
 30
0.0
 10
379.8406189621761
 20
55.01091535300441
 30
0.0
 10
453.8033491358458
 20
64.0435416237116
 30
0.0
 10
527.76633401148
 20
73.07583983982637
 30
0.0
  0
LWPOLYLINE
  5
3F3
330
37C
100
AcDbEntity
  8
0
  6
Continuous
 62
     8
370
    25
100
AcDbPolyline
 90
        8
 70
   128
 43
0.0
 10
527.9328751169
 20
73.2227104242
 10
524.7012452088
 20
73.6298325783
 10
509.7346941802
 20
75.5153254702
 10
449.8684851686
 20
83.0573059379
 10
210.4033305405
 20
113.2257447883
 10
-39.4945100769
 20
144.7101718015
 10
-50.6702200011
 20
146.1182327403
 10
-289.39331892
 20
176.1961357112
  0
LWPOLYLINE
  5
3F9
330
37C
100
AcDbEntity
  8
0
  6
Continuous
 62
     8
370
    25
100
AcDbPolyline
 90
       23
 70
   128
 43
0.0
 10
15.909902573
 20
16.8596423224
 10
12.1274034923
 20
17.2734419652
 10
8.2499910362
 20
17.5741897816
 10
4.3080112146
 20
17.7595320122
 10
0.3323153641
 20
17.8280181027
 10
-3.6459813046
 20
17.7791120566
 10
-7.5957432262
 20
17.6131966301
 10
-11.4860581584
 20
17.3315703362
 10
-15.2864791121
 20
16.9364372826
 10
-18.9672626406
 20
16.4308899212
 10
-22.4996016221
 20
15.8188848455
 10
-25.8558507149
 20
15.105211825
 10
-29.0097427192
 20
14.2954563187
 10
-31.9365941538
 20
13.3959557615
 10
-34.613498438
 20
12.4137499646
 10
-37.0195051661
 20
11.3565260203
 10
-39.1357840735
 20
10.2325581393
 10
-40.9457724082
 20
9.0506428943
 10
-42.4353045574
 20
7.8200303744
 10
-43.5927229126
 20
6.5503517913
 10
-44.4089691058
 20
5.2515441012
 10
-44.8776549039
 20
3.9337722355
 10
-44.9999893575
 20
2.8181108951
  0
LWPOLYLINE
  5
3FA
330
37C
100
AcDbEntity
  8
0
  6
Continuous
 62
     8
370
    25
100
AcDbPolyline
 90
       15
 70
   128
 43
0.0
 10
44.9996222693
 20
2.8898867944
 10
44.9217351787
 20
3.7127164521
 10
44.5114876865
 20
5.0326519549
 10
43.7528774522
 20
6.3353364099
 10
42.6518416295
 20
7.6105745448
 10
41.2169973166
 20
8.8483858922
 10
39.4595741155
 20
10.0390829002
 10
37.3933262458
 20
11.1733467502
 10
35.0344248984
 20
12.2423002896
 10
32.4013316748
 20
13.2375775077
 10
29.5146540995
 20
14.1513890108
 10
26.3969843384
 20
14.9765829849
 10
23.0727223845
 20
15.7067011683
 10
19.5678850947
 20
16.3360293964
 10
15.909902573
 20
16.8596423224
  0
SPLINE
  5
3FB
330
37C
100
AcDbEntity
  8
0
  6
Continuous
 62
     8
370
    25
100
AcDbSpline
210
0.0
220
0.0
230
1.0
 70
     8
 71
     3
 72
     9
 73
     5
 74
     0
 42
0.000000001
 43
0.00000001
 40
0.0
 40
0.0
 40
0.0
 40
0.0
 40
0.7052125265437311
 40
0.9999999999999999
 40
0.9999999999999999
 40
0.9999999999999999
 40
0.9999999999999999
 10
-82.17878378813396
 20
-0.4607496431056936
 30
0.0
 10
-82.98323912301463
 20
-1.123887488238239
 30
0.0
 10
-84.12396664075078
 20
-2.064225074671369
 30
0.0
 10
-85.26460897457709
 20
-2.994783633198373
 30
0.0
 10
-85.600856046283
 20
-3.269100639569654
 30
0.0
  0
SPLINE
  5
3FE
330
37C
100
AcDbEntity
  8
0
  6
Continuous
 62
     8
370
    25
100
AcDbSpline
210
0.0
220
0.0
230
1.0
 70
     8
 71
     3
 72
    14
 73
    10
 74
     0
 42
0.000000001
 43
0.00000001
 40
0.0
 40
0.0
 40
0.0
 40
0.0
 40
0.2500000000000001
 40
0.2500000000000001
 40
0.5000000000000001
 40
0.5000000000000001
 40
0.75
 40
0.75
 40
1.0
 40
1.0
 40
1.0
 40
1.0
 10
86.33646207264522
 20
21.8805397227626
 30
0.0
 10
75.86889100206339
 20
23.11732680485697
 30
0.0
 10
65.40132657917022
 20
24.35275521201838
 30
0.0
 10
44.46601309501904
 20
26.85875277535055
 30
0.0
 10
33.99823667025818
 20
28.13268559511286
 30
0.0
 10
13.06223908747637
 20
30.77218370084717
 30
0.0
 10
2.594486378821325
 20
32.13749285954799
 30
0.0
 10
-18.34080189430762
 20
34.90831355782192
 30
0.0
 10
-28.80835457869915
 20
36.31065553712462
 30
0.0
 10
-39.27591559826775
 20
37.7114542389624
 30
0.0
  0
LWPOLYLINE
  5
401
330
37C
100
AcDbEntity
  8
0
  6
Continuous
 62
     8
370
    25
100
AcDbPolyline
 90
        3
 70
   128
 43
0.0
 10
529.9196366393
 20
75.5597071106
 10
530.271030353
 20
75.5017413979
 10
530.465016593
 20
75.455849301
  0
LWPOLYLINE
  5
402
330
37C
100
AcDbEntity
  8
0
  6
Continuous
 62
     8
370
    25
100
AcDbPolyline
 90
        3
 70
   128
 43
0.0
 10
529.9012114266
 20
74.9586198815
 10
529.9155221676
 20
75.1787908328
 10
529.9196366393
 20
75.5597071106
  0
LWPOLYLINE
  5
405
330
37C
100
AcDbEntity
  8
0
  6
Continuous
 62
     8
370
    25
100
AcDbPolyline
 90
        3
 70
   128
 43
0.0
 10
603.3086908804
 20
88.6435440759
 10
603.0285651048
 20
88.6103769956
 10
602.6836908808
 20
88.3968055757
  0
LWPOLYLINE
  5
406
330
37C
100
AcDbEntity
  8
0
  6
Continuous
 62
     8
370
    25
100
AcDbPolyline
 90
        3
 70
   128
 43
0.0
 10
607.3607626144
 20
83.0935047169
 10
607.6157682165
 20
83.4089775758
 10
607.6836908808
 20
83.6827603676
  0
LWPOLYLINE
  5
407
330
37C
100
AcDbEntity
  8
0
  6
Continuous
 62
     8
370
    25
100
AcDbPolyline
 90
        3
 70
   128
 43
0.0
 10
-322.7515123765
 20
205.3161629172
 10
-323.0316381521
 20
205.2829958369
 10
-323.3765123761
 20
205.0694244169
  0
LINE
  5
408
330
37C
100
AcDbEntity
  8
0
  6
Continuous
 62
     7
370
    25
100
AcDbLine
 10
289.0462243099
 20
-134.5871090633
 30
0.0
 11
-530.3767434205
 21
-31.3495190583
 31
0.0
  0
LINE
  5
409
330
37C
100
AcDbEntity
  8
0
  6
Continuous
 62
     7
370
    25
100
AcDbLine
 10
531.6313115896
 20
76.4844248065
 30
0.0
 11
292.6292196034
 21
-134.2956079386
 31
0.0
  0
LINE
  5
40A
330
37C
100
AcDbEntity
  8
0
  6
Continuous
 62
     7
370
    25
100
AcDbLine
 10
-607.6836908808
 20
-45.9703987032
 30
0.0
 11
-607.6836908808
 21
-64.8265795354
 31
0.0
  0
LINE
  5
40B
330
37C
100
AcDbEntity
  8
0
  6
Continuous
 62
     7
370
    25
100
AcDbLine
 10
-326.683701515
 20
204.1053792088
 30
0.0
 11
-605.9908800196
 21
-42.2203987033
 31
0.0
  0
LINE
  5
40C
330
37C
100
AcDbEntity
  8
0
  6
Continuous
 62
     7
370
    25
100
AcDbLine
 10
44.7647863143
 20
-15.0076542559
 30
0.0
 11
44.7003260282
 21
-15.0629069538
 31
0.0
  0
LINE
  5
40D
330
37C
100
AcDbEntity
  8
0
  6
Continuous
 62
     7
370
    25
100
AcDbLine
 10
82.6817461447
 20
18.4346208722
 30
0.0
 11
82.6136954453
 21
18.3712417842
 31
0.0
  0
LINE
  5
40E
330
37C
100
AcDbEntity
  8
0
  6
Continuous
 62
     7
370
    25
100
AcDbLine
 10
607.6836908808
 20
64.8265795354
 30
0.0
 11
607.6836908808
 21
83.6827603676
 31
0.0
  0
LINE
  5
40F
330
37C
100
AcDbEntity
  8
0
  6
Continuous
 62
     7
370
    25
100
AcDbLine
 10
603.3086908804
 20
88.6435440759
 30
0.0
 11
-322.7515123765
 21
205.3161629172
 31
0.0
  0
LINE
  5
410
330
37C
100
AcDbEntity
  8
0
  6
Continuous
 62
     7
370
    25
100
AcDbLine
 10
321.6087454236
 20
-183.0582222875
 30
0.0
 11
321.6087454236
 21
-164.2020414553
 31
0.0
  0
LINE
  5
411
330
37C
100
AcDbEntity
  8
0
  6
Continuous
 62
     7
370
    25
100
AcDbLine
 10
328.0535841098
 20
-163.2322731952
 30
0.0
 11
328.0535841098
 21
-182.0884540274
 31
0.0
  0
LINE
  5
412
330
37C
100
AcDbEntity
  8
0
  6
Continuous
 62
     7
370
    25
100
AcDbLine
 10
-602.6836908808
 20
-41.2563534952
 30
0.0
 11
323.3765123761
 21
-157.9289723364
 31
0.0
  0
LINE
  5
413
330
37C
100
AcDbEntity
  8
0
  6
Continuous
 62
     7
370
    25
100
AcDbLine
 10
321.6087454236
 20
-164.2020414553
 30
0.0
 11
-604.4514578333
 21
-47.529422614
 31
0.0
  0
LINE
  5
414
330
37C
100
AcDbEntity
  8
0
  6
Continuous
 62
     7
370
    25
100
AcDbLine
 10
-604.4514578333
 20
-47.529422614
 30
0.0
 11
-604.4514578333
 21
-66.3856034462
 31
0.0
  0
LINE
  5
415
330
37C
100
AcDbEntity
  8
0
  6
Continuous
 62
     7
370
    25
100
AcDbLine
 10
-604.4514578333
 20
-66.3856034462
 30
0.0
 11
321.6087454236
 21
-183.0582222875
 31
0.0
  0
LINE
  5
416
330
37C
100
AcDbEntity
  8
0
  6
Continuous
 62
     7
370
    25
100
AcDbLine
 10
323.3765123761
 20
-157.9289723364
 30
0.0
 11
602.6836908808
 21
88.3968055757
 31
0.0
  0
LINE
  5
417
330
37C
100
AcDbEntity
  8
0
  6
Continuous
 62
     7
370
    25
100
AcDbLine
 10
607.3607626144
 20
83.0935047169
 30
0.0
 11
328.0535841098
 21
-163.2322731952
 31
0.0
  0
LINE
  5
418
330
37C
100
AcDbEntity
  8
0
  6
Continuous
 62
     7
370
    25
100
AcDbLine
 10
607.3607626144
 20
64.2373238847
 30
0.0
 11
607.3607626144
 21
83.0935047169
 31
0.0
  0
LINE
  5
419
330
37C
100
AcDbEntity
  8
0
  6
Continuous
 62
     7
370
    25
100
AcDbLine
 10
328.0535841098
 20
-182.0884540274
 30
0.0
 11
607.3607626144
 21
64.2373238847
 31
0.0
  0
LINE
  5
41A
330
37C
100
AcDbEntity
  8
0
  6
Continuous
 62
     7
370
    25
100
AcDbLine
 10
-532.9541872452
 20
-29.7295908092
 30
0.0
 11
-293.952095259
 21
181.0504419358
 31
0.0
  0
LINE
  5
41B
330
37C
100
AcDbEntity
  8
0
  6
Continuous
 62
     7
370
    25
100
AcDbLine
 10
288.79622431
 20
-134.6858044634
 30
0.0
 11
-530.6267434203
 21
-31.4482144584
 31
0.0
  0
LINE
  5
41C
330
37C
100
AcDbEntity
  8
0
  6
Continuous
 62
     7
370
    25
100
AcDbLine
 10
532.9541872452
 20
76.8700428897
 30
0.0
 11
293.952095259
 21
-133.9099898553
 31
0.0
  0
LINE
  5
41D
330
37C
100
AcDbEntity
  8
0
  6
Continuous
 62
     7
370
    25
100
AcDbLine
 10
-288.79622431
 20
181.8262565439
 30
0.0
 11
530.6267434203
 21
78.5886665389
 31
0.0
  0
LINE
  5
41E
330
37C
100
AcDbEntity
  8
0
  6
Continuous
 62
     7
370
    25
100
AcDbLine
 10
-323.3765123761
 20
205.0694244169
 30
0.0
 11
-602.6836908808
 21
-41.2563534952
 31
0.0
  0
LINE
  5
41F
330
37C
100
AcDbEntity
  8
0
  6
Continuous
 62
     7
370
    25
100
AcDbLine
 10
602.6836908808
 20
88.3968055757
 30
0.0
 11
-323.3765123761
 21
205.0694244169
 31
0.0
  0
LINE
  5
420
330
37C
100
AcDbEntity
  8
0
  6
Continuous
 62
     7
370
    25
100
AcDbLine
 10
-289.9847022629
 20
176.2530927259
 30
0.0
 11
-290.2589869749
 21
176.2948256462
 31
0.0
  0
LINE
  5
421
330
37C
100
AcDbEntity
  8
0
  6
Continuous
 62
     7
370
    25
100
AcDbLine
 10
-292.0812665655
 20
178.4093898116
 30
0.0
 11
-292.0812665655
 21
178.9291215923
 31
0.0
  0
LINE
  5
422
330
37C
100
AcDbEntity
  8
0
  6
Continuous
 62
     7
370
    25
100
AcDbLine
 10
45.0
 20
2.8284271248
 30
0.0
 11
44.9996222693
 21
2.8898867944
 31
0.0
  0
LINE
  5
423
330
37C
100
AcDbEntity
  8
0
  6
Continuous
 62
     7
370
    25
100
AcDbLine
 10
-39.2756145443
 20
35.6014373722
 30
0.0
 11
-39.2756145443
 21
37.6775789084
 31
0.0
  0
LINE
  5
424
330
37C
100
AcDbEntity
  8
0
  6
Continuous
 62
     7
370
    25
100
AcDbLine
 10
529.9196366393
 20
75.5597071106
 30
0.0
 11
529.9196366393
 21
76.0794388914
 31
0.0
  0
LINE
  5
425
330
37C
100
AcDbEntity
  8
0
  6
Continuous
 62
     7
370
    25
100
AcDbLine
 10
529.645355308
 20
75.5870864153
 30
0.0
 11
529.9196366393
 21
75.5597071106
 31
0.0
  0
LINE
  5
426
330
37C
100
AcDbEntity
  8
0
  6
Continuous
 62
     7
370
    25
100
AcDbLine
 10
529.9196366393
 20
76.0794388914
 30
0.0
 11
-289.503331091
 21
179.3170288964
 31
0.0
  0
LINE
  5
427
330
37C
100
AcDbEntity
  8
0
  6
Continuous
 62
     7
370
    25
100
AcDbLine
 10
-289.503331091
 20
178.7972971156
 30
0.0
 11
-289.2290497597
 21
178.7555640211
 31
0.0
  0
LINE
  5
428
330
37C
100
AcDbEntity
  8
0
  6
Continuous
 62
     7
370
    25
100
AcDbLine
 10
-289.503331091
 20
179.3170288964
 30
0.0
 11
-289.503331091
 21
178.7972971156
 31
0.0
  0
LINE
  5
429
330
37C
100
AcDbEntity
  8
0
  6
Continuous
 62
     8
370
    25
100
AcDbLine
 10
-292.0812665655
 20
178.9291215923
 30
0.0
 11
-530.4942534216
 21
-31.3313692626
 31
0.0
  0
LINE
  5
42A
330
37C
100
AcDbEntity
  8
0
  6
Continuous
 62
     8
370
    25
100
AcDbLine
 10
81.9014821113
 20
17.7362434923
 30
0.0
 11
-38.1118926319
 21
32.8565074643
 31
0.0
  0
LINE
  5
42B
330
37C
100
AcDbEntity
  8
0
  6
Continuous
 62
     8
370
    25
100
AcDbLine
 10
-38.1118926319
 20
32.8565074643
 30
0.0
 11
-79.9330465638
 21
-4.026283485
 31
0.0
  0
LINE
  5
42C
330
37C
100
AcDbEntity
  8
0
  6
Continuous
 62
     8
370
    25
100
AcDbLine
 10
-83.6466817835
 20
-3.5301657359
 30
0.0
 11
-39.2756145443
 21
35.6014373722
 31
0.0
  0
LINE
  5
42D
330
37C
100
AcDbEntity
  8
0
  6
Continuous
 62
     8
370
    25
100
AcDbLine
 10
-39.2756145443
 20
35.6014373722
 30
0.0
 11
84.3581880872
 21
20.0250423607
 31
0.0
  0
ARC
  5
42E
330
37C
100
AcDbEntity
  8
0
  6
Continuous
 62
     7
370
    25
100
AcDbCircle
 10
-602.6836908808
 20
-45.9703987032
 30
0.0
 40
4.999999999999432
100
AcDbArc
 50
131.40962211
 51
180.0
  0
ARC
  5
42F
330
37C
100
AcDbEntity
  8
0
  6
Continuous
 62
     7
370
    25
100
AcDbCircle
 10
602.6836908808
 20
83.6827603676
 30
0.0
 40
5.000000000000114
100
AcDbArc
 50
0.0
 51
82.8192442221
  0
ARC
  5
430
330
37C
100
AcDbEntity
  8
0
  6
Continuous
 62
     7
370
    25
100
AcDbCircle
 10
-323.3765123761
 20
200.3553792089
 30
0.0
 40
5.000000000000064
100
AcDbArc
 50
82.8192442221
 51
131.40962211
  0
ARC
  5
431
330
37C
100
AcDbEntity
  8
0
  6
Continuous
 62
     7
370
    25
100
AcDbCircle
 10
322.5939559265
 20
-163.333167462
 30
0.0
 40
5.460560369788504
100
AcDbArc
 50
1.0587090425
 51
81.7605351794
  0
ARC
  5
432
330
37C
100
AcDbEntity
  8
0
  6
Continuous
 62
     7
370
    25
100
AcDbCircle
 10
323.4489573657
 20
-154.5313506779
 30
0.0
 40
9.844218613218132
100
AcDbArc
 50
259.2261330329
 51
297.8883001309
  0
ARC
  5
433
330
37C
100
AcDbEntity
  8
0
  6
Continuous
 62
     7
370
    25
100
AcDbCircle
 10
331.4336129671
 20
-163.5850991174
 30
0.0
 40
9.84421861274309
100
AcDbArc
 50
144.9309440897
 51
183.5931111895
  0
ARC
  5
434
330
37C
100
AcDbEntity
  8
0
  6
Continuous
 62
     7
370
    25
100
AcDbCircle
 10
323.4489573657
 20
-173.3875315101
 30
0.0
 40
9.844218613218299
100
AcDbArc
 50
259.2261330329
 51
297.8883001309
  0
ARC
  5
435
330
37C
100
AcDbEntity
  8
0
  6
Continuous
 62
     7
370
    25
100
AcDbCircle
 10
-594.6265902898
 20
-46.9124802762
 30
0.0
 40
9.844218612742074
100
AcDbArc
 50
144.9309440897
 51
183.5931111895
  0
ARC
  5
436
330
37C
100
AcDbEntity
  8
0
  6
Continuous
 62
     7
370
    25
100
AcDbCircle
 10
601.9011344312
 20
82.9926104501
 30
0.0
 40
5.460560369788524
100
AcDbArc
 50
1.0587090425
 51
81.7605351794
  0
ARC
  5
437
330
37C
100
AcDbEntity
  8
0
  6
Continuous
 62
     7
370
    25
100
AcDbCircle
 10
290.2683938637
 20
-126.9492518415
 30
0.0
 40
7.87537489057484
100
AcDbArc
 50
259.2261330329
 51
297.8883001309
  0
ARC
  5
438
330
37C
100
AcDbEntity
  8
0
  6
Continuous
 62
     7
370
    25
100
AcDbCircle
 10
-290.2683938637
 20
174.089703922
 30
0.0
 40
7.875374890574522
100
AcDbArc
 50
79.2261330329
 51
117.8883001309
  0
ARC
  5
439
330
37C
100
AcDbEntity
  8
0
  6
Continuous
 62
     7
370
    25
100
AcDbCircle
 10
-294.2651178388
 20
178.8887638856
 30
0.0
 40
2.184224147915594
100
AcDbArc
 50
1.0587090425
 51
81.7605351794
  0
ARC
  5
43A
330
37C
100
AcDbEntity
  8
0
  6
Continuous
 62
     7
370
    25
100
AcDbCircle
 10
-289.8950184568
 20
178.4509648331
 30
0.0
 40
2.186643380950797
100
AcDbArc
 50
181.0894400205
 51
260.4184758187
  0
ARC
  5
43B
330
37C
100
AcDbEntity
  8
0
  6
Continuous
 62
     7
370
    25
100
AcDbCircle
 10
-84.3512011945
 20
-0.4755426437
 30
0.0
 40
2.172467772028948
100
AcDbArc
 50
0.3901475842
 51
81.1418481474
  0
ARC
  5
43C
330
37C
100
AcDbEntity
  8
0
  6
Continuous
 62
     7
370
    25
100
AcDbCircle
 10
-35.5668863848
 20
35.5546178824
 30
0.0
 40
3.709023675507744
100
AcDbArc
 50
179.2767286905
 51
226.6726178928
  0
ARC
  5
43D
330
37C
100
AcDbEntity
  8
0
  6
Continuous
 62
     7
370
    25
100
AcDbCircle
 10
-84.2621667449
 20
-0.4105521146
 30
0.0
 40
2.182257457585479
100
AcDbArc
 50
0.8696148838
 51
80.6413256292
  0
ARC
  5
43E
330
37C
100
AcDbEntity
  8
0
  6
Continuous
 62
     7
370
    25
100
AcDbCircle
 10
-46.3903195975
 20
32.9793989983
 30
0.0
 40
2.190106197245322
100
AcDbArc
 50
1.2989142065
 51
80.7239510859
  0
ARC
  5
43F
330
37C
100
AcDbEntity
  8
0
  6
Continuous
 62
     7
370
    25
100
AcDbCircle
 10
-46.2989207341
 20
33.0519532341
 30
0.0
 40
2.197811551360858
100
AcDbArc
 50
1.765939912
 51
81.3930236459
  0
ARC
  5
440
330
37C
100
AcDbEntity
  8
0
  6
Continuous
 62
     7
370
    25
100
AcDbCircle
 10
533.8495836567
 20
76.3262158265
 30
0.0
 40
3.937687445096492
100
AcDbArc
 50
144.9309440897
 51
183.5931111895
  0
ARC
  5
441
330
37C
100
AcDbEntity
  8
0
  6
Continuous
 62
     7
370
    25
100
AcDbCircle
 10
-292.7524901791
 20
178.456608044
 30
0.0
 40
4.048921673236545
100
AcDbArc
 50
326.0623803758
 51
3.2104796613
  0
ARC
  5
442
330
37C
100
AcDbEntity
  8
0
  6
Continuous
 62
     7
370
    25
100
AcDbCircle
 10
-285.5733840736
 20
179.5638058315
 30
0.0
 40
3.937687445097087
100
AcDbArc
 50
144.9309440897
 51
183.5931111895
  0
ARC
  5
443
330
37C
100
AcDbEntity
  8
0
  6
Continuous
 62
     7
370
    25
100
AcDbCircle
 10
-290.2394158679
 20
175.4487525854
 30
0.0
 40
3.937687445287547
100
AcDbArc
 50
79.2261330329
 51
117.8883001309
  0
ARC
  5
444
330
37C
100
AcDbEntity
  8
0
  6
Continuous
 62
     7
370
    25
100
AcDbCircle
 10
-293.2978261621
 20
178.6188569301
 30
0.0
 40
4.071072369972742
100
AcDbArc
 50
324.470944328
 51
1.9243608179
  0
ARC
  5
445
330
37C
100
AcDbEntity
  8
0
  6
Continuous
 62
     7
370
    25
100
AcDbCircle
 10
-290.2394158679
 20
174.9290208047
 30
0.0
 40
3.937687445287512
100
AcDbArc
 50
79.2261330329
 51
117.8883001309
  0
ARC
  5
446
330
37C
100
AcDbEntity
  8
0
  6
Continuous
 62
     7
370
    25
100
AcDbCircle
 10
-293.5721121631
 20
178.6605957458
 30
0.0
 40
4.071076844841763
100
AcDbArc
 50
324.470887347
 51
1.9242781383
  0
ARC
  5
447
330
37C
100
AcDbEntity
  8
0
  6
Continuous
 62
     8
370
    25
100
AcDbCircle
 10
293.7155131468
 20
-135.560327859
 30
0.0
 40
1.667209231627249
100
AcDbArc
 50
81.8420161641
 51
130.6311733164
  0
ARC
  5
448
330
37C
100
AcDbEntity
  8
0
  6
Continuous
 62
     8
370
    25
100
AcDbCircle
 10
532.7176012218
 20
75.2197656078
 30
0.0
 40
1.667149679448097
100
AcDbArc
 50
81.8415869733
 51
130.6612067915
  0
ARC
  5
449
330
37C
100
AcDbEntity
  8
0
  6
Continuous
 62
     8
370
    25
100
AcDbCircle
 10
-603.2751559393
 20
-45.3820467
 30
0.0
 40
4.16787419862004
100
AcDbArc
 50
81.8415869733
 51
130.6612067915
  0
ARC
  5
44A
330
37C
100
AcDbEntity
  8
0
  6
Continuous
 62
     8
370
    25
100
AcDbCircle
 10
-323.9679774347
 20
200.9437312121
 30
0.0
 40
4.167874198620089
100
AcDbArc
 50
81.8415869733
 51
130.6612067915
  0
ARC
  5
44B
330
37C
100
AcDbEntity
  8
0
  6
Continuous
 62
     8
370
    25
100
AcDbCircle
 10
-533.2777042909
 20
-31.9064683159
 30
0.0
 40
2.200785986398885
100
AcDbArc
 50
19.1197648022
 51
81.5468484061
  0
ARC
  5
44C
330
37C
100
AcDbEntity
  8
0
  6
Continuous
 62
     8
370
    25
100
AcDbCircle
 10
45.7524841355
 20
-16.365898831
 30
0.0
 40
1.674320767532633
100
AcDbArc
 50
82.5352464528
 51
128.8170537717
  0
ARC
  5
44D
330
37C
100
AcDbEntity
  8
0
  6
Continuous
 62
     8
370
    25
100
AcDbCircle
 10
45.8379557028
 20
-16.2812937649
 30
0.0
 40
1.664452282152411
100
AcDbArc
 50
83.1216416339
 51
130.1048514834
  0
ARC
  5
44E
330
37C
100
AcDbEntity
  8
0
  6
Continuous
 62
     8
370
    25
100
AcDbCircle
 10
83.7064282502
 20
17.1230864317
 30
0.0
 40
1.658508532717282
100
AcDbArc
 50
83.0434776469
 51
130.9768319473
  0
ARC
  5
44F
330
37C
100
AcDbEntity
  8
0
  6
Continuous
 62
     8
370
    25
100
AcDbCircle
 10
83.7922677402
 20
17.2149318663
 30
0.0
 40
1.648643168679747
100
AcDbArc
 50
82.1771530413
 51
131.8266473204
  0
ARC
  5
450
330
37C
100
AcDbEntity
  8
0
  6
Continuous
 62
     8
370
    25
100
AcDbCircle
 10
529.6627787419
 20
73.1820073395
 30
0.0
 40
2.908794523041535
100
AcDbArc
 50
65.2294438068
 51
84.9339608689
  0
ARC
  5
451
330
37C
100
AcDbEntity
  8
0
  6
Continuous
 62
     8
370
    25
100
AcDbCircle
 10
523.9574215677
 20
75.4601519781
 30
0.0
 40
5.689349926394643
100
AcDbArc
 50
352.1974948304
 51
1.2784256769
  0
ARC
  5
452
330
37C
100
AcDbEntity
  8
0
  6
Continuous
 62
     8
370
    25
100
AcDbCircle
 10
523.4743169753
 20
75.6463999991
 30
0.0
 40
5.651911753737442
100
AcDbArc
 50
343.9086378304
 51
359.9928466545
  0
VIEWPORT
  5
461
330
37C
100
AcDbEntity
  8
0
100
AcDbViewport
 10
0.0
 20
0.0
 30
0.0
 40
205.6
 41
156.0
 68
     1
 69
     1
 12
0.0
 22
0.0
 13
0.0
 23
0.0
 14
10.0
 24
10.0
 15
10.0
 25
10.0
 16
0.0
 26
0.0
 36
1.0
 17
0.0
 27
0.0
 37
0.0
 42
50.0
 43
0.0
 44
0.0
 45
816.0
 50
0.0
 51
0.0
 72
   100
 90
   557152
  1

281
     0
 71
     1
 74
     0
110
0.0
120
0.0
130
0.0
111
1.0
121
0.0
131
0.0
112
0.0
122
1.0
132
0.0
 79
     0
146
0.0
  0
ENDBLK
  5
37F
330
37C
100
AcDbEntity
  8
0
100
AcDbBlockEnd
  0
ENDSEC
  0
SECTION
  2
ENTITIES
  0
LWPOLYLINE
  5
9F
330
1F
100
AcDbEntity
  8
0
  6
Continuous
 62
     7
370
    25
100
AcDbPolyline
 90
        6
 70
   128
 43
0.0
 10
438.0519058681
 20
-338.0000124192
 10
438.0519314427
 20
-334.0000124194
 10
438.052032152
 20
-318.00001242
 10
438.0524049581
 20
-254.000012422
 10
438.0531457334
 20
1.9999875775
 10
438.0519058681
 20
338.0000124192
  0
LWPOLYLINE
  5
A0
330
1F
100
AcDbEntity
  8
0
  6
Continuous
 62
     7
370
    25
100
AcDbPolyline
 90
        9
 70
   128
 43
0.0
 10
438.0519058681
 20
338.0000124192
 10
438.4346261393
 20
338.0000121265
 10
438.8011896915
 20
338.000011383
 10
439.1379699526
 20
338.0000102164
 10
439.4324475097
 20
338.0000086699
 10
439.6736755036
 20
338.0000068012
 10
439.8526865654
 20
338.0000046796
 10
439.9628261679
 20
338.0000023841
 10
440.0
 20
338.0
  0
LWPOLYLINE
  5
A1
330
1F
100
AcDbEntity
  8
0
  6
Continuous
 62
     7
370
    25
100
AcDbPolyline
 90
        9
 70
   128
 43
0.0
 10
438.0519058681
 20
-338.0000124192
 10
438.4346261393
 20
-338.0000121265
 10
438.8011896915
 20
-338.000011383
 10
439.1379699526
 20
-338.0000102164
 10
439.4324475097
 20
-338.0000086699
 10
439.6736755036
 20
-338.0000068012
 10
439.8526865654
 20
-338.0000046796
 10
439.9628261679
 20
-338.0000023841
 10
440.0
 20
-338.0
  0
LWPOLYLINE
  5
A2
330
1F
100
AcDbEntity
  8
0
  6
Continuous
 62
     7
370
    25
100
AcDbPolyline
 90
        9
 70
   128
 43
0.0
 10
-440.0
 20
338.0
 10
-439.9628261679
 20
338.0000023841
 10
-439.8526865654
 20
338.0000046796
 10
-439.6736755036
 20
338.0000068012
 10
-439.4324475097
 20
338.0000086699
 10
-439.1379699526
 20
338.0000102164
 10
-438.8011896915
 20
338.000011383
 10
-438.4346261393
 20
338.0000121265
 10
-438.0519058681
 20
338.0000124192
  0
LWPOLYLINE
  5
A3
330
1F
100
AcDbEntity
  8
0
  6
Continuous
 62
     7
370
    25
100
AcDbPolyline
 90
        6
 70
   128
 43
0.0
 10
-438.0519058681
 20
338.0000124192
 10
-438.0519314427
 20
334.0000124194
 10
-438.052032152
 20
318.00001242
 10
-438.0524049581
 20
254.000012422
 10
-438.0531457334
 20
-1.9999875775
 10
-438.0519058681
 20
-338.0000124192
  0
LWPOLYLINE
  5
A4
330
1F
100
AcDbEntity
  8
0
  6
Continuous
 62
     7
370
    25
100
AcDbPolyline
 90
        9
 70
   128
 43
0.0
 10
-440.0
 20
-338.0
 10
-439.9628261679
 20
-338.0000023841
 10
-439.8526865654
 20
-338.0000046796
 10
-439.6736755036
 20
-338.0000068012
 10
-439.4324475097
 20
-338.0000086699
 10
-439.1379699526
 20
-338.0000102164
 10
-438.8011896915
 20
-338.000011383
 10
-438.4346261393
 20
-338.0000121265
 10
-438.0519058681
 20
-338.0000124192
  0
SPLINE
  5
B1
330
1F
100
AcDbEntity
  8
0
  6
Continuous
 62
     7
370
    25
100
AcDbSpline
210
0.0
220
0.0
230
1.0
 70
     8
 71
     3
 72
     8
 73
     4
 74
     0
 42
0.000000001
 43
0.00000001
 40
0.0000000000000183
 40
0.0000000000000183
 40
0.0000000000000183
 40
0.0000000000000183
 40
0.0006105840372193
 40
0.0006105840372193
 40
0.0006105840372193
 40
0.0006105840372193
 10
437.7586838889247
 20
338.000014302655
 30
0.0
 10
437.5564577811499
 20
338.0223904970618
 30
0.0
 10
437.3541318918047
 20
338.0447691222266
 30
0.0
 10
437.1518379658025
 20
338.067135594233
 30
0.0
  0
LWPOLYLINE
  5
B2
330
1F
100
AcDbEntity
  8
0
  6
Continuous
 62
     7
370
    25
100
AcDbPolyline
 90
        9
 70
   128
 43
0.0
 10
437.1518112192
 20
340.0
 10
437.15181633
 20
339.9631907773
 10
437.1518212526
 20
339.8541180282
 10
437.1518258059
 20
339.6767966358
 10
437.1518298223
 20
339.4377536626
 10
437.1518331539
 20
339.1457880947
 10
437.1518356781
 20
338.8116469577
 10
437.151837302
 20
338.4476297271
 10
437.1518379658
 20
338.0671355942
  0
LWPOLYLINE
  5
B3
330
1F
100
AcDbEntity
  8
0
  6
Continuous
 62
     7
370
    25
100
AcDbPolyline
 90
        9
 70
   128
 43
0.0
 10
-437.1518112192
 20
340.0
 10
-437.15181633
 20
339.9631907773
 10
-437.1518212526
 20
339.8541180282
 10
-437.1518258059
 20
339.6767966358
 10
-437.1518298223
 20
339.4377536626
 10
-437.1518331539
 20
339.1457880947
 10
-437.1518356781
 20
338.8116469577
 10
-437.151837302
 20
338.4476297271
 10
-437.1518379658
 20
338.0671355942
  0
SPLINE
  5
B4
330
1F
100
AcDbEntity
  8
0
  6
Continuous
 62
     7
370
    25
100
AcDbSpline
210
0.0
220
0.0
230
1.0
 70
     8
 71
     3
 72
     8
 73
     4
 74
     0
 42
0.000000001
 43
0.00000001
 40
0.0000000000000001
 40
0.0000000000000001
 40
0.0000000000000001
 40
0.0000000000000001
 40
0.0006105840372009
 40
0.0006105840372009
 40
0.0006105840372009
 40
0.0006105840372009
 10
-437.1518379658021
 20
338.067135594233
 30
0.0
 10
-437.3541318917981
 20
338.0447691222274
 30
0.0
 10
-437.5564577811373
 20
338.0223904970626
 30
0.0
 10
-437.7586838889061
 20
338.0000143026566
 30
0.0
  0
SPLINE
  5
B5
330
1F
100
AcDbEntity
  8
0
  6
Continuous
 62
     7
370
    25
100
AcDbSpline
210
0.0
220
0.0
230
1.0
 70
     8
 71
     3
 72
    14
 73
    10
 74
     0
 42
0.000000001
 43
0.00000001
 40
0.0
 40
0.0
 40
0.0
 40
0.0
 40
0.0004287402189335
 40
0.0004287402189335
 40
0.0004287402189335
 40
0.0005742190721859
 40
0.0005742190721859
 40
0.0005742190721859
 40
0.0006105893627025
 40
0.0006105893627025
 40
0.0006105893627025
 40
0.0006105893627025
 10
-437.7586838889064
 20
-338.0000143026566
 30
0.0
 10
-437.616684654671
 20
-338.0157264305605
 30
0.0
 10
-437.4746394587872
 20
-338.0314393988285
 30
0.0
 10
-437.332593888293
 20
-338.0471481617209
 30
0.0
 10
-437.284393126056
 20
-338.0524786647601
 30
0.0
 10
-437.2361911485162
 20
-338.0578088131891
 30
0.0
 10
-437.1879897400923
 20
-338.0631384094208
 30
0.0
 10
-437.175939127019
 20
-338.0644708373337
 30
0.0
 10
-437.1638885262852
 20
-338.0658032333014
 30
0.0
 10
-437.1518379658017
 20
-338.067135594233
 30
0.0
  0
LWPOLYLINE
  5
B6
330
1F
100
AcDbEntity
  8
0
  6
Continuous
 62
     7
370
    25
100
AcDbPolyline
 90
        9
 70
   128
 43
0.0
 10
-437.1518379658
 20
-338.0671355942
 10
-437.151837302
 20
-338.4476297271
 10
-437.1518356781
 20
-338.8116469577
 10
-437.1518331539
 20
-339.1457880947
 10
-437.1518298223
 20
-339.4377536626
 10
-437.1518258059
 20
-339.6767966358
 10
-437.1518212526
 20
-339.8541180282
 10
-437.15181633
 20
-339.9631907773
 10
-437.1518112192
 20
-340.0
  0
SPLINE
  5
B7
330
1F
100
AcDbEntity
  8
0
  6
Continuous
 62
     7
370
    25
100
AcDbSpline
210
0.0
220
0.0
230
1.0
 70
     8
 71
     3
 72
    11
 73
     7
 74
     0
 42
0.000000001
 43
0.00000001
 40
0.0000000000000001
 40
0.0000000000000001
 40
0.0000000000000001
 40
0.0000000000000001
 40
0.0001462307716724
 40
0.0001462307716724
 40
0.0001462307716724
 40
0.0006106223831474
 40
0.0006106223831474
 40
0.0006106223831474
 40
0.0006106223831474
 10
437.1518379658021
 20
-338.067135594233
 30
0.0
 10
437.2002860009631
 20
-338.0617789745677
 30
0.0
 10
437.2487349134732
 20
-338.0564217635223
 30
0.0
 10
437.2971828906851
 20
-338.0510641618205
 30
0.0
 10
437.4510325991236
 20
-338.0340507485223
 30
0.0
 10
437.6048855740057
 20
-338.0170319915767
 30
0.0
 10
437.758683888906
 20
-338.0000143026566
 30
0.0
  0
LWPOLYLINE
  5
B8
330
1F
100
AcDbEntity
  8
0
  6
Continuous
 62
     7
370
    25
100
AcDbPolyline
 90
        9
 70
   128
 43
0.0
 10
437.1518379658
 20
-338.0671355942
 10
437.151837302
 20
-338.4476297271
 10
437.1518356781
 20
-338.8116469577
 10
437.1518331539
 20
-339.1457880947
 10
437.1518298223
 20
-339.4377536626
 10
437.1518258059
 20
-339.6767966358
 10
437.1518212526
 20
-339.8541180282
 10
437.15181633
 20
-339.9631907773
 10
437.1518112192
 20
-340.0
  0
LWPOLYLINE
  5
B9
330
1F
100
AcDbEntity
  8
0
  6
Continuous
 62
     7
370
    25
100
AcDbPolyline
 90
        8
 70
   128
 43
0.0
 10
437.1518379658
 20
338.0671355942
 10
433.1518379665
 20
338.0671911868
 10
417.1518379694
 20
338.0674132642
 10
353.1518379805
 20
338.0682877246
 10
97.1518380024
 20
338.0708845396
 10
-169.9999999685
 20
338.0703793098
 10
-181.9472967053
 20
338.0702742282
 10
-437.1518379658
 20
338.0671355942
  0
LWPOLYLINE
  5
BA
330
1F
100
AcDbEntity
  8
0
  6
Continuous
 62
     7
370
    25
100
AcDbPolyline
 90
        8
 70
   128
 43
0.0
 10
-437.1518379658
 20
-338.0671355942
 10
-433.1518379665
 20
-338.0671911868
 10
-417.1518379694
 20
-338.0674132642
 10
-353.1518379805
 20
-338.0682877246
 10
-97.1518380024
 20
-338.0708845396
 10
169.9999999685
 20
-338.0703793098
 10
181.9472967053
 20
-338.0702742282
 10
437.1518379658
 20
-338.0671355942
  0
SPLINE
  5
BB
330
1F
100
AcDbEntity
  8
0
  6
Continuous
 62
     7
370
    25
100
AcDbSpline
210
0.0
220
0.0
230
1.0
 70
     8
 71
     3
 72
    14
 73
    10
 74
     0
 42
0.000000001
 43
0.00000001
 40
0.0
 40
0.0
 40
0.0
 40
0.0
 40
0.1250000000000001
 40
0.1250000000000001
 40
0.2500000000000002
 40
0.2500000000000002
 40
0.5000000000000002
 40
0.5000000000000002
 40
1.0
 40
1.0
 40
1.0
 40
1.0
 10
69.45830713172008
 20
-53.55627725264157
 30
0.0
 10
84.81678820713157
 20
-65.39172195024865
 30
0.0
 10
100.1680770112985
 20
-77.23649079641739
 30
0.0
 10
130.8672860436041
 20
-100.9303987702865
 30
0.0
 10
146.2147248236798
 20
-112.7801620765585
 30
0.0
 10
192.2544906139789
 20
-148.3327561007921
 30
0.0
 10
222.9442563938381
 20
-172.0389062609518
 30
0.0
 10
315.0110450663301
 20
-243.1606086230371
 30
0.0
 10
376.3851295090454
 20
-290.5799680203478
 30
0.0
 10
437.7586838889061
 20
-338.0000143026565
 30
0.0
  0
SPLINE
  5
BC
330
1F
100
AcDbEntity
  8
0
  6
Continuous
 62
     7
370
    25
100
AcDbSpline
210
0.0
220
0.0
230
1.0
 70
     8
 71
     3
 72
    10
 73
     6
 74
     0
 42
0.000000001
 43
0.00000001
 40
0.0
 40
0.0
 40
0.0
 40
0.0
 40
0.5
 40
0.5
 40
1.0
 40
1.0
 40
1.0
 40
1.0
 10
69.45830713171853
 20
53.55627725263058
 30
0.0
 10
69.45401468374489
 20
35.70436564254964
 30
0.0
 10
69.4468542165814
 20
17.85241756639991
 30
0.0
 10
69.4468542166051
 20
-17.8524176583529
 30
0.0
 10
69.45401468374982
 20
-35.70436566299653
 30
0.0
 10
69.45830713171853
 20
-53.55627725264024
 30
0.0
  0
SPLINE
  5
BD
330
1F
100
AcDbEntity
  8
0
  6
Continuous
 62
     7
370
    25
100
AcDbSpline
210
0.0
220
0.0
230
1.0
 70
     8
 71
     3
 72
    14
 73
    10
 74
     0
 42
0.000000001
 43
0.00000001
 40
0.0
 40
0.0
 40
0.0
 40
0.0
 40
0.5
 40
0.5
 40
0.75
 40
0.75
 40
0.875
 40
0.875
 40
1.0
 40
1.0
 40
1.0
 40
1.0
 10
437.7586838889064
 20
338.0000143026566
 30
0.0
 10
376.3851297688566
 20
290.5799682210897
 30
0.0
 10
315.0110456908714
 20
243.1606091056124
 30
0.0
 10
222.9442578096538
 20
172.0389073546129
 30
0.0
 10
192.2544921915408
 20
148.3327573192371
 30
0.0
 10
146.2147260139435
 20
112.7801629955839
 30
0.0
 10
130.867286961826
 20
100.9303994791213
 30
0.0
 10
100.1680774705101
 20
77.23649115069769
 30
0.0
 10
84.81678843683235
 20
65.39172212725914
 30
0.0
 10
69.4583071317137
 20
53.55627725263675
 30
0.0
  0
SPLINE
  5
BE
330
1F
100
AcDbEntity
  8
0
  6
Continuous
 62
     7
370
    25
100
AcDbSpline
210
0.0
220
0.0
230
1.0
 70
     8
 71
     3
 72
    14
 73
    10
 74
     0
 42
0.000000001
 43
0.00000001
 40
0.0
 40
0.0
 40
0.0
 40
0.0
 40
0.125
 40
0.125
 40
0.2499999999999999
 40
0.2499999999999999
 40
0.5
 40
0.5
 40
1.0
 40
1.0
 40
1.0
 40
1.0
 10
-69.45830713171387
 20
53.55627725263673
 30
0.0
 10
-84.81678820712557
 20
65.39172195024402
 30
0.0
 10
-100.1680770112927
 20
77.23649079641311
 30
0.0
 10
-130.8672860435989
 20
100.9303987702826
 30
0.0
 10
-146.2147248236749
 20
112.7801620765547
 30
0.0
 10
-192.2544906139748
 20
148.3327561007891
 30
0.0
 10
-222.9442563938344
 20
172.038906260949
 30
0.0
 10
-315.011045066328
 20
243.1606086230356
 30
0.0
 10
-376.3851295090445
 20
290.5799680203471
 30
0.0
 10
-437.7586838889063
 20
338.0000143026566
 30
0.0
  0
SPLINE
  5
BF
330
1F
100
AcDbEntity
  8
0
  6
Continuous
 62
     7
370
    25
100
AcDbSpline
210
0.0
220
0.0
230
1.0
 70
     8
 71
     3
 72
    10
 73
     6
 74
     0
 42
0.000000001
 43
0.00000001
 40
0.0
 40
0.0
 40
0.0
 40
0.0
 40
0.5
 40
0.5
 40
1.0
 40
1.0
 40
1.0
 40
1.0
 10
-69.45830713171846
 20
-53.55627725262271
 30
0.0
 10
-69.45401468374483
 20
-35.70436564254489
 30
0.0
 10
-69.44685421658139
 20
-17.85241756639829
 30
0.0
 10
-69.44685421660506
 20
17.85241765834827
 30
0.0
 10
-69.45401468374979
 20
35.70436566299016
 30
0.0
 10
-69.4583071317185
 20
53.55627725263074
 30
0.0
  0
SPLINE
  5
C0
330
1F
100
AcDbEntity
  8
0
  6
Continuous
 62
     7
370
    25
100
AcDbSpline
210
0.0
220
0.0
230
1.0
 70
     8
 71
     3
 72
    14
 73
    10
 74
     0
 42
0.000000001
 43
0.00000001
 40
0.0
 40
0.0
 40
0.0
 40
0.0
 40
0.5
 40
0.5
 40
0.75
 40
0.75
 40
0.875
 40
0.875
 40
1.0
 40
1.0
 40
1.0
 40
1.0
 10
-437.7586838889065
 20
-338.0000143026566
 30
0.0
 10
-376.3851297688662
 20
-290.579968221097
 30
0.0
 10
-315.0110456908905
 20
-243.1606091056271
 30
0.0
 10
-222.9442578096874
 20
-172.0389073546387
 30
0.0
 10
-192.2544921915792
 20
-148.3327573192667
 30
0.0
 10
-146.2147260139891
 20
-112.7801629956191
 30
0.0
 10
-130.867286961874
 20
-100.9303994791583
 30
0.0
 10
-100.168077470563
 20
-77.23649115073837
 30
0.0
 10
-84.81678843688744
 20
-65.39172212730172
 30
0.0
 10
-69.45830713177122
 20
-53.55627725268115
 30
0.0
  0
SPLINE
  5
C1
330
1F
100
AcDbEntity
  8
0
  6
Continuous
 62
     7
370
    25
100
AcDbSpline
210
0.0
220
0.0
230
1.0
 70
     8
 71
     3
 72
     8
 73
     4
 74
     0
 42
0.000000001
 43
0.00000001
 40
0.0
 40
0.0
 40
0.0
 40
0.0
 40
0.0002508647251016
 40
0.0002508647251016
 40
0.0002508647251016
 40
0.0002508647251016
 10
69.48079836738954
 20
53.80610253302653
 30
0.0
 10
69.4733005320358
 20
53.72283804210451
 30
0.0
 10
69.46580311190479
 20
53.63955915865731
 30
0.0
 10
69.45830713171874
 20
53.55627725264017
 30
0.0
  0
SPLINE
  5
C2
330
1F
100
AcDbEntity
  8
0
  6
Continuous
 62
     7
370
    25
100
AcDbSpline
210
0.0
220
0.0
230
1.0
 70
     8
 71
     3
 72
    14
 73
    10
 74
     0
 42
0.000000001
 43
0.00000001
 40
0.0
 40
0.0
 40
0.0
 40
0.0
 40
0.1250000000000001
 40
0.1250000000000001
 40
0.2500000000000001
 40
0.2500000000000001
 40
0.5
 40
0.5
 40
1.0
 40
1.0
 40
1.0
 40
1.0
 10
69.48079836738675
 20
53.80610253302683
 30
0.0
 10
84.78781496028775
 20
65.66659701234624
 30
0.0
 10
100.1020017330383
 20
77.51782892898623
 30
0.0
 10
130.7337485838294
 20
101.2159405609361
 30
0.0
 10
146.0517866786137
 20
113.0622025395607
 30
0.0
 10
192.00844807487
 20
148.5976975621614
 30
0.0
 10
222.6496301635206
 20
172.2836259597863
 30
0.0
 10
314.5756861067576
 20
243.3381717721941
 30
0.0
 10
375.863496591109
 20
290.7029962936347
 30
0.0
 10
437.151837965802
 20
338.0671355942332
 30
0.0
  0
SPLINE
  5
C3
330
1F
100
AcDbEntity
  8
0
  6
Continuous
 62
     7
370
    25
100
AcDbSpline
210
0.0
220
0.0
230
1.0
 70
     8
 71
     3
 72
     8
 73
     4
 74
     0
 42
0.000000001
 43
0.00000001
 40
0.000000000000004
 40
0.000000000000004
 40
0.000000000000004
 40
0.000000000000004
 40
0.0002508647251015
 40
0.0002508647251015
 40
0.0002508647251015
 40
0.0002508647251015
 10
-69.45830713182457
 20
53.55627725263067
 30
0.0
 10
-69.4658031120106
 20
53.63955915864783
 30
0.0
 10
-69.47330053204477
 20
53.72283804210381
 30
0.0
 10
-69.48079836739852
 20
53.80610253302586
 30
0.0
  0
SPLINE
  5
C4
330
1F
100
AcDbEntity
  8
0
  6
Continuous
 62
     7
370
    25
100
AcDbSpline
210
0.0
220
0.0
230
1.0
 70
     8
 71
     3
 72
    14
 73
    10
 74
     0
 42
0.000000001
 43
0.00000001
 40
0.0
 40
0.0
 40
0.0
 40
0.0
 40
0.5
 40
0.5
 40
0.75
 40
0.75
 40
0.875
 40
0.875
 40
1.0
 40
1.0
 40
1.0
 40
1.0
 10
-437.1518379658021
 20
338.0671355942329
 30
0.0
 10
-375.8634968505757
 20
290.7029964941526
 30
0.0
 10
-314.5756867303946
 20
243.3381722541203
 30
0.0
 10
-222.6496315764922
 20
172.2836270520055
 30
0.0
 10
-192.0084496482645
 20
148.5976987785447
 30
0.0
 10
-146.051787865637
 20
113.0622034575273
 30
0.0
 10
-130.7337494994861
 20
101.215941269187
 30
0.0
 10
-100.1020021907628
 20
77.51782928324573
 30
0.0
 10
-84.78781518905231
 20
65.66659718960223
 30
0.0
 10
-69.48079836738675
 20
53.80610253302677
 30
0.0
  0
SPLINE
  5
C5
330
1F
100
AcDbEntity
  8
0
  6
Continuous
 62
     7
370
    25
100
AcDbSpline
210
0.0
220
0.0
230
1.0
 70
     8
 71
     3
 72
     8
 73
     4
 74
     0
 42
0.000000001
 43
0.00000001
 40
0.0000000000000013
 40
0.0000000000000013
 40
0.0000000000000013
 40
0.0000000000000013
 40
0.0002508647251014
 40
0.0002508647251014
 40
0.0002508647251014
 40
0.0002508647251014
 10
69.45830713172118
 20
-53.55627725264021
 30
0.0
 10
69.46580311190722
 20
-53.63955915865728
 30
0.0
 10
69.47330053203419
 20
-53.72283804210479
 30
0.0
 10
69.48079836738792
 20
-53.80610253302674
 30
0.0
  0
SPLINE
  5
C6
330
1F
100
AcDbEntity
  8
0
  6
Continuous
 62
     7
370
    25
100
AcDbSpline
210
0.0
220
0.0
230
1.0
 70
     8
 71
     3
 72
    14
 73
    10
 74
     0
 42
0.000000001
 43
0.00000001
 40
0.0
 40
0.0
 40
0.0
 40
0.0
 40
0.5000000000000002
 40
0.5000000000000002
 40
0.7500000000000001
 40
0.7500000000000001
 40
0.875
 40
0.875
 40
1.0
 40
1.0
 40
1.0
 40
1.0
 10
437.1518379658021
 20
-338.0671355942332
 30
0.0
 10
375.8634968505863
 20
-290.702996494161
 30
0.0
 10
314.5756867304156
 20
-243.3381722541363
 30
0.0
 10
222.6496315765285
 20
-172.2836270520336
 30
0.0
 10
192.0084496483062
 20
-148.5976987785768
 30
0.0
 10
146.0517878656865
 20
-113.0622034575655
 30
0.0
 10
130.7337494995382
 20
-101.2159412692274
 30
0.0
 10
100.10200219082
 20
-77.51782928329014
 30
0.0
 10
84.78781518911218
 20
-65.66659718964875
 30
0.0
 10
69.48079836744911
 20
-53.80610253307533
 30
0.0
  0
SPLINE
  5
C7
330
1F
100
AcDbEntity
  8
0
  6
Continuous
 62
     7
370
    25
100
AcDbSpline
210
0.0
220
0.0
230
1.0
 70
     8
 71
     3
 72
     8
 73
     4
 74
     0
 42
0.000000001
 43
0.00000001
 40
0.0
 40
0.0
 40
0.0
 40
0.0
 40
0.000250864725056
 40
0.000250864725056
 40
0.000250864725056
 40
0.000250864725056
 10
-69.48079836738948
 20
-53.8061025330263
 30
0.0
 10
-69.47330053203521
 20
-53.72283804209859
 30
0.0
 10
-69.4658031119213
 20
-53.63955915864411
 30
0.0
 10
-69.45830713173474
 20
-53.55627725262128
 30
0.0
  0
SPLINE
  5
C8
330
1F
100
AcDbEntity
  8
0
  6
Continuous
 62
     7
370
    25
100
AcDbSpline
210
0.0
220
0.0
230
1.0
 70
     8
 71
     3
 72
    14
 73
    10
 74
     0
 42
0.000000001
 43
0.00000001
 40
0.0
 40
0.0
 40
0.0
 40
0.0
 40
0.1250000000000001
 40
0.1250000000000001
 40
0.2500000000000002
 40
0.2500000000000002
 40
0.5000000000000001
 40
0.5000000000000001
 40
1.0
 40
1.0
 40
1.0
 40
1.0
 10
-69.48079836738644
 20
-53.80610253302692
 30
0.0
 10
-84.7878149602875
 20
-65.66659701234634
 30
0.0
 10
-100.102001733038
 20
-77.51782892898626
 30
0.0
 10
-130.7337485838292
 20
-101.2159405609361
 30
0.0
 10
-146.0517866786137
 20
-113.0622025395605
 30
0.0
 10
-192.0084480748701
 20
-148.5976975621614
 30
0.0
 10
-222.6496301635204
 20
-172.2836259597862
 30
0.0
 10
-314.5756861067576
 20
-243.3381717721942
 30
0.0
 10
-375.8634965911089
 20
-290.7029962936347
 30
0.0
 10
-437.1518379658022
 20
-338.0671355942332
 30
0.0
  0
SPLINE
  5
C9
330
1F
100
AcDbEntity
  8
0
  6
Continuous
 62
     7
370
    25
100
AcDbSpline
210
0.0
220
0.0
230
1.0
 70
     8
 71
     3
 72
     8
 73
     4
 74
     0
 42
0.000000001
 43
0.00000001
 40
0.0
 40
0.0
 40
0.0
 40
0.0
 40
1.0
 40
1.0
 40
1.0
 40
1.0
 10
69.48446386280696
 20
69.44805810312434
 30
0.0
 10
69.48319177901551
 20
64.23435859305224
 30
0.0
 10
69.48189497487118
 20
59.020391198928
 30
0.0
 10
69.48079836738683
 20
53.80610253302681
 30
0.0
  0
SPLINE
  5
CA
330
1F
100
AcDbEntity
  8
0
  6
Continuous
 62
     7
370
    25
100
AcDbSpline
210
0.0
220
0.0
230
1.0
 70
     8
 71
     3
 72
    14
 73
    10
 74
     0
 42
0.000000001
 43
0.00000001
 40
0.0
 40
0.0
 40
0.0
 40
0.0
 40
0.25
 40
0.25
 40
0.5
 40
0.5
 40
0.75
 40
0.75
 40
1.0
 40
1.0
 40
1.0
 40
1.0
 10
-69.4844638628069
 20
69.44805810312435
 30
0.0
 10
-57.90386419516673
 20
69.4452370123776
 30
0.0
 10
-46.32327849077103
 20
69.4413383832374
 30
0.0
 10
-23.16190526496865
 20
69.43300956528574
 30
0.0
 10
-11.58109696780446
 20
69.42885860872326
 30
0.0
 10
11.58109737255481
 20
69.42885860880988
 30
0.0
 10
23.16190549565608
 20
69.4330095653683
 30
0.0
 10
46.32327859730488
 20
69.44133838327606
 30
0.0
 10
57.90386424908854
 20
69.44523701239072
 30
0.0
 10
69.48446386280696
 20
69.44805810312434
 30
0.0
  0
SPLINE
  5
CB
330
1F
100
AcDbEntity
  8
0
  6
Continuous
 62
     7
370
    25
100
AcDbSpline
210
0.0
220
0.0
230
1.0
 70
     8
 71
     3
 72
     8
 73
     4
 74
     0
 42
0.000000001
 43
0.00000001
 40
0.0
 40
0.0
 40
0.0
 40
0.0
 40
1.0
 40
1.0
 40
1.0
 40
1.0
 10
-69.48079836738675
 20
53.80610253302692
 30
0.0
 10
-69.48189497470331
 20
59.02039040100377
 30
0.0
 10
-69.48319177920922
 20
64.23435938714864
 30
0.0
 10
-69.48446386280692
 20
69.44805810312432
 30
0.0
  0
SPLINE
  5
CC
330
1F
100
AcDbEntity
  8
0
  6
Continuous
 62
     7
370
    25
100
AcDbSpline
210
0.0
220
0.0
230
1.0
 70
     8
 71
     3
 72
     8
 73
     4
 74
     0
 42
0.000000001
 43
0.00000001
 40
0.0
 40
0.0
 40
0.0
 40
0.0
 40
1.0
 40
1.0
 40
1.0
 40
1.0
 10
69.48079836738678
 20
-53.80610253302685
 30
0.0
 10
69.48189497470334
 20
-59.0203904009876
 30
0.0
 10
69.48319177920928
 20
-64.23435938716473
 30
0.0
 10
69.48446386280696
 20
-69.44805810312432
 30
0.0
  0
SPLINE
  5
CD
330
1F
100
AcDbEntity
  8
0
  6
Continuous
 62
     7
370
    25
100
AcDbSpline
210
0.0
220
0.0
230
1.0
 70
     8
 71
     3
 72
     8
 73
     4
 74
     0
 42
0.000000001
 43
0.00000001
 40
0.0
 40
0.0
 40
0.0
 40
0.0
 40
1.0
 40
1.0
 40
1.0
 40
1.0
 10
-69.48446386280693
 20
-69.44805810312434
 30
0.0
 10
-69.48319177901548
 20
-64.23435859305215
 30
0.0
 10
-69.48189497487111
 20
-59.02039119892781
 30
0.0
 10
-69.48079836738675
 20
-53.80610253302653
 30
0.0
  0
SPLINE
  5
CE
330
1F
100
AcDbEntity
  8
0
  6
Continuous
 62
     7
370
    25
100
AcDbSpline
210
0.0
220
0.0
230
1.0
 70
     8
 71
     3
 72
    14
 73
    10
 74
     0
 42
0.000000001
 43
0.00000001
 40
0.0
 40
0.0
 40
0.0
 40
0.0
 40
0.25
 40
0.25
 40
0.5
 40
0.5
 40
0.75
 40
0.75
 40
1.0
 40
1.0
 40
1.0
 40
1.0
 10
69.48446386280696
 20
-69.44805810312432
 30
0.0
 10
57.90386419516678
 20
-69.44523701237756
 30
0.0
 10
46.32327849077112
 20
-69.44133838323738
 30
0.0
 10
23.16190526496871
 20
-69.43300956528572
 30
0.0
 10
11.58109696780451
 20
-69.42885860872323
 30
0.0
 10
-11.58109737255476
 20
-69.42885860880985
 30
0.0
 10
-23.16190549565603
 20
-69.43300956536832
 30
0.0
 10
-46.32327859730484
 20
-69.44133838327608
 30
0.0
 10
-57.90386424908851
 20
-69.44523701239072
 30
0.0
 10
-69.48446386280693
 20
-69.44805810312434
 30
0.0
  0
SPLINE
  5
CF
330
1F
100
AcDbEntity
  8
0
  6
Continuous
 62
     7
370
    25
100
AcDbSpline
210
0.0
220
0.0
230
1.0
 70
     8
 71
     3
 72
    18
 73
    14
 74
     0
 42
0.000000001
 43
0.00000001
 40
0.0
 40
0.0
 40
0.0
 40
0.0
 40
0.125
 40
0.125
 40
0.2499999999999999
 40
0.2499999999999999
 40
0.3749999999999999
 40
0.3749999999999999
 40
0.4999999999999999
 40
0.4999999999999999
 40
0.7499999999999999
 40
0.7499999999999999
 40
1.0
 40
1.0
 40
1.0
 40
1.0
 10
67.50032184022031
 20
-67.5
 30
0.0
 10
67.50317601719553
 20
-67.5
 30
0.0
 10
67.52462174527943
 20
-67.5186926729537
 30
0.0
 10
67.60049188963231
 20
-67.58922991793979
 30
0.0
 10
67.65436384293164
 20
-67.64058859412424
 30
0.0
 10
67.78450088307731
 20
-67.76611749383294
 30
0.0
 10
67.86128720715101
 20
-67.84079194609244
 30
0.0
 10
68.0272181061657
 20
-68.0029713955879
 30
0.0
 10
68.11750845610823
 20
-68.0915887595695
 30
0.0
 10
68.40482274178083
 20
-68.37444336996782
 30
0.0
 10
68.60973909791737
 20
-68.57722810161255
 30
0.0
 10
69.03990563145298
 20
-69.00442215489021
 30
0.0
 10
69.26333061896574
 20
-69.22705084410978
 30
0.0
 10
69.48446386280696
 20
-69.44805810312435
 30
0.0
  0
SPLINE
  5
D0
330
1F
100
AcDbEntity
  8
0
  6
Continuous
 62
     7
370
    25
100
AcDbSpline
210
0.0
220
0.0
230
1.0
 70
     8
 71
     3
 72
    18
 73
    14
 74
     0
 42
0.000000001
 43
0.00000001
 40
0.0
 40
0.0
 40
0.0
 40
0.0
 40
0.1250000000000016
 40
0.1250000000000016
 40
0.2500000000000033
 40
0.2500000000000033
 40
0.3750000000000049
 40
0.3750000000000049
 40
0.5000000000000066
 40
0.5000000000000066
 40
0.7500000000000032
 40
0.7500000000000032
 40
1.0
 40
1.0
 40
1.0
 40
1.0
 10
-67.50032184022031
 20
-67.5
 30
0.0
 10
-67.50317601719553
 20
-67.50000000000001
 30
0.0
 10
-67.5246217452794
 20
-67.5186926729537
 30
0.0
 10
-67.60049188963225
 20
-67.58922991793978
 30
0.0
 10
-67.65436384293162
 20
-67.64058859412424
 30
0.0
 10
-67.7845008830773
 20
-67.76611749383298
 30
0.0
 10
-67.86128720715102
 20
-67.84079194609242
 30
0.0
 10
-68.02721810616568
 20
-68.0029713955879
 30
0.0
 10
-68.11750845610821
 20
-68.09158875956949
 30
0.0
 10
-68.40482274178079
 20
-68.37444336996782
 30
0.0
 10
-68.60973909791733
 20
-68.57722810161252
 30
0.0
 10
-69.03990563145295
 20
-69.00442215489024
 30
0.0
 10
-69.26333061897805
 20
-69.22705084409739
 30
0.0
 10
-69.48446386280693
 20
-69.44805810312434
 30
0.0
  0
SPLINE
  5
D1
330
1F
100
AcDbEntity
  8
0
  6
Continuous
 62
     7
370
    25
100
AcDbSpline
210
0.0
220
0.0
230
1.0
 70
    24
 71
     3
 72
    14
 73
    10
 74
     0
 42
0.000000001
 43
0.00000001
 40
0.0
 40
0.0
 40
0.0
 40
0.0
 40
0.25
 40
0.25
 40
0.5
 40
0.5
 40
0.75
 40
0.75
 40
1.0
 40
1.0
 40
1.0
 40
1.0
 10
-67.50032184022031
 20
-67.5
 30
0.0
 10
-56.2504041012666
 20
-67.5
 30
0.0
 10
-45.00049469719182
 20
-67.50000000000003
 30
0.0
 10
-22.5004818560774
 20
-67.50000000000001
 30
0.0
 10
-11.25035954377514
 20
-67.50000000000003
 30
0.0
 10
11.25040574306641
 20
-67.50000000000001
 30
0.0
 10
22.50052199415708
 20
-67.49999999999997
 30
0.0
 10
45.00051696216816
 20
-67.49999999999999
 30
0.0
 10
56.25041484433559
 20
-67.5
 30
0.0
 10
67.50032184022031
 20
-67.5
 30
0.0
  0
SPLINE
  5
D2
330
1F
100
AcDbEntity
  8
0
  6
Continuous
 62
     7
370
    25
100
AcDbSpline
210
0.0
220
0.0
230
1.0
 70
    24
 71
     3
 72
    14
 73
    10
 74
     0
 42
0.000000001
 43
0.00000001
 40
0.0
 40
0.0
 40
0.0
 40
0.0
 40
0.2499999999999999
 40
0.2499999999999999
 40
0.4999999999999999
 40
0.4999999999999999
 40
0.75
 40
0.75
 40
1.0
 40
1.0
 40
1.0
 40
1.0
 10
67.50032184022034
 20
67.5
 30
0.0
 10
56.25040410126664
 20
67.50000000000001
 30
0.0
 10
45.00049469719184
 20
67.50000000000003
 30
0.0
 10
22.50048185607744
 20
67.50000000000001
 30
0.0
 10
11.25035954377516
 20
67.50000000000004
 30
0.0
 10
-11.2504057430664
 20
67.50000000000007
 30
0.0
 10
-22.5005219941571
 20
67.50000000000003
 30
0.0
 10
-45.00051696216818
 20
67.50000000000001
 30
0.0
 10
-56.2504148443342
 20
67.5
 30
0.0
 10
-67.50032184022031
 20
67.5
 30
0.0
  0
SPLINE
  5
D3
330
1F
100
AcDbEntity
  8
0
  6
Continuous
 62
     7
370
    25
100
AcDbSpline
210
0.0
220
0.0
230
1.0
 70
     8
 71
     3
 72
    18
 73
    14
 74
     0
 42
0.000000001
 43
0.00000001
 40
0.0
 40
0.0
 40
0.0
 40
0.0
 40
0.125
 40
0.125
 40
0.2500000000000001
 40
0.2500000000000001
 40
0.3750000000000001
 40
0.3750000000000001
 40
0.5000000000000001
 40
0.5000000000000001
 40
0.75
 40
0.75
 40
1.0
 40
1.0
 40
1.0
 40
1.0
 10
-67.50032184022031
 20
67.5
 30
0.0
 10
-67.50317601719553
 20
67.5
 30
0.0
 10
-67.52462174527943
 20
67.5186926729537
 30
0.0
 10
-67.60049188963227
 20
67.58922991793979
 30
0.0
 10
-67.65436384293162
 20
67.64058859412425
 30
0.0
 10
-67.78450088307733
 20
67.76611749383298
 30
0.0
 10
-67.86128720715101
 20
67.84079194609245
 30
0.0
 10
-68.02721810616566
 20
68.00297139558789
 30
0.0
 10
-68.11750845610821
 20
68.09158875956952
 30
0.0
 10
-68.40482274178082
 20
68.37444336996779
 30
0.0
 10
-68.60973909791736
 20
68.57722810161255
 30
0.0
 10
-69.03990563145298
 20
69.00442215489026
 30
0.0
 10
-69.26333061898971
 20
69.22705084408577
 30
0.0
 10
-69.48446386280696
 20
69.44805810312437
 30
0.0
  0
SPLINE
  5
D4
330
1F
100
AcDbEntity
  8
0
  6
Continuous
 62
     7
370
    25
100
AcDbSpline
210
0.0
220
0.0
230
1.0
 70
     8
 71
     3
 72
    18
 73
    14
 74
     0
 42
0.000000001
 43
0.00000001
 40
0.0
 40
0.0
 40
0.0
 40
0.0
 40
0.1249999999999986
 40
0.1249999999999986
 40
0.2499999999999971
 40
0.2499999999999971
 40
0.3749999999999957
 40
0.3749999999999957
 40
0.4999999999999942
 40
0.4999999999999942
 40
0.7499999999999971
 40
0.7499999999999971
 40
1.0
 40
1.0
 40
1.0
 40
1.0
 10
67.50032184022034
 20
67.5
 30
0.0
 10
67.50317601719556
 20
67.50000000000001
 30
0.0
 10
67.52462174527943
 20
67.51869267295372
 30
0.0
 10
67.6004918896323
 20
67.58922991793976
 30
0.0
 10
67.65436384293162
 20
67.64058859412427
 30
0.0
 10
67.78450088307733
 20
67.76611749383298
 30
0.0
 10
67.86128720715104
 20
67.84079194609245
 30
0.0
 10
68.02721810616568
 20
68.0029713955879
 30
0.0
 10
68.11750845610821
 20
68.0915887595695
 30
0.0
 10
68.40482274178079
 20
68.3744433699678
 30
0.0
 10
68.60973909791734
 20
68.57722810161248
 30
0.0
 10
69.03990563145291
 20
69.00442215489015
 30
0.0
 10
69.26333061898815
 20
69.22705084408717
 30
0.0
 10
69.48446386280685
 20
69.44805810312434
 30
0.0
  0
SPLINE
  5
D6
330
1F
100
AcDbEntity
  8
0
  6
Continuous
 62
     7
370
    25
100
AcDbSpline
210
0.0
220
0.0
230
1.0
 70
    24
 71
     3
 72
     8
 73
     4
 74
     0
 42
0.000000001
 43
0.00000001
 40
0.0
 40
0.0
 40
0.0
 40
0.0
 40
1.0
 40
1.0
 40
1.0
 40
1.0
 10
67.50000000000001
 20
-67.5
 30
0.0
 10
67.50000000000001
 20
-62.94971298438425
 30
0.0
 10
67.50000000000001
 20
-58.39922712440836
 30
0.0
 10
67.50000000000001
 20
-53.84848765465142
 30
0.0
  0
SPLINE
  5
D7
330
1F
100
AcDbEntity
  8
0
  6
Continuous
 62
     7
370
    25
100
AcDbSpline
210
0.0
220
0.0
230
1.0
 70
    24
 71
     3
 72
     8
 73
     4
 74
     0
 42
0.000000001
 43
0.00000001
 40
0.0
 40
0.0
 40
0.0
 40
0.0
 40
1.0
 40
1.0
 40
1.0
 40
1.0
 10
-67.49999999999999
 20
67.5
 30
0.0
 10
-67.49999999999999
 20
62.94971298438426
 30
0.0
 10
-67.49999999999999
 20
58.39922712440841
 30
0.0
 10
-67.49999999999999
 20
53.84848765465149
 30
0.0
  0
SPLINE
  5
DA
330
1F
100
AcDbEntity
  8
0
  6
Continuous
 62
     7
370
    25
100
AcDbSpline
210
0.0
220
0.0
230
1.0
 70
    24
 71
     3
 72
     8
 73
     4
 74
     0
 42
0.000000001
 43
0.00000001
 40
0.0
 40
0.0
 40
0.0
 40
0.0
 40
1.0
 40
1.0
 40
1.0
 40
1.0
 10
-67.49999999999999
 20
-53.84848765465112
 30
0.0
 10
-67.49999999999999
 20
-58.39922712440816
 30
0.0
 10
-67.49999999999999
 20
-62.94971298438415
 30
0.0
 10
-67.49999999999999
 20
-67.50000000000001
 30
0.0
  0
SPLINE
  5
DB
330
1F
100
AcDbEntity
  8
0
  6
Continuous
 62
     7
370
    25
100
AcDbSpline
210
0.0
220
0.0
230
1.0
 70
    24
 71
     3
 72
     8
 73
     4
 74
     0
 42
0.000000001
 43
0.00000001
 40
0.0
 40
0.0
 40
0.0
 40
0.0
 40
1.0
 40
1.0
 40
1.0
 40
1.0
 10
67.50000000000001
 20
53.84848765465136
 30
0.0
 10
67.50000000000001
 20
58.39922712440831
 30
0.0
 10
67.50000000000001
 20
62.94971298438423
 30
0.0
 10
67.50000000000001
 20
67.50000000000001
 30
0.0
  0
SPLINE
  5
DE
330
1F
100
AcDbEntity
  8
0
  6
Continuous
 62
     7
370
    25
100
AcDbSpline
210
0.0
220
0.0
230
1.0
 70
    24
 71
     3
 72
    10
 73
     6
 74
     0
 42
0.000000001
 43
0.00000001
 40
0.0
 40
0.0
 40
0.0
 40
0.0
 40
0.5
 40
0.5
 40
1.0
 40
1.0
 40
1.0
 40
1.0
 10
-67.49999999999999
 20
53.56953925533755
 30
0.0
 10
-67.5
 20
35.71320673842492
 30
0.0
 10
-67.5
 20
17.85683678255654
 30
0.0
 10
-67.49999999999999
 20
-17.85683669134561
 30
0.0
 10
-67.5
 20
-35.71320671826646
 30
0.0
 10
-67.49999999999999
 20
-53.56953925540949
 30
0.0
  0
SPLINE
  5
E0
330
1F
100
AcDbEntity
  8
0
  6
Continuous
 62
     7
370
    25
100
AcDbSpline
210
0.0
220
0.0
230
1.0
 70
    24
 71
     3
 72
    10
 73
     6
 74
     0
 42
0.000000001
 43
0.00000001
 40
0.0
 40
0.0
 40
0.0
 40
0.0
 40
0.5
 40
0.5
 40
1.0
 40
1.0
 40
1.0
 40
1.0
 10
67.50000000000001
 20
-53.56953925542511
 30
0.0
 10
67.50000000000001
 20
-35.71320673850978
 30
0.0
 10
67.50000000000003
 20
-17.85683678263874
 30
0.0
 10
67.50000000000004
 20
17.85683669126879
 30
0.0
 10
67.50000000000001
 20
35.71320671819235
 30
0.0
 10
67.50000000000001
 20
53.56953925533806
 30
0.0
  0
SPLINE
  5
E3
330
1F
100
AcDbEntity
  8
0
  6
Continuous
 62
     7
370
    25
100
AcDbSpline
210
0.0
220
0.0
230
1.0
 70
    24
 71
     3
 72
     8
 73
     4
 74
     0
 42
0.000000001
 43
0.00000001
 40
0.0
 40
0.0
 40
0.0
 40
0.0
 40
0.0002789754052067
 40
0.0002789754052067
 40
0.0002789754052067
 40
0.0002789754052067
 10
67.50000000000001
 20
-53.84848765465142
 30
0.0
 10
67.50000000000001
 20
-53.75551673964101
 30
0.0
 10
67.50000000000001
 20
-53.66252901181623
 30
0.0
 10
67.50000000000001
 20
-53.56953925542511
 30
0.0
  0
SPLINE
  5
E4
330
1F
100
AcDbEntity
  8
0
  6
Continuous
 62
     7
370
    25
100
AcDbSpline
210
0.0
220
0.0
230
1.0
 70
    24
 71
     3
 72
     8
 73
     4
 74
     0
 42
0.000000001
 43
0.00000001
 40
0.0
 40
0.0
 40
0.0
 40
0.0
 40
0.0002789754052943
 40
0.0002789754052943
 40
0.0002789754052943
 40
0.0002789754052943
 10
-67.49999999999999
 20
53.84848765465149
 30
0.0
 10
-67.49999999999999
 20
53.75551673961187
 30
0.0
 10
-67.49999999999999
 20
53.66252901175788
 30
0.0
 10
-67.49999999999999
 20
53.56953925533755
 30
0.0
  0
SPLINE
  5
E5
330
1F
100
AcDbEntity
  8
0
  6
Continuous
 62
     7
370
    25
100
AcDbSpline
210
0.0
220
0.0
230
1.0
 70
    24
 71
     3
 72
     8
 73
     4
 74
     0
 42
0.000000001
 43
0.00000001
 40
0.0
 40
0.0
 40
0.0
 40
0.0
 40
0.0002789754052937
 40
0.0002789754052937
 40
0.0002789754052937
 40
0.0002789754052937
 10
67.50000000000001
 20
53.56953925533804
 30
0.0
 10
67.50000000000001
 20
53.66252901175816
 30
0.0
 10
67.50000000000001
 20
53.75551673961192
 30
0.0
 10
67.50000000000001
 20
53.84848765465136
 30
0.0
  0
SPLINE
  5
E6
330
1F
100
AcDbEntity
  8
0
  6
Continuous
 62
     7
370
    25
100
AcDbSpline
210
0.0
220
0.0
230
1.0
 70
    24
 71
     3
 72
     8
 73
     4
 74
     0
 42
0.000000001
 43
0.00000001
 40
0.0
 40
0.0
 40
0.0
 40
0.0
 40
0.000278975405222
 40
0.000278975405222
 40
0.000278975405222
 40
0.000278975405222
 10
-67.49999999999999
 20
-53.56953925540948
 30
0.0
 10
-67.49999999999999
 20
-53.6625290118057
 30
0.0
 10
-67.49999999999999
 20
-53.7555167396356
 30
0.0
 10
-67.49999999999999
 20
-53.84848765465112
 30
0.0
  0
CIRCLE
  5
EF
330
1F
100
AcDbEntity
  8
0
  6
Continuous
 62
     7
370
    25
100
AcDbCircle
 10
0.0
 20
0.0
 30
0.0
 40
47.00000000000005
  0
CIRCLE
  5
F0
330
1F
100
AcDbEntity
  8
0
  6
Continuous
 62
     7
370
    25
100
AcDbCircle
 10
0.0
 20
0.0
 30
0.0
 40
45.00000000000004
  0
LINE
  5
F1
330
1F
100
AcDbEntity
  8
0
  6
Continuous
 62
     7
370
    25
100
AcDbLine
 10
-442.0
 20
-338.0
 30
0.0
 11
-442.0
 21
338.0
 31
0.0
  0
LINE
  5
F2
330
1F
100
AcDbEntity
  8
0
  6
Continuous
 62
     7
370
    25
100
AcDbLine
 10
438.0
 20
-342.0
 30
0.0
 11
-438.0
 21
-342.0
 31
0.0
  0
LINE
  5
F3
330
1F
100
AcDbEntity
  8
0
  6
Continuous
 62
     7
370
    25
100
AcDbLine
 10
442.0
 20
338.0
 30
0.0
 11
442.0
 21
-338.0
 31
0.0
  0
LINE
  5
F4
330
1F
100
AcDbEntity
  8
0
  6
Continuous
 62
     7
370
    25
100
AcDbLine
 10
-438.0
 20
342.0
 30
0.0
 11
438.0
 21
342.0
 31
0.0
  0
LINE
  5
F5
330
1F
100
AcDbEntity
  8
0
  6
Continuous
 62
     7
370
    25
100
AcDbLine
 10
-495.0
 20
400.0
 30
0.0
 11
-495.0
 21
-400.0
 31
0.0
  0
LINE
  5
F6
330
1F
100
AcDbEntity
  8
0
  6
Continuous
 62
     7
370
    25
100
AcDbLine
 10
500.0
 20
395.0
 30
0.0
 11
-500.0
 21
395.0
 31
0.0
  0
LINE
  5
F7
330
1F
100
AcDbEntity
  8
0
  6
Continuous
 62
     7
370
    25
100
AcDbLine
 10
495.0
 20
-400.0
 30
0.0
 11
495.0
 21
400.0
 31
0.0
  0
LINE
  5
F8
330
1F
100
AcDbEntity
  8
0
  6
Continuous
 62
     7
370
    25
100
AcDbLine
 10
-500.0
 20
-395.0
 30
0.0
 11
500.0
 21
-395.0
 31
0.0
  0
LINE
  5
F9
330
1F
100
AcDbEntity
  8
0
  6
Continuous
 62
     7
370
    25
100
AcDbLine
 10
438.0
 20
340.0
 30
0.0
 11
-438.0
 21
340.0
 31
0.0
  0
LINE
  5
FA
330
1F
100
AcDbEntity
  8
0
  6
Continuous
 62
     7
370
    25
100
AcDbLine
 10
-438.0
 20
342.0
 30
0.0
 11
-438.0
 21
340.0
 31
0.0
  0
LINE
  5
FB
330
1F
100
AcDbEntity
  8
0
  6
Continuous
 62
     7
370
    25
100
AcDbLine
 10
438.0
 20
340.0
 30
0.0
 11
438.0
 21
342.0
 31
0.0
  0
LINE
  5
FC
330
1F
100
AcDbEntity
  8
0
  6
Continuous
 62
     7
370
    25
100
AcDbLine
 10
-438.0
 20
-340.0
 30
0.0
 11
438.0
 21
-340.0
 31
0.0
  0
LINE
  5
FD
330
1F
100
AcDbEntity
  8
0
  6
Continuous
 62
     7
370
    25
100
AcDbLine
 10
438.0
 20
-340.0
 30
0.0
 11
438.0
 21
-342.0
 31
0.0
  0
LINE
  5
FE
330
1F
100
AcDbEntity
  8
0
  6
Continuous
 62
     7
370
    25
100
AcDbLine
 10
-438.0
 20
-342.0
 30
0.0
 11
-438.0
 21
-340.0
 31
0.0
  0
LINE
  5
FF
330
1F
100
AcDbEntity
  8
0
  6
Continuous
 62
     7
370
    25
100
AcDbLine
 10
440.0
 20
-338.0
 30
0.0
 11
442.0
 21
-338.0
 31
0.0
  0
LINE
  5
100
330
1F
100
AcDbEntity
  8
0
  6
Continuous
 62
     7
370
    25
100
AcDbLine
 10
-442.0
 20
-338.0
 30
0.0
 11
-440.0
 21
-338.0
 31
0.0
  0
LINE
  5
101
330
1F
100
AcDbEntity
  8
0
  6
Continuous
 62
     7
370
    25
100
AcDbLine
 10
440.0
 20
-338.0
 30
0.0
 11
440.0
 21
338.0
 31
0.0
  0
LINE
  5
102
330
1F
100
AcDbEntity
  8
0
  6
Continuous
 62
     7
370
    25
100
AcDbLine
 10
440.0
 20
338.0
 30
0.0
 11
442.0
 21
338.0
 31
0.0
  0
LINE
  5
103
330
1F
100
AcDbEntity
  8
0
  6
Continuous
 62
     7
370
    25
100
AcDbLine
 10
-495.0
 20
400.0
 30
0.0
 11
495.0
 21
400.0
 31
0.0
  0
LINE
  5
104
330
1F
100
AcDbEntity
  8
0
  6
Continuous
 62
     7
370
    25
100
AcDbLine
 10
-442.0
 20
338.0
 30
0.0
 11
-440.0
 21
338.0
 31
0.0
  0
LINE
  5
105
330
1F
100
AcDbEntity
  8
0
  6
Continuous
 62
     7
370
    25
100
AcDbLine
 10
-440.0
 20
338.0
 30
0.0
 11
-440.0
 21
-338.0
 31
0.0
  0
LINE
  5
106
330
1F
100
AcDbEntity
  8
0
  6
Continuous
 62
     7
370
    25
100
AcDbLine
 10
495.0
 20
-400.0
 30
0.0
 11
-495.0
 21
-400.0
 31
0.0
  0
LINE
  5
107
330
1F
100
AcDbEntity
  8
0
  6
Continuous
 62
     7
370
    25
100
AcDbLine
 10
-500.0
 20
-395.0
 30
0.0
 11
-500.0
 21
395.0
 31
0.0
  0
LINE
  5
108
330
1F
100
AcDbEntity
  8
0
  6
Continuous
 62
     7
370
    25
100
AcDbLine
 10
500.0
 20
395.0
 30
0.0
 11
500.0
 21
-395.0
 31
0.0
  0
LINE
  5
109
330
1F
100
AcDbEntity
  8
0
  6
Continuous
 62
     7
370
    25
100
AcDbLine
 10
-438.0519058681
 20
-338.0000124192
 30
0.0
 11
-437.7586838889
 21
-338.0000143027
 31
0.0
  0
LINE
  5
10A
330
1F
100
AcDbEntity
  8
0
  6
Continuous
 62
     7
370
    25
100
AcDbLine
 10
438.0519058681
 20
338.0000124192
 30
0.0
 11
437.7586838889
 21
338.0000143027
 31
0.0
  0
LINE
  5
10B
330
1F
100
AcDbEntity
  8
0
  6
Continuous
 62
     7
370
    25
100
AcDbLine
 10
-437.7586838889
 20
338.0000143027
 30
0.0
 11
-438.0519058681
 21
338.0000124192
 31
0.0
  0
LINE
  5
10C
330
1F
100
AcDbEntity
  8
0
  6
Continuous
 62
     7
370
    25
100
AcDbLine
 10
437.7586838889
 20
-338.0000143027
 30
0.0
 11
438.0519058681
 21
-338.0000124192
 31
0.0
  0
LINE
  5
10D
330
1F
100
AcDbEntity
  8
0
  6
Continuous
 62
     7
370
    25
100
AcDbLine
 10
65.5
 20
65.5
 30
0.0
 11
-65.5
 21
65.5
 31
0.0
  0
LINE
  5
10E
330
1F
100
AcDbEntity
  8
0
  6
Continuous
 62
     7
370
    25
100
AcDbLine
 10
-65.5
 20
65.5
 30
0.0
 11
-67.5
 21
67.5
 31
0.0
  0
LINE
  5
10F
330
1F
100
AcDbEntity
  8
0
  6
Continuous
 62
     7
370
    25
100
AcDbLine
 10
67.5
 20
67.5
 30
0.0
 11
65.5
 21
65.5
 31
0.0
  0
LINE
  5
110
330
1F
100
AcDbEntity
  8
0
  6
Continuous
 62
     7
370
    25
100
AcDbLine
 10
67.5
 20
-67.5
 30
0.0
 11
65.5
 21
-65.5
 31
0.0
  0
LINE
  5
111
330
1F
100
AcDbEntity
  8
0
  6
Continuous
 62
     7
370
    25
100
AcDbLine
 10
65.5
 20
-65.5
 30
0.0
 11
65.5
 21
65.5
 31
0.0
  0
LINE
  5
112
330
1F
100
AcDbEntity
  8
0
  6
Continuous
 62
     7
370
    25
100
AcDbLine
 10
-65.5
 20
65.5
 30
0.0
 11
-65.5
 21
-65.5
 31
0.0
  0
LINE
  5
113
330
1F
100
AcDbEntity
  8
0
  6
Continuous
 62
     7
370
    25
100
AcDbLine
 10
-65.5
 20
-65.5
 30
0.0
 11
-67.5
 21
-67.5
 31
0.0
  0
LINE
  5
114
330
1F
100
AcDbEntity
  8
0
  6
Continuous
 62
     7
370
    25
100
AcDbLine
 10
-65.5
 20
-65.5
 30
0.0
 11
65.5
 21
-65.5
 31
0.0
  0
ARC
  5
115
330
1F
100
AcDbEntity
  8
0
  6
Continuous
 62
     7
370
    25
100
AcDbCircle
 10
-438.0
 20
-338.0
 30
0.0
 40
3.999999999999943
100
AcDbArc
 50
180.0
 51
270.0
  0
ARC
  5
116
330
1F
100
AcDbEntity
  8
0
  6
Continuous
 62
     7
370
    25
100
AcDbCircle
 10
438.0
 20
-338.0
 30
0.0
 40
3.999999999999943
100
AcDbArc
 50
270.0
 51
0.0
  0
ARC
  5
117
330
1F
100
AcDbEntity
  8
0
  6
Continuous
 62
     7
370
    25
100
AcDbCircle
 10
438.0
 20
338.0
 30
0.0
 40
4.0
100
AcDbArc
 50
0.0
 51
90.0
  0
ARC
  5
118
330
1F
100
AcDbEntity
  8
0
  6
Continuous
 62
     7
370
    25
100
AcDbCircle
 10
-438.0
 20
338.0
 30
0.0
 40
3.999999999999886
100
AcDbArc
 50
90.0
 51
180.0
  0
ARC
  5
119
330
1F
100
AcDbEntity
  8
0
  6
Continuous
 62
     7
370
    25
100
AcDbCircle
 10
438.0
 20
-338.0
 30
0.0
 40
2.0
100
AcDbArc
 50
270.0
 51
0.0
  0
ARC
  5
11A
330
1F
100
AcDbEntity
  8
0
  6
Continuous
 62
     7
370
    25
100
AcDbCircle
 10
-438.0
 20
-338.0
 30
0.0
 40
2.0
100
AcDbArc
 50
180.0
 51
270.0
  0
ARC
  5
11B
330
1F
100
AcDbEntity
  8
0
  6
Continuous
 62
     7
370
    25
100
AcDbCircle
 10
-495.0
 20
-395.0
 30
0.0
 40
5.0
100
AcDbArc
 50
180.0
 51
270.0
  0
ARC
  5
11C
330
1F
100
AcDbEntity
  8
0
  6
Continuous
 62
     7
370
    25
100
AcDbCircle
 10
438.0
 20
338.0
 30
0.0
 40
1.999999999999829
100
AcDbArc
 50
360.0
 51
90.0
  0
ARC
  5
11D
330
1F
100
AcDbEntity
  8
0
  6
Continuous
 62
     7
370
    25
100
AcDbCircle
 10
-438.0
 20
338.0
 30
0.0
 40
2.000000000000057
100
AcDbArc
 50
90.0
 51
180.0
  0
ARC
  5
11E
330
1F
100
AcDbEntity
  8
0
  6
Continuous
 62
     7
370
    25
100
AcDbCircle
 10
-495.0
 20
395.0
 30
0.0
 40
5.0
100
AcDbArc
 50
90.0
 51
180.0
  0
ARC
  5
11F
330
1F
100
AcDbEntity
  8
0
  6
Continuous
 62
     7
370
    25
100
AcDbCircle
 10
495.0
 20
395.0
 30
0.0
 40
5.0
100
AcDbArc
 50
0.0
 51
90.0
  0
ARC
  5
120
330
1F
100
AcDbEntity
  8
0
  6
Continuous
 62
     7
370
    25
100
AcDbCircle
 10
495.0
 20
-395.0
 30
0.0
 40
5.0
100
AcDbArc
 50
270.0
 51
0.0
  0
ARC
  5
121
330
1F
100
AcDbEntity
  8
0
  6
Continuous
 62
     7
370
    25
100
AcDbCircle
 10
418.7474924843
 20
338.4996704906
 30
0.0
 40
19.31087865115582
100
AcDbArc
 50
358.5173386181
 51
4.4559995634
  0
ARC
  5
122
330
1F
100
AcDbEntity
  8
0
  6
Continuous
 62
     7
370
    25
100
AcDbCircle
 10
-418.7474924844
 20
-338.4996704906
 30
0.0
 40
19.31087865106832
100
AcDbArc
 50
178.5173386181
 51
184.4559995634
  0
ARC
  5
123
330
1F
100
AcDbEntity
  8
0
  6
Continuous
 62
     7
370
    25
100
AcDbCircle
 10
-418.7474924843
 20
338.4996704906
 30
0.0
 40
19.31087865115506
100
AcDbArc
 50
175.5440004366
 51
181.4826613819
  0
ARC
  5
124
330
1F
100
AcDbEntity
  8
0
  6
Continuous
 62
     7
370
    25
100
AcDbCircle
 10
-418.4532197839
 20
-338.4996716304
 30
0.0
 40
19.31192900136498
100
AcDbArc
 50
178.5174214829
 51
184.4557533256
  0
ARC
  5
125
330
1F
100
AcDbEntity
  8
0
  6
Continuous
 62
     7
370
    25
100
AcDbCircle
 10
418.4532197927
 20
338.4996716309
 30
0.0
 40
19.31192899256262
100
AcDbArc
 50
358.517421481
 51
4.4557533264
  0
ARC
  5
126
330
1F
100
AcDbEntity
  8
0
  6
Continuous
 62
     7
370
    25
100
AcDbCircle
 10
-418.4532197838
 20
338.4996716304
 30
0.0
 40
19.3119290015226
100
AcDbArc
 50
175.5442466744
 51
181.4825785171
  0
ARC
  5
127
330
1F
100
AcDbEntity
  8
0
  6
Continuous
 62
     7
370
    25
100
AcDbCircle
 10
418.7474924843
 20
-338.4996704906
 30
0.0
 40
19.31087865114017
100
AcDbArc
 50
355.5440004366
 51
1.4826613819
  0
ARC
  5
128
330
1F
100
AcDbEntity
  8
0
  6
Continuous
 62
     7
370
    25
100
AcDbCircle
 10
418.453219784
 20
-338.4996716304
 30
0.0
 40
19.31192900127137
100
AcDbArc
 50
355.5442466744
 51
1.4825785172
  0
ARC
  5
129
330
1F
100
AcDbEntity
  8
0
  6
Continuous
 62
     7
370
    25
100
AcDbCircle
 10
68.9889499226
 20
-77.1262371054
 30
0.0
 40
23.32532082013154
100
AcDbArc
 50
88.7917452855
 51
93.6599106474
  0
ARC
  5
12A
330
1F
100
AcDbEntity
  8
0
  6
Continuous
 62
     7
370
    25
100
AcDbCircle
 10
-68.988949924
 20
77.1262371408
 30
0.0
 40
23.32532085561082
100
AcDbArc
 50
268.7917452907
 51
273.659910645
  0
ARC
  5
12B
330
1F
100
AcDbEntity
  8
0
  6
Continuous
 62
     7
370
    25
100
AcDbCircle
 10
-68.9889499239
 20
-77.1262371394
 30
0.0
 40
23.32532085422227
100
AcDbArc
 50
86.3400893548
 51
91.2082547094
  0
ARC
  5
12C
330
1F
100
AcDbEntity
  8
0
  6
Continuous
 62
     7
370
    25
100
AcDbCircle
 10
68.9889499239
 20
77.1262371391
 30
0.0
 40
23.32532085389866
100
AcDbArc
 50
266.3400893548
 51
271.2082547094
  0
ARC
  5
12D
330
1F
100
AcDbEntity
  8
0
  6
Continuous
 62
     7
370
    25
100
AcDbCircle
 10
-68.9754424698
 20
126.8464176872
 30
0.0
 40
73.29173106972874
100
AcDbArc
 50
269.6225180256
 51
271.1535044423
  0
ARC
  5
12E
330
1F
100
AcDbEntity
  8
0
  6
Continuous
 62
     7
370
    25
100
AcDbCircle
 10
-68.975442474
 20
-126.8464181542
 30
0.0
 40
73.29173153667861
100
AcDbArc
 50
88.8464955617
 51
90.3774819687
  0
ARC
  5
12F
330
1F
100
AcDbEntity
  8
0
  6
Continuous
 62
     7
370
    25
100
AcDbCircle
 10
68.9754424722
 20
126.8464180355
 30
0.0
 40
73.29173141801449
100
AcDbArc
 50
268.8464955613
 51
270.3774819707
  0
ARC
  5
130
330
1F
100
AcDbEntity
  8
0
  6
Continuous
 62
     7
370
    25
100
AcDbCircle
 10
68.9754424726
 20
-126.8464176446
 30
0.0
 40
73.29173102711277
100
AcDbArc
 50
89.6225180276
 51
91.1535044452
  0
LINE
  5
140
330
1B
100
AcDbEntity
 67
     1
  8
0
  6
Continuous
 62
     7
370
    25
100
AcDbLine
 10
495.0
 20
0.0
 30
0.0
 11
495.0
 21
25.0
 31
0.0
  0
LINE
  5
141
330
1B
100
AcDbEntity
 67
     1
  8
0
  6
Continuous
 62
     7
370
    25
100
AcDbLine
 10
-495.0
 20
25.0
 30
0.0
 11
-495.0
 21
0.0
 31
0.0
  0
LINE
  5
142
330
1B
100
AcDbEntity
 67
     1
  8
0
  6
Continuous
 62
     7
370
    25
100
AcDbLine
 10
500.0
 20
20.0
 30
0.0
 11
-500.0
 21
20.0
 31
0.0
  0
LINE
  5
143
330
1B
100
AcDbEntity
 67
     1
  8
0
  6
Continuous
 62
     7
370
    25
100
AcDbLine
 10
-495.0
 20
25.0
 30
0.0
 11
495.0
 21
25.0
 31
0.0
  0
LINE
  5
144
330
1B
100
AcDbEntity
 67
     1
  8
0
  6
Continuous
 62
     7
370
    25
100
AcDbLine
 10
-500.0
 20
0.0
 30
0.0
 11
500.0
 21
0.0
 31
0.0
  0
LINE
  5
145
330
1B
100
AcDbEntity
 67
     1
  8
0
  6
Continuous
 62
     7
370
    25
100
AcDbLine
 10
-500.0
 20
0.0
 30
0.0
 11
-500.0
 21
20.0
 31
0.0
  0
LINE
  5
146
330
1B
100
AcDbEntity
 67
     1
  8
0
  6
Continuous
 62
     7
370
    25
100
AcDbLine
 10
500.0
 20
20.0
 30
0.0
 11
500.0
 21
0.0
 31
0.0
  0
ARC
  5
147
330
1B
100
AcDbEntity
 67
     1
  8
0
  6
Continuous
 62
     7
370
    25
100
AcDbCircle
 10
495.0
 20
20.0
 30
0.0
 40
5.0
100
AcDbArc
 50
0.0
 51
90.0
  0
ARC
  5
148
330
1B
100
AcDbEntity
 67
     1
  8
0
  6
Continuous
 62
     7
370
    25
100
AcDbCircle
 10
-495.0
 20
20.0
 30
0.0
 40
5.0
100
AcDbArc
 50
90.0
 51
180.0
  0
VIEWPORT
  5
453
330
1B
100
AcDbEntity
 67
     1
  8
0
100
AcDbViewport
 10
0.0
 20
0.0
 30
0.0
 40
205.6
 41
156.0
 68
     1
 69
     1
 12
0.0
 22
0.0
 13
0.0
 23
0.0
 14
10.0
 24
10.0
 15
10.0
 25
10.0
 16
0.0
 26
0.0
 36
1.0
 17
0.0
 27
0.0
 37
0.0
 42
50.0
 43
0.0
 44
0.0
 45
816.0
 50
0.0
 51
0.0
 72
   100
 90
   557152
  1

281
     0
 71
     1
 74
     0
110
0.0
120
0.0
130
0.0
111
1.0
121
0.0
131
0.0
112
0.0
122
1.0
132
0.0
 79
     0
146
0.0
  0
ENDSEC
  0
SECTION
  2
OBJECTS
  0
DICTIONARY
  5
C
330
0
100
AcDbDictionary
281
     1
  3
ACAD_GROUP
350
D
  3
ACAD_LAYOUT
350
1A
  3
ACAD_MLINESTYLE
350
17
  3
ACAD_PLOTSETTINGS
350
19
  3
ACAD_PLOTSTYLENAME
350
E
  3
ACAD_SCALELIST
350
47
  0
DICTIONARY
  5
D
102
{ACAD_REACTORS
330
C
102
}
330
C
100
AcDbDictionary
281
     1
  0
DICTIONARY
  5
1A
102
{ACAD_REACTORS
330
C
102
}
330
C
100
AcDbDictionary
281
     1
  3
_Back
350
26
  3
_Bottom
350
19A
  3
_Dimetric
350
37D
  3
_Front
350
1E
  3
_Isometric
350
1AF
  3
_Left
350
162
  3
_Right
350
17E
  3
_Trimetric
350
298
  3
Model
350
22
  0
DICTIONARY
  5
17
102
{ACAD_REACTORS
330
C
102
}
330
C
100
AcDbDictionary
281
     1
  3
Standard
350
18
  0
DICTIONARY
  5
19
102
{ACAD_REACTORS
330
C
102
}
330
C
100
AcDbDictionary
281
     1
  0
ACDBDICTIONARYWDFLT
  5
E
102
{ACAD_REACTORS
330
C
102
}
330
C
100
AcDbDictionary
281
     1
  3
Normal
350
F
100
AcDbDictionaryWithDefault
340
F
  0
DICTIONARY
  5
47
102
{ACAD_REACTORS
330
C
102
}
330
C
100
AcDbDictionary
281
     1
  3
A0
350
48
  3
A1
350
49
  3
A2
350
4A
  3
A3
350
4B
  3
A4
350
4C
  3
A5
350
4D
  3
A6
350
4E
  3
A7
350
4F
  3
A8
350
50
  3
A9
350
51
  3
B0
350
52
  3
B1
350
53
  3
B2
350
54
  3
B3
350
55
  3
B4
350
56
  3
B5
350
57
  3
B6
350
58
  3
B7
350
59
  3
B8
350
5A
  3
B9
350
5B
  3
C0
350
5C
  3
C1
350
5D
  3
C2
350
5E
  3
C3
350
5F
  3
C4
350
60
  3
C5
350
61
  3
C6
350
62
  3
C7
350
63
  3
C8
350
64
  3
C9
350
65
  3
D0
350
66
  3
D1
350
67
  3
D2
350
68
  0
LAYOUT
  5
26
102
{ACAD_REACTORS
330
1A
102
}
330
1A
100
AcDbPlotSettings
  1

  2
none_device
  4
ISO_A4_(210.00_x_297.00_MM)
  6

 40
7.5
 41
20.0
 42
7.5
 43
20.0
 44
210.0
 45
297.0
 46
0.0
 47
0.0
 48
0.0
 49
0.0
140
0.0
141
0.0
142
1.0
143
3.8910505837
 70
   688
 72
     1
 73
     1
 74
     1
  7

 75
     0
147
0.257
148
500.0
149
0.0
100
AcDbLayout
  1
_Back
 70
     1
 71
     2
 10
0.0
 20
0.0
 11
0.0
 21
0.0
 12
0.0
 22
0.0
 32
0.0
 14
0.0
 24
0.0
 34
0.0
 15
0.0
 25
0.0
 35
0.0
146
0.0
 13
0.0
 23
0.0
 33
0.0
 16
1.0
 26
0.0
 36
0.0
 17
0.0
 27
1.0
 37
0.0
 76
     0
330
23
331
455
  0
LAYOUT
  5
19A
102
{ACAD_REACTORS
330
1A
102
}
330
1A
100
AcDbPlotSettings
  1

  2
none_device
  4
ISO_A4_(210.00_x_297.00_MM)
  6

 40
7.5
 41
20.0
 42
7.5
 43
20.0
 44
210.0
 45
297.0
 46
0.0
 47
0.0
 48
0.0
 49
0.0
140
0.0
141
0.0
142
1.0
143
3.8910505837
 70
   688
 72
     1
 73
     1
 74
     1
  7

 75
     0
147
0.257
148
500.0
149
0.0
100
AcDbLayout
  1
_Bottom
 70
     1
 71
     5
 10
0.0
 20
0.0
 11
0.0
 21
0.0
 12
0.0
 22
0.0
 32
0.0
 14
0.0
 24
0.0
 34
0.0
 15
0.0
 25
0.0
 35
0.0
146
0.0
 13
0.0
 23
0.0
 33
0.0
 16
1.0
 26
0.0
 36
0.0
 17
0.0
 27
1.0
 37
0.0
 76
     0
330
199
331
45B
  0
LAYOUT
  5
37D
102
{ACAD_REACTORS
330
1A
102
}
330
1A
100
AcDbPlotSettings
  1

  2
none_device
  4
ISO_A4_(210.00_x_297.00_MM)
  6

 40
7.5
 41
20.0
 42
7.5
 43
20.0
 44
210.0
 45
297.0
 46
0.0
 47
0.0
 48
0.0
 49
0.0
140
0.0
141
0.0
142
1.0
143
3.8910505837
 70
   688
 72
     1
 73
     1
 74
     1
  7

 75
     0
147
0.257
148
500.0
149
0.0
100
AcDbLayout
  1
_Dimetric
 70
     1
 71
     8
 10
0.0
 20
0.0
 11
0.0
 21
0.0
 12
0.0
 22
0.0
 32
0.0
 14
0.0
 24
0.0
 34
0.0
 15
0.0
 25
0.0
 35
0.0
146
0.0
 13
0.0
 23
0.0
 33
0.0
 16
1.0
 26
0.0
 36
0.0
 17
0.0
 27
1.0
 37
0.0
 76
     0
330
37C
331
461
  0
LAYOUT
  5
1E
102
{ACAD_REACTORS
330
1A
102
}
330
1A
100
AcDbPlotSettings
  1

  2
none_device
  4
ISO_A4_(210.00_x_297.00_MM)
  6

 40
7.5
 41
20.0
 42
7.5
 43
20.0
 44
210.0
 45
297.0
 46
0.0
 47
0.0
 48
0.0
 49
0.0
140
0.0
141
0.0
142
1.0
143
3.8910505837
 70
   688
 72
     1
 73
     1
 74
     1
  7

 75
     0
147
0.257
148
500.0
149
0.0
100
AcDbLayout
  1
_Front
 70
     1
 71
     1
 10
-577.8210116732
 20
-29.1828793774
 11
577.8210116732
 21
787.9377431907
 12
0.0
 22
0.0
 32
0.0
 14
-500.0
 24
0.0
 34
0.0
 15
500.0
 25
25.0
 35
0.0
146
0.0
 13
0.0
 23
0.0
 33
0.0
 16
1.0
 26
0.0
 36
0.0
 17
0.0
 27
1.0
 37
0.0
 76
     0
330
1B
331
453
  0
LAYOUT
  5
1AF
102
{ACAD_REACTORS
330
1A
102
}
330
1A
100
AcDbPlotSettings
  1

  2
none_device
  4
ISO_A4_(210.00_x_297.00_MM)
  6

 40
7.5
 41
20.0
 42
7.5
 43
20.0
 44
210.0
 45
297.0
 46
0.0
 47
0.0
 48
0.0
 49
0.0
140
0.0
141
0.0
142
1.0
143
3.8910505837
 70
   688
 72
     1
 73
     1
 74
     1
  7

 75
     0
147
0.257
148
500.0
149
0.0
100
AcDbLayout
  1
_Isometric
 70
     1
 71
     6
 10
0.0
 20
0.0
 11
0.0
 21
0.0
 12
0.0
 22
0.0
 32
0.0
 14
0.0
 24
0.0
 34
0.0
 15
0.0
 25
0.0
 35
0.0
146
0.0
 13
0.0
 23
0.0
 33
0.0
 16
1.0
 26
0.0
 36
0.0
 17
0.0
 27
1.0
 37
0.0
 76
     0
330
1AE
331
45D
  0
LAYOUT
  5
162
102
{ACAD_REACTORS
330
1A
102
}
330
1A
100
AcDbPlotSettings
  1

  2
none_device
  4
ISO_A4_(210.00_x_297.00_MM)
  6

 40
7.5
 41
20.0
 42
7.5
 43
20.0
 44
210.0
 45
297.0
 46
0.0
 47
0.0
 48
0.0
 49
0.0
140
0.0
141
0.0
142
1.0
143
3.8910505837
 70
   688
 72
     1
 73
     1
 74
     1
  7

 75
     0
147
0.257
148
500.0
149
0.0
100
AcDbLayout
  1
_Left
 70
     1
 71
     3
 10
0.0
 20
0.0
 11
0.0
 21
0.0
 12
0.0
 22
0.0
 32
0.0
 14
0.0
 24
0.0
 34
0.0
 15
0.0
 25
0.0
 35
0.0
146
0.0
 13
0.0
 23
0.0
 33
0.0
 16
1.0
 26
0.0
 36
0.0
 17
0.0
 27
1.0
 37
0.0
 76
     0
330
161
331
457
  0
LAYOUT
  5
17E
102
{ACAD_REACTORS
330
1A
102
}
330
1A
100
AcDbPlotSettings
  1

  2
none_device
  4
ISO_A4_(210.00_x_297.00_MM)
  6

 40
7.5
 41
20.0
 42
7.5
 43
20.0
 44
210.0
 45
297.0
 46
0.0
 47
0.0
 48
0.0
 49
0.0
140
0.0
141
0.0
142
1.0
143
3.8910505837
 70
   688
 72
     1
 73
     1
 74
     1
  7

 75
     0
147
0.257
148
500.0
149
0.0
100
AcDbLayout
  1
_Right
 70
     1
 71
     4
 10
0.0
 20
0.0
 11
0.0
 21
0.0
 12
0.0
 22
0.0
 32
0.0
 14
0.0
 24
0.0
 34
0.0
 15
0.0
 25
0.0
 35
0.0
146
0.0
 13
0.0
 23
0.0
 33
0.0
 16
1.0
 26
0.0
 36
0.0
 17
0.0
 27
1.0
 37
0.0
 76
     0
330
17D
331
459
  0
LAYOUT
  5
298
102
{ACAD_REACTORS
330
1A
102
}
330
1A
100
AcDbPlotSettings
  1

  2
none_device
  4
ISO_A4_(210.00_x_297.00_MM)
  6

 40
7.5
 41
20.0
 42
7.5
 43
20.0
 44
210.0
 45
297.0
 46
0.0
 47
0.0
 48
0.0
 49
0.0
140
0.0
141
0.0
142
1.0
143
3.8910505837
 70
   688
 72
     1
 73
     1
 74
     1
  7

 75
     0
147
0.257
148
500.0
149
0.0
100
AcDbLayout
  1
_Trimetric
 70
     1
 71
     7
 10
0.0
 20
0.0
 11
0.0
 21
0.0
 12
0.0
 22
0.0
 32
0.0
 14
0.0
 24
0.0
 34
0.0
 15
0.0
 25
0.0
 35
0.0
146
0.0
 13
0.0
 23
0.0
 33
0.0
 16
1.0
 26
0.0
 36
0.0
 17
0.0
 27
1.0
 37
0.0
 76
     0
330
297
331
45F
  0
LAYOUT
  5
22
102
{ACAD_REACTORS
330
1A
102
}
330
1A
100
AcDbPlotSettings
  1

  2
none_device
  4
ANSI_A_(11.00_x_8.50_Inches)
  6

 40
6.35
 41
19.05
 42
6.35000508
 43
19.05000254
 44
279.4
 45
215.9
 46
133.34999746
 47
88.89999873
 48
0.0
 49
0.0
140
0.0
141
0.0
142
0.01051875
143
1.0
 70
  1696
 72
     0
 73
     0
 74
     0
  7

 75
     0
147
0.0179189148
148
-1300.4909072572
149
0.0
100
AcDbLayout
  1
Model
 70
     1
 71
     0
 10
0.0
 20
0.0
 11
420.0
 21
297.0
 12
0.0
 22
0.0
 32
0.0
 14
-500.0
 24
-400.0
 34
0.0
 15
500.0
 25
400.0
 35
0.0
146
0.0
 13
0.0
 23
0.0
 33
0.0
 16
1.0
 26
0.0
 36
0.0
 17
0.0
 27
1.0
 37
0.0
 76
     0
330
1F
331
29
  0
MLINESTYLE
  5
18
102
{ACAD_REACTORS
330
17
102
}
330
17
100
AcDbMlineStyle
  2
Standard
 70
     0
  3

 62
   256
 51
90.0
 52
90.0
 71
     2
 49
0.5
 62
   256
  6
BYLAYER
 49
-0.5
 62
   256
  6
BYLAYER
  0
ACDBPLACEHOLDER
  5
F
102
{ACAD_REACTORS
330
E
102
}
330
E
  0
SCALE
  5
48
102
{ACAD_REACTORS
330
47
102
}
330
47
100
AcDbScale
 70
     0
300
1:1
140
1.0
141
1.0
290
     1
  0
SCALE
  5
49
102
{ACAD_REACTORS
330
47
102
}
330
47
100
AcDbScale
 70
     0
300
1:2
140
1.0
141
2.0
290
     0
  0
SCALE
  5
4A
102
{ACAD_REACTORS
330
47
102
}
330
47
100
AcDbScale
 70
     0
300
1:4
140
1.0
141
4.0
290
     0
  0
SCALE
  5
4B
102
{ACAD_REACTORS
330
47
102
}
330
47
100
AcDbScale
 70
     0
300
1:5
140
1.0
141
5.0
290
     0
  0
SCALE
  5
4C
102
{ACAD_REACTORS
330
47
102
}
330
47
100
AcDbScale
 70
     0
300
1:8
140
1.0
141
8.0
290
     0
  0
SCALE
  5
4D
102
{ACAD_REACTORS
330
47
102
}
330
47
100
AcDbScale
 70
     0
300
1:10
140
1.0
141
10.0
290
     0
  0
SCALE
  5
4E
102
{ACAD_REACTORS
330
47
102
}
330
47
100
AcDbScale
 70
     0
300
1:16
140
1.0
141
16.0
290
     0
  0
SCALE
  5
4F
102
{ACAD_REACTORS
330
47
102
}
330
47
100
AcDbScale
 70
     0
300
1:20
140
1.0
141
20.0
290
     0
  0
SCALE
  5
50
102
{ACAD_REACTORS
330
47
102
}
330
47
100
AcDbScale
 70
     0
300
1:30
140
1.0
141
30.0
290
     0
  0
SCALE
  5
51
102
{ACAD_REACTORS
330
47
102
}
330
47
100
AcDbScale
 70
     0
300
1:40
140
1.0
141
40.0
290
     0
  0
SCALE
  5
52
102
{ACAD_REACTORS
330
47
102
}
330
47
100
AcDbScale
 70
     0
300
1:50
140
1.0
141
50.0
290
     0
  0
SCALE
  5
53
102
{ACAD_REACTORS
330
47
102
}
330
47
100
AcDbScale
 70
     0
300
1:100
140
1.0
141
100.0
290
     0
  0
SCALE
  5
54
102
{ACAD_REACTORS
330
47
102
}
330
47
100
AcDbScale
 70
     0
300
2:1
140
2.0
141
1.0
290
     0
  0
SCALE
  5
55
102
{ACAD_REACTORS
330
47
102
}
330
47
100
AcDbScale
 70
     0
300
4:1
140
4.0
141
1.0
290
     0
  0
SCALE
  5
56
102
{ACAD_REACTORS
330
47
102
}
330
47
100
AcDbScale
 70
     0
300
8:1
140
8.0
141
1.0
290
     0
  0
SCALE
  5
57
102
{ACAD_REACTORS
330
47
102
}
330
47
100
AcDbScale
 70
     0
300
10:1
140
10.0
141
1.0
290
     0
  0
SCALE
  5
58
102
{ACAD_REACTORS
330
47
102
}
330
47
100
AcDbScale
 70
     0
300
100:1
140
100.0
141
1.0
290
     0
  0
SCALE
  5
59
102
{ACAD_REACTORS
330
47
102
}
330
47
100
AcDbScale
 70
     0
300
1/128" = 1'-0"
140
0.0078125
141
12.0
290
     0
  0
SCALE
  5
5A
102
{ACAD_REACTORS
330
47
102
}
330
47
100
AcDbScale
 70
     0
300
1/64" = 1'-0"
140
0.015625
141
12.0
290
     0
  0
SCALE
  5
5B
102
{ACAD_REACTORS
330
47
102
}
330
47
100
AcDbScale
 70
     0
300
1/32" = 1'-0"
140
0.03125
141
12.0
290
     0
  0
SCALE
  5
5C
102
{ACAD_REACTORS
330
47
102
}
330
47
100
AcDbScale
 70
     0
300
1/16" = 1'-0"
140
0.0625
141
12.0
290
     0
  0
SCALE
  5
5D
102
{ACAD_REACTORS
330
47
102
}
330
47
100
AcDbScale
 70
     0
300
3/32" = 1'-0"
140
0.09375
141
12.0
290
     0
  0
SCALE
  5
5E
102
{ACAD_REACTORS
330
47
102
}
330
47
100
AcDbScale
 70
     0
300
1/8" = 1'-0"
140
0.125
141
12.0
290
     0
  0
SCALE
  5
5F
102
{ACAD_REACTORS
330
47
102
}
330
47
100
AcDbScale
 70
     0
300
3/16" = 1'-0"
140
0.1875
141
12.0
290
     0
  0
SCALE
  5
60
102
{ACAD_REACTORS
330
47
102
}
330
47
100
AcDbScale
 70
     0
300
1/4" = 1'-0"
140
0.25
141
12.0
290
     0
  0
SCALE
  5
61
102
{ACAD_REACTORS
330
47
102
}
330
47
100
AcDbScale
 70
     0
300
3/8" = 1'-0"
140
0.375
141
12.0
290
     0
  0
SCALE
  5
62
102
{ACAD_REACTORS
330
47
102
}
330
47
100
AcDbScale
 70
     0
300
1/2" = 1'-0"
140
0.5
141
12.0
290
     0
  0
SCALE
  5
63
102
{ACAD_REACTORS
330
47
102
}
330
47
100
AcDbScale
 70
     0
300
3/4" = 1'-0"
140
0.75
141
12.0
290
     0
  0
SCALE
  5
64
102
{ACAD_REACTORS
330
47
102
}
330
47
100
AcDbScale
 70
     0
300
1" = 1'-0"
140
1.0
141
12.0
290
     0
  0
SCALE
  5
65
102
{ACAD_REACTORS
330
47
102
}
330
47
100
AcDbScale
 70
     0
300
1-1/2" = 1'-0"
140
1.5
141
12.0
290
     0
  0
SCALE
  5
66
102
{ACAD_REACTORS
330
47
102
}
330
47
100
AcDbScale
 70
     0
300
3" = 1'-0"
140
3.0
141
12.0
290
     0
  0
SCALE
  5
67
102
{ACAD_REACTORS
330
47
102
}
330
47
100
AcDbScale
 70
     0
300
6" = 1'-0"
140
6.0
141
12.0
290
     0
  0
SCALE
  5
68
102
{ACAD_REACTORS
330
47
102
}
330
47
100
AcDbScale
 70
     0
300
1'-0" = 1'-0"
140
12.0
141
12.0
290
     0
  0
ENDSEC
  0
EOF
