  0
SECTION
  2
HEADER
  9
$ACADVER
  1
AC1015
  9
$ACADMAINTVER
 70
     6
  9
$DWGCODEPAGE
  3
ANSI_1252
  9
$INSBASE
 10
0.0
 20
0.0
 30
0.0
  9
$EXTMIN
 10
-23.6220472441
 20
-11.811023622
 30
0.0
  9
$EXTMAX
 10
23.6220472441
 20
11.811023622
 30
0.0
  9
$LIMMIN
 10
0.0
 20
0.0
  9
$LIMMAX
 10
12.0
 20
9.0
  9
$ORTHOMODE
 70
     0
  9
$REGENMODE
 70
     1
  9
$FILLMODE
 70
     1
  9
$QTEXTMODE
 70
     0
  9
$MIRRTEXT
 70
     1
  9
$LTSCALE
 40
1.0
  9
$ATTMODE
 70
     1
  9
$TEXTSIZE
 40
0.1377952756
  9
$TRACEWID
 40
0.05
  9
$TEXTSTYLE
  7
Standard
  9
$CLAYER
  8
0
  9
$CELTYPE
  6
ByLayer
  9
$CECOLOR
 62
   256
  9
$CELTSCALE
 40
1.0
  9
$DISPSILH
 70
     0
  9
$DIMSCALE
 40
1.0
  9
$DIMASZ
 40
0.13
  9
$DIMEXO
 40
0.0393700787
  9
$DIMDLI
 40
0.38
  9
$DIMRND
 40
0.0
  9
$DIMDLE
 40
0.0
  9
$DIMEXE
 40
0.0393700787
  9
$DIMTP
 40
0.0
  9
$DIMTM
 40
0.0
  9
$DIMTXT
 40
0.1377952756
  9
$DIMCEN
 40
0.09
  9
$DIMTSZ
 40
0.0
  9
$DIMTOL
 70
     0
  9
$DIMLIM
 70
     0
  9
$DIMTIH
 70
     1
  9
$DIMTOH
 70
     1
  9
$DIMSE1
 70
     0
  9
$DIMSE2
 70
     0
  9
$DIMTAD
 70
     1
  9
$DIMZIN
 70
     1
  9
$DIMBLK
  1

  9
$DIMASO
 70
     1
  9
$DIMSHO
 70
     1
  9
$DIMPOST
  1

  9
$DIMAPOST
  1

  9
$DIMALT
 70
     0
  9
$DIMALTD
 70
     2
  9
$DIMALTF
 40
25.4
  9
$DIMLFAC
 40
1.0
  9
$DIMTOFL
 70
     0
  9
$DIMTVP
 40
0.0
  9
$DIMTIX
 70
     0
  9
$DIMSOXD
 70
     0
  9
$DIMSAH
 70
     0
  9
$DIMBLK1
  1

  9
$DIMBLK2
  1

  9
$DIMSTYLE
  2
Standard
  9
$DIMCLRD
 70
     0
  9
$DIMCLRE
 70
     0
  9
$DIMCLRT
 70
     0
  9
$DIMTFAC
 40
1.0
  9
$DIMGAP
 40
0.06
  9
$DIMJUST
 70
     0
  9
$DIMSD1
 70
     0
  9
$DIMSD2
 70
     0
  9
$DIMTOLJ
 70
     1
  9
$DIMTZIN
 70
     1
  9
$DIMALTZ
 70
     0
  9
$DIMALTTZ
 70
     0
  9
$DIMUPT
 70
     0
  9
$DIMDEC
 70
     2
  9
$DIMTDEC
 70
     2
  9
$DIMALTU
 70
     2
  9
$DIMALTTD
 70
     2
  9
$DIMTXSTY
  7
Standard
  9
$DIMAUNIT
 70
     0
  9
$DIMADEC
 70
     2
  9
$DIMALTRND
 40
0.0
  9
$DIMAZIN
 70
     0
  9
$DIMDSEP
 70
    46
  9
$DIMATFIT
 70
     3
  9
$DIMFRAC
 70
     0
  9
$DIMLDRBLK
  1

  9
$DIMLUNIT
 70
     2
  9
$DIMLWD
 70
    -2
  9
$DIMLWE
 70
    -2
  9
$DIMTMOVE
 70
     0
  9
$LUNITS
 70
     2
  9
$LUPREC
 70
     2
  9
$SKETCHINC
 40
0.1
  9
$FILLETRAD
 40
0.5
  9
$AUNITS
 70
     0
  9
$AUPREC
 70
     2
  9
$MENU
  1
.
  9
$ELEVATION
 40
0.0
  9
$PELEVATION
 40
0.0
  9
$THICKNESS
 40
0.0
  9
$LIMCHECK
 70
     0
  9
$CHAMFERA
 40
0.0
  9
$CHAMFERB
 40
0.0
  9
$CHAMFERC
 40
0.0
  9
$CHAMFERD
 40
0.0
  9
$SKPOLY
 70
     0
  9
$TDCREATE
 40
2459556.470386921
  9
$TDUCREATE
 40
2459556.470386921
  9
$TDUPDATE
 40
2459556.470416134
  9
$TDUUPDATE
 40
2459556.470416134
  9
$TDINDWG
 40
0.0000000116
  9
$TDUSRTIMER
 40
0.0000000116
  9
$USRTIMER
 70
     1
  9
$ANGBASE
 50
0.0
  9
$ANGDIR
 70
     0
  9
$PDMODE
 70
     0
  9
$PDSIZE
 40
-1.0
  9
$PLINEWID
 40
0.0
  9
$SPLFRAME
 70
     0
  9
$SPLINETYPE
 70
     6
  9
$SPLINESEGS
 70
     8
  9
$HANDSEED
  5
266
  9
$SURFTAB1
 70
     6
  9
$SURFTAB2
 70
     6
  9
$SURFTYPE
 70
     6
  9
$SURFU
 70
     6
  9
$SURFV
 70
     6
  9
$UCSBASE
  2

  9
$UCSNAME
  2

  9
$UCSORG
 10
0.0
 20
0.0
 30
0.0
  9
$UCSXDIR
 10
1.0
 20
0.0
 30
0.0
  9
$UCSYDIR
 10
0.0
 20
1.0
 30
0.0
  9
$UCSORTHOREF
  2

  9
$UCSORTHOVIEW
 70
     0
  9
$UCSORGTOP
 10
0.0
 20
0.0
 30
0.0
  9
$UCSORGBOTTOM
 10
0.0
 20
0.0
 30
0.0
  9
$UCSORGLEFT
 10
0.0
 20
0.0
 30
0.0
  9
$UCSORGRIGHT
 10
0.0
 20
0.0
 30
0.0
  9
$UCSORGFRONT
 10
0.0
 20
0.0
 30
0.0
  9
$UCSORGBACK
 10
0.0
 20
0.0
 30
0.0
  9
$PUCSBASE
  2

  9
$PUCSNAME
  2

  9
$PUCSORG
 10
0.0
 20
0.0
 30
0.0
  9
$PUCSXDIR
 10
1.0
 20
0.0
 30
0.0
  9
$PUCSYDIR
 10
0.0
 20
1.0
 30
0.0
  9
$PUCSORTHOREF
  2

  9
$PUCSORTHOVIEW
 70
     0
  9
$PUCSORGTOP
 10
0.0
 20
0.0
 30
0.0
  9
$PUCSORGBOTTOM
 10
0.0
 20
0.0
 30
0.0
  9
$PUCSORGLEFT
 10
0.0
 20
0.0
 30
0.0
  9
$PUCSORGRIGHT
 10
0.0
 20
0.0
 30
0.0
  9
$PUCSORGFRONT
 10
0.0
 20
0.0
 30
0.0
  9
$PUCSORGBACK
 10
0.0
 20
0.0
 30
0.0
  9
$USERI1
 70
     0
  9
$USERI2
 70
     0
  9
$USERI3
 70
     0
  9
$USERI4
 70
     0
  9
$USERI5
 70
     0
  9
$USERR1
 40
0.0
  9
$USERR2
 40
0.0
  9
$USERR3
 40
0.0
  9
$USERR4
 40
0.0
  9
$USERR5
 40
0.0
  9
$WORLDVIEW
 70
     1
  9
$SHADEDGE
 70
     3
  9
$SHADEDIF
 70
    70
  9
$TILEMODE
 70
     1
  9
$MAXACTVP
 70
    64
  9
$PINSBASE
 10
0.0
 20
0.0
 30
0.0
  9
$PLIMCHECK
 70
     0
  9
$PEXTMIN
 10
-23.6220472441
 20
-11.811023622
 30
0.0
  9
$PEXTMAX
 10
23.6220472441
 20
11.811023622
 30
0.0
  9
$PLIMMIN
 10
-24.7469084503
 20
-12.9358830568
  9
$PLIMMAX
 10
24.7469066788
 20
25.3093377248
  9
$UNITMODE
 70
     0
  9
$VISRETAIN
 70
     1
  9
$PLINEGEN
 70
     0
  9
$PSLTSCALE
 70
     1
  9
$TREEDEPTH
 70
  3020
  9
$CMLSTYLE
  2
Standard
  9
$CMLJUST
 70
     0
  9
$CMLSCALE
 40
1.0
  9
$PROXYGRAPHICS
 70
     1
  9
$MEASUREMENT
 70
     0
  9
$CELWEIGHT
370
    -1
  9
$ENDCAPS
280
     0
  9
$JOINSTYLE
280
     0
  9
$LWDISPLAY
290
     1
  9
$INSUNITS
 70
     1
  9
$HYPERLINKBASE
  1

  9
$STYLESHEET
  1

  9
$XEDIT
290
     1
  9
$CEPSNTYPE
380
     0
  9
$PSTYLEMODE
290
     1
  9
$FINGERPRINTGUID
  2
{0b4bbb4c-535c-404e-a8ef-ed154cf1137d}
  9
$VERSIONGUID
  2
{FAEB1C32-E019-11D5-929B-00C0DF256EC4}
  9
$EXTNAMES
290
     1
  9
$PSVPSCALE
 40
0.0
  9
$OLESTARTUP
290
     0
  0
ENDSEC
  0
SECTION
  2
CLASSES
  0
CLASS
  1
ACDBDICTIONARYWDFLT
  2
AcDbDictionaryWithDefault
  3
ObjectDBX Classes
 90
        0
280
     0
281
     0
  0
CLASS
  1
VISUALSTYLE
  2
AcDbVisualStyle
  3
ObjectDBX Classes
 90
     4095
280
     0
281
     0
  0
CLASS
  1
MATERIAL
  2
AcDbMaterial
  3
ObjectDBX Classes
 90
     1153
280
     0
281
     0
  0
CLASS
  1
SCALE
  2
AcDbScale
  3
ObjectDBX Classes
 90
     1153
280
     0
281
     0
  0
CLASS
  1
TABLESTYLE
  2
AcDbTableStyle
  3
ObjectDBX Classes
 90
     4095
280
     0
281
     0
  0
CLASS
  1
MLEADERSTYLE
  2
AcDbMLeaderStyle
  3
ACDB_MLEADERSTYLE_CLASS
 90
     4095
280
     0
281
     0
  0
CLASS
  1
SUN
  2
AcDbSun
  3
SCENEOE
 90
     1153
280
     0
281
     0
  0
CLASS
  1
ACDBPLACEHOLDER
  2
AcDbPlaceHolder
  3
ObjectDBX Classes
 90
        0
280
     0
281
     0
  0
CLASS
  1
LAYOUT
  2
AcDbLayout
  3
ObjectDBX Classes
 90
        0
280
     0
281
     0
  0
ENDSEC
  0
SECTION
  2
TABLES
  0
TABLE
  2
VPORT
  5
8
330
0
100
AcDbSymbolTable
 70
     1
  0
VPORT
  5
29
330
8
100
AcDbSymbolTableRecord
100
AcDbViewportTableRecord
  2
*Active
 70
     0
 10
0.0
 20
0.0
 11
1.0
 21
1.0
 12
0.0
 22
0.0
 13
0.0
 23
0.0
 14
0.5
 24
0.5
 15
0.5
 25
0.5
 16
0.0
 26
0.0
 36
1.0
 17
0.0
 27
0.0
 37
0.0
 40
24.094488189
 41
2.0
 42
50.0
 43
0.0
 44
0.0
 50
0.0
 51
0.0
 71
     0
 72
   100
 73
     1
 74
     3
 75
     0
 76
     0
 77
     0
 78
     0
281
     0
 65
     1
110
0.0
120
0.0
130
0.0
111
1.0
121
0.0
131
0.0
112
0.0
122
1.0
132
0.0
 79
     0
146
0.0
  0
ENDTAB
  0
TABLE
  2
LTYPE
  5
5
330
0
100
AcDbSymbolTable
 70
     6
  0
LTYPE
  5
14
330
5
100
AcDbSymbolTableRecord
100
AcDbLinetypeTableRecord
  2
ByBlock
 70
     0
  3

 72
    65
 73
     0
 40
0.0
  0
LTYPE
  5
15
330
5
100
AcDbSymbolTableRecord
100
AcDbLinetypeTableRecord
  2
ByLayer
 70
     0
  3

 72
    65
 73
     0
 40
0.0
  0
LTYPE
  5
16
330
5
100
AcDbSymbolTableRecord
100
AcDbLinetypeTableRecord
  2
Continuous
 70
     0
  3
Solid line
 72
    65
 73
     0
 40
0.0
  0
LTYPE
  5
6E
330
5
100
AcDbSymbolTableRecord
100
AcDbLinetypeTableRecord
  2
HIDDEN
 70
     0
  3
Hidden __ __ __ __ __ __ __ __ __ __ __ __ __ __
 72
    65
 73
     2
 40
0.075
 49
0.05
 74
     0
 49
-0.025
 74
     0
  0
LTYPE
  5
6F
330
5
100
AcDbSymbolTableRecord
100
AcDbLinetypeTableRecord
  2
PHANTOM
 70
     0
  3
Phantom ______  __  __  ______  __  __  ______
 72
    65
 73
     6
 40
0.5
 49
0.25
 74
     0
 49
-0.05
 74
     0
 49
0.05
 74
     0
 49
-0.05
 74
     0
 49
0.05
 74
     0
 49
-0.05
 74
     0
  0
LTYPE
  5
70
330
5
100
AcDbSymbolTableRecord
100
AcDbLinetypeTableRecord
  2
CENTER
 70
     0
  3
Center ____ _ ____ _ ____ _ ____ _ ____ _ ____
 72
    65
 73
     4
 40
0.4
 49
0.25
 74
     0
 49
-0.05
 74
     0
 49
0.05
 74
     0
 49
-0.05
 74
     0
  0
LTYPE
  5
71
330
5
100
AcDbSymbolTableRecord
100
AcDbLinetypeTableRecord
  2
CENTERX2
 70
     0
  3
Center (2x) ________  __  ________  __  _____
 72
    65
 73
     4
 40
0.8
 49
0.5
 74
     0
 49
-0.1
 74
     0
 49
0.1
 74
     0
 49
-0.1
 74
     0
  0
LTYPE
  5
72
330
5
100
AcDbSymbolTableRecord
100
AcDbLinetypeTableRecord
  2
DOT2
 70
     0
  3
Dot (.5x) ........................................
 72
    65
 73
     2
 40
0.025
 49
0.0
 74
     0
 49
-0.025
 74
     0
  0
ENDTAB
  0
TABLE
  2
LAYER
  5
2
330
0
100
AcDbSymbolTable
 70
     1
  0
LAYER
  5
10
330
2
100
AcDbSymbolTableRecord
100
AcDbLayerTableRecord
  2
0
 70
     0
 62
     7
  6
Continuous
370
    -3
390
F
  0
ENDTAB
  0
TABLE
  2
STYLE
  5
3
330
0
100
AcDbSymbolTable
 70
     1
  0
STYLE
  5
11
330
3
100
AcDbSymbolTableRecord
100
AcDbTextStyleTableRecord
  2
Standard
 70
     0
 40
0.0
 41
1.0
 50
0.0
 71
     0
 42
0.1377952756
  3
txt
  4

  0
ENDTAB
  0
TABLE
  2
VIEW
  5
6
330
0
100
AcDbSymbolTable
 70
     0
  0
ENDTAB
  0
TABLE
  2
UCS
  5
7
330
0
100
AcDbSymbolTable
 70
     0
  0
ENDTAB
  0
TABLE
  2
APPID
  5
9
330
0
100
AcDbSymbolTable
 70
     1
  0
APPID
  5
12
330
9
100
AcDbSymbolTableRecord
100
AcDbRegAppTableRecord
  2
ACAD
 70
     0
  0
ENDTAB
  0
TABLE
  2
DIMSTYLE
  5
A
330
0
100
AcDbSymbolTable
 70
     1
100
AcDbDimStyleTable
  0
DIMSTYLE
105
27
330
A
100
AcDbSymbolTableRecord
100
AcDbDimStyleTableRecord
  2
Standard
 70
     0
178
     0
340
11
  0
ENDTAB
  0
TABLE
  2
BLOCK_RECORD
  5
1
330
0
100
AcDbSymbolTable
 70
     2
  0
BLOCK_RECORD
  5
1F
330
1
100
AcDbSymbolTableRecord
100
AcDbBlockTableRecord
  2
*Model_Space
340
22
  0
BLOCK_RECORD
  5
1B
330
1
100
AcDbSymbolTableRecord
100
AcDbBlockTableRecord
  2
*Paper_Space
340
1E
  0
BLOCK_RECORD
  5
23
330
1
100
AcDbSymbolTableRecord
100
AcDbBlockTableRecord
  2
*Paper_Space0
340
26
  0
BLOCK_RECORD
  5
1C1
330
1
100
AcDbSymbolTableRecord
100
AcDbBlockTableRecord
  2
*Paper_Space1
340
1C2
  0
ENDTAB
  0
ENDSEC
  0
SECTION
  2
BLOCKS
  0
BLOCK
  5
20
330
1F
100
AcDbEntity
  8
0
100
AcDbBlockBegin
  2
*Model_Space
 70
     0
 10
0.0
 20
0.0
 30
0.0
  3
*Model_Space
  1

  0
ENDBLK
  5
21
330
1F
100
AcDbEntity
  8
0
100
AcDbBlockEnd
  0
BLOCK
  5
1C
330
1B
100
AcDbEntity
 67
     1
  8
0
100
AcDbBlockBegin
  2
*Paper_Space
 70
     0
 10
0.0
 20
0.0
 30
0.0
  3
*Paper_Space
  1

  0
ENDBLK
  5
1D
330
1B
100
AcDbEntity
 67
     1
  8
0
100
AcDbBlockEnd
  0
BLOCK
  5
24
330
23
100
AcDbEntity
  8
0
100
AcDbBlockBegin
  2
*Paper_Space0
 70
     0
 10
0.0
 20
0.0
 30
0.0
  3
*Paper_Space0
  1

  0
LINE
  5
1AC
330
23
100
AcDbEntity
  8
0
  6
Continuous
 62
     7
370
    25
100
AcDbLine
 10
-0.3937007874
 20
10.531496063
 30
0.0
 11
-1.1811023622
 21
10.531496063
 31
0.0
  0
LINE
  5
1AD
330
23
100
AcDbEntity
  8
0
  6
Continuous
 62
     7
370
    25
100
AcDbLine
 10
-0.3937007874
 20
-10.531496063
 30
0.0
 11
-1.1811023622
 21
-10.531496063
 31
0.0
  0
LINE
  5
1AE
330
23
100
AcDbEntity
  8
0
  6
Continuous
 62
     7
370
    25
100
AcDbLine
 10
-1.1811023622
 20
10.531496063
 30
0.0
 11
-1.1811023622
 21
-10.531496063
 31
0.0
  0
LINE
  5
1AF
330
23
100
AcDbEntity
  8
0
  6
Continuous
 62
     7
370
    25
100
AcDbLine
 10
0.0
 20
-11.811023622
 30
0.0
 11
-0.3937007874
 21
-11.811023622
 31
0.0
  0
LINE
  5
1B0
330
23
100
AcDbEntity
  8
0
  6
Continuous
 62
     7
370
    25
100
AcDbLine
 10
-0.3937007874
 20
11.811023622
 30
0.0
 11
-0.3937007874
 21
-11.811023622
 31
0.0
  0
LINE
  5
1B1
330
23
100
AcDbEntity
  8
0
  6
Continuous
 62
     7
370
    25
100
AcDbLine
 10
0.0
 20
11.811023622
 30
0.0
 11
0.0
 21
-11.811023622
 31
0.0
  0
LINE
  5
1B2
330
23
100
AcDbEntity
  8
0
  6
Continuous
 62
     7
370
    25
100
AcDbLine
 10
-0.3937007874
 20
11.811023622
 30
0.0
 11
0.0
 21
11.811023622
 31
0.0
  0
LINE
  5
1B3
330
23
100
AcDbEntity
  8
0
  6
Continuous
 62
     7
370
    25
100
AcDbLine
 10
0.1181102362
 20
-11.811023622
 30
0.0
 11
0.1181102362
 21
11.811023622
 31
0.0
  0
LINE
  5
1B4
330
23
100
AcDbEntity
  8
0
  6
Continuous
 62
     7
370
    25
100
AcDbLine
 10
0.157480315
 20
9.842519685
 30
0.0
 11
-0.3937007874
 21
9.842519685
 31
0.0
  0
LINE
  5
1B5
330
23
100
AcDbEntity
  8
0
  6
Continuous
 62
     7
370
    25
100
AcDbLine
 10
0.0196850394
 20
11.811023622
 30
0.0
 11
0.0196850394
 21
-11.811023622
 31
0.0
  0
LINE
  5
1B6
330
23
100
AcDbEntity
  8
0
  6
Continuous
 62
     7
370
    25
100
AcDbLine
 10
0.0196850394
 20
11.811023622
 30
0.0
 11
0.1181102362
 21
11.811023622
 31
0.0
  0
LINE
  5
1B7
330
23
100
AcDbEntity
  8
0
  6
Continuous
 62
     7
370
    25
100
AcDbLine
 10
-0.3937007874
 20
-9.842519685
 30
0.0
 11
0.157480315
 21
-9.842519685
 31
0.0
  0
LINE
  5
1B8
330
23
100
AcDbEntity
  8
0
  6
Continuous
 62
     7
370
    25
100
AcDbLine
 10
0.1377952756
 20
11.7913385827
 30
0.0
 11
0.1377952756
 21
-11.7913385827
 31
0.0
  0
LINE
  5
1B9
330
23
100
AcDbEntity
  8
0
  6
Continuous
 62
     7
370
    25
100
AcDbLine
 10
0.0
 20
11.7913385827
 30
0.0
 11
0.0196850394
 21
11.811023622
 31
0.0
  0
LINE
  5
1BA
330
23
100
AcDbEntity
  8
0
  6
Continuous
 62
     7
370
    25
100
AcDbLine
 10
0.1181102362
 20
11.811023622
 30
0.0
 11
0.1377952756
 21
11.7913385827
 31
0.0
  0
LINE
  5
1BB
330
23
100
AcDbEntity
  8
0
  6
Continuous
 62
     7
370
    25
100
AcDbLine
 10
0.1181102362
 20
-11.811023622
 30
0.0
 11
0.0196850394
 21
-11.811023622
 31
0.0
  0
LINE
  5
1BC
330
23
100
AcDbEntity
  8
0
  6
Continuous
 62
     7
370
    25
100
AcDbLine
 10
0.0
 20
-11.7913385827
 30
0.0
 11
0.0196850394
 21
-11.811023622
 31
0.0
  0
LINE
  5
1BD
330
23
100
AcDbEntity
  8
0
  6
Continuous
 62
     7
370
    25
100
AcDbLine
 10
0.1181102362
 20
-11.811023622
 30
0.0
 11
0.1377952756
 21
-11.7913385827
 31
0.0
  0
LINE
  5
1BE
330
23
100
AcDbEntity
  8
0
  6
Continuous
 62
     7
370
    25
100
AcDbLine
 10
0.1377952756
 20
10.9842519685
 30
0.0
 11
0.157480315
 21
10.9645669291
 31
0.0
  0
LINE
  5
1BF
330
23
100
AcDbEntity
  8
0
  6
Continuous
 62
     7
370
    25
100
AcDbLine
 10
0.157480315
 20
10.9645669291
 30
0.0
 11
0.157480315
 21
-10.9645669291
 31
0.0
  0
LINE
  5
1C0
330
23
100
AcDbEntity
  8
0
  6
Continuous
 62
     7
370
    25
100
AcDbLine
 10
0.157480315
 20
-10.9645669291
 30
0.0
 11
0.1377952756
 21
-10.9842519685
 31
0.0
  0
VIEWPORT
  5
262
330
23
100
AcDbEntity
  8
0
100
AcDbViewport
 10
0.0
 20
0.0
 30
0.0
 40
8.4
 41
6.4
 68
     1
 69
     1
 12
0.0
 22
0.0
 13
0.0
 23
0.0
 14
0.5
 24
0.5
 15
0.5
 25
0.5
 16
0.0
 26
0.0
 36
1.0
 17
0.0
 27
0.0
 37
0.0
 42
50.0
 43
0.0
 44
0.0
 45
36.7154105737
 50
0.0
 51
0.0
 72
   100
 90
   557152
  1

281
     0
 71
     1
 74
     0
110
0.0
120
0.0
130
0.0
111
1.0
121
0.0
131
0.0
112
0.0
122
1.0
132
0.0
 79
     0
146
0.0
  0
ENDBLK
  5
25
330
23
100
AcDbEntity
  8
0
100
AcDbBlockEnd
  0
BLOCK
  5
1C3
330
1C1
100
AcDbEntity
  8
0
100
AcDbBlockBegin
  2
*Paper_Space1
 70
     0
 10
0.0
 20
0.0
 30
0.0
  3
*Paper_Space1
  1

  0
LWPOLYLINE
  5
1CD
330
1C1
100
AcDbEntity
  8
0
  6
Continuous
 62
     7
370
    25
100
AcDbPolyline
 90
       19
 70
   128
 43
0.0
 10
15.5897558057
 20
0.965828873
 10
15.7110715866
 20
0.8896782588
 10
15.8314640812
 20
0.8018741877
 10
15.9500170299
 20
0.7030849017
 10
16.0658281731
 20
0.5940622468
 10
16.1780161181
 20
0.4756359514
 10
16.285727047
 20
0.3487073109
 10
16.3881412145
 20
0.2142423291
 10
16.4844791869
 20
0.0732643656
 10
16.5740077742
 20
-0.0731536521
 10
16.6560456097
 20
-0.2238973945
 10
16.7299683359
 20
-0.3778196108
 10
16.7952133563
 20
-0.5337488599
 10
16.8512841168
 20
-0.690498426
 10
16.8977538852
 20
-0.8468753504
 10
16.9342689984
 20
-1.0016895102
 10
16.9605515543
 20
-1.1537626762
 10
16.976401527
 20
-1.3019374797
 10
16.9816982883
 20
-1.4450862211
  0
LWPOLYLINE
  5
1CF
330
1C1
100
AcDbEntity
  8
0
  6
Continuous
 62
     7
370
    25
100
AcDbPolyline
 90
       19
 70
   128
 43
0.0
 10
16.7033097918
 20
-1.6057964793
 10
16.6980130304
 20
-1.462647738
 10
16.6821630578
 20
-1.3144729344
 10
16.6558805019
 20
-1.1623997685
 10
16.6193653887
 20
-1.0075856087
 10
16.5728956203
 20
-0.8512086843
 10
16.5168248597
 20
-0.6944591181
 10
16.4515798394
 20
-0.538529869
 10
16.3776571131
 20
-0.3846076528
 10
16.2956192777
 20
-0.2338639103
 10
16.2060906904
 20
-0.0874458926
 10
16.109752718
 20
0.0535320709
 10
16.0073385505
 20
0.1879970527
 10
15.8996276216
 20
0.3149256931
 10
15.7874396766
 20
0.4333519886
 10
15.6716285334
 20
0.5423746434
 10
15.5530755847
 20
0.6411639295
 10
15.4326830901
 20
0.7289680006
 10
15.3113673092
 20
0.8051186147
  0
LWPOLYLINE
  5
1D0
330
1C1
100
AcDbEntity
  8
0
  6
Continuous
 62
     7
370
    25
100
AcDbPolyline
 90
       11
 70
   128
 43
0.0
 10
-15.3113673092
 20
18.4832470204
 10
-15.4326830901
 20
18.5471646254
 10
-15.5530755847
 20
18.5983627698
 10
-15.6716285334
 20
18.6364518048
 10
-15.7874396766
 20
18.6611418497
 10
-15.8996276216
 20
18.6722449985
 10
-16.0073385505
 20
18.6696767495
 10
-16.109752718
 20
18.6534566485
 10
-16.2060906904
 20
18.6237081404
 10
-16.2956192777
 20
18.5806576293
 10
-16.3024744034
 20
18.5766434412
  0
LWPOLYLINE
  5
1D3
330
1C1
100
AcDbEntity
  8
0
  6
Continuous
 62
     7
370
    25
100
AcDbPolyline
 90
       11
 70
   128
 43
0.0
 10
16.2885549756
 20
-18.5846789558
 10
16.2956192777
 20
-18.5806576293
 10
16.3776571131
 20
-18.5246327556
 10
16.4515798394
 20
-18.4560599023
 10
16.5168248597
 20
-18.3754609503
 10
16.5728956203
 20
-18.2834493063
 10
16.6193653887
 20
-18.1807252344
 10
16.6558805019
 20
-18.0680705269
 10
16.6821630578
 20
-17.9463425541
 10
16.6980130304
 20
-17.8164677394
 10
16.7033097918
 20
-17.6794345086
  0
LWPOLYLINE
  5
1D8
330
1C1
100
AcDbEntity
  8
0
  6
Continuous
 62
     7
370
    25
100
AcDbPolyline
 90
       11
 70
   128
 43
0.0
 10
16.9816982883
 20
-17.5187242504
 10
16.976401527
 20
-17.6557574812
 10
16.9605515543
 20
-17.7856322959
 10
16.9342689984
 20
-17.9073602687
 10
16.8977538852
 20
-18.0200149762
 10
16.8512841168
 20
-18.122739048
 10
16.7952133563
 20
-18.214750692
 10
16.7299683359
 20
-18.295349644
 10
16.6560456097
 20
-18.3639224973
 10
16.5740077742
 20
-18.4199473711
 10
16.5739277866
 20
-18.4199935544
  0
LWPOLYLINE
  5
1D9
330
1C1
100
AcDbEntity
  8
0
  6
Continuous
 62
     7
370
    25
100
AcDbPolyline
 90
       10
 70
   128
 43
0.0
 10
-16.0171507936
 20
18.7414140709
 10
-15.9277021939
 20
18.7844183987
 10
-15.8313642214
 20
18.8141669068
 10
-15.728950054
 20
18.8303870077
 10
-15.6212391251
 20
18.8329552567
 10
-15.50905118
 20
18.821852108
 10
-15.3932400368
 20
18.797162063
 10
-15.2746870882
 20
18.7590730281
 10
-15.1542945936
 20
18.7078748837
 10
-15.0329788126
 20
18.6439572786
  0
LWPOLYLINE
  5
1DA
330
1C1
100
AcDbEntity
  8
0
  6
Continuous
 62
     7
370
    25
100
AcDbPolyline
 90
       19
 70
   128
 43
0.0
 10
16.5919543932
 20
-1.6540095568
 10
16.5867105994
 20
-1.5122923029
 10
16.5710191265
 20
-1.3655992474
 10
16.5449993961
 20
-1.215046813
 10
16.5088494341
 20
-1.0617807948
 10
16.4628443634
 20
-0.9069676397
 10
16.4073343104
 20
-0.7517855692
 10
16.3427417403
 20
-0.5974156126
 10
16.2695582413
 20
-0.4450326185
 10
16.1883407842
 20
-0.2957963135
 10
16.0997074828
 20
-0.1508424759
 10
16.0043328901
 20
-0.0112742921
 10
15.9029428643
 20
0.1218460399
 10
15.7963090447
 20
0.2475053939
 10
15.6852429791
 20
0.3647474264
 10
15.5705899473
 20
0.4726798547
 10
15.4532225281
 20
0.5704812479
 10
15.3340339585
 20
0.6574072783
 10
15.2139313354
 20
0.7327963863
  0
LWPOLYLINE
  5
1DC
330
1C1
100
AcDbEntity
  8
0
  6
Continuous
 62
     7
370
    25
100
AcDbPolyline
 90
       19
 70
   128
 43
0.0
 10
15.2278507602
 20
0.7569055373
 10
15.3491665411
 20
0.6807549231
 10
15.4695590357
 20
0.592950852
 10
15.5881119844
 20
0.494161566
 10
15.7039231276
 20
0.3851389111
 10
15.8161110727
 20
0.2667126156
 10
15.9238220015
 20
0.1397839752
 10
16.026236169
 20
0.0053189934
 10
16.1225741414
 20
-0.1356589701
 10
16.2121027287
 20
-0.2820769878
 10
16.2941405642
 20
-0.4328207302
 10
16.3680632904
 20
-0.5867429465
 10
16.4333083108
 20
-0.7426721956
 10
16.4893790713
 20
-0.8994217617
 10
16.5358488397
 20
-1.0557986861
 10
16.5723639529
 20
-1.2106128459
 10
16.5986465089
 20
-1.3626860119
 10
16.6144964815
 20
-1.5108608154
 10
16.6197932428
 20
-1.6540095568
  0
LWPOLYLINE
  5
1DF
330
1C1
100
AcDbEntity
  8
0
  6
Continuous
 62
     7
370
    25
100
AcDbPolyline
 90
       19
 70
   128
 43
0.0
 10
16.689390367
 20
-1.6138319923
 10
16.6840936056
 20
-1.4706832509
 10
16.668243633
 20
-1.3225084473
 10
16.641961077
 20
-1.1704352814
 10
16.6054459638
 20
-1.0156211216
 10
16.5589761955
 20
-0.8592441972
 10
16.5029054349
 20
-0.702494631
 10
16.4376604145
 20
-0.5465653819
 10
16.3637376883
 20
-0.3926431657
 10
16.2816998528
 20
-0.2418994232
 10
16.1921712656
 20
-0.0954814055
 10
16.0958332931
 20
0.045496558
 10
15.9934191257
 20
0.1799615398
 10
15.8857081968
 20
0.3068901802
 10
15.7735202517
 20
0.4253164757
 10
15.6577091085
 20
0.5343391305
 10
15.5391561599
 20
0.6331284166
 10
15.4187636653
 20
0.7209324877
 10
15.2974478843
 20
0.7970831018
  0
LWPOLYLINE
  5
1E2
330
1C1
100
AcDbEntity
  8
0
  6
Continuous
 62
     7
370
    25
100
AcDbPolyline
 90
       15
 70
   128
 43
0.0
 10
15.2139313354
 20
-17.8644028135
 10
15.3043232397
 20
-17.9107230247
 10
15.3935784133
 20
-17.9447368836
 10
15.4805744207
 20
-17.9660166461
 10
15.5642172366
 20
-17.9742947069
 10
15.643455004
 20
-17.9694669645
 10
15.7172912621
 20
-17.9515941307
 10
15.7847974771
 20
-17.9209009667
 10
15.8451247191
 20
-17.8777734568
 10
15.8975143381
 20
-17.8227539545
 10
15.9413075042
 20
-17.756534362
 10
15.9759534929
 20
-17.679947429
 10
16.0010166109
 20
-17.5939562806
 10
16.0161816748
 20
-17.4996423055
 10
16.0212579753
 20
-17.3981915567
  0
LWPOLYLINE
  5
1E4
330
1C1
100
AcDbEntity
  8
0
  6
Continuous
 62
     7
370
    25
100
AcDbPolyline
 90
       15
 70
   128
 43
0.0
 10
16.0212579753
 20
-1.3245535274
 10
16.0161816748
 20
-1.2172418068
 10
16.0010166109
 20
-1.1054186216
 10
15.9759534929
 20
-0.9904902132
 10
15.9413075042
 20
-0.8739018731
 10
15.8975143381
 20
-0.7571197672
 10
15.8451247191
 20
-0.6416124983
 10
15.7847974771
 20
-0.5288326374
 10
15.7172912621
 20
-0.4201984566
 10
15.643455004
 20
-0.3170760938
 10
15.5642172366
 20
-0.2207623725
 10
15.4805744207
 20
-0.1324684936
 10
15.3935784133
 20
-0.053304804
 10
15.3043232397
 20
0.0157331671
 10
15.2139313354
 20
0.0737772271
  0
LWPOLYLINE
  5
1E6
330
1C1
100
AcDbEntity
  8
0
  6
Continuous
 62
     7
370
    25
100
AcDbPolyline
 90
       15
 70
   128
 43
0.0
 10
-15.4088032829
 20
17.7519056327
 10
-15.4991951872
 20
17.798225844
 10
-15.5884503609
 20
17.8322397028
 10
-15.6754463683
 20
17.8535194653
 10
-15.7590891842
 20
17.8617975261
 10
-15.8383269516
 20
17.8569697838
 10
-15.9121632097
 20
17.83909695
 10
-15.9796694247
 20
17.8084037859
 10
-16.0399966667
 20
17.765276276
 10
-16.0923862857
 20
17.7102567737
 10
-16.1361794518
 20
17.6440371812
 10
-16.1708254405
 20
17.5674502482
 10
-16.1958885585
 20
17.4814590999
 10
-16.2110536224
 20
17.3871451248
 10
-16.2161299229
 20
17.2856943759
  0
LWPOLYLINE
  5
1E8
330
1C1
100
AcDbEntity
  8
0
  6
Continuous
 62
     7
370
    25
100
AcDbPolyline
 90
       19
 70
   128
 43
0.0
 10
15.2139313354
 20
-18.5234219727
 10
15.3340339585
 20
-18.5867004017
 10
15.4532225281
 20
-18.6373865647
 10
15.5705899473
 20
-18.6750947093
 10
15.6852429791
 20
-18.6995378538
 10
15.7963090447
 20
-18.7105299711
 10
15.9029428643
 20
-18.7079874045
 10
16.0043328901
 20
-18.6919295046
 10
16.0997074828
 20
-18.6624784816
 10
16.1883407842
 20
-18.6198584756
 10
16.2695582413
 20
-18.5643938506
 10
16.3427417403
 20
-18.4965067258
 10
16.4073343104
 20
-18.4167137633
 10
16.4628443634
 20
-18.3256222358
 10
16.5088494341
 20
-18.2239254046
 10
16.5449993961
 20
-18.1123972442
 10
16.5710191265
 20
-17.9918865511
 10
16.5867105994
 20
-17.8633104846
 10
16.5919543932
 20
-17.7276475861
  0
LWPOLYLINE
  5
1EA
330
1C1
100
AcDbEntity
  8
0
  6
Continuous
 62
     7
370
    25
100
AcDbPolyline
 90
       19
 70
   128
 43
0.0
 10
-16.7868263408
 20
1.5415123761
 10
-16.781582547
 20
1.3997951221
 10
-16.7658910741
 20
1.2531020666
 10
-16.7398713437
 20
1.1025496323
 10
-16.7037213817
 20
0.9492836141
 10
-16.657716311
 20
0.7944704589
 10
-16.602206258
 20
0.6392883884
 10
-16.5376136878
 20
0.4849184318
 10
-16.4644301889
 20
0.3325354377
 10
-16.3832127318
 20
0.1832991327
 10
-16.2945794304
 20
0.0383452952
 10
-16.1992048377
 20
-0.1012228887
 10
-16.0978148119
 20
-0.2343432207
 10
-15.9911809923
 20
-0.3600025747
 10
-15.8801149267
 20
-0.4772446072
 10
-15.7654618949
 20
-0.5851770355
 10
-15.6480944757
 20
-0.6829784287
 10
-15.5289059061
 20
-0.7699044591
 10
-15.4088032829
 20
-0.8452935671
  0
LWPOLYLINE
  5
1EC
330
1C1
100
AcDbEntity
  8
0
  6
Continuous
 62
     7
370
    25
100
AcDbPolyline
 90
       19
 70
   128
 43
0.0
 10
-15.4088032829
 20
18.4109247919
 10
-15.5289059061
 20
18.474203221
 10
-15.6480944757
 20
18.5248893839
 10
-15.7654618949
 20
18.5625975285
 10
-15.8801149267
 20
18.587040673
 10
-15.9911809923
 20
18.5980327903
 10
-16.0978148119
 20
18.5954902238
 10
-16.1992048377
 20
18.5794323238
 10
-16.2945794304
 20
18.5499813008
 10
-16.3832127318
 20
18.5073612948
 10
-16.4644301889
 20
18.4518966698
 10
-16.5376136878
 20
18.384009545
 10
-16.602206258
 20
18.3042165826
 10
-16.657716311
 20
18.213125055
 10
-16.7037213817
 20
18.1114282239
 10
-16.7398713437
 20
17.9999000634
 10
-16.7658910741
 20
17.8793893704
 10
-16.781582547
 20
17.7508133038
 10
-16.7868263408
 20
17.6151504053
  0
LWPOLYLINE
  5
1EF
330
1C1
100
AcDbEntity
  8
0
  6
Continuous
 62
     7
370
    25
100
AcDbPolyline
 90
       19
 70
   128
 43
0.0
 10
15.3113673092
 20
0.7890449767
 10
15.4314699323
 20
0.7136558687
 10
15.5506585019
 20
0.6267298383
 10
15.6680259211
 20
0.5289284451
 10
15.7826789529
 20
0.4209960168
 10
15.8937450185
 20
0.3037539843
 10
16.0003788381
 20
0.1780946303
 10
16.1017688639
 20
0.0449742983
 10
16.1971434566
 20
-0.0945938855
 10
16.285776758
 20
-0.2395477231
 10
16.3669942151
 20
-0.3887840281
 10
16.4401777141
 20
-0.5411670222
 10
16.5047702842
 20
-0.6955369788
 10
16.5602803372
 20
-0.8507190493
 10
16.6062854079
 20
-1.0055322045
 10
16.6424353699
 20
-1.1587982227
 10
16.6684551003
 20
-1.309350657
 10
16.6841465732
 20
-1.4560437125
 10
16.689390367
 20
-1.5977609664
  0
LWPOLYLINE
  5
1F2
330
1C1
100
AcDbEntity
  8
0
  6
Continuous
 62
     7
370
    25
100
AcDbPolyline
 90
       15
 70
   128
 43
0.0
 10
15.9934191257
 20
-1.3245535274
 10
15.9884303476
 20
-1.2190920089
 10
15.9735267503
 20
-1.1091968096
 10
15.948895755
 20
-0.9962499255
 10
15.9148471109
 20
-0.8816717292
 10
15.8718089994
 20
-0.7669031079
 10
15.8203226497
 20
-0.6533873437
 10
15.7610355326
 20
-0.5425519631
 10
15.6946932179
 20
-0.4357907854
 10
15.6221299987
 20
-0.3344463944
 10
15.5442583997
 20
-0.2397932545
 10
15.4620577013
 20
-0.1530216839
 10
15.3765616251
 20
-0.0752228854
 10
15.2888453337
 20
-0.0073752242
 10
15.2000119105
 20
0.0496680762
  0
LWPOLYLINE
  5
1F5
330
1C1
100
AcDbEntity
  8
0
  6
Continuous
 62
     7
370
    25
100
AcDbPolyline
 90
       15
 70
   128
 43
0.0
 10
-16.2161299229
 20
1.1959853209
 10
-16.2111411448
 20
1.0905238023
 10
-16.1962375475
 20
0.980628603
 10
-16.1716065523
 20
0.8676817189
 10
-16.1375579082
 20
0.7531035226
 10
-16.0945197966
 20
0.6383349013
 10
-16.043033447
 20
0.5248191371
 10
-15.9837463298
 20
0.4139837565
 10
-15.9174040151
 20
0.3072225788
 10
-15.8448407959
 20
0.2058781878
 10
-15.7669691969
 20
0.1112250479
 10
-15.6847684985
 20
0.0244534773
 10
-15.5992724223
 20
-0.0533453212
 10
-15.5115561309
 20
-0.1211929824
 10
-15.4227227078
 20
-0.1782362828
  0
LWPOLYLINE
  5
1F7
330
1C1
100
AcDbEntity
  8
0
  6
Continuous
 62
     7
370
    25
100
AcDbPolyline
 90
       15
 70
   128
 43
0.0
 10
-15.4227227078
 20
17.7277964818
 10
-15.5115561309
 20
17.7733180687
 10
-15.5992724223
 20
17.8067454817
 10
-15.6847684985
 20
17.8276583518
 10
-15.7669691969
 20
17.8357936874
 10
-15.8448407959
 20
17.831049182
 10
-15.9174040151
 20
17.8134845005
 10
-15.9837463298
 20
17.7833205289
 10
-16.043033447
 20
17.7409365968
 10
-16.0945197966
 20
17.6868657066
 10
-16.1375579082
 20
17.6217878311
 10
-16.1716065523
 20
17.5465213625
 10
-16.1962375475
 20
17.4620128202
 10
-16.2111411448
 20
17.3693249481
 10
-16.2161299229
 20
17.2696233501
  0
LWPOLYLINE
  5
1FA
330
1C1
100
AcDbEntity
  8
0
  6
Continuous
 62
     7
370
    25
100
AcDbPolyline
 90
       15
 70
   128
 43
0.0
 10
15.2000119105
 20
-17.8563646884
 10
15.2888453337
 20
-17.9018862753
 10
15.3765616251
 20
-17.9353136883
 10
15.4620577013
 20
-17.9562265583
 10
15.5442583997
 20
-17.964361894
 10
15.6221299987
 20
-17.9596173885
 10
15.6946932179
 20
-17.942052707
 10
15.7610355326
 20
-17.9118887355
 10
15.8203226497
 20
-17.8695048034
 10
15.8718089994
 20
-17.8154339132
 10
15.9148471109
 20
-17.7503560377
 10
15.948895755
 20
-17.6750895691
 10
15.9735267503
 20
-17.5905810268
 10
15.9884303476
 20
-17.4978931547
 10
15.9934191257
 20
-17.3981915567
  0
LWPOLYLINE
  5
209
330
1C1
100
AcDbEntity
  8
0
  6
Continuous
 62
     7
370
    25
100
AcDbPolyline
 90
       19
 70
   128
 43
0.0
 10
16.6197932428
 20
-17.7276475861
 10
16.6144964815
 20
-17.8646808169
 10
16.5986465089
 20
-17.9945556316
 10
16.5723639529
 20
-18.1162836044
 10
16.5358488397
 20
-18.2289383119
 10
16.4893790713
 20
-18.3316623837
 10
16.4333083108
 20
-18.4236740278
 10
16.3680632904
 20
-18.5042729797
 10
16.2941405642
 20
-18.572845833
 10
16.2121027287
 20
-18.6288707068
 10
16.1225741414
 20
-18.6719212179
 10
16.026236169
 20
-18.701669726
 10
15.9238220015
 20
-18.7178898269
 10
15.8161110727
 20
-18.720458076
 10
15.7039231276
 20
-18.7093549272
 10
15.5881119844
 20
-18.6846648823
 10
15.4695590357
 20
-18.6465758473
 10
15.3491665411
 20
-18.5953777029
 10
15.2278507602
 20
-18.5314600978
  0
LWPOLYLINE
  5
20B
330
1C1
100
AcDbEntity
  8
0
  6
Continuous
 62
     7
370
    25
100
AcDbPolyline
 90
       11
 70
   128
 43
0.0
 10
16.2816198653
 20
-18.5887393256
 10
16.2816998528
 20
-18.5886931422
 10
16.3637376883
 20
-18.5326682685
 10
16.4376604145
 20
-18.4640954152
 10
16.5029054349
 20
-18.3834964632
 10
16.5589761955
 20
-18.2914848192
 10
16.6054459638
 20
-18.1887607473
 10
16.641961077
 20
-18.0761060398
 10
16.668243633
 20
-17.954378067
 10
16.6840936056
 20
-17.8245032524
 10
16.689390367
 20
-17.6874700215
  0
LWPOLYLINE
  5
21C
330
1C1
100
AcDbEntity
  8
0
  6
Continuous
 62
     7
370
    25
100
AcDbPolyline
 90
       19
 70
   128
 43
0.0
 10
-16.7868263408
 20
17.6312214311
 10
-16.7815295794
 20
17.768254662
 10
-16.7656796068
 20
17.8981294767
 10
-16.7393970508
 20
18.0198574494
 10
-16.7028819376
 20
18.1325121569
 10
-16.6564121692
 20
18.2352362288
 10
-16.6003414087
 20
18.3272478728
 10
-16.5350963883
 20
18.4078468248
 10
-16.4611736621
 20
18.4764196781
 10
-16.3791358266
 20
18.5324445519
 10
-16.2896072394
 20
18.575495063
 10
-16.1932692669
 20
18.6052435711
 10
-16.0908550994
 20
18.621463672
 10
-15.9831441706
 20
18.624031921
 10
-15.8709562255
 20
18.6129287723
 10
-15.7551450823
 20
18.5882387273
 10
-15.6365921336
 20
18.5501496924
 10
-15.5161996391
 20
18.498951548
 10
-15.3948838581
 20
18.4350339429
  0
LWPOLYLINE
  5
21E
330
1C1
100
AcDbEntity
  8
0
  6
Continuous
 62
     7
370
    25
100
AcDbPolyline
 90
       10
 70
   128
 43
0.0
 10
-15.325286734
 20
18.4752115074
 10
-15.4466025149
 20
18.5391291125
 10
-15.5669950095
 20
18.5903272569
 10
-15.6855479582
 20
18.6284162919
 10
-15.8013591014
 20
18.6531063368
 10
-15.9135470464
 20
18.6642094856
 10
-16.0212579753
 20
18.6616412366
 10
-16.1236721428
 20
18.6454211356
 10
-16.2200101152
 20
18.6156726275
 10
-16.3094587149
 20
18.5726682998
  0
LINE
  5
220
330
1C1
100
AcDbEntity
  8
0
  6
Continuous
 62
     7
370
    25
100
AcDbLine
 10
16.2955392901
 20
-18.5807038127
 30
0.0
 11
16.5739277866
 21
-18.4199935544
 31
0.0
  0
LINE
  5
221
330
1C1
100
AcDbEntity
  8
0
  6
Continuous
 62
     7
370
    25
100
AcDbLine
 10
-16.0171507936
 20
18.7414140709
 30
0.0
 11
-16.2955392901
 21
18.5807038127
 31
0.0
  0
LINE
  5
222
330
1C1
100
AcDbEntity
  8
0
  6
Continuous
 62
     7
370
    25
100
AcDbLine
 10
16.2120227411
 20
-18.6289168901
 30
0.0
 11
16.2816198653
 21
-18.5887393256
 31
0.0
  0
LINE
  5
223
330
1C1
100
AcDbEntity
  8
0
  6
Continuous
 62
     7
370
    25
100
AcDbLine
 10
-16.3094587149
 20
18.5726682998
 30
0.0
 11
-16.3790558391
 21
18.5324907352
 31
0.0
  0
LINE
  5
224
330
1C1
100
AcDbEntity
  8
0
  6
Continuous
 62
     7
370
    25
100
AcDbLine
 10
16.5740481675
 20
-0.0732236172
 30
0.0
 11
16.6337126677
 21
-0.0387800344
 31
0.0
  0
LINE
  5
225
330
1C1
100
AcDbEntity
  8
0
  6
Continuous
 62
     7
370
    25
100
AcDbLine
 10
16.6337126677
 20
-0.1810271761
 30
0.0
 11
16.6337126677
 21
-0.0387800344
 31
0.0
  0
LINE
  5
226
330
1C1
100
AcDbEntity
  8
0
  6
Continuous
 62
     7
370
    25
100
AcDbLine
 10
16.6337126677
 20
-0.0387800344
 30
0.0
 11
16.5105418075
 21
0.0323249897
 31
0.0
  0
LINE
  5
227
330
1C1
100
AcDbEntity
  8
0
  6
Continuous
 62
     7
370
    25
100
AcDbLine
 10
15.3113673092
 20
0.8051186147
 30
0.0
 11
15.5897558057
 21
0.965828873
 31
0.0
  0
LINE
  5
228
330
1C1
100
AcDbEntity
  8
0
  6
Continuous
 62
     7
370
    25
100
AcDbLine
 10
16.9816982883
 20
-1.4450862211
 30
0.0
 11
16.7033097918
 21
-1.6057964793
 31
0.0
  0
LINE
  5
229
330
1C1
100
AcDbEntity
  8
0
  6
Continuous
 62
     7
370
    25
100
AcDbLine
 10
15.3113673092
 20
0.8051186147
 30
0.0
 11
-15.3113673092
 21
18.4832470204
 31
0.0
  0
LINE
  5
22A
330
1C1
100
AcDbEntity
  8
0
  6
Continuous
 62
     7
370
    25
100
AcDbLine
 10
16.7033097918
 20
-17.6794345086
 30
0.0
 11
16.7033097918
 21
-1.6057964793
 31
0.0
  0
LINE
  5
22B
330
1C1
100
AcDbEntity
  8
0
  6
Continuous
 62
     7
370
    25
100
AcDbLine
 10
16.7033097918
 20
-17.6794345086
 30
0.0
 11
16.9816982883
 21
-17.5187242504
 31
0.0
  0
LINE
  5
22C
330
1C1
100
AcDbEntity
  8
0
  6
Continuous
 62
     7
370
    25
100
AcDbLine
 10
16.9816982883
 20
-17.5187242504
 30
0.0
 11
16.9816982883
 21
-1.4450862211
 31
0.0
  0
LINE
  5
22D
330
1C1
100
AcDbEntity
  8
0
  6
Continuous
 62
     7
370
    25
100
AcDbLine
 10
-15.0329788126
 20
18.6439572786
 30
0.0
 11
-15.3113673092
 21
18.4832470204
 31
0.0
  0
LINE
  5
22E
330
1C1
100
AcDbEntity
  8
0
  6
Continuous
 62
     7
370
    25
100
AcDbLine
 10
15.5897558057
 20
0.965828873
 30
0.0
 11
-15.0329788126
 21
18.6439572786
 31
0.0
  0
LINE
  5
22F
330
1C1
100
AcDbEntity
  8
0
  6
Continuous
 62
     7
370
    25
100
AcDbLine
 10
15.2139313354
 20
0.7327963863
 30
0.0
 11
15.2278507602
 21
0.7569055373
 31
0.0
  0
LINE
  5
230
330
1C1
100
AcDbEntity
  8
0
  6
Continuous
 62
     7
370
    25
100
AcDbLine
 10
16.5919543932
 20
-1.6540095568
 30
0.0
 11
16.6197932428
 21
-1.6540095568
 31
0.0
  0
LINE
  5
231
330
1C1
100
AcDbEntity
  8
0
  6
Continuous
 62
     7
370
    25
100
AcDbLine
 10
15.2278507602
 20
0.7569055373
 30
0.0
 11
15.2974478843
 21
0.7970831018
 31
0.0
  0
LINE
  5
232
330
1C1
100
AcDbEntity
  8
0
  6
Continuous
 62
     7
370
    25
100
AcDbLine
 10
16.689390367
 20
-1.6138319923
 30
0.0
 11
16.6197932428
 21
-1.6540095568
 31
0.0
  0
LINE
  5
233
330
1C1
100
AcDbEntity
  8
0
  6
Continuous
 62
     7
370
    25
100
AcDbLine
 10
-15.4088032829
 20
-0.1862744079
 30
0.0
 11
15.2139313354
 21
-17.8644028135
 31
0.0
  0
LINE
  5
234
330
1C1
100
AcDbEntity
  8
0
  6
Continuous
 62
     7
370
    25
100
AcDbLine
 10
16.0212579753
 20
-17.3981915567
 30
0.0
 11
16.0212579753
 21
-1.3245535274
 31
0.0
  0
LINE
  5
235
330
1C1
100
AcDbEntity
  8
0
  6
Continuous
 62
     7
370
    25
100
AcDbLine
 10
15.2139313354
 20
0.0737772271
 30
0.0
 11
-15.4088032829
 21
17.7519056327
 31
0.0
  0
LINE
  5
236
330
1C1
100
AcDbEntity
  8
0
  6
Continuous
 62
     7
370
    25
100
AcDbLine
 10
16.5919543932
 20
-17.7276475861
 30
0.0
 11
16.5919543932
 21
-1.6540095568
 31
0.0
  0
LINE
  5
237
330
1C1
100
AcDbEntity
  8
0
  6
Continuous
 62
     7
370
    25
100
AcDbLine
 10
-15.4088032829
 20
-0.8452935671
 30
0.0
 11
15.2139313354
 21
-18.5234219727
 31
0.0
  0
LINE
  5
238
330
1C1
100
AcDbEntity
  8
0
  6
Continuous
 62
     7
370
    25
100
AcDbLine
 10
-16.7868263408
 20
17.6312214311
 30
0.0
 11
-16.7868263408
 21
1.5415123761
 31
0.0
  0
LINE
  5
239
330
1C1
100
AcDbEntity
  8
0
  6
Continuous
 62
     7
370
    25
100
AcDbLine
 10
15.2139313354
 20
0.7327963863
 30
0.0
 11
-15.4088032829
 21
18.4109247919
 31
0.0
  0
LINE
  5
23A
330
1C1
100
AcDbEntity
  8
0
  6
Continuous
 62
     7
370
    25
100
AcDbLine
 10
15.2974478843
 20
0.7970831018
 30
0.0
 11
15.3113673092
 21
0.7890449767
 31
0.0
  0
LINE
  5
23B
330
1C1
100
AcDbEntity
  8
0
  6
Continuous
 62
     7
370
    25
100
AcDbLine
 10
16.689390367
 20
-17.6874700215
 30
0.0
 11
16.689390367
 21
-1.5977609664
 31
0.0
  0
LINE
  5
23C
330
1C1
100
AcDbEntity
  8
0
  6
Continuous
 62
     7
370
    25
100
AcDbLine
 10
16.0212579753
 20
-1.3245535274
 30
0.0
 11
15.9934191257
 21
-1.3245535274
 31
0.0
  0
LINE
  5
23D
330
1C1
100
AcDbEntity
  8
0
  6
Continuous
 62
     7
370
    25
100
AcDbLine
 10
15.2139313354
 20
0.0737772271
 30
0.0
 11
15.2000119105
 21
0.0496680762
 31
0.0
  0
LINE
  5
23E
330
1C1
100
AcDbEntity
  8
0
  6
Continuous
 62
     7
370
    25
100
AcDbLine
 10
-15.4227227078
 20
-0.1782362828
 30
0.0
 11
15.2000119105
 21
-17.8563646884
 31
0.0
  0
LINE
  5
23F
330
1C1
100
AcDbEntity
  8
0
  6
Continuous
 62
     7
370
    25
100
AcDbLine
 10
-16.2161299229
 20
17.2856943759
 30
0.0
 11
-16.2161299229
 21
1.1959853209
 31
0.0
  0
LINE
  5
240
330
1C1
100
AcDbEntity
  8
0
  6
Continuous
 62
     7
370
    25
100
AcDbLine
 10
15.2000119105
 20
0.0496680762
 30
0.0
 11
-15.4227227078
 21
17.7277964818
 31
0.0
  0
LINE
  5
241
330
1C1
100
AcDbEntity
  8
0
  6
Continuous
 62
     7
370
    25
100
AcDbLine
 10
15.9934191257
 20
-17.3981915567
 30
0.0
 11
15.9934191257
 21
-1.3245535274
 31
0.0
  0
LINE
  5
242
330
1C1
100
AcDbEntity
  8
0
  6
Continuous
 62
     7
370
    25
100
AcDbLine
 10
0.0974359738
 20
-6.3570938002
 30
0.0
 11
-0.320146771
 21
-6.1160284128
 31
0.0
  0
LINE
  5
243
330
1C1
100
AcDbEntity
  8
0
  6
Continuous
 62
     7
370
    25
100
AcDbLine
 10
-0.320146771
 20
-6.1160284128
 30
0.0
 11
-0.320146771
 21
-6.5982375537
 31
0.0
  0
LINE
  5
244
330
1C1
100
AcDbEntity
  8
0
  6
Continuous
 62
     7
370
    25
100
AcDbLine
 10
-0.320146771
 20
-6.5982375537
 30
0.0
 11
0.0974359738
 21
-6.8393029411
 31
0.0
  0
LINE
  5
245
330
1C1
100
AcDbEntity
  8
0
  6
Continuous
 62
     7
370
    25
100
AcDbLine
 10
0.0974359738
 20
-6.8393029411
 30
0.0
 11
0.0974359738
 21
-6.3570938002
 31
0.0
  0
LINE
  5
246
330
1C1
100
AcDbEntity
  8
0
  6
Continuous
 62
     7
370
    25
100
AcDbLine
 10
16.6197932428
 20
-1.6540095568
 30
0.0
 11
16.6197932428
 21
-17.7276475861
 31
0.0
  0
LINE
  5
247
330
1C1
100
AcDbEntity
  8
0
  6
Continuous
 62
     7
370
    25
100
AcDbLine
 10
16.5919543932
 20
-17.7276475861
 30
0.0
 11
16.6197932428
 21
-17.7276475861
 31
0.0
  0
LINE
  5
248
330
1C1
100
AcDbEntity
  8
0
  6
Continuous
 62
     7
370
    25
100
AcDbLine
 10
-15.3948838581
 20
18.4350339429
 30
0.0
 11
-15.4088032829
 21
18.4109247919
 31
0.0
  0
LINE
  5
249
330
1C1
100
AcDbEntity
  8
0
  6
Continuous
 62
     7
370
    25
100
AcDbLine
 10
-15.3948838581
 20
18.4350339429
 30
0.0
 11
15.2278507602
 21
0.7569055373
 31
0.0
  0
LINE
  5
24A
330
1C1
100
AcDbEntity
  8
0
  6
Continuous
 62
     7
370
    25
100
AcDbLine
 10
16.6197932428
 20
-17.7276475861
 30
0.0
 11
16.689390367
 21
-17.6874700215
 31
0.0
  0
LINE
  5
24B
330
1C1
100
AcDbEntity
  8
0
  6
Continuous
 62
     7
370
    25
100
AcDbLine
 10
-15.325286734
 20
18.4752115074
 30
0.0
 11
-15.3948838581
 21
18.4350339429
 31
0.0
  0
LINE
  5
24C
330
1C1
100
AcDbEntity
  8
0
  6
Continuous
 62
     7
370
    25
100
AcDbLine
 10
15.2974478843
 20
0.7970831018
 30
0.0
 11
-15.325286734
 21
18.4752115074
 31
0.0
  0
LINE
  5
24D
330
1C1
100
AcDbEntity
  8
0
  6
Continuous
 62
     7
370
    25
100
AcDbLine
 10
15.9934191257
 20
-17.3981915567
 30
0.0
 11
16.0212579753
 21
-17.3981915567
 31
0.0
  0
LINE
  5
24E
330
1C1
100
AcDbEntity
  8
0
  6
Continuous
 62
     7
370
    25
100
AcDbLine
 10
-15.4088032829
 20
17.7519056327
 30
0.0
 11
-15.4227227078
 21
17.7277964818
 31
0.0
  0
LINE
  5
24F
330
1C1
100
AcDbEntity
  8
0
  6
Continuous
 62
     7
370
    25
100
AcDbLine
 10
15.2139313354
 20
-18.5234219727
 30
0.0
 11
15.2278507602
 21
-18.5314600978
 31
0.0
  0
LINE
  5
250
330
1C1
100
AcDbEntity
  8
0
  6
Continuous
 62
     7
370
    25
100
AcDbLine
 10
15.2000119105
 20
-17.8563646884
 30
0.0
 11
15.2139313354
 21
-17.8644028135
 31
0.0
  0
LINE
  5
251
330
1C1
100
AcDbEntity
  8
0
  6
Continuous
 62
     7
370
    25
100
AcDbLine
 10
-15.4227227078
 20
-0.1782362828
 30
0.0
 11
-15.4088032829
 21
-0.1862744079
 31
0.0
  0
LINE
  5
252
330
1C1
100
AcDbEntity
  8
0
  6
Continuous
 62
     7
370
    25
100
AcDbLine
 10
15.2278507602
 20
-18.5314600978
 30
0.0
 11
-15.3948838581
 21
-0.8533316922
 31
0.0
  0
LINE
  5
253
330
1C1
100
AcDbEntity
  8
0
  6
Continuous
 62
     7
370
    25
100
AcDbLine
 10
-15.3948838581
 20
-0.8533316922
 30
0.0
 11
-15.4088032829
 21
-0.8452935671
 31
0.0
  0
LINE
  5
254
330
1C1
100
AcDbEntity
  8
0
  6
Continuous
 62
     7
370
    25
100
AcDbLine
 10
-0.3198683825
 20
-6.5980768435
 30
0.0
 11
0.0974359738
 21
-6.8389815206
 31
0.0
  0
LINE
  5
255
330
1C1
100
AcDbEntity
  8
0
  6
Continuous
 62
     7
370
    25
100
AcDbLine
 10
-0.3198683825
 20
-6.1161891231
 30
0.0
 11
-0.3198683825
 21
-6.5980768435
 31
0.0
  0
LINE
  5
256
330
1C1
100
AcDbEntity
  8
0
  6
Continuous
 62
     7
370
    25
100
AcDbLine
 10
0.0698755126
 20
-6.3730093402
 30
0.0
 11
-0.2920295329
 21
-6.1640860045
 31
0.0
  0
LINE
  5
257
330
1C1
100
AcDbEntity
  8
0
  6
Continuous
 62
     7
370
    25
100
AcDbLine
 10
0.0698755126
 20
-6.7909239289
 30
0.0
 11
0.0698755126
 21
-6.3730093402
 31
0.0
  0
LINE
  5
258
330
1C1
100
AcDbEntity
  8
0
  6
Continuous
 62
     7
370
    25
100
AcDbLine
 10
0.0698755126
 20
-6.3730093402
 30
0.0
 11
0.0695971241
 21
-6.3731700504
 31
0.0
  0
LINE
  5
259
330
1C1
100
AcDbEntity
  8
0
  6
Continuous
 62
     7
370
    25
100
AcDbLine
 10
0.0698755126
 20
-6.7909239289
 30
0.0
 11
0.0695971241
 21
-6.7910846392
 31
0.0
  0
LINE
  5
25A
330
1C1
100
AcDbEntity
  8
0
  6
Continuous
 62
     7
370
    25
100
AcDbLine
 10
0.0695971241
 20
-6.7910846392
 30
0.0
 11
0.0695971241
 21
-6.3731700504
 31
0.0
  0
LINE
  5
25B
330
1C1
100
AcDbEntity
  8
0
  6
Continuous
 62
     7
370
    25
100
AcDbLine
 10
-0.2923079214
 20
-6.5821613035
 30
0.0
 11
0.0695971241
 21
-6.7910846392
 31
0.0
  0
LINE
  5
25C
330
1C1
100
AcDbEntity
  8
0
  6
Continuous
 62
     7
370
    25
100
AcDbLine
 10
-0.2923079214
 20
-6.1642467147
 30
0.0
 11
-0.2923079214
 21
-6.5821613035
 31
0.0
  0
LINE
  5
25D
330
1C1
100
AcDbEntity
  8
0
  6
Continuous
 62
     7
370
    25
100
AcDbLine
 10
0.0695971241
 20
-6.3731700504
 30
0.0
 11
-0.2923079214
 21
-6.1642467147
 31
0.0
  0
LINE
  5
25E
330
1C1
100
AcDbEntity
  8
0
  6
Continuous
 62
     7
370
    25
100
AcDbLine
 10
-0.2920295329
 20
-6.1640860045
 30
0.0
 11
-0.2923079214
 21
-6.1642467147
 31
0.0
  0
LINE
  5
25F
330
1C1
100
AcDbEntity
  8
0
  6
Continuous
 62
     7
370
    25
100
AcDbLine
 10
-0.3198683825
 20
-6.5980768435
 30
0.0
 11
-0.320146771
 21
-6.5982375537
 31
0.0
  0
VIEWPORT
  5
264
330
1C1
100
AcDbEntity
  8
0
100
AcDbViewport
 10
0.0
 20
0.0
 30
0.0
 40
8.4
 41
6.4
 68
     1
 69
     1
 12
0.0
 22
0.0
 13
0.0
 23
0.0
 14
0.5
 24
0.5
 15
0.5
 25
0.5
 16
0.0
 26
0.0
 36
1.0
 17
0.0
 27
0.0
 37
0.0
 42
50.0
 43
0.0
 44
0.0
 45
36.7154105737
 50
0.0
 51
0.0
 72
   100
 90
   557152
  1

281
     0
 71
     1
 74
     0
110
0.0
120
0.0
130
0.0
111
1.0
121
0.0
131
0.0
112
0.0
122
1.0
132
0.0
 79
     0
146
0.0
  0
ENDBLK
  5
1C4
330
1C1
100
AcDbEntity
  8
0
100
AcDbBlockEnd
  0
ENDSEC
  0
SECTION
  2
ENTITIES
  0
LINE
  5
AB
330
1F
100
AcDbEntity
  8
0
  6
Continuous
 62
     7
370
    25
100
AcDbLine
 10
-0.2559055118
 20
-8.1102362205
 30
0.0
 11
0.2559055118
 21
-8.1102362205
 31
0.0
  0
LINE
  5
AC
330
1F
100
AcDbEntity
  8
0
  6
Continuous
 62
     7
370
    25
100
AcDbLine
 10
-0.2559055118
 20
-7.5984251969
 30
0.0
 11
-0.2559055118
 21
-8.1102362205
 31
0.0
  0
LINE
  5
AD
330
1F
100
AcDbEntity
  8
0
  6
Continuous
 62
     7
370
    25
100
AcDbLine
 10
0.2559055118
 20
-7.5984251969
 30
0.0
 11
-0.2559055118
 21
-7.5984251969
 31
0.0
  0
LINE
  5
AE
330
1F
100
AcDbEntity
  8
0
  6
Continuous
 62
     7
370
    25
100
AcDbLine
 10
0.2559055118
 20
-8.1102362205
 30
0.0
 11
0.2559055118
 21
-7.5984251969
 31
0.0
  0
LINE
  5
AF
330
1F
100
AcDbEntity
  8
0
  6
Continuous
 62
     7
370
    25
100
AcDbLine
 10
22.7755905512
 20
-9.842519685
 30
0.0
 11
22.7755905512
 21
9.842519685
 31
0.0
  0
LINE
  5
B0
330
1F
100
AcDbEntity
  8
0
  6
Continuous
 62
     7
370
    25
100
AcDbLine
 10
22.7952755906
 20
9.842519685
 30
0.0
 11
22.7755905512
 21
9.842519685
 31
0.0
  0
LINE
  5
B1
330
1F
100
AcDbEntity
  8
0
  6
Continuous
 62
     7
370
    25
100
AcDbLine
 10
22.7952755906
 20
-9.842519685
 30
0.0
 11
22.7952755906
 21
9.842519685
 31
0.0
  0
LINE
  5
B2
330
1F
100
AcDbEntity
  8
0
  6
Continuous
 62
     7
370
    25
100
AcDbLine
 10
22.7755905512
 20
-9.842519685
 30
0.0
 11
22.7952755906
 21
-9.842519685
 31
0.0
  0
LINE
  5
B3
330
1F
100
AcDbEntity
  8
0
  6
Continuous
 62
     7
370
    25
100
AcDbLine
 10
-22.7755905512
 20
9.842519685
 30
0.0
 11
-22.7755905512
 21
-9.842519685
 31
0.0
  0
LINE
  5
B4
330
1F
100
AcDbEntity
  8
0
  6
Continuous
 62
     7
370
    25
100
AcDbLine
 10
-22.7755905512
 20
-9.842519685
 30
0.0
 11
-22.7952755906
 21
-9.842519685
 31
0.0
  0
LINE
  5
B5
330
1F
100
AcDbEntity
  8
0
  6
Continuous
 62
     7
370
    25
100
AcDbLine
 10
-22.7952755906
 20
9.842519685
 30
0.0
 11
-22.7952755906
 21
-9.842519685
 31
0.0
  0
LINE
  5
B6
330
1F
100
AcDbEntity
  8
0
  6
Continuous
 62
     7
370
    25
100
AcDbLine
 10
-22.7952755906
 20
9.842519685
 30
0.0
 11
-22.7755905512
 21
9.842519685
 31
0.0
  0
LINE
  5
B7
330
1F
100
AcDbEntity
  8
0
  6
Continuous
 62
     7
370
    25
100
AcDbLine
 10
-21.6535433071
 20
-10.9645669291
 30
0.0
 11
-21.6535433071
 21
-10.9842519685
 31
0.0
  0
LINE
  5
B8
330
1F
100
AcDbEntity
  8
0
  6
Continuous
 62
     7
370
    25
100
AcDbLine
 10
-21.6535433071
 20
10.9842519685
 30
0.0
 11
-21.6535433071
 21
10.9645669291
 31
0.0
  0
LINE
  5
B9
330
1F
100
AcDbEntity
  8
0
  6
Continuous
 62
     7
370
    25
100
AcDbLine
 10
-21.6535433071
 20
-10.9645669291
 30
0.0
 11
21.6535433071
 21
-10.9645669291
 31
0.0
  0
LINE
  5
BA
330
1F
100
AcDbEntity
  8
0
  6
Continuous
 62
     7
370
    25
100
AcDbLine
 10
21.6535433071
 20
10.9645669291
 30
0.0
 11
-21.6535433071
 21
10.9645669291
 31
0.0
  0
LINE
  5
BB
330
1F
100
AcDbEntity
  8
0
  6
Continuous
 62
     7
370
    25
100
AcDbLine
 10
0.2952755906
 20
-7.5590551181
 30
0.0
 11
-0.2952755906
 21
-7.5590551181
 31
0.0
  0
LINE
  5
BC
330
1F
100
AcDbEntity
  8
0
  6
Continuous
 62
     7
370
    25
100
AcDbLine
 10
-0.2952755906
 20
-7.5590551181
 30
0.0
 11
-0.2952755906
 21
-8.1496062992
 31
0.0
  0
LINE
  5
BD
330
1F
100
AcDbEntity
  8
0
  6
Continuous
 62
     7
370
    25
100
AcDbLine
 10
-0.2952755906
 20
-8.1496062992
 30
0.0
 11
0.2952755906
 21
-8.1496062992
 31
0.0
  0
LINE
  5
BE
330
1F
100
AcDbEntity
  8
0
  6
Continuous
 62
     7
370
    25
100
AcDbLine
 10
0.2952755906
 20
-8.1496062992
 30
0.0
 11
0.2952755906
 21
-7.5590551181
 31
0.0
  0
LINE
  5
BF
330
1F
100
AcDbEntity
  8
0
  6
Continuous
 62
     7
370
    25
100
AcDbLine
 10
21.6535433071
 20
10.9842519685
 30
0.0
 11
21.6535433071
 21
10.9645669291
 31
0.0
  0
LINE
  5
C0
330
1F
100
AcDbEntity
  8
0
  6
Continuous
 62
     7
370
    25
100
AcDbLine
 10
21.6535433071
 20
-10.9645669291
 30
0.0
 11
21.6535433071
 21
-10.9842519685
 31
0.0
  0
LINE
  5
C1
330
1F
100
AcDbEntity
  8
0
  6
Continuous
 62
     7
370
    25
100
AcDbLine
 10
-21.6535433071
 20
-10.9842519685
 30
0.0
 11
21.6535433071
 21
-10.9842519685
 31
0.0
  0
LINE
  5
C2
330
1F
100
AcDbEntity
  8
0
  6
Continuous
 62
     7
370
    25
100
AcDbLine
 10
21.6535433071
 20
10.9842519685
 30
0.0
 11
-21.6535433071
 21
10.9842519685
 31
0.0
  0
LINE
  5
C3
330
1F
100
AcDbEntity
  8
0
  6
Continuous
 62
     7
370
    25
100
AcDbLine
 10
21.6535433071
 20
11.7913385827
 30
0.0
 11
-21.6535433071
 21
11.7913385827
 31
0.0
  0
LINE
  5
C4
330
1F
100
AcDbEntity
  8
0
  6
Continuous
 62
     7
370
    25
100
AcDbLine
 10
-21.6535433071
 20
11.811023622
 30
0.0
 11
-21.6535433071
 21
11.7913385827
 31
0.0
  0
LINE
  5
C5
330
1F
100
AcDbEntity
  8
0
  6
Continuous
 62
     7
370
    25
100
AcDbLine
 10
-21.6535433071
 20
11.811023622
 30
0.0
 11
21.6535433071
 21
11.811023622
 31
0.0
  0
LINE
  5
C6
330
1F
100
AcDbEntity
  8
0
  6
Continuous
 62
     7
370
    25
100
AcDbLine
 10
21.6535433071
 20
11.7913385827
 30
0.0
 11
21.6535433071
 21
11.811023622
 31
0.0
  0
LINE
  5
C7
330
1F
100
AcDbEntity
  8
0
  6
Continuous
 62
     7
370
    25
100
AcDbLine
 10
23.6023622047
 20
9.842519685
 30
0.0
 11
23.6220472441
 21
9.842519685
 31
0.0
  0
LINE
  5
C8
330
1F
100
AcDbEntity
  8
0
  6
Continuous
 62
     7
370
    25
100
AcDbLine
 10
-23.6220472441
 20
9.842519685
 30
0.0
 11
-23.6023622047
 21
9.842519685
 31
0.0
  0
LINE
  5
C9
330
1F
100
AcDbEntity
  8
0
  6
Continuous
 62
     7
370
    25
100
AcDbLine
 10
-23.6220472441
 20
-9.842519685
 30
0.0
 11
-23.6220472441
 21
9.842519685
 31
0.0
  0
LINE
  5
CA
330
1F
100
AcDbEntity
  8
0
  6
Continuous
 62
     7
370
    25
100
AcDbLine
 10
-23.6023622047
 20
9.842519685
 30
0.0
 11
-23.6023622047
 21
-9.842519685
 31
0.0
  0
LINE
  5
CB
330
1F
100
AcDbEntity
  8
0
  6
Continuous
 62
     7
370
    25
100
AcDbLine
 10
-23.6220472441
 20
-9.842519685
 30
0.0
 11
-23.6023622047
 21
-9.842519685
 31
0.0
  0
LINE
  5
CC
330
1F
100
AcDbEntity
  8
0
  6
Continuous
 62
     7
370
    25
100
AcDbLine
 10
23.6023622047
 20
-9.842519685
 30
0.0
 11
23.6023622047
 21
9.842519685
 31
0.0
  0
LINE
  5
CD
330
1F
100
AcDbEntity
  8
0
  6
Continuous
 62
     7
370
    25
100
AcDbLine
 10
-21.6535433071
 20
-11.7913385827
 30
0.0
 11
21.6535433071
 21
-11.7913385827
 31
0.0
  0
LINE
  5
CE
330
1F
100
AcDbEntity
  8
0
  6
Continuous
 62
     7
370
    25
100
AcDbLine
 10
21.6535433071
 20
-11.7913385827
 30
0.0
 11
21.6535433071
 21
-11.811023622
 31
0.0
  0
LINE
  5
CF
330
1F
100
AcDbEntity
  8
0
  6
Continuous
 62
     7
370
    25
100
AcDbLine
 10
21.6535433071
 20
-11.811023622
 30
0.0
 11
-21.6535433071
 21
-11.811023622
 31
0.0
  0
LINE
  5
D0
330
1F
100
AcDbEntity
  8
0
  6
Continuous
 62
     7
370
    25
100
AcDbLine
 10
-21.6535433071
 20
-11.811023622
 30
0.0
 11
-21.6535433071
 21
-11.7913385827
 31
0.0
  0
LINE
  5
D1
330
1F
100
AcDbEntity
  8
0
  6
Continuous
 62
     7
370
    25
100
AcDbLine
 10
23.6023622047
 20
-9.842519685
 30
0.0
 11
23.6220472441
 21
-9.842519685
 31
0.0
  0
LINE
  5
D2
330
1F
100
AcDbEntity
  8
0
  6
Continuous
 62
     7
370
    25
100
AcDbLine
 10
23.6220472441
 20
9.842519685
 30
0.0
 11
23.6220472441
 21
-9.842519685
 31
0.0
  0
ARC
  5
D3
330
1F
100
AcDbEntity
  8
0
  6
Continuous
 62
     7
370
    25
100
AcDbCircle
 10
-21.6535433071
 20
-9.842519685
 30
0.0
 40
1.122047244094487
100
AcDbArc
 50
180.0
 51
270.0
  0
ARC
  5
D4
330
1F
100
AcDbEntity
  8
0
  6
Continuous
 62
     7
370
    25
100
AcDbCircle
 10
-21.6535433071
 20
-9.842519685
 30
0.0
 40
1.141732283464563
100
AcDbArc
 50
180.0
 51
270.0
  0
ARC
  5
D5
330
1F
100
AcDbEntity
  8
0
  6
Continuous
 62
     7
370
    25
100
AcDbCircle
 10
-21.6535433071
 20
9.842519685
 30
0.0
 40
1.141732283464567
100
AcDbArc
 50
90.0
 51
180.0
  0
ARC
  5
D6
330
1F
100
AcDbEntity
  8
0
  6
Continuous
 62
     7
370
    25
100
AcDbCircle
 10
-21.6535433071
 20
9.842519685
 30
0.0
 40
1.122047244094496
100
AcDbArc
 50
90.0
 51
180.0
  0
ARC
  5
D7
330
1F
100
AcDbEntity
  8
0
  6
Continuous
 62
     7
370
    25
100
AcDbCircle
 10
21.6535433071
 20
9.842519685
 30
0.0
 40
1.122047244094496
100
AcDbArc
 50
0.0
 51
90.0
  0
ARC
  5
D8
330
1F
100
AcDbEntity
  8
0
  6
Continuous
 62
     7
370
    25
100
AcDbCircle
 10
21.6535433071
 20
-9.842519685
 30
0.0
 40
1.122047244094496
100
AcDbArc
 50
270.0
 51
0.0
  0
ARC
  5
D9
330
1F
100
AcDbEntity
  8
0
  6
Continuous
 62
     7
370
    25
100
AcDbCircle
 10
21.6535433071
 20
9.842519685
 30
0.0
 40
1.141732283464577
100
AcDbArc
 50
0.0
 51
90.0
  0
ARC
  5
DA
330
1F
100
AcDbEntity
  8
0
  6
Continuous
 62
     7
370
    25
100
AcDbCircle
 10
21.6535433071
 20
-9.842519685
 30
0.0
 40
1.14173228346457
100
AcDbArc
 50
270.0
 51
0.0
  0
ARC
  5
DB
330
1F
100
AcDbEntity
  8
0
  6
Continuous
 62
     7
370
    25
100
AcDbCircle
 10
21.6535433071
 20
9.842519685
 30
0.0
 40
1.94881889763781
100
AcDbArc
 50
0.0
 51
90.0
  0
ARC
  5
DC
330
1F
100
AcDbEntity
  8
0
  6
Continuous
 62
     7
370
    25
100
AcDbCircle
 10
21.6535433071
 20
9.842519685
 30
0.0
 40
1.968503937007885
100
AcDbArc
 50
0.0
 51
90.0
  0
ARC
  5
DD
330
1F
100
AcDbEntity
  8
0
  6
Continuous
 62
     7
370
    25
100
AcDbCircle
 10
-21.6535433071
 20
9.842519685
 30
0.0
 40
1.968503937007874
100
AcDbArc
 50
90.0
 51
180.0
  0
ARC
  5
DE
330
1F
100
AcDbEntity
  8
0
  6
Continuous
 62
     7
370
    25
100
AcDbCircle
 10
-21.6535433071
 20
9.842519685
 30
0.0
 40
1.948818897637809
100
AcDbArc
 50
90.0
 51
180.0
  0
ARC
  5
DF
330
1F
100
AcDbEntity
  8
0
  6
Continuous
 62
     7
370
    25
100
AcDbCircle
 10
21.6535433071
 20
-9.842519685
 30
0.0
 40
1.948818897637807
100
AcDbArc
 50
270.0
 51
0.0
  0
ARC
  5
E0
330
1F
100
AcDbEntity
  8
0
  6
Continuous
 62
     7
370
    25
100
AcDbCircle
 10
-21.6535433071
 20
-9.842519685
 30
0.0
 40
1.9488188976378
100
AcDbArc
 50
180.0
 51
270.0
  0
ARC
  5
E1
330
1F
100
AcDbEntity
  8
0
  6
Continuous
 62
     7
370
    25
100
AcDbCircle
 10
21.6535433071
 20
-9.842519685
 30
0.0
 40
1.968503937007867
100
AcDbArc
 50
270.0
 51
0.0
  0
ARC
  5
E2
330
1F
100
AcDbEntity
  8
0
  6
Continuous
 62
     7
370
    25
100
AcDbCircle
 10
-21.6535433071
 20
-9.842519685
 30
0.0
 40
1.968503937007881
100
AcDbArc
 50
180.0
 51
270.0
  0
LINE
  5
133
330
1B
100
AcDbEntity
 67
     1
  8
0
  6
Continuous
 62
     7
370
    25
100
AcDbLine
 10
-20.2559055118
 20
-8.6811023622
 30
0.0
 11
-20.2559055118
 21
-8.9173228346
 31
0.0
  0
LINE
  5
134
330
1B
100
AcDbEntity
 67
     1
  8
0
  6
Continuous
 62
     7
370
    25
100
AcDbLine
 10
-20.0196850394
 20
-8.6811023622
 30
0.0
 11
-20.2559055118
 21
-8.6811023622
 31
0.0
  0
LINE
  5
135
330
1B
100
AcDbEntity
 67
     1
  8
0
  6
Continuous
 62
     7
370
    25
100
AcDbLine
 10
-20.0196850394
 20
-8.4448818898
 30
0.0
 11
-20.0196850394
 21
-8.6811023622
 31
0.0
  0
LINE
  5
136
330
1B
100
AcDbEntity
 67
     1
  8
0
  6
Continuous
 62
     7
370
    25
100
AcDbLine
 10
-20.2559055118
 20
-8.4448818898
 30
0.0
 11
-20.0196850394
 21
-8.4448818898
 31
0.0
  0
LINE
  5
137
330
1B
100
AcDbEntity
 67
     1
  8
0
  6
Continuous
 62
     7
370
    25
100
AcDbLine
 10
-20.2559055118
 20
-8.2086614173
 30
0.0
 11
-20.2559055118
 21
-8.4448818898
 31
0.0
  0
LINE
  5
138
330
1B
100
AcDbEntity
 67
     1
  8
0
  6
Continuous
 62
     7
370
    25
100
AcDbLine
 10
-20.4921259843
 20
-8.2086614173
 30
0.0
 11
-20.2559055118
 21
-8.2086614173
 31
0.0
  0
LINE
  5
139
330
1B
100
AcDbEntity
 67
     1
  8
0
  6
Continuous
 62
     7
370
    25
100
AcDbLine
 10
-20.4921259843
 20
-8.4448818898
 30
0.0
 11
-20.4921259843
 21
-8.2086614173
 31
0.0
  0
LINE
  5
13A
330
1B
100
AcDbEntity
 67
     1
  8
0
  6
Continuous
 62
     7
370
    25
100
AcDbLine
 10
-20.7283464567
 20
-8.4448818898
 30
0.0
 11
-20.4921259843
 21
-8.4448818898
 31
0.0
  0
LINE
  5
13B
330
1B
100
AcDbEntity
 67
     1
  8
0
  6
Continuous
 62
     7
370
    25
100
AcDbLine
 10
-20.7283464567
 20
-8.6811023622
 30
0.0
 11
-20.7283464567
 21
-8.4448818898
 31
0.0
  0
LINE
  5
13C
330
1B
100
AcDbEntity
 67
     1
  8
0
  6
Continuous
 62
     7
370
    25
100
AcDbLine
 10
-20.4921259843
 20
-8.6811023622
 30
0.0
 11
-20.7283464567
 21
-8.6811023622
 31
0.0
  0
LINE
  5
13D
330
1B
100
AcDbEntity
 67
     1
  8
0
  6
Continuous
 62
     7
370
    25
100
AcDbLine
 10
-20.4921259843
 20
-8.9173228346
 30
0.0
 11
-20.4921259843
 21
-8.6811023622
 31
0.0
  0
LINE
  5
13E
330
1B
100
AcDbEntity
 67
     1
  8
0
  6
Continuous
 62
     7
370
    25
100
AcDbLine
 10
-20.2559055118
 20
-8.9173228346
 30
0.0
 11
-20.4921259843
 21
-8.9173228346
 31
0.0
  0
LINE
  5
13F
330
1B
100
AcDbEntity
 67
     1
  8
0
  6
Continuous
 62
     7
370
    25
100
AcDbLine
 10
20.2559055118
 20
8.6811023622
 30
0.0
 11
20.2559055118
 21
8.9173228346
 31
0.0
  0
LINE
  5
140
330
1B
100
AcDbEntity
 67
     1
  8
0
  6
Continuous
 62
     7
370
    25
100
AcDbLine
 10
20.0196850394
 20
8.6811023622
 30
0.0
 11
20.2559055118
 21
8.6811023622
 31
0.0
  0
LINE
  5
141
330
1B
100
AcDbEntity
 67
     1
  8
0
  6
Continuous
 62
     7
370
    25
100
AcDbLine
 10
20.0196850394
 20
8.4448818898
 30
0.0
 11
20.0196850394
 21
8.6811023622
 31
0.0
  0
LINE
  5
142
330
1B
100
AcDbEntity
 67
     1
  8
0
  6
Continuous
 62
     7
370
    25
100
AcDbLine
 10
20.2559055118
 20
8.4448818898
 30
0.0
 11
20.0196850394
 21
8.4448818898
 31
0.0
  0
LINE
  5
143
330
1B
100
AcDbEntity
 67
     1
  8
0
  6
Continuous
 62
     7
370
    25
100
AcDbLine
 10
20.2559055118
 20
8.2086614173
 30
0.0
 11
20.2559055118
 21
8.4448818898
 31
0.0
  0
LINE
  5
144
330
1B
100
AcDbEntity
 67
     1
  8
0
  6
Continuous
 62
     7
370
    25
100
AcDbLine
 10
20.4921259843
 20
8.2086614173
 30
0.0
 11
20.2559055118
 21
8.2086614173
 31
0.0
  0
LINE
  5
145
330
1B
100
AcDbEntity
 67
     1
  8
0
  6
Continuous
 62
     7
370
    25
100
AcDbLine
 10
20.4921259843
 20
8.4448818898
 30
0.0
 11
20.4921259843
 21
8.2086614173
 31
0.0
  0
LINE
  5
146
330
1B
100
AcDbEntity
 67
     1
  8
0
  6
Continuous
 62
     7
370
    25
100
AcDbLine
 10
20.7283464567
 20
8.4448818898
 30
0.0
 11
20.4921259843
 21
8.4448818898
 31
0.0
  0
LINE
  5
147
330
1B
100
AcDbEntity
 67
     1
  8
0
  6
Continuous
 62
     7
370
    25
100
AcDbLine
 10
20.7283464567
 20
8.6811023622
 30
0.0
 11
20.7283464567
 21
8.4448818898
 31
0.0
  0
LINE
  5
148
330
1B
100
AcDbEntity
 67
     1
  8
0
  6
Continuous
 62
     7
370
    25
100
AcDbLine
 10
20.4921259843
 20
8.6811023622
 30
0.0
 11
20.7283464567
 21
8.6811023622
 31
0.0
  0
LINE
  5
149
330
1B
100
AcDbEntity
 67
     1
  8
0
  6
Continuous
 62
     7
370
    25
100
AcDbLine
 10
20.4921259843
 20
8.9173228346
 30
0.0
 11
20.4921259843
 21
8.6811023622
 31
0.0
  0
LINE
  5
14A
330
1B
100
AcDbEntity
 67
     1
  8
0
  6
Continuous
 62
     7
370
    25
100
AcDbLine
 10
20.2559055118
 20
8.9173228346
 30
0.0
 11
20.4921259843
 21
8.9173228346
 31
0.0
  0
LINE
  5
14B
330
1B
100
AcDbEntity
 67
     1
  8
0
  6
Continuous
 62
     7
370
    25
100
AcDbLine
 10
-22.342519685
 20
10.531496063
 30
0.0
 11
22.342519685
 21
10.531496063
 31
0.0
  0
LINE
  5
14C
330
1B
100
AcDbEntity
 67
     1
  8
0
  6
Continuous
 62
     7
370
    25
100
AcDbLine
 10
22.342519685
 20
10.531496063
 30
0.0
 11
22.342519685
 21
-10.531496063
 31
0.0
  0
LINE
  5
14D
330
1B
100
AcDbEntity
 67
     1
  8
0
  6
Continuous
 62
     7
370
    25
100
AcDbLine
 10
22.342519685
 20
-10.531496063
 30
0.0
 11
-22.342519685
 21
-10.531496063
 31
0.0
  0
LINE
  5
14E
330
1B
100
AcDbEntity
 67
     1
  8
0
  6
Continuous
 62
     7
370
    25
100
AcDbLine
 10
-22.342519685
 20
-10.531496063
 30
0.0
 11
-22.342519685
 21
10.531496063
 31
0.0
  0
LINE
  5
14F
330
1B
100
AcDbEntity
 67
     1
  8
0
  6
Continuous
 62
     7
370
    25
100
AcDbLine
 10
1.811023622
 20
1.811023622
 30
0.0
 11
-1.811023622
 21
1.811023622
 31
0.0
  0
LINE
  5
150
330
1B
100
AcDbEntity
 67
     1
  8
0
  6
Continuous
 62
     7
370
    25
100
AcDbLine
 10
-1.811023622
 20
1.811023622
 30
0.0
 11
-1.811023622
 21
-1.811023622
 31
0.0
  0
LINE
  5
151
330
1B
100
AcDbEntity
 67
     1
  8
0
  6
Continuous
 62
     7
370
    25
100
AcDbLine
 10
-1.811023622
 20
-1.811023622
 30
0.0
 11
1.811023622
 21
-1.811023622
 31
0.0
  0
LINE
  5
152
330
1B
100
AcDbEntity
 67
     1
  8
0
  6
Continuous
 62
     7
370
    25
100
AcDbLine
 10
1.811023622
 20
-1.811023622
 30
0.0
 11
1.811023622
 21
1.811023622
 31
0.0
  0
LINE
  5
153
330
1B
100
AcDbEntity
 67
     1
  8
0
  6
Continuous
 62
     7
370
    25
100
AcDbLine
 10
-20.4921259843
 20
8.6811023622
 30
0.0
 11
-20.7283464567
 21
8.6811023622
 31
0.0
  0
LINE
  5
154
330
1B
100
AcDbEntity
 67
     1
  8
0
  6
Continuous
 62
     7
370
    25
100
AcDbLine
 10
-20.7283464567
 20
8.6811023622
 30
0.0
 11
-20.7283464567
 21
8.4448818898
 31
0.0
  0
LINE
  5
155
330
1B
100
AcDbEntity
 67
     1
  8
0
  6
Continuous
 62
     7
370
    25
100
AcDbLine
 10
-20.7283464567
 20
8.4448818898
 30
0.0
 11
-20.4921259843
 21
8.4448818898
 31
0.0
  0
LINE
  5
156
330
1B
100
AcDbEntity
 67
     1
  8
0
  6
Continuous
 62
     7
370
    25
100
AcDbLine
 10
-20.4921259843
 20
8.4448818898
 30
0.0
 11
-20.4921259843
 21
8.2086614173
 31
0.0
  0
LINE
  5
157
330
1B
100
AcDbEntity
 67
     1
  8
0
  6
Continuous
 62
     7
370
    25
100
AcDbLine
 10
-20.4921259843
 20
8.2086614173
 30
0.0
 11
-20.2559055118
 21
8.2086614173
 31
0.0
  0
LINE
  5
158
330
1B
100
AcDbEntity
 67
     1
  8
0
  6
Continuous
 62
     7
370
    25
100
AcDbLine
 10
-20.2559055118
 20
8.2086614173
 30
0.0
 11
-20.2559055118
 21
8.4448818898
 31
0.0
  0
LINE
  5
159
330
1B
100
AcDbEntity
 67
     1
  8
0
  6
Continuous
 62
     7
370
    25
100
AcDbLine
 10
-20.2559055118
 20
8.4448818898
 30
0.0
 11
-20.0196850394
 21
8.4448818898
 31
0.0
  0
LINE
  5
15A
330
1B
100
AcDbEntity
 67
     1
  8
0
  6
Continuous
 62
     7
370
    25
100
AcDbLine
 10
-20.0196850394
 20
8.4448818898
 30
0.0
 11
-20.0196850394
 21
8.6811023622
 31
0.0
  0
LINE
  5
15B
330
1B
100
AcDbEntity
 67
     1
  8
0
  6
Continuous
 62
     7
370
    25
100
AcDbLine
 10
-20.0196850394
 20
8.6811023622
 30
0.0
 11
-20.2559055118
 21
8.6811023622
 31
0.0
  0
LINE
  5
15C
330
1B
100
AcDbEntity
 67
     1
  8
0
  6
Continuous
 62
     7
370
    25
100
AcDbLine
 10
-20.2559055118
 20
8.6811023622
 30
0.0
 11
-20.2559055118
 21
8.9173228346
 31
0.0
  0
LINE
  5
15D
330
1B
100
AcDbEntity
 67
     1
  8
0
  6
Continuous
 62
     7
370
    25
100
AcDbLine
 10
-20.2559055118
 20
8.9173228346
 30
0.0
 11
-20.4921259843
 21
8.9173228346
 31
0.0
  0
LINE
  5
15E
330
1B
100
AcDbEntity
 67
     1
  8
0
  6
Continuous
 62
     7
370
    25
100
AcDbLine
 10
-20.4921259843
 20
8.9173228346
 30
0.0
 11
-20.4921259843
 21
8.6811023622
 31
0.0
  0
LINE
  5
15F
330
1B
100
AcDbEntity
 67
     1
  8
0
  6
Continuous
 62
     7
370
    25
100
AcDbLine
 10
20.4921259843
 20
-8.6811023622
 30
0.0
 11
20.7283464567
 21
-8.6811023622
 31
0.0
  0
LINE
  5
160
330
1B
100
AcDbEntity
 67
     1
  8
0
  6
Continuous
 62
     7
370
    25
100
AcDbLine
 10
20.7283464567
 20
-8.6811023622
 30
0.0
 11
20.7283464567
 21
-8.4448818898
 31
0.0
  0
LINE
  5
161
330
1B
100
AcDbEntity
 67
     1
  8
0
  6
Continuous
 62
     7
370
    25
100
AcDbLine
 10
20.7283464567
 20
-8.4448818898
 30
0.0
 11
20.4921259843
 21
-8.4448818898
 31
0.0
  0
LINE
  5
162
330
1B
100
AcDbEntity
 67
     1
  8
0
  6
Continuous
 62
     7
370
    25
100
AcDbLine
 10
20.4921259843
 20
-8.4448818898
 30
0.0
 11
20.4921259843
 21
-8.2086614173
 31
0.0
  0
LINE
  5
163
330
1B
100
AcDbEntity
 67
     1
  8
0
  6
Continuous
 62
     7
370
    25
100
AcDbLine
 10
20.4921259843
 20
-8.2086614173
 30
0.0
 11
20.2559055118
 21
-8.2086614173
 31
0.0
  0
LINE
  5
164
330
1B
100
AcDbEntity
 67
     1
  8
0
  6
Continuous
 62
     7
370
    25
100
AcDbLine
 10
20.2559055118
 20
-8.2086614173
 30
0.0
 11
20.2559055118
 21
-8.4448818898
 31
0.0
  0
LINE
  5
165
330
1B
100
AcDbEntity
 67
     1
  8
0
  6
Continuous
 62
     7
370
    25
100
AcDbLine
 10
20.2559055118
 20
-8.4448818898
 30
0.0
 11
20.0196850394
 21
-8.4448818898
 31
0.0
  0
LINE
  5
166
330
1B
100
AcDbEntity
 67
     1
  8
0
  6
Continuous
 62
     7
370
    25
100
AcDbLine
 10
20.0196850394
 20
-8.4448818898
 30
0.0
 11
20.0196850394
 21
-8.6811023622
 31
0.0
  0
LINE
  5
167
330
1B
100
AcDbEntity
 67
     1
  8
0
  6
Continuous
 62
     7
370
    25
100
AcDbLine
 10
20.0196850394
 20
-8.6811023622
 30
0.0
 11
20.2559055118
 21
-8.6811023622
 31
0.0
  0
LINE
  5
168
330
1B
100
AcDbEntity
 67
     1
  8
0
  6
Continuous
 62
     7
370
    25
100
AcDbLine
 10
20.2559055118
 20
-8.6811023622
 30
0.0
 11
20.2559055118
 21
-8.9173228346
 31
0.0
  0
LINE
  5
169
330
1B
100
AcDbEntity
 67
     1
  8
0
  6
Continuous
 62
     7
370
    25
100
AcDbLine
 10
20.2559055118
 20
-8.9173228346
 30
0.0
 11
20.4921259843
 21
-8.9173228346
 31
0.0
  0
LINE
  5
16A
330
1B
100
AcDbEntity
 67
     1
  8
0
  6
Continuous
 62
     7
370
    25
100
AcDbLine
 10
20.4921259843
 20
-8.9173228346
 30
0.0
 11
20.4921259843
 21
-8.6811023622
 31
0.0
  0
LINE
  5
16B
330
1B
100
AcDbEntity
 67
     1
  8
0
  6
Continuous
 62
     7
370
    25
100
AcDbLine
 10
-20.0590551181
 20
8.6811023622
 30
0.0
 11
-20.0590551181
 21
8.4448818898
 31
0.0
  0
LINE
  5
16C
330
1B
100
AcDbEntity
 67
     1
  8
0
  6
Continuous
 62
     7
370
    25
100
AcDbLine
 10
-20.4921259843
 20
-8.8779527559
 30
0.0
 11
-20.2559055118
 21
-8.8779527559
 31
0.0
  0
LINE
  5
16D
330
1B
100
AcDbEntity
 67
     1
  8
0
  6
Continuous
 62
     7
370
    25
100
AcDbLine
 10
-20.688976378
 20
-8.4448818898
 30
0.0
 11
-20.688976378
 21
-8.6811023622
 31
0.0
  0
LINE
  5
16E
330
1B
100
AcDbEntity
 67
     1
  8
0
  6
Continuous
 62
     7
370
    25
100
AcDbLine
 10
20.4921259843
 20
8.8779527559
 30
0.0
 11
20.2559055118
 21
8.8779527559
 31
0.0
  0
LINE
  5
16F
330
1B
100
AcDbEntity
 67
     1
  8
0
  6
Continuous
 62
     7
370
    25
100
AcDbLine
 10
-20.688976378
 20
8.4448818898
 30
0.0
 11
-20.688976378
 21
8.6811023622
 31
0.0
  0
LINE
  5
170
330
1B
100
AcDbEntity
 67
     1
  8
0
  6
Continuous
 62
     7
370
    25
100
AcDbLine
 10
20.2559055118
 20
8.2480314961
 30
0.0
 11
20.4921259843
 21
8.2480314961
 31
0.0
  0
LINE
  5
171
330
1B
100
AcDbEntity
 67
     1
  8
0
  6
Continuous
 62
     7
370
    25
100
AcDbLine
 10
20.688976378
 20
-8.4448818898
 30
0.0
 11
20.688976378
 21
-8.6811023622
 31
0.0
  0
LINE
  5
172
330
1B
100
AcDbEntity
 67
     1
  8
0
  6
Continuous
 62
     7
370
    25
100
AcDbLine
 10
20.0590551181
 20
8.6811023622
 30
0.0
 11
20.0590551181
 21
8.4448818898
 31
0.0
  0
LINE
  5
173
330
1B
100
AcDbEntity
 67
     1
  8
0
  6
Continuous
 62
     7
370
    25
100
AcDbLine
 10
-20.2559055118
 20
8.2480314961
 30
0.0
 11
-20.4921259843
 21
8.2480314961
 31
0.0
  0
LINE
  5
174
330
1B
100
AcDbEntity
 67
     1
  8
0
  6
Continuous
 62
     7
370
    25
100
AcDbLine
 10
20.0590551181
 20
-8.6811023622
 30
0.0
 11
20.0590551181
 21
-8.4448818898
 31
0.0
  0
LINE
  5
175
330
1B
100
AcDbEntity
 67
     1
  8
0
  6
Continuous
 62
     7
370
    25
100
AcDbLine
 10
20.688976378
 20
8.4448818898
 30
0.0
 11
20.688976378
 21
8.6811023622
 31
0.0
  0
LINE
  5
176
330
1B
100
AcDbEntity
 67
     1
  8
0
  6
Continuous
 62
     7
370
    25
100
AcDbLine
 10
-20.2559055118
 20
-8.2480314961
 30
0.0
 11
-20.4921259843
 21
-8.2480314961
 31
0.0
  0
LINE
  5
177
330
1B
100
AcDbEntity
 67
     1
  8
0
  6
Continuous
 62
     7
370
    25
100
AcDbLine
 10
-20.4921259843
 20
8.8779527559
 30
0.0
 11
-20.2559055118
 21
8.8779527559
 31
0.0
  0
LINE
  5
178
330
1B
100
AcDbEntity
 67
     1
  8
0
  6
Continuous
 62
     7
370
    25
100
AcDbLine
 10
20.2559055118
 20
-8.2480314961
 30
0.0
 11
20.4921259843
 21
-8.2480314961
 31
0.0
  0
LINE
  5
179
330
1B
100
AcDbEntity
 67
     1
  8
0
  6
Continuous
 62
     7
370
    25
100
AcDbLine
 10
20.4921259843
 20
-8.8779527559
 30
0.0
 11
20.2559055118
 21
-8.8779527559
 31
0.0
  0
LINE
  5
17A
330
1B
100
AcDbEntity
 67
     1
  8
0
  6
Continuous
 62
     7
370
    25
100
AcDbLine
 10
-20.0590551181
 20
-8.6811023622
 30
0.0
 11
-20.0590551181
 21
-8.4448818898
 31
0.0
  0
LINE
  5
17B
330
1B
100
AcDbEntity
 67
     1
  8
0
  6
Continuous
 62
     7
370
    25
100
AcDbLine
 10
23.6220472441
 20
9.842519685
 30
0.0
 11
23.6220472441
 21
-9.842519685
 31
0.0
  0
LINE
  5
17C
330
1B
100
AcDbEntity
 67
     1
  8
0
  6
Continuous
 62
     7
370
    25
100
AcDbLine
 10
21.6535433071
 20
-11.811023622
 30
0.0
 11
-21.6535433071
 21
-11.811023622
 31
0.0
  0
LINE
  5
17D
330
1B
100
AcDbEntity
 67
     1
  8
0
  6
Continuous
 62
     7
370
    25
100
AcDbLine
 10
-21.6535433071
 20
11.811023622
 30
0.0
 11
21.6535433071
 21
11.811023622
 31
0.0
  0
LINE
  5
17E
330
1B
100
AcDbEntity
 67
     1
  8
0
  6
Continuous
 62
     7
370
    25
100
AcDbLine
 10
-23.6220472441
 20
-9.842519685
 30
0.0
 11
-23.6220472441
 21
9.842519685
 31
0.0
  0
ARC
  5
17F
330
1B
100
AcDbEntity
 67
     1
  8
0
  6
Continuous
 62
     7
370
    25
100
AcDbCircle
 10
-21.6535433071
 20
-9.842519685
 30
0.0
 40
1.968503937007874
100
AcDbArc
 50
180.0
 51
270.0
  0
ARC
  5
180
330
1B
100
AcDbEntity
 67
     1
  8
0
  6
Continuous
 62
     7
370
    25
100
AcDbCircle
 10
-21.6535433071
 20
9.842519685
 30
0.0
 40
1.968503937007881
100
AcDbArc
 50
90.0
 51
180.0
  0
ARC
  5
181
330
1B
100
AcDbEntity
 67
     1
  8
0
  6
Continuous
 62
     7
370
    25
100
AcDbCircle
 10
21.6535433071
 20
-9.842519685
 30
0.0
 40
1.968503937007881
100
AcDbArc
 50
270.0
 51
0.0
  0
ARC
  5
182
330
1B
100
AcDbEntity
 67
     1
  8
0
  6
Continuous
 62
     7
370
    25
100
AcDbCircle
 10
21.6535433071
 20
9.842519685
 30
0.0
 40
1.968503937007869
100
AcDbArc
 50
0.0
 51
90.0
  0
VIEWPORT
  5
260
330
1B
100
AcDbEntity
 67
     1
  8
0
100
AcDbViewport
 10
0.0
 20
0.0
 30
0.0
 40
8.4
 41
6.4
 68
     1
 69
     1
 12
0.0
 22
0.0
 13
0.0
 23
0.0
 14
0.5
 24
0.5
 15
0.5
 25
0.5
 16
0.0
 26
0.0
 36
1.0
 17
0.0
 27
0.0
 37
0.0
 42
50.0
 43
0.0
 44
0.0
 45
36.7154105737
 50
0.0
 51
0.0
 72
   100
 90
   557152
  1

281
     0
 71
     1
 74
     0
110
0.0
120
0.0
130
0.0
111
1.0
121
0.0
131
0.0
112
0.0
122
1.0
132
0.0
 79
     0
146
0.0
  0
ENDSEC
  0
SECTION
  2
OBJECTS
  0
DICTIONARY
  5
C
330
0
100
AcDbDictionary
281
     1
  3
ACAD_GROUP
350
D
  3
ACAD_LAYOUT
350
1A
  3
ACAD_MLINESTYLE
350
17
  3
ACAD_PLOTSETTINGS
350
19
  3
ACAD_PLOTSTYLENAME
350
E
  3
ACAD_SCALELIST
350
47
  0
DICTIONARY
  5
D
102
{ACAD_REACTORS
330
C
102
}
330
C
100
AcDbDictionary
281
     1
  0
DICTIONARY
  5
1A
102
{ACAD_REACTORS
330
C
102
}
330
C
100
AcDbDictionary
281
     1
  3
_Back
350
1E
  3
_Isometric
350
1C2
  3
_Left
350
26
  3
Model
350
22
  0
DICTIONARY
  5
17
102
{ACAD_REACTORS
330
C
102
}
330
C
100
AcDbDictionary
281
     1
  3
Standard
350
18
  0
DICTIONARY
  5
19
102
{ACAD_REACTORS
330
C
102
}
330
C
100
AcDbDictionary
281
     1
  0
ACDBDICTIONARYWDFLT
  5
E
102
{ACAD_REACTORS
330
C
102
}
330
C
100
AcDbDictionary
281
     1
  3
Normal
350
F
100
AcDbDictionaryWithDefault
340
F
  0
DICTIONARY
  5
47
102
{ACAD_REACTORS
330
C
102
}
330
C
100
AcDbDictionary
281
     1
  3
A0
350
48
  3
A1
350
49
  3
A2
350
4A
  3
A3
350
4B
  3
A4
350
4C
  3
A5
350
4D
  3
A6
350
4E
  3
A7
350
4F
  3
A8
350
50
  3
A9
350
51
  3
B0
350
52
  3
B1
350
53
  3
B2
350
54
  3
B3
350
55
  3
B4
350
56
  3
B5
350
57
  3
B6
350
58
  3
B7
350
59
  3
B8
350
5A
  3
B9
350
5B
  3
C0
350
5C
  3
C1
350
5D
  3
C2
350
5E
  3
C3
350
5F
  3
C4
350
60
  3
C5
350
61
  3
C6
350
62
  3
C7
350
63
  3
C8
350
64
  3
C9
350
65
  3
D0
350
66
  3
D1
350
67
  3
D2
350
68
  0
LAYOUT
  5
1E
102
{ACAD_REACTORS
330
1A
102
}
330
1A
100
AcDbPlotSettings
  1

  2
none_device
  4
Letter_(8.50_x_11.00_Inches)
  6

 40
6.35
 41
6.35
 42
6.35001
 43
6.35001
 44
215.9
 45
279.4
 46
0.0
 47
0.0
 48
0.0
 49
0.0
140
0.0
141
0.0
142
1.0
143
4.499437739
 70
   688
 72
     0
 73
     1
 74
     1
  7

 75
     0
147
0.2222499917
148
600.0
149
300.0
100
AcDbLayout
  1
_Back
 70
     1
 71
     1
 10
-24.7469084503
 20
-12.9358830568
 11
24.7469066788
 21
25.3093377248
 12
0.0
 22
0.0
 32
0.0
 14
-23.6220472441
 24
-11.811023622
 34
0.0
 15
23.6220472441
 25
11.811023622
 35
0.0
146
0.0
 13
0.0
 23
0.0
 33
0.0
 16
1.0
 26
0.0
 36
0.0
 17
0.0
 27
1.0
 37
0.0
 76
     0
330
1B
331
260
  0
LAYOUT
  5
1C2
102
{ACAD_REACTORS
330
1A
102
}
330
1A
100
AcDbPlotSettings
  1

  2
none_device
  4
Letter_(8.50_x_11.00_Inches)
  6

 40
6.35
 41
6.35
 42
6.35001
 43
6.35001
 44
215.9
 45
279.4
 46
0.0
 47
0.0
 48
0.0
 49
0.0
140
0.0
141
0.0
142
1.0
143
4.499437739
 70
   688
 72
     0
 73
     1
 74
     1
  7

 75
     0
147
0.2222499917
148
600.0
149
300.0
100
AcDbLayout
  1
_Isometric
 70
     1
 71
     3
 10
0.0
 20
0.0
 11
0.0
 21
0.0
 12
0.0
 22
0.0
 32
0.0
 14
0.0
 24
0.0
 34
0.0
 15
0.0
 25
0.0
 35
0.0
146
0.0
 13
0.0
 23
0.0
 33
0.0
 16
1.0
 26
0.0
 36
0.0
 17
0.0
 27
1.0
 37
0.0
 76
     0
330
1C1
331
264
  0
LAYOUT
  5
26
102
{ACAD_REACTORS
330
1A
102
}
330
1A
100
AcDbPlotSettings
  1

  2
none_device
  4
Letter_(8.50_x_11.00_Inches)
  6

 40
6.35
 41
6.35
 42
6.35001
 43
6.35001
 44
215.9
 45
279.4
 46
0.0
 47
0.0
 48
0.0
 49
0.0
140
0.0
141
0.0
142
1.0
143
4.499437739
 70
   688
 72
     0
 73
     1
 74
     1
  7

 75
     0
147
0.2222499917
148
600.0
149
300.0
100
AcDbLayout
  1
_Left
 70
     1
 71
     2
 10
0.0
 20
0.0
 11
0.0
 21
0.0
 12
0.0
 22
0.0
 32
0.0
 14
0.0
 24
0.0
 34
0.0
 15
0.0
 25
0.0
 35
0.0
146
0.0
 13
0.0
 23
0.0
 33
0.0
 16
1.0
 26
0.0
 36
0.0
 17
0.0
 27
1.0
 37
0.0
 76
     0
330
23
331
262
  0
LAYOUT
  5
22
102
{ACAD_REACTORS
330
1A
102
}
330
1A
100
AcDbPlotSettings
  1

  2
none_device
  4
ANSI_A_(11.00_x_8.50_Inches)
  6

 40
6.35
 41
19.05
 42
6.35000508
 43
19.05000254
 44
279.4
 45
215.9
 46
133.34999746
 47
88.89999873
 48
0.0
 49
0.0
140
0.0
141
0.0
142
0.230505
143
1.0
 70
  1696
 72
     0
 73
     0
 74
     0
  7

 75
     0
147
0.5913241897
148
-39.4088153714
149
0.0
100
AcDbLayout
  1
Model
 70
     1
 71
     0
 10
0.0
 20
0.0
 11
12.0
 21
9.0
 12
0.0
 22
0.0
 32
0.0
 14
-23.6220472441
 24
-11.811023622
 34
0.0
 15
23.6220472441
 25
11.811023622
 35
0.0
146
0.0
 13
0.0
 23
0.0
 33
0.0
 16
1.0
 26
0.0
 36
0.0
 17
0.0
 27
1.0
 37
0.0
 76
     0
330
1F
331
29
  0
MLINESTYLE
  5
18
102
{ACAD_REACTORS
330
17
102
}
330
17
100
AcDbMlineStyle
  2
Standard
 70
     0
  3

 62
   256
 51
90.0
 52
90.0
 71
     2
 49
0.5
 62
   256
  6
BYLAYER
 49
-0.5
 62
   256
  6
BYLAYER
  0
ACDBPLACEHOLDER
  5
F
102
{ACAD_REACTORS
330
E
102
}
330
E
  0
SCALE
  5
48
102
{ACAD_REACTORS
330
47
102
}
330
47
100
AcDbScale
 70
     0
300
1:1
140
1.0
141
1.0
290
     1
  0
SCALE
  5
49
102
{ACAD_REACTORS
330
47
102
}
330
47
100
AcDbScale
 70
     0
300
1:2
140
1.0
141
2.0
290
     0
  0
SCALE
  5
4A
102
{ACAD_REACTORS
330
47
102
}
330
47
100
AcDbScale
 70
     0
300
1:4
140
1.0
141
4.0
290
     0
  0
SCALE
  5
4B
102
{ACAD_REACTORS
330
47
102
}
330
47
100
AcDbScale
 70
     0
300
1:5
140
1.0
141
5.0
290
     0
  0
SCALE
  5
4C
102
{ACAD_REACTORS
330
47
102
}
330
47
100
AcDbScale
 70
     0
300
1:8
140
1.0
141
8.0
290
     0
  0
SCALE
  5
4D
102
{ACAD_REACTORS
330
47
102
}
330
47
100
AcDbScale
 70
     0
300
1:10
140
1.0
141
10.0
290
     0
  0
SCALE
  5
4E
102
{ACAD_REACTORS
330
47
102
}
330
47
100
AcDbScale
 70
     0
300
1:16
140
1.0
141
16.0
290
     0
  0
SCALE
  5
4F
102
{ACAD_REACTORS
330
47
102
}
330
47
100
AcDbScale
 70
     0
300
1:20
140
1.0
141
20.0
290
     0
  0
SCALE
  5
50
102
{ACAD_REACTORS
330
47
102
}
330
47
100
AcDbScale
 70
     0
300
1:30
140
1.0
141
30.0
290
     0
  0
SCALE
  5
51
102
{ACAD_REACTORS
330
47
102
}
330
47
100
AcDbScale
 70
     0
300
1:40
140
1.0
141
40.0
290
     0
  0
SCALE
  5
52
102
{ACAD_REACTORS
330
47
102
}
330
47
100
AcDbScale
 70
     0
300
1:50
140
1.0
141
50.0
290
     0
  0
SCALE
  5
53
102
{ACAD_REACTORS
330
47
102
}
330
47
100
AcDbScale
 70
     0
300
1:100
140
1.0
141
100.0
290
     0
  0
SCALE
  5
54
102
{ACAD_REACTORS
330
47
102
}
330
47
100
AcDbScale
 70
     0
300
2:1
140
2.0
141
1.0
290
     0
  0
SCALE
  5
55
102
{ACAD_REACTORS
330
47
102
}
330
47
100
AcDbScale
 70
     0
300
4:1
140
4.0
141
1.0
290
     0
  0
SCALE
  5
56
102
{ACAD_REACTORS
330
47
102
}
330
47
100
AcDbScale
 70
     0
300
8:1
140
8.0
141
1.0
290
     0
  0
SCALE
  5
57
102
{ACAD_REACTORS
330
47
102
}
330
47
100
AcDbScale
 70
     0
300
10:1
140
10.0
141
1.0
290
     0
  0
SCALE
  5
58
102
{ACAD_REACTORS
330
47
102
}
330
47
100
AcDbScale
 70
     0
300
100:1
140
100.0
141
1.0
290
     0
  0
SCALE
  5
59
102
{ACAD_REACTORS
330
47
102
}
330
47
100
AcDbScale
 70
     0
300
1/128" = 1'-0"
140
0.0078125
141
12.0
290
     0
  0
SCALE
  5
5A
102
{ACAD_REACTORS
330
47
102
}
330
47
100
AcDbScale
 70
     0
300
1/64" = 1'-0"
140
0.015625
141
12.0
290
     0
  0
SCALE
  5
5B
102
{ACAD_REACTORS
330
47
102
}
330
47
100
AcDbScale
 70
     0
300
1/32" = 1'-0"
140
0.03125
141
12.0
290
     0
  0
SCALE
  5
5C
102
{ACAD_REACTORS
330
47
102
}
330
47
100
AcDbScale
 70
     0
300
1/16" = 1'-0"
140
0.0625
141
12.0
290
     0
  0
SCALE
  5
5D
102
{ACAD_REACTORS
330
47
102
}
330
47
100
AcDbScale
 70
     0
300
3/32" = 1'-0"
140
0.09375
141
12.0
290
     0
  0
SCALE
  5
5E
102
{ACAD_REACTORS
330
47
102
}
330
47
100
AcDbScale
 70
     0
300
1/8" = 1'-0"
140
0.125
141
12.0
290
     0
  0
SCALE
  5
5F
102
{ACAD_REACTORS
330
47
102
}
330
47
100
AcDbScale
 70
     0
300
3/16" = 1'-0"
140
0.1875
141
12.0
290
     0
  0
SCALE
  5
60
102
{ACAD_REACTORS
330
47
102
}
330
47
100
AcDbScale
 70
     0
300
1/4" = 1'-0"
140
0.25
141
12.0
290
     0
  0
SCALE
  5
61
102
{ACAD_REACTORS
330
47
102
}
330
47
100
AcDbScale
 70
     0
300
3/8" = 1'-0"
140
0.375
141
12.0
290
     0
  0
SCALE
  5
62
102
{ACAD_REACTORS
330
47
102
}
330
47
100
AcDbScale
 70
     0
300
1/2" = 1'-0"
140
0.5
141
12.0
290
     0
  0
SCALE
  5
63
102
{ACAD_REACTORS
330
47
102
}
330
47
100
AcDbScale
 70
     0
300
3/4" = 1'-0"
140
0.75
141
12.0
290
     0
  0
SCALE
  5
64
102
{ACAD_REACTORS
330
47
102
}
330
47
100
AcDbScale
 70
     0
300
1" = 1'-0"
140
1.0
141
12.0
290
     0
  0
SCALE
  5
65
102
{ACAD_REACTORS
330
47
102
}
330
47
100
AcDbScale
 70
     0
300
1-1/2" = 1'-0"
140
1.5
141
12.0
290
     0
  0
SCALE
  5
66
102
{ACAD_REACTORS
330
47
102
}
330
47
100
AcDbScale
 70
     0
300
3" = 1'-0"
140
3.0
141
12.0
290
     0
  0
SCALE
  5
67
102
{ACAD_REACTORS
330
47
102
}
330
47
100
AcDbScale
 70
     0
300
6" = 1'-0"
140
6.0
141
12.0
290
     0
  0
SCALE
  5
68
102
{ACAD_REACTORS
330
47
102
}
330
47
100
AcDbScale
 70
     0
300
1'-0" = 1'-0"
140
12.0
141
12.0
290
     0
  0
ENDSEC
  0
EOF
