  0
SECTION
  2
HEADER
  9
$ACADVER
  1
AC1015
  9
$ACADMAINTVER
 70
     6
  9
$DWGCODEPAGE
  3
ANSI_1252
  9
$INSBASE
 10
0.0
 20
0.0
 30
0.0
  9
$EXTMIN
 10
-250.0
 20
-15.0
 30
0.0
  9
$EXTMAX
 10
250.0
 20
15.0
 30
0.0
  9
$LIMMIN
 10
0.0
 20
0.0
  9
$LIMMAX
 10
420.0
 20
297.0
  9
$ORTHOMODE
 70
     0
  9
$REGENMODE
 70
     1
  9
$FILLMODE
 70
     1
  9
$QTEXTMODE
 70
     0
  9
$MIRRTEXT
 70
     1
  9
$LTSCALE
 40
1.0
  9
$ATTMODE
 70
     1
  9
$TEXTSIZE
 40
3.5
  9
$TRACEWID
 40
1.0
  9
$TEXTSTYLE
  7
Standard
  9
$CLAYER
  8
0
  9
$CELTYPE
  6
ByLayer
  9
$CECOLOR
 62
   256
  9
$CELTSCALE
 40
1.0
  9
$DISPSILH
 70
     0
  9
$DIMSCALE
 40
1.0
  9
$DIMASZ
 40
3.302
  9
$DIMEXO
 40
1.0
  9
$DIMDLI
 40
3.75
  9
$DIMRND
 40
0.0
  9
$DIMDLE
 40
0.0
  9
$DIMEXE
 40
1.0
  9
$DIMTP
 40
0.0
  9
$DIMTM
 40
0.0
  9
$DIMTXT
 40
3.5
  9
$DIMCEN
 40
2.5
  9
$DIMTSZ
 40
0.0
  9
$DIMTOL
 70
     0
  9
$DIMLIM
 70
     0
  9
$DIMTIH
 70
     1
  9
$DIMTOH
 70
     1
  9
$DIMSE1
 70
     0
  9
$DIMSE2
 70
     0
  9
$DIMTAD
 70
     1
  9
$DIMZIN
 70
     1
  9
$DIMBLK
  1

  9
$DIMASO
 70
     1
  9
$DIMSHO
 70
     1
  9
$DIMPOST
  1

  9
$DIMAPOST
  1

  9
$DIMALT
 70
     0
  9
$DIMALTD
 70
     3
  9
$DIMALTF
 40
0.0393700787
  9
$DIMLFAC
 40
1.0
  9
$DIMTOFL
 70
     1
  9
$DIMTVP
 40
0.0
  9
$DIMTIX
 70
     0
  9
$DIMSOXD
 70
     0
  9
$DIMSAH
 70
     0
  9
$DIMBLK1
  1

  9
$DIMBLK2
  1

  9
$DIMSTYLE
  2
ISO-25
  9
$DIMCLRD
 70
     0
  9
$DIMCLRE
 70
     0
  9
$DIMCLRT
 70
     0
  9
$DIMTFAC
 40
1.0
  9
$DIMGAP
 40
1.524
  9
$DIMJUST
 70
     0
  9
$DIMSD1
 70
     0
  9
$DIMSD2
 70
     0
  9
$DIMTOLJ
 70
     0
  9
$DIMTZIN
 70
     1
  9
$DIMALTZ
 70
     0
  9
$DIMALTTZ
 70
     0
  9
$DIMUPT
 70
     0
  9
$DIMDEC
 70
     2
  9
$DIMTDEC
 70
     2
  9
$DIMALTU
 70
     2
  9
$DIMALTTD
 70
     3
  9
$DIMTXSTY
  7
Standard
  9
$DIMAUNIT
 70
     0
  9
$DIMADEC
 70
     2
  9
$DIMALTRND
 40
0.0
  9
$DIMAZIN
 70
     0
  9
$DIMDSEP
 70
    44
  9
$DIMATFIT
 70
     3
  9
$DIMFRAC
 70
     0
  9
$DIMLDRBLK
  1

  9
$DIMLUNIT
 70
     2
  9
$DIMLWD
 70
    -2
  9
$DIMLWE
 70
    -2
  9
$DIMTMOVE
 70
     0
  9
$LUNITS
 70
     2
  9
$LUPREC
 70
     2
  9
$SKETCHINC
 40
1.0
  9
$FILLETRAD
 40
10.0
  9
$AUNITS
 70
     0
  9
$AUPREC
 70
     2
  9
$MENU
  1
.
  9
$ELEVATION
 40
0.0
  9
$PELEVATION
 40
0.0
  9
$THICKNESS
 40
0.0
  9
$LIMCHECK
 70
     0
  9
$CHAMFERA
 40
0.0
  9
$CHAMFERB
 40
0.0
  9
$CHAMFERC
 40
0.0
  9
$CHAMFERD
 40
0.0
  9
$SKPOLY
 70
     0
  9
$TDCREATE
 40
2458746.344331227
  9
$TDUCREATE
 40
2458746.30266456
  9
$TDUPDATE
 40
2458746.344377905
  9
$TDUUPDATE
 40
2458746.302711239
  9
$TDINDWG
 40
0.0000000116
  9
$TDUSRTIMER
 40
0.0000000116
  9
$USRTIMER
 70
     1
  9
$ANGBASE
 50
0.0
  9
$ANGDIR
 70
     0
  9
$PDMODE
 70
     0
  9
$PDSIZE
 40
-1.0
  9
$PLINEWID
 40
0.0
  9
$SPLFRAME
 70
     0
  9
$SPLINETYPE
 70
     6
  9
$SPLINESEGS
 70
     8
  9
$HANDSEED
  5
6D0
  9
$SURFTAB1
 70
     6
  9
$SURFTAB2
 70
     6
  9
$SURFTYPE
 70
     6
  9
$SURFU
 70
     6
  9
$SURFV
 70
     6
  9
$UCSBASE
  2

  9
$UCSNAME
  2

  9
$UCSORG
 10
0.0
 20
0.0
 30
0.0
  9
$UCSXDIR
 10
1.0
 20
0.0
 30
0.0
  9
$UCSYDIR
 10
0.0
 20
1.0
 30
0.0
  9
$UCSORTHOREF
  2

  9
$UCSORTHOVIEW
 70
     0
  9
$UCSORGTOP
 10
0.0
 20
0.0
 30
0.0
  9
$UCSORGBOTTOM
 10
0.0
 20
0.0
 30
0.0
  9
$UCSORGLEFT
 10
0.0
 20
0.0
 30
0.0
  9
$UCSORGRIGHT
 10
0.0
 20
0.0
 30
0.0
  9
$UCSORGFRONT
 10
0.0
 20
0.0
 30
0.0
  9
$UCSORGBACK
 10
0.0
 20
0.0
 30
0.0
  9
$PUCSBASE
  2

  9
$PUCSNAME
  2

  9
$PUCSORG
 10
0.0
 20
0.0
 30
0.0
  9
$PUCSXDIR
 10
1.0
 20
0.0
 30
0.0
  9
$PUCSYDIR
 10
0.0
 20
1.0
 30
0.0
  9
$PUCSORTHOREF
  2

  9
$PUCSORTHOVIEW
 70
     0
  9
$PUCSORGTOP
 10
0.0
 20
0.0
 30
0.0
  9
$PUCSORGBOTTOM
 10
0.0
 20
0.0
 30
0.0
  9
$PUCSORGLEFT
 10
0.0
 20
0.0
 30
0.0
  9
$PUCSORGRIGHT
 10
0.0
 20
0.0
 30
0.0
  9
$PUCSORGFRONT
 10
0.0
 20
0.0
 30
0.0
  9
$PUCSORGBACK
 10
0.0
 20
0.0
 30
0.0
  9
$USERI1
 70
     0
  9
$USERI2
 70
     0
  9
$USERI3
 70
     0
  9
$USERI4
 70
     0
  9
$USERI5
 70
     0
  9
$USERR1
 40
0.0
  9
$USERR2
 40
0.0
  9
$USERR3
 40
0.0
  9
$USERR4
 40
0.0
  9
$USERR5
 40
0.0
  9
$WORLDVIEW
 70
     1
  9
$SHADEDGE
 70
     3
  9
$SHADEDIF
 70
    70
  9
$TILEMODE
 70
     1
  9
$MAXACTVP
 70
    64
  9
$PINSBASE
 10
0.0
 20
0.0
 30
0.0
  9
$PLIMCHECK
 70
     0
  9
$PEXTMIN
 10
-250.0
 20
-601.0
 30
0.0
  9
$PEXTMAX
 10
250.0
 20
601.0
 30
0.0
  9
$PLIMMIN
 10
-373.2820512821
 20
-647.2307692308
  9
$PLIMMAX
 10
1457.4564102564
 20
647.2307692308
  9
$UNITMODE
 70
     0
  9
$VISRETAIN
 70
     1
  9
$PLINEGEN
 70
     0
  9
$PSLTSCALE
 70
     1
  9
$TREEDEPTH
 70
  3020
  9
$CMLSTYLE
  2
Standard
  9
$CMLJUST
 70
     0
  9
$CMLSCALE
 40
20.0
  9
$PROXYGRAPHICS
 70
     1
  9
$MEASUREMENT
 70
     1
  9
$CELWEIGHT
370
    -1
  9
$ENDCAPS
280
     0
  9
$JOINSTYLE
280
     0
  9
$LWDISPLAY
290
     1
  9
$INSUNITS
 70
     4
  9
$HYPERLINKBASE
  1

  9
$STYLESHEET
  1

  9
$XEDIT
290
     1
  9
$CEPSNTYPE
380
     0
  9
$PSTYLEMODE
290
     1
  9
$FINGERPRINTGUID
  2
{d0459b67-03f7-45cd-8b63-b6010d327c07}
  9
$VERSIONGUID
  2
{FAEB1C32-E019-11D5-929B-00C0DF256EC4}
  9
$EXTNAMES
290
     1
  9
$PSVPSCALE
 40
0.0
  9
$OLESTARTUP
290
     0
  0
ENDSEC
  0
SECTION
  2
CLASSES
  0
CLASS
  1
ACDBDICTIONARYWDFLT
  2
AcDbDictionaryWithDefault
  3
ObjectDBX Classes
 90
        0
280
     0
281
     0
  0
CLASS
  1
VISUALSTYLE
  2
AcDbVisualStyle
  3
ObjectDBX Classes
 90
     4095
280
     0
281
     0
  0
CLASS
  1
MATERIAL
  2
AcDbMaterial
  3
ObjectDBX Classes
 90
     1153
280
     0
281
     0
  0
CLASS
  1
SCALE
  2
AcDbScale
  3
ObjectDBX Classes
 90
     1153
280
     0
281
     0
  0
CLASS
  1
TABLESTYLE
  2
AcDbTableStyle
  3
ObjectDBX Classes
 90
     4095
280
     0
281
     0
  0
CLASS
  1
MLEADERSTYLE
  2
AcDbMLeaderStyle
  3
ACDB_MLEADERSTYLE_CLASS
 90
     4095
280
     0
281
     0
  0
CLASS
  1
SUN
  2
AcDbSun
  3
SCENEOE
 90
     1153
280
     0
281
     0
  0
CLASS
  1
ACDBPLACEHOLDER
  2
AcDbPlaceHolder
  3
ObjectDBX Classes
 90
        0
280
     0
281
     0
  0
CLASS
  1
LAYOUT
  2
AcDbLayout
  3
ObjectDBX Classes
 90
        0
280
     0
281
     0
  0
ENDSEC
  0
SECTION
  2
TABLES
  0
TABLE
  2
VPORT
  5
8
330
0
100
AcDbSymbolTable
 70
     1
  0
VPORT
  5
29
330
8
100
AcDbSymbolTableRecord
100
AcDbViewportTableRecord
  2
*Active
 70
     0
 10
0.0
 20
0.0
 11
1.0
 21
1.0
 12
0.0
 22
0.0
 13
0.0
 23
0.0
 14
10.0
 24
10.0
 15
10.0
 25
10.0
 16
0.0
 26
0.0
 36
1.0
 17
0.0
 27
0.0
 37
0.0
 40
30.6
 41
16.6666666667
 42
50.0
 43
0.0
 44
0.0
 50
0.0
 51
0.0
 71
     0
 72
   100
 73
     1
 74
     3
 75
     0
 76
     0
 77
     0
 78
     0
281
     0
 65
     1
110
0.0
120
0.0
130
0.0
111
1.0
121
0.0
131
0.0
112
0.0
122
1.0
132
0.0
 79
     0
146
0.0
  0
ENDTAB
  0
TABLE
  2
LTYPE
  5
5
330
0
100
AcDbSymbolTable
 70
     6
  0
LTYPE
  5
14
330
5
100
AcDbSymbolTableRecord
100
AcDbLinetypeTableRecord
  2
ByBlock
 70
     0
  3

 72
    65
 73
     0
 40
0.0
  0
LTYPE
  5
15
330
5
100
AcDbSymbolTableRecord
100
AcDbLinetypeTableRecord
  2
ByLayer
 70
     0
  3

 72
    65
 73
     0
 40
0.0
  0
LTYPE
  5
16
330
5
100
AcDbSymbolTableRecord
100
AcDbLinetypeTableRecord
  2
Continuous
 70
     0
  3
Solid line
 72
    65
 73
     0
 40
0.0
  0
LTYPE
  5
6E
330
5
100
AcDbSymbolTableRecord
100
AcDbLinetypeTableRecord
  2
HIDDEN
 70
     0
  3
Hidden __ __ __ __ __ __ __ __ __ __ __ __ __ __
 72
    65
 73
     2
 40
1.905
 49
1.27
 74
     0
 49
-0.635
 74
     0
  0
LTYPE
  5
6F
330
5
100
AcDbSymbolTableRecord
100
AcDbLinetypeTableRecord
  2
PHANTOM
 70
     0
  3
Phantom ______  __  __  ______  __  __  ______
 72
    65
 73
     6
 40
12.7
 49
6.35
 74
     0
 49
-1.27
 74
     0
 49
1.27
 74
     0
 49
-1.27
 74
     0
 49
1.27
 74
     0
 49
-1.27
 74
     0
  0
LTYPE
  5
70
330
5
100
AcDbSymbolTableRecord
100
AcDbLinetypeTableRecord
  2
CENTER
 70
     0
  3
Center ____ _ ____ _ ____ _ ____ _ ____ _ ____
 72
    65
 73
     4
 40
10.16
 49
6.35
 74
     0
 49
-1.27
 74
     0
 49
1.27
 74
     0
 49
-1.27
 74
     0
  0
LTYPE
  5
71
330
5
100
AcDbSymbolTableRecord
100
AcDbLinetypeTableRecord
  2
CENTERX2
 70
     0
  3
Center (2x) ________  __  ________  __  _____
 72
    65
 73
     4
 40
20.32
 49
12.7
 74
     0
 49
-2.54
 74
     0
 49
2.54
 74
     0
 49
-2.54
 74
     0
  0
LTYPE
  5
72
330
5
100
AcDbSymbolTableRecord
100
AcDbLinetypeTableRecord
  2
DOT2
 70
     0
  3
Dot (.5x) ........................................
 72
    65
 73
     2
 40
0.635
 49
0.0
 74
     0
 49
-0.635
 74
     0
  0
ENDTAB
  0
TABLE
  2
LAYER
  5
2
330
0
100
AcDbSymbolTable
 70
     1
  0
LAYER
  5
10
330
2
100
AcDbSymbolTableRecord
100
AcDbLayerTableRecord
  2
0
 70
     0
 62
     7
  6
Continuous
370
    -3
390
F
  0
ENDTAB
  0
TABLE
  2
STYLE
  5
3
330
0
100
AcDbSymbolTable
 70
     1
  0
STYLE
  5
11
330
3
100
AcDbSymbolTableRecord
100
AcDbTextStyleTableRecord
  2
Standard
 70
     0
 40
0.0
 41
1.0
 50
0.0
 71
     0
 42
3.5
  3
txt
  4

  0
ENDTAB
  0
TABLE
  2
VIEW
  5
6
330
0
100
AcDbSymbolTable
 70
     0
  0
ENDTAB
  0
TABLE
  2
UCS
  5
7
330
0
100
AcDbSymbolTable
 70
     0
  0
ENDTAB
  0
TABLE
  2
APPID
  5
9
330
0
100
AcDbSymbolTable
 70
     1
  0
APPID
  5
12
330
9
100
AcDbSymbolTableRecord
100
AcDbRegAppTableRecord
  2
ACAD
 70
     0
  0
ENDTAB
  0
TABLE
  2
DIMSTYLE
  5
A
330
0
100
AcDbSymbolTable
 70
     1
100
AcDbDimStyleTable
  0
DIMSTYLE
105
27
330
A
100
AcDbSymbolTableRecord
100
AcDbDimStyleTableRecord
  2
ISO-25
 70
     0
 41
2.5
 42
0.625
 43
3.75
 44
1.25
 73
     0
 74
     0
 77
     1
 78
     8
140
2.5
141
2.5
143
0.0393700787
147
0.625
171
     3
172
     1
178
     0
271
     2
272
     2
274
     3
278
    44
283
     0
284
     8
340
11
  0
ENDTAB
  0
TABLE
  2
BLOCK_RECORD
  5
1
330
0
100
AcDbSymbolTable
 70
     5
  0
BLOCK_RECORD
  5
1F
330
1
100
AcDbSymbolTableRecord
100
AcDbBlockTableRecord
  2
*Model_Space
340
22
  0
BLOCK_RECORD
  5
1B
330
1
100
AcDbSymbolTableRecord
100
AcDbBlockTableRecord
  2
*Paper_Space
340
1E
  0
BLOCK_RECORD
  5
23
330
1
100
AcDbSymbolTableRecord
100
AcDbBlockTableRecord
  2
*Paper_Space0
340
26
  0
BLOCK_RECORD
  5
2D7
330
1
100
AcDbSymbolTableRecord
100
AcDbBlockTableRecord
  2
*Paper_Space1
340
2D8
  0
BLOCK_RECORD
  5
49B
330
1
100
AcDbSymbolTableRecord
100
AcDbBlockTableRecord
  2
*Paper_Space2
340
49C
  0
BLOCK_RECORD
  5
4C7
330
1
100
AcDbSymbolTableRecord
100
AcDbBlockTableRecord
  2
*Paper_Space3
340
4C8
  0
BLOCK_RECORD
  5
515
330
1
100
AcDbSymbolTableRecord
100
AcDbBlockTableRecord
  2
*Paper_Space4
340
516
  0
ENDTAB
  0
ENDSEC
  0
SECTION
  2
BLOCKS
  0
BLOCK
  5
20
330
1F
100
AcDbEntity
  8
0
100
AcDbBlockBegin
  2
*Model_Space
 70
     0
 10
0.0
 20
0.0
 30
0.0
  3
*Model_Space
  1

  0
ENDBLK
  5
21
330
1F
100
AcDbEntity
  8
0
100
AcDbBlockEnd
  0
BLOCK
  5
1C
330
1B
100
AcDbEntity
 67
     1
  8
0
100
AcDbBlockBegin
  2
*Paper_Space
 70
     0
 10
0.0
 20
0.0
 30
0.0
  3
*Paper_Space
  1

  0
ENDBLK
  5
1D
330
1B
100
AcDbEntity
 67
     1
  8
0
100
AcDbBlockEnd
  0
BLOCK
  5
24
330
23
100
AcDbEntity
  8
0
100
AcDbBlockBegin
  2
*Paper_Space0
 70
     0
 10
0.0
 20
0.0
 30
0.0
  3
*Paper_Space0
  1

  0
LINE
  5
2C6
330
23
100
AcDbEntity
  8
0
  6
Continuous
 62
     7
370
    25
100
AcDbLine
 10
11.5
 20
600.0
 30
0.0
 11
11.5
 21
601.0
 31
0.0
  0
LINE
  5
2C7
330
23
100
AcDbEntity
  8
0
  6
Continuous
 62
     7
370
    25
100
AcDbLine
 10
-11.5
 20
601.0
 30
0.0
 11
-11.5
 21
600.0
 31
0.0
  0
LINE
  5
2C8
330
23
100
AcDbEntity
  8
0
  6
Continuous
 62
     7
370
    25
100
AcDbLine
 10
-11.5
 20
-600.0
 30
0.0
 11
-11.5
 21
-601.0
 31
0.0
  0
LINE
  5
2C9
330
23
100
AcDbEntity
  8
0
  6
Continuous
 62
     7
370
    25
100
AcDbLine
 10
11.5
 20
-601.0
 30
0.0
 11
11.5
 21
-600.0
 31
0.0
  0
LINE
  5
2CA
330
23
100
AcDbEntity
  8
0
  6
Continuous
 62
     7
370
    25
100
AcDbLine
 10
15.0
 20
598.0
 30
0.0
 11
-15.0
 21
598.0
 31
0.0
  0
LINE
  5
2CB
330
23
100
AcDbEntity
  8
0
  6
Continuous
 62
     7
370
    25
100
AcDbLine
 10
-13.0
 20
600.0
 30
0.0
 11
13.0
 21
600.0
 31
0.0
  0
LINE
  5
2CC
330
23
100
AcDbEntity
  8
0
  6
Continuous
 62
     7
370
    25
100
AcDbLine
 10
13.0
 20
-600.0
 30
0.0
 11
-13.0
 21
-600.0
 31
0.0
  0
LINE
  5
2CD
330
23
100
AcDbEntity
  8
0
  6
Continuous
 62
     7
370
    25
100
AcDbLine
 10
0.0
 20
600.0
 30
0.0
 11
0.0
 21
-600.0
 31
0.0
  0
LINE
  5
2CE
330
23
100
AcDbEntity
  8
0
  6
Continuous
 62
     7
370
    25
100
AcDbLine
 10
-15.0
 20
-598.0
 30
0.0
 11
15.0
 21
-598.0
 31
0.0
  0
LINE
  5
2CF
330
23
100
AcDbEntity
  8
0
  6
Continuous
 62
     7
370
    25
100
AcDbLine
 10
15.0
 20
598.0
 30
0.0
 11
15.0
 21
-598.0
 31
0.0
  0
LINE
  5
2D0
330
23
100
AcDbEntity
  8
0
  6
Continuous
 62
     7
370
    25
100
AcDbLine
 10
-15.0
 20
-598.0
 30
0.0
 11
-15.0
 21
598.0
 31
0.0
  0
LINE
  5
2D1
330
23
100
AcDbEntity
  8
0
  6
Continuous
 62
     7
370
    25
100
AcDbLine
 10
-11.5
 20
601.0
 30
0.0
 11
11.5
 21
601.0
 31
0.0
  0
LINE
  5
2D2
330
23
100
AcDbEntity
  8
0
  6
Continuous
 62
     7
370
    25
100
AcDbLine
 10
-11.5
 20
-601.0
 30
0.0
 11
11.5
 21
-601.0
 31
0.0
  0
ARC
  5
2D3
330
23
100
AcDbEntity
  8
0
  6
Continuous
 62
     7
370
    25
100
AcDbCircle
 10
-13.0
 20
598.0
 30
0.0
 40
2.000000000000114
100
AcDbArc
 50
90.0
 51
180.0
  0
ARC
  5
2D4
330
23
100
AcDbEntity
  8
0
  6
Continuous
 62
     7
370
    25
100
AcDbCircle
 10
13.0
 20
-598.0
 30
0.0
 40
2.000000000000114
100
AcDbArc
 50
270.0
 51
360.0
  0
ARC
  5
2D5
330
23
100
AcDbEntity
  8
0
  6
Continuous
 62
     7
370
    25
100
AcDbCircle
 10
-13.0
 20
-598.0
 30
0.0
 40
2.000000000000114
100
AcDbArc
 50
180.0
 51
270.0
  0
ARC
  5
2D6
330
23
100
AcDbEntity
  8
0
  6
Continuous
 62
     7
370
    25
100
AcDbCircle
 10
13.0
 20
598.0
 30
0.0
 40
2.000000000000114
100
AcDbArc
 50
0.0
 51
90.0
  0
VIEWPORT
  5
6C6
330
23
100
AcDbEntity
  8
0
100
AcDbViewport
 10
0.0
 20
0.0
 30
0.0
 40
205.6
 41
156.0
 68
     1
 69
     1
 12
0.0
 22
0.0
 13
0.0
 23
0.0
 14
10.0
 24
10.0
 15
10.0
 25
10.0
 16
0.0
 26
0.0
 36
1.0
 17
0.0
 27
0.0
 37
0.0
 42
50.0
 43
0.0
 44
0.0
 45
386.9649805447
 50
0.0
 51
0.0
 72
   100
 90
   557152
  1

281
     0
 71
     1
 74
     0
110
0.0
120
0.0
130
0.0
111
1.0
121
0.0
131
0.0
112
0.0
122
1.0
132
0.0
 79
     0
146
0.0
  0
ENDBLK
  5
25
330
23
100
AcDbEntity
  8
0
100
AcDbBlockEnd
  0
BLOCK
  5
2D9
330
2D7
100
AcDbEntity
  8
0
100
AcDbBlockBegin
  2
*Paper_Space1
 70
     0
 10
0.0
 20
0.0
 30
0.0
  3
*Paper_Space1
  1

  0
LINE
  5
3C1
330
2D7
100
AcDbEntity
  8
0
  6
Continuous
 62
     7
370
    25
100
AcDbLine
 10
209.0
 20
-189.0
 30
0.0
 11
-209.0
 21
-189.0
 31
0.0
  0
LINE
  5
3C2
330
2D7
100
AcDbEntity
  8
0
  6
Continuous
 62
     7
370
    25
100
AcDbLine
 10
-209.0
 20
-211.0
 30
0.0
 11
209.0
 21
-211.0
 31
0.0
  0
LINE
  5
3C3
330
2D7
100
AcDbEntity
  8
0
  6
Continuous
 62
     7
370
    25
100
AcDbLine
 10
209.0
 20
-269.0
 30
0.0
 11
-209.0
 21
-269.0
 31
0.0
  0
LINE
  5
3C4
330
2D7
100
AcDbEntity
  8
0
  6
Continuous
 62
     7
370
    25
100
AcDbLine
 10
-209.0
 20
-291.0
 30
0.0
 11
209.0
 21
-291.0
 31
0.0
  0
LINE
  5
3C5
330
2D7
100
AcDbEntity
  8
0
  6
Continuous
 62
     7
370
    25
100
AcDbLine
 10
209.0
 20
-349.0
 30
0.0
 11
-209.0
 21
-349.0
 31
0.0
  0
LINE
  5
3C6
330
2D7
100
AcDbEntity
  8
0
  6
Continuous
 62
     7
370
    25
100
AcDbLine
 10
-209.0
 20
-371.0
 30
0.0
 11
209.0
 21
-371.0
 31
0.0
  0
LINE
  5
3C7
330
2D7
100
AcDbEntity
  8
0
  6
Continuous
 62
     7
370
    25
100
AcDbLine
 10
209.0
 20
-549.0
 30
0.0
 11
-209.0
 21
-549.0
 31
0.0
  0
LINE
  5
3C8
330
2D7
100
AcDbEntity
  8
0
  6
Continuous
 62
     7
370
    25
100
AcDbLine
 10
-209.0
 20
-571.0
 30
0.0
 11
209.0
 21
-571.0
 31
0.0
  0
LINE
  5
3C9
330
2D7
100
AcDbEntity
  8
0
  6
Continuous
 62
     7
370
    25
100
AcDbLine
 10
209.0
 20
-429.0
 30
0.0
 11
-209.0
 21
-429.0
 31
0.0
  0
LINE
  5
3CA
330
2D7
100
AcDbEntity
  8
0
  6
Continuous
 62
     7
370
    25
100
AcDbLine
 10
-209.0
 20
-451.0
 30
0.0
 11
209.0
 21
-451.0
 31
0.0
  0
LINE
  5
3CB
330
2D7
100
AcDbEntity
  8
0
  6
Continuous
 62
     7
370
    25
100
AcDbLine
 10
209.0
 20
-149.0
 30
0.0
 11
-209.0
 21
-149.0
 31
0.0
  0
LINE
  5
3CC
330
2D7
100
AcDbEntity
  8
0
  6
Continuous
 62
     7
370
    25
100
AcDbLine
 10
-209.0
 20
-171.0
 30
0.0
 11
209.0
 21
-171.0
 31
0.0
  0
LINE
  5
3CD
330
2D7
100
AcDbEntity
  8
0
  6
Continuous
 62
     7
370
    25
100
AcDbLine
 10
209.0
 20
-509.0
 30
0.0
 11
-209.0
 21
-509.0
 31
0.0
  0
LINE
  5
3CE
330
2D7
100
AcDbEntity
  8
0
  6
Continuous
 62
     7
370
    25
100
AcDbLine
 10
-209.0
 20
-531.0
 30
0.0
 11
209.0
 21
-531.0
 31
0.0
  0
LINE
  5
3CF
330
2D7
100
AcDbEntity
  8
0
  6
Continuous
 62
     7
370
    25
100
AcDbLine
 10
209.0
 20
-229.0
 30
0.0
 11
-209.0
 21
-229.0
 31
0.0
  0
LINE
  5
3D0
330
2D7
100
AcDbEntity
  8
0
  6
Continuous
 62
     7
370
    25
100
AcDbLine
 10
-209.0
 20
-251.0
 30
0.0
 11
209.0
 21
-251.0
 31
0.0
  0
LINE
  5
3D1
330
2D7
100
AcDbEntity
  8
0
  6
Continuous
 62
     7
370
    25
100
AcDbLine
 10
209.0
 20
-389.0
 30
0.0
 11
-209.0
 21
-389.0
 31
0.0
  0
LINE
  5
3D2
330
2D7
100
AcDbEntity
  8
0
  6
Continuous
 62
     7
370
    25
100
AcDbLine
 10
-209.0
 20
-411.0
 30
0.0
 11
209.0
 21
-411.0
 31
0.0
  0
LINE
  5
3D3
330
2D7
100
AcDbEntity
  8
0
  6
Continuous
 62
     7
370
    25
100
AcDbLine
 10
209.0
 20
-469.0
 30
0.0
 11
-209.0
 21
-469.0
 31
0.0
  0
LINE
  5
3D4
330
2D7
100
AcDbEntity
  8
0
  6
Continuous
 62
     7
370
    25
100
AcDbLine
 10
-209.0
 20
-491.0
 30
0.0
 11
209.0
 21
-491.0
 31
0.0
  0
LINE
  5
3D5
330
2D7
100
AcDbEntity
  8
0
  6
Continuous
 62
     7
370
    25
100
AcDbLine
 10
209.0
 20
-309.0
 30
0.0
 11
-209.0
 21
-309.0
 31
0.0
  0
LINE
  5
3D6
330
2D7
100
AcDbEntity
  8
0
  6
Continuous
 62
     7
370
    25
100
AcDbLine
 10
-209.0
 20
-331.0
 30
0.0
 11
209.0
 21
-331.0
 31
0.0
  0
LINE
  5
3D7
330
2D7
100
AcDbEntity
  8
0
  6
Continuous
 62
     7
370
    25
100
AcDbLine
 10
209.0
 20
51.0
 30
0.0
 11
-209.0
 21
51.0
 31
0.0
  0
LINE
  5
3D8
330
2D7
100
AcDbEntity
  8
0
  6
Continuous
 62
     7
370
    25
100
AcDbLine
 10
-209.0
 20
29.0
 30
0.0
 11
209.0
 21
29.0
 31
0.0
  0
LINE
  5
3D9
330
2D7
100
AcDbEntity
  8
0
  6
Continuous
 62
     7
370
    25
100
AcDbLine
 10
209.0
 20
171.0
 30
0.0
 11
-209.0
 21
171.0
 31
0.0
  0
LINE
  5
3DA
330
2D7
100
AcDbEntity
  8
0
  6
Continuous
 62
     7
370
    25
100
AcDbLine
 10
-209.0
 20
149.0
 30
0.0
 11
209.0
 21
149.0
 31
0.0
  0
LINE
  5
3DB
330
2D7
100
AcDbEntity
  8
0
  6
Continuous
 62
     7
370
    25
100
AcDbLine
 10
209.0
 20
251.0
 30
0.0
 11
-209.0
 21
251.0
 31
0.0
  0
LINE
  5
3DC
330
2D7
100
AcDbEntity
  8
0
  6
Continuous
 62
     7
370
    25
100
AcDbLine
 10
-209.0
 20
229.0
 30
0.0
 11
209.0
 21
229.0
 31
0.0
  0
LINE
  5
3DD
330
2D7
100
AcDbEntity
  8
0
  6
Continuous
 62
     7
370
    25
100
AcDbLine
 10
209.0
 20
131.0
 30
0.0
 11
-209.0
 21
131.0
 31
0.0
  0
LINE
  5
3DE
330
2D7
100
AcDbEntity
  8
0
  6
Continuous
 62
     7
370
    25
100
AcDbLine
 10
-209.0
 20
109.0
 30
0.0
 11
209.0
 21
109.0
 31
0.0
  0
LINE
  5
3DF
330
2D7
100
AcDbEntity
  8
0
  6
Continuous
 62
     7
370
    25
100
AcDbLine
 10
209.0
 20
211.0
 30
0.0
 11
-209.0
 21
211.0
 31
0.0
  0
LINE
  5
3E0
330
2D7
100
AcDbEntity
  8
0
  6
Continuous
 62
     7
370
    25
100
AcDbLine
 10
-209.0
 20
189.0
 30
0.0
 11
209.0
 21
189.0
 31
0.0
  0
LINE
  5
3E1
330
2D7
100
AcDbEntity
  8
0
  6
Continuous
 62
     7
370
    25
100
AcDbLine
 10
209.0
 20
91.0
 30
0.0
 11
-209.0
 21
91.0
 31
0.0
  0
LINE
  5
3E2
330
2D7
100
AcDbEntity
  8
0
  6
Continuous
 62
     7
370
    25
100
AcDbLine
 10
-209.0
 20
69.0
 30
0.0
 11
209.0
 21
69.0
 31
0.0
  0
LINE
  5
3E3
330
2D7
100
AcDbEntity
  8
0
  6
Continuous
 62
     7
370
    25
100
AcDbLine
 10
209.0
 20
11.0
 30
0.0
 11
-209.0
 21
11.0
 31
0.0
  0
LINE
  5
3E4
330
2D7
100
AcDbEntity
  8
0
  6
Continuous
 62
     7
370
    25
100
AcDbLine
 10
-209.0
 20
-11.0
 30
0.0
 11
209.0
 21
-11.0
 31
0.0
  0
LINE
  5
3E5
330
2D7
100
AcDbEntity
  8
0
  6
Continuous
 62
     7
370
    25
100
AcDbLine
 10
209.0
 20
531.0
 30
0.0
 11
-209.0
 21
531.0
 31
0.0
  0
LINE
  5
3E6
330
2D7
100
AcDbEntity
  8
0
  6
Continuous
 62
     7
370
    25
100
AcDbLine
 10
-209.0
 20
509.0
 30
0.0
 11
209.0
 21
509.0
 31
0.0
  0
LINE
  5
3E7
330
2D7
100
AcDbEntity
  8
0
  6
Continuous
 62
     7
370
    25
100
AcDbLine
 10
209.0
 20
411.0
 30
0.0
 11
-209.0
 21
411.0
 31
0.0
  0
LINE
  5
3E8
330
2D7
100
AcDbEntity
  8
0
  6
Continuous
 62
     7
370
    25
100
AcDbLine
 10
-209.0
 20
389.0
 30
0.0
 11
209.0
 21
389.0
 31
0.0
  0
LINE
  5
3E9
330
2D7
100
AcDbEntity
  8
0
  6
Continuous
 62
     7
370
    25
100
AcDbLine
 10
209.0
 20
571.0
 30
0.0
 11
-209.0
 21
571.0
 31
0.0
  0
LINE
  5
3EA
330
2D7
100
AcDbEntity
  8
0
  6
Continuous
 62
     7
370
    25
100
AcDbLine
 10
-209.0
 20
549.0
 30
0.0
 11
209.0
 21
549.0
 31
0.0
  0
LINE
  5
3EB
330
2D7
100
AcDbEntity
  8
0
  6
Continuous
 62
     7
370
    25
100
AcDbLine
 10
209.0
 20
491.0
 30
0.0
 11
-209.0
 21
491.0
 31
0.0
  0
LINE
  5
3EC
330
2D7
100
AcDbEntity
  8
0
  6
Continuous
 62
     7
370
    25
100
AcDbLine
 10
-209.0
 20
469.0
 30
0.0
 11
209.0
 21
469.0
 31
0.0
  0
LINE
  5
3ED
330
2D7
100
AcDbEntity
  8
0
  6
Continuous
 62
     7
370
    25
100
AcDbLine
 10
209.0
 20
451.0
 30
0.0
 11
-209.0
 21
451.0
 31
0.0
  0
LINE
  5
3EE
330
2D7
100
AcDbEntity
  8
0
  6
Continuous
 62
     7
370
    25
100
AcDbLine
 10
-209.0
 20
429.0
 30
0.0
 11
209.0
 21
429.0
 31
0.0
  0
LINE
  5
3EF
330
2D7
100
AcDbEntity
  8
0
  6
Continuous
 62
     7
370
    25
100
AcDbLine
 10
-218.5
 20
600.0
 30
0.0
 11
-218.5
 21
601.0
 31
0.0
  0
LINE
  5
3F0
330
2D7
100
AcDbEntity
  8
0
  6
Continuous
 62
     7
370
    25
100
AcDbLine
 10
-241.5
 20
601.0
 30
0.0
 11
-241.5
 21
600.0
 31
0.0
  0
LINE
  5
3F1
330
2D7
100
AcDbEntity
  8
0
  6
Continuous
 62
     7
370
    25
100
AcDbLine
 10
241.5
 20
600.0
 30
0.0
 11
241.5
 21
601.0
 31
0.0
  0
LINE
  5
3F2
330
2D7
100
AcDbEntity
  8
0
  6
Continuous
 62
     7
370
    25
100
AcDbLine
 10
218.5
 20
601.0
 30
0.0
 11
218.5
 21
600.0
 31
0.0
  0
LINE
  5
3F3
330
2D7
100
AcDbEntity
  8
0
  6
Continuous
 62
     7
370
    25
100
AcDbLine
 10
218.5
 20
-600.0
 30
0.0
 11
218.5
 21
-601.0
 31
0.0
  0
LINE
  5
3F4
330
2D7
100
AcDbEntity
  8
0
  6
Continuous
 62
     7
370
    25
100
AcDbLine
 10
241.5
 20
-601.0
 30
0.0
 11
241.5
 21
-600.0
 31
0.0
  0
LINE
  5
3F5
330
2D7
100
AcDbEntity
  8
0
  6
Continuous
 62
     7
370
    25
100
AcDbLine
 10
-241.5
 20
-600.0
 30
0.0
 11
-241.5
 21
-601.0
 31
0.0
  0
LINE
  5
3F6
330
2D7
100
AcDbEntity
  8
0
  6
Continuous
 62
     7
370
    25
100
AcDbLine
 10
-218.5
 20
-601.0
 30
0.0
 11
-218.5
 21
-600.0
 31
0.0
  0
LINE
  5
3F7
330
2D7
100
AcDbEntity
  8
0
  6
Continuous
 62
     7
370
    25
100
AcDbLine
 10
-250.0
 20
-598.0
 30
0.0
 11
-210.0
 21
-598.0
 31
0.0
  0
LINE
  5
3F8
330
2D7
100
AcDbEntity
  8
0
  6
Continuous
 62
     7
370
    25
100
AcDbLine
 10
-212.0
 20
-600.0
 30
0.0
 11
-248.0
 21
-600.0
 31
0.0
  0
LINE
  5
3F9
330
2D7
100
AcDbEntity
  8
0
  6
Continuous
 62
     7
370
    25
100
AcDbLine
 10
-248.0
 20
600.0
 30
0.0
 11
-212.0
 21
600.0
 31
0.0
  0
LINE
  5
3FA
330
2D7
100
AcDbEntity
  8
0
  6
Continuous
 62
     7
370
    25
100
AcDbLine
 10
-210.0
 20
598.0
 30
0.0
 11
-250.0
 21
598.0
 31
0.0
  0
LINE
  5
3FB
330
2D7
100
AcDbEntity
  8
0
  6
Continuous
 62
     7
370
    25
100
AcDbLine
 10
-235.0
 20
600.0
 30
0.0
 11
-235.0
 21
-600.0
 31
0.0
  0
LINE
  5
3FC
330
2D7
100
AcDbEntity
  8
0
  6
Continuous
 62
     7
370
    25
100
AcDbLine
 10
-250.0
 20
598.0
 30
0.0
 11
-250.0
 21
-598.0
 31
0.0
  0
LINE
  5
3FD
330
2D7
100
AcDbEntity
  8
0
  6
Continuous
 62
     7
370
    25
100
AcDbLine
 10
-210.0
 20
-598.0
 30
0.0
 11
-210.0
 21
598.0
 31
0.0
  0
LINE
  5
3FE
330
2D7
100
AcDbEntity
  8
0
  6
Continuous
 62
     7
370
    25
100
AcDbLine
 10
250.0
 20
598.0
 30
0.0
 11
210.0
 21
598.0
 31
0.0
  0
LINE
  5
3FF
330
2D7
100
AcDbEntity
  8
0
  6
Continuous
 62
     7
370
    25
100
AcDbLine
 10
212.0
 20
600.0
 30
0.0
 11
248.0
 21
600.0
 31
0.0
  0
LINE
  5
400
330
2D7
100
AcDbEntity
  8
0
  6
Continuous
 62
     7
370
    25
100
AcDbLine
 10
235.0
 20
-600.0
 30
0.0
 11
235.0
 21
600.0
 31
0.0
  0
LINE
  5
401
330
2D7
100
AcDbEntity
  8
0
  6
Continuous
 62
     7
370
    25
100
AcDbLine
 10
250.0
 20
-598.0
 30
0.0
 11
250.0
 21
598.0
 31
0.0
  0
LINE
  5
402
330
2D7
100
AcDbEntity
  8
0
  6
Continuous
 62
     7
370
    25
100
AcDbLine
 10
210.0
 20
-598.0
 30
0.0
 11
250.0
 21
-598.0
 31
0.0
  0
LINE
  5
403
330
2D7
100
AcDbEntity
  8
0
  6
Continuous
 62
     7
370
    25
100
AcDbLine
 10
210.0
 20
-598.0
 30
0.0
 11
210.0
 21
598.0
 31
0.0
  0
LINE
  5
404
330
2D7
100
AcDbEntity
  8
0
  6
Continuous
 62
     7
370
    25
100
AcDbLine
 10
248.0
 20
-600.0
 30
0.0
 11
212.0
 21
-600.0
 31
0.0
  0
LINE
  5
405
330
2D7
100
AcDbEntity
  8
0
  6
Continuous
 62
     7
370
    25
100
AcDbLine
 10
-241.5
 20
601.0
 30
0.0
 11
-218.5
 21
601.0
 31
0.0
  0
LINE
  5
406
330
2D7
100
AcDbEntity
  8
0
  6
Continuous
 62
     7
370
    25
100
AcDbLine
 10
241.5
 20
601.0
 30
0.0
 11
218.5
 21
601.0
 31
0.0
  0
LINE
  5
407
330
2D7
100
AcDbEntity
  8
0
  6
Continuous
 62
     7
370
    25
100
AcDbLine
 10
241.5
 20
-601.0
 30
0.0
 11
218.5
 21
-601.0
 31
0.0
  0
LINE
  5
408
330
2D7
100
AcDbEntity
  8
0
  6
Continuous
 62
     7
370
    25
100
AcDbLine
 10
-241.5
 20
-601.0
 30
0.0
 11
-218.5
 21
-601.0
 31
0.0
  0
LINE
  5
409
330
2D7
100
AcDbEntity
  8
0
  6
Continuous
 62
     8
370
    25
100
AcDbLine
 10
-209.0
 20
-349.0
 30
0.0
 11
-209.0
 21
-371.0
 31
0.0
  0
LINE
  5
40A
330
2D7
100
AcDbEntity
  8
0
  6
Continuous
 62
     8
370
    25
100
AcDbLine
 10
-209.0
 20
-229.0
 30
0.0
 11
-209.0
 21
-251.0
 31
0.0
  0
LINE
  5
40B
330
2D7
100
AcDbEntity
  8
0
  6
Continuous
 62
     8
370
    25
100
AcDbLine
 10
-209.0
 20
-429.0
 30
0.0
 11
-209.0
 21
-451.0
 31
0.0
  0
LINE
  5
40C
330
2D7
100
AcDbEntity
  8
0
  6
Continuous
 62
     8
370
    25
100
AcDbLine
 10
209.0
 20
-451.0
 30
0.0
 11
209.0
 21
-429.0
 31
0.0
  0
LINE
  5
40D
330
2D7
100
AcDbEntity
  8
0
  6
Continuous
 62
     8
370
    25
100
AcDbLine
 10
209.0
 20
-491.0
 30
0.0
 11
209.0
 21
-469.0
 31
0.0
  0
LINE
  5
40E
330
2D7
100
AcDbEntity
  8
0
  6
Continuous
 62
     8
370
    25
100
AcDbLine
 10
209.0
 20
-331.0
 30
0.0
 11
209.0
 21
-309.0
 31
0.0
  0
LINE
  5
40F
330
2D7
100
AcDbEntity
  8
0
  6
Continuous
 62
     8
370
    25
100
AcDbLine
 10
209.0
 20
-371.0
 30
0.0
 11
209.0
 21
-349.0
 31
0.0
  0
LINE
  5
410
330
2D7
100
AcDbEntity
  8
0
  6
Continuous
 62
     8
370
    25
100
AcDbLine
 10
-209.0
 20
-389.0
 30
0.0
 11
-209.0
 21
-411.0
 31
0.0
  0
LINE
  5
411
330
2D7
100
AcDbEntity
  8
0
  6
Continuous
 62
     8
370
    25
100
AcDbLine
 10
209.0
 20
-211.0
 30
0.0
 11
209.0
 21
-189.0
 31
0.0
  0
LINE
  5
412
330
2D7
100
AcDbEntity
  8
0
  6
Continuous
 62
     8
370
    25
100
AcDbLine
 10
209.0
 20
-411.0
 30
0.0
 11
209.0
 21
-389.0
 31
0.0
  0
LINE
  5
413
330
2D7
100
AcDbEntity
  8
0
  6
Continuous
 62
     8
370
    25
100
AcDbLine
 10
209.0
 20
-251.0
 30
0.0
 11
209.0
 21
-229.0
 31
0.0
  0
LINE
  5
414
330
2D7
100
AcDbEntity
  8
0
  6
Continuous
 62
     8
370
    25
100
AcDbLine
 10
-209.0
 20
-469.0
 30
0.0
 11
-209.0
 21
-491.0
 31
0.0
  0
LINE
  5
415
330
2D7
100
AcDbEntity
  8
0
  6
Continuous
 62
     8
370
    25
100
AcDbLine
 10
-209.0
 20
-549.0
 30
0.0
 11
-209.0
 21
-571.0
 31
0.0
  0
LINE
  5
416
330
2D7
100
AcDbEntity
  8
0
  6
Continuous
 62
     8
370
    25
100
AcDbLine
 10
-209.0
 20
-309.0
 30
0.0
 11
-209.0
 21
-331.0
 31
0.0
  0
LINE
  5
417
330
2D7
100
AcDbEntity
  8
0
  6
Continuous
 62
     8
370
    25
100
AcDbLine
 10
-209.0
 20
-509.0
 30
0.0
 11
-209.0
 21
-531.0
 31
0.0
  0
LINE
  5
418
330
2D7
100
AcDbEntity
  8
0
  6
Continuous
 62
     8
370
    25
100
AcDbLine
 10
209.0
 20
-171.0
 30
0.0
 11
209.0
 21
-149.0
 31
0.0
  0
LINE
  5
419
330
2D7
100
AcDbEntity
  8
0
  6
Continuous
 62
     8
370
    25
100
AcDbLine
 10
-209.0
 20
-189.0
 30
0.0
 11
-209.0
 21
-211.0
 31
0.0
  0
LINE
  5
41A
330
2D7
100
AcDbEntity
  8
0
  6
Continuous
 62
     8
370
    25
100
AcDbLine
 10
-209.0
 20
-269.0
 30
0.0
 11
-209.0
 21
-291.0
 31
0.0
  0
LINE
  5
41B
330
2D7
100
AcDbEntity
  8
0
  6
Continuous
 62
     8
370
    25
100
AcDbLine
 10
209.0
 20
-291.0
 30
0.0
 11
209.0
 21
-269.0
 31
0.0
  0
LINE
  5
41C
330
2D7
100
AcDbEntity
  8
0
  6
Continuous
 62
     8
370
    25
100
AcDbLine
 10
209.0
 20
-531.0
 30
0.0
 11
209.0
 21
-509.0
 31
0.0
  0
LINE
  5
41D
330
2D7
100
AcDbEntity
  8
0
  6
Continuous
 62
     8
370
    25
100
AcDbLine
 10
209.0
 20
-571.0
 30
0.0
 11
209.0
 21
-549.0
 31
0.0
  0
LINE
  5
41E
330
2D7
100
AcDbEntity
  8
0
  6
Continuous
 62
     8
370
    25
100
AcDbLine
 10
-209.0
 20
-149.0
 30
0.0
 11
-209.0
 21
-171.0
 31
0.0
  0
LINE
  5
41F
330
2D7
100
AcDbEntity
  8
0
  6
Continuous
 62
     8
370
    25
100
AcDbLine
 10
209.0
 20
189.0
 30
0.0
 11
209.0
 21
211.0
 31
0.0
  0
LINE
  5
420
330
2D7
100
AcDbEntity
  8
0
  6
Continuous
 62
     8
370
    25
100
AcDbLine
 10
209.0
 20
229.0
 30
0.0
 11
209.0
 21
251.0
 31
0.0
  0
LINE
  5
421
330
2D7
100
AcDbEntity
  8
0
  6
Continuous
 62
     8
370
    25
100
AcDbLine
 10
-209.0
 20
211.0
 30
0.0
 11
-209.0
 21
189.0
 31
0.0
  0
LINE
  5
422
330
2D7
100
AcDbEntity
  8
0
  6
Continuous
 62
     8
370
    25
100
AcDbLine
 10
-209.0
 20
91.0
 30
0.0
 11
-209.0
 21
69.0
 31
0.0
  0
LINE
  5
423
330
2D7
100
AcDbEntity
  8
0
  6
Continuous
 62
     8
370
    25
100
AcDbLine
 10
-209.0
 20
11.0
 30
0.0
 11
-209.0
 21
-11.0
 31
0.0
  0
LINE
  5
424
330
2D7
100
AcDbEntity
  8
0
  6
Continuous
 62
     8
370
    25
100
AcDbLine
 10
-209.0
 20
51.0
 30
0.0
 11
-209.0
 21
29.0
 31
0.0
  0
LINE
  5
425
330
2D7
100
AcDbEntity
  8
0
  6
Continuous
 62
     8
370
    25
100
AcDbLine
 10
209.0
 20
-11.0
 30
0.0
 11
209.0
 21
11.0
 31
0.0
  0
LINE
  5
426
330
2D7
100
AcDbEntity
  8
0
  6
Continuous
 62
     8
370
    25
100
AcDbLine
 10
209.0
 20
29.0
 30
0.0
 11
209.0
 21
51.0
 31
0.0
  0
LINE
  5
427
330
2D7
100
AcDbEntity
  8
0
  6
Continuous
 62
     8
370
    25
100
AcDbLine
 10
209.0
 20
69.0
 30
0.0
 11
209.0
 21
91.0
 31
0.0
  0
LINE
  5
428
330
2D7
100
AcDbEntity
  8
0
  6
Continuous
 62
     8
370
    25
100
AcDbLine
 10
-209.0
 20
171.0
 30
0.0
 11
-209.0
 21
149.0
 31
0.0
  0
LINE
  5
429
330
2D7
100
AcDbEntity
  8
0
  6
Continuous
 62
     8
370
    25
100
AcDbLine
 10
209.0
 20
149.0
 30
0.0
 11
209.0
 21
171.0
 31
0.0
  0
LINE
  5
42A
330
2D7
100
AcDbEntity
  8
0
  6
Continuous
 62
     8
370
    25
100
AcDbLine
 10
-209.0
 20
251.0
 30
0.0
 11
-209.0
 21
229.0
 31
0.0
  0
LINE
  5
42B
330
2D7
100
AcDbEntity
  8
0
  6
Continuous
 62
     8
370
    25
100
AcDbLine
 10
209.0
 20
109.0
 30
0.0
 11
209.0
 21
131.0
 31
0.0
  0
LINE
  5
42C
330
2D7
100
AcDbEntity
  8
0
  6
Continuous
 62
     8
370
    25
100
AcDbLine
 10
-209.0
 20
131.0
 30
0.0
 11
-209.0
 21
109.0
 31
0.0
  0
LINE
  5
42D
330
2D7
100
AcDbEntity
  8
0
  6
Continuous
 62
     8
370
    25
100
AcDbLine
 10
-209.0
 20
411.0
 30
0.0
 11
-209.0
 21
389.0
 31
0.0
  0
LINE
  5
42E
330
2D7
100
AcDbEntity
  8
0
  6
Continuous
 62
     8
370
    25
100
AcDbLine
 10
-209.0
 20
491.0
 30
0.0
 11
-209.0
 21
469.0
 31
0.0
  0
LINE
  5
42F
330
2D7
100
AcDbEntity
  8
0
  6
Continuous
 62
     8
370
    25
100
AcDbLine
 10
209.0
 20
389.0
 30
0.0
 11
209.0
 21
411.0
 31
0.0
  0
LINE
  5
430
330
2D7
100
AcDbEntity
  8
0
  6
Continuous
 62
     8
370
    25
100
AcDbLine
 10
209.0
 20
509.0
 30
0.0
 11
209.0
 21
531.0
 31
0.0
  0
LINE
  5
431
330
2D7
100
AcDbEntity
  8
0
  6
Continuous
 62
     8
370
    25
100
AcDbLine
 10
209.0
 20
429.0
 30
0.0
 11
209.0
 21
451.0
 31
0.0
  0
LINE
  5
432
330
2D7
100
AcDbEntity
  8
0
  6
Continuous
 62
     8
370
    25
100
AcDbLine
 10
209.0
 20
469.0
 30
0.0
 11
209.0
 21
491.0
 31
0.0
  0
LINE
  5
433
330
2D7
100
AcDbEntity
  8
0
  6
Continuous
 62
     8
370
    25
100
AcDbLine
 10
-209.0
 20
451.0
 30
0.0
 11
-209.0
 21
429.0
 31
0.0
  0
LINE
  5
434
330
2D7
100
AcDbEntity
  8
0
  6
Continuous
 62
     8
370
    25
100
AcDbLine
 10
209.0
 20
549.0
 30
0.0
 11
209.0
 21
571.0
 31
0.0
  0
LINE
  5
435
330
2D7
100
AcDbEntity
  8
0
  6
Continuous
 62
     8
370
    25
100
AcDbLine
 10
-209.0
 20
531.0
 30
0.0
 11
-209.0
 21
509.0
 31
0.0
  0
LINE
  5
436
330
2D7
100
AcDbEntity
  8
0
  6
Continuous
 62
     8
370
    25
100
AcDbLine
 10
-209.0
 20
571.0
 30
0.0
 11
-209.0
 21
549.0
 31
0.0
  0
ARC
  5
437
330
2D7
100
AcDbEntity
  8
0
  6
Continuous
 62
     7
370
    25
100
AcDbCircle
 10
-209.0
 20
-348.0
 30
0.0
 40
1.000000000000057
100
AcDbArc
 50
180.0
 51
270.0
  0
ARC
  5
438
330
2D7
100
AcDbEntity
  8
0
  6
Continuous
 62
     7
370
    25
100
AcDbCircle
 10
-209.0
 20
-372.0
 30
0.0
 40
1.000000000000057
100
AcDbArc
 50
90.0
 51
180.0
  0
ARC
  5
439
330
2D7
100
AcDbEntity
  8
0
  6
Continuous
 62
     7
370
    25
100
AcDbCircle
 10
-209.0
 20
-228.0
 30
0.0
 40
1.000000000000085
100
AcDbArc
 50
180.0
 51
270.0
  0
ARC
  5
43A
330
2D7
100
AcDbEntity
  8
0
  6
Continuous
 62
     7
370
    25
100
AcDbCircle
 10
-209.0
 20
-252.0
 30
0.0
 40
1.000000000000114
100
AcDbArc
 50
90.0
 51
180.0
  0
ARC
  5
43B
330
2D7
100
AcDbEntity
  8
0
  6
Continuous
 62
     7
370
    25
100
AcDbCircle
 10
-209.0
 20
-428.0
 30
0.0
 40
1.000000000000057
100
AcDbArc
 50
180.0
 51
270.0
  0
ARC
  5
43C
330
2D7
100
AcDbEntity
  8
0
  6
Continuous
 62
     7
370
    25
100
AcDbCircle
 10
-209.0
 20
-452.0
 30
0.0
 40
1.000000000000114
100
AcDbArc
 50
90.0
 51
180.0
  0
ARC
  5
43D
330
2D7
100
AcDbEntity
  8
0
  6
Continuous
 62
     7
370
    25
100
AcDbCircle
 10
209.0
 20
-428.0
 30
0.0
 40
1.000000000000114
100
AcDbArc
 50
270.0
 51
360.0
  0
ARC
  5
43E
330
2D7
100
AcDbEntity
  8
0
  6
Continuous
 62
     7
370
    25
100
AcDbCircle
 10
209.0
 20
-452.0
 30
0.0
 40
1.000000000000142
100
AcDbArc
 50
0.0
 51
90.0
  0
ARC
  5
43F
330
2D7
100
AcDbEntity
  8
0
  6
Continuous
 62
     7
370
    25
100
AcDbCircle
 10
209.0
 20
-468.0
 30
0.0
 40
1.000000000000114
100
AcDbArc
 50
270.0
 51
360.0
  0
ARC
  5
440
330
2D7
100
AcDbEntity
  8
0
  6
Continuous
 62
     7
370
    25
100
AcDbCircle
 10
209.0
 20
-492.0
 30
0.0
 40
1.000000000000142
100
AcDbArc
 50
0.0
 51
90.0
  0
ARC
  5
441
330
2D7
100
AcDbEntity
  8
0
  6
Continuous
 62
     7
370
    25
100
AcDbCircle
 10
209.0
 20
-308.0
 30
0.0
 40
1.000000000000114
100
AcDbArc
 50
270.0
 51
360.0
  0
ARC
  5
442
330
2D7
100
AcDbEntity
  8
0
  6
Continuous
 62
     7
370
    25
100
AcDbCircle
 10
209.0
 20
-332.0
 30
0.0
 40
1.000000000000142
100
AcDbArc
 50
0.0
 51
90.0
  0
ARC
  5
443
330
2D7
100
AcDbEntity
  8
0
  6
Continuous
 62
     7
370
    25
100
AcDbCircle
 10
209.0
 20
-348.0
 30
0.0
 40
1.000000000000114
100
AcDbArc
 50
270.0
 51
360.0
  0
ARC
  5
444
330
2D7
100
AcDbEntity
  8
0
  6
Continuous
 62
     7
370
    25
100
AcDbCircle
 10
209.0
 20
-372.0
 30
0.0
 40
1.000000000000114
100
AcDbArc
 50
0.0
 51
90.0
  0
ARC
  5
445
330
2D7
100
AcDbEntity
  8
0
  6
Continuous
 62
     7
370
    25
100
AcDbCircle
 10
-209.0
 20
-388.0
 30
0.0
 40
1.0
100
AcDbArc
 50
180.0
 51
270.0
  0
ARC
  5
446
330
2D7
100
AcDbEntity
  8
0
  6
Continuous
 62
     7
370
    25
100
AcDbCircle
 10
-209.0
 20
-412.0
 30
0.0
 40
1.0
100
AcDbArc
 50
90.0
 51
180.0
  0
ARC
  5
447
330
2D7
100
AcDbEntity
  8
0
  6
Continuous
 62
     7
370
    25
100
AcDbCircle
 10
209.0
 20
-188.0
 30
0.0
 40
1.000000000000114
100
AcDbArc
 50
270.0
 51
360.0
  0
ARC
  5
448
330
2D7
100
AcDbEntity
  8
0
  6
Continuous
 62
     7
370
    25
100
AcDbCircle
 10
209.0
 20
-212.0
 30
0.0
 40
1.000000000000114
100
AcDbArc
 50
0.0
 51
90.0
  0
ARC
  5
449
330
2D7
100
AcDbEntity
  8
0
  6
Continuous
 62
     7
370
    25
100
AcDbCircle
 10
209.0
 20
-388.0
 30
0.0
 40
1.0
100
AcDbArc
 50
270.0
 51
0.0
  0
ARC
  5
44A
330
2D7
100
AcDbEntity
  8
0
  6
Continuous
 62
     7
370
    25
100
AcDbCircle
 10
209.0
 20
-412.0
 30
0.0
 40
1.0
100
AcDbArc
 50
0.0
 51
90.0
  0
ARC
  5
44B
330
2D7
100
AcDbEntity
  8
0
  6
Continuous
 62
     7
370
    25
100
AcDbCircle
 10
209.0
 20
-228.0
 30
0.0
 40
1.000000000000142
100
AcDbArc
 50
270.0
 51
360.0
  0
ARC
  5
44C
330
2D7
100
AcDbEntity
  8
0
  6
Continuous
 62
     7
370
    25
100
AcDbCircle
 10
209.0
 20
-252.0
 30
0.0
 40
1.000000000000114
100
AcDbArc
 50
0.0
 51
90.0
  0
ARC
  5
44D
330
2D7
100
AcDbEntity
  8
0
  6
Continuous
 62
     7
370
    25
100
AcDbCircle
 10
-209.0
 20
-468.0
 30
0.0
 40
1.000000000000057
100
AcDbArc
 50
180.0
 51
270.0
  0
ARC
  5
44E
330
2D7
100
AcDbEntity
  8
0
  6
Continuous
 62
     7
370
    25
100
AcDbCircle
 10
-209.0
 20
-492.0
 30
0.0
 40
1.000000000000114
100
AcDbArc
 50
90.0
 51
180.0
  0
ARC
  5
44F
330
2D7
100
AcDbEntity
  8
0
  6
Continuous
 62
     7
370
    25
100
AcDbCircle
 10
-209.0
 20
-548.0
 30
0.0
 40
0.999999999999801
100
AcDbArc
 50
180.0
 51
270.0
  0
ARC
  5
450
330
2D7
100
AcDbEntity
  8
0
  6
Continuous
 62
     7
370
    25
100
AcDbCircle
 10
-209.0
 20
-572.0
 30
0.0
 40
0.9999999999998863
100
AcDbArc
 50
90.0
 51
180.0
  0
ARC
  5
451
330
2D7
100
AcDbEntity
  8
0
  6
Continuous
 62
     7
370
    25
100
AcDbCircle
 10
-209.0
 20
-308.0
 30
0.0
 40
1.000000000000057
100
AcDbArc
 50
180.0
 51
270.0
  0
ARC
  5
452
330
2D7
100
AcDbEntity
  8
0
  6
Continuous
 62
     7
370
    25
100
AcDbCircle
 10
-209.0
 20
-332.0
 30
0.0
 40
1.000000000000114
100
AcDbArc
 50
90.0
 51
180.0
  0
ARC
  5
453
330
2D7
100
AcDbEntity
  8
0
  6
Continuous
 62
     7
370
    25
100
AcDbCircle
 10
-209.0
 20
-508.0
 30
0.0
 40
1.0
100
AcDbArc
 50
180.0
 51
270.0
  0
ARC
  5
454
330
2D7
100
AcDbEntity
  8
0
  6
Continuous
 62
     7
370
    25
100
AcDbCircle
 10
-209.0
 20
-532.0
 30
0.0
 40
1.000000000000114
100
AcDbArc
 50
90.0
 51
180.0
  0
ARC
  5
455
330
2D7
100
AcDbEntity
  8
0
  6
Continuous
 62
     7
370
    25
100
AcDbCircle
 10
209.0
 20
-148.0
 30
0.0
 40
1.000000000000114
100
AcDbArc
 50
270.0
 51
360.0
  0
ARC
  5
456
330
2D7
100
AcDbEntity
  8
0
  6
Continuous
 62
     7
370
    25
100
AcDbCircle
 10
209.0
 20
-172.0
 30
0.0
 40
1.000000000000114
100
AcDbArc
 50
0.0
 51
90.0
  0
ARC
  5
457
330
2D7
100
AcDbEntity
  8
0
  6
Continuous
 62
     7
370
    25
100
AcDbCircle
 10
-209.0
 20
-188.0
 30
0.0
 40
1.000000000000028
100
AcDbArc
 50
180.0
 51
270.0
  0
ARC
  5
458
330
2D7
100
AcDbEntity
  8
0
  6
Continuous
 62
     7
370
    25
100
AcDbCircle
 10
-209.0
 20
-212.0
 30
0.0
 40
1.000000000000057
100
AcDbArc
 50
90.0
 51
180.0
  0
ARC
  5
459
330
2D7
100
AcDbEntity
  8
0
  6
Continuous
 62
     7
370
    25
100
AcDbCircle
 10
-209.0
 20
-268.0
 30
0.0
 40
1.0
100
AcDbArc
 50
180.0
 51
270.0
  0
ARC
  5
45A
330
2D7
100
AcDbEntity
  8
0
  6
Continuous
 62
     7
370
    25
100
AcDbCircle
 10
-209.0
 20
-292.0
 30
0.0
 40
1.0
100
AcDbArc
 50
90.0
 51
180.0
  0
ARC
  5
45B
330
2D7
100
AcDbEntity
  8
0
  6
Continuous
 62
     7
370
    25
100
AcDbCircle
 10
209.0
 20
-268.0
 30
0.0
 40
1.0
100
AcDbArc
 50
270.0
 51
0.0
  0
ARC
  5
45C
330
2D7
100
AcDbEntity
  8
0
  6
Continuous
 62
     7
370
    25
100
AcDbCircle
 10
209.0
 20
-292.0
 30
0.0
 40
1.0
100
AcDbArc
 50
0.0
 51
90.0
  0
ARC
  5
45D
330
2D7
100
AcDbEntity
  8
0
  6
Continuous
 62
     7
370
    25
100
AcDbCircle
 10
209.0
 20
-508.0
 30
0.0
 40
1.0
100
AcDbArc
 50
270.0
 51
0.0
  0
ARC
  5
45E
330
2D7
100
AcDbEntity
  8
0
  6
Continuous
 62
     7
370
    25
100
AcDbCircle
 10
209.0
 20
-532.0
 30
0.0
 40
1.000000000000142
100
AcDbArc
 50
0.0
 51
90.0
  0
ARC
  5
45F
330
2D7
100
AcDbEntity
  8
0
  6
Continuous
 62
     7
370
    25
100
AcDbCircle
 10
209.0
 20
-548.0
 30
0.0
 40
0.9999999999999147
100
AcDbArc
 50
270.0
 51
0.0
  0
ARC
  5
460
330
2D7
100
AcDbEntity
  8
0
  6
Continuous
 62
     7
370
    25
100
AcDbCircle
 10
209.0
 20
-572.0
 30
0.0
 40
1.0
100
AcDbArc
 50
0.0
 51
90.0
  0
ARC
  5
461
330
2D7
100
AcDbEntity
  8
0
  6
Continuous
 62
     7
370
    25
100
AcDbCircle
 10
-209.0
 20
-148.0
 30
0.0
 40
1.000000000000057
100
AcDbArc
 50
180.0
 51
270.0
  0
ARC
  5
462
330
2D7
100
AcDbEntity
  8
0
  6
Continuous
 62
     7
370
    25
100
AcDbCircle
 10
-209.0
 20
-172.0
 30
0.0
 40
1.000000000000028
100
AcDbArc
 50
90.0
 51
180.0
  0
ARC
  5
463
330
2D7
100
AcDbEntity
  8
0
  6
Continuous
 62
     7
370
    25
100
AcDbCircle
 10
209.0
 20
212.0
 30
0.0
 40
1.000000000000114
100
AcDbArc
 50
270.0
 51
360.0
  0
ARC
  5
464
330
2D7
100
AcDbEntity
  8
0
  6
Continuous
 62
     7
370
    25
100
AcDbCircle
 10
209.0
 20
188.0
 30
0.0
 40
1.000000000000114
100
AcDbArc
 50
0.0
 51
90.0
  0
ARC
  5
465
330
2D7
100
AcDbEntity
  8
0
  6
Continuous
 62
     7
370
    25
100
AcDbCircle
 10
209.0
 20
252.0
 30
0.0
 40
1.000000000000114
100
AcDbArc
 50
270.0
 51
360.0
  0
ARC
  5
466
330
2D7
100
AcDbEntity
  8
0
  6
Continuous
 62
     7
370
    25
100
AcDbCircle
 10
209.0
 20
228.0
 30
0.0
 40
1.000000000000114
100
AcDbArc
 50
0.0
 51
90.0
  0
ARC
  5
467
330
2D7
100
AcDbEntity
  8
0
  6
Continuous
 62
     7
370
    25
100
AcDbCircle
 10
-209.0
 20
212.0
 30
0.0
 40
1.000000000000028
100
AcDbArc
 50
180.0
 51
270.0
  0
ARC
  5
468
330
2D7
100
AcDbEntity
  8
0
  6
Continuous
 62
     7
370
    25
100
AcDbCircle
 10
-209.0
 20
188.0
 30
0.0
 40
1.000000000000057
100
AcDbArc
 50
90.0
 51
180.0
  0
ARC
  5
469
330
2D7
100
AcDbEntity
  8
0
  6
Continuous
 62
     7
370
    25
100
AcDbCircle
 10
-209.0
 20
92.0
 30
0.0
 40
1.000000000000028
100
AcDbArc
 50
180.0
 51
270.0
  0
ARC
  5
46A
330
2D7
100
AcDbEntity
  8
0
  6
Continuous
 62
     7
370
    25
100
AcDbCircle
 10
-209.0
 20
68.0
 30
0.0
 40
1.000000000000028
100
AcDbArc
 50
90.0
 51
180.0
  0
ARC
  5
46B
330
2D7
100
AcDbEntity
  8
0
  6
Continuous
 62
     7
370
    25
100
AcDbCircle
 10
-209.0
 20
12.0
 30
0.0
 40
1.000000000000034
100
AcDbArc
 50
180.0
 51
270.0
  0
ARC
  5
46C
330
2D7
100
AcDbEntity
  8
0
  6
Continuous
 62
     7
370
    25
100
AcDbCircle
 10
-209.0
 20
-12.0
 30
0.0
 40
1.000000000000034
100
AcDbArc
 50
90.0
 51
180.0
  0
ARC
  5
46D
330
2D7
100
AcDbEntity
  8
0
  6
Continuous
 62
     7
370
    25
100
AcDbCircle
 10
-209.0
 20
52.0
 30
0.0
 40
1.000000000000028
100
AcDbArc
 50
180.0
 51
270.0
  0
ARC
  5
46E
330
2D7
100
AcDbEntity
  8
0
  6
Continuous
 62
     7
370
    25
100
AcDbCircle
 10
-209.0
 20
28.0
 30
0.0
 40
1.000000000000028
100
AcDbArc
 50
90.0
 51
180.0
  0
ARC
  5
46F
330
2D7
100
AcDbEntity
  8
0
  6
Continuous
 62
     7
370
    25
100
AcDbCircle
 10
209.0
 20
12.0
 30
0.0
 40
1.000000000000114
100
AcDbArc
 50
270.0
 51
360.0
  0
ARC
  5
470
330
2D7
100
AcDbEntity
  8
0
  6
Continuous
 62
     7
370
    25
100
AcDbCircle
 10
209.0
 20
-12.0
 30
0.0
 40
1.000000000000085
100
AcDbArc
 50
0.0
 51
90.0
  0
ARC
  5
471
330
2D7
100
AcDbEntity
  8
0
  6
Continuous
 62
     7
370
    25
100
AcDbCircle
 10
209.0
 20
52.0
 30
0.0
 40
1.000000000000085
100
AcDbArc
 50
270.0
 51
360.0
  0
ARC
  5
472
330
2D7
100
AcDbEntity
  8
0
  6
Continuous
 62
     7
370
    25
100
AcDbCircle
 10
209.0
 20
28.0
 30
0.0
 40
1.000000000000085
100
AcDbArc
 50
0.0
 51
90.0
  0
ARC
  5
473
330
2D7
100
AcDbEntity
  8
0
  6
Continuous
 62
     7
370
    25
100
AcDbCircle
 10
209.0
 20
92.0
 30
0.0
 40
1.000000000000085
100
AcDbArc
 50
270.0
 51
360.0
  0
ARC
  5
474
330
2D7
100
AcDbEntity
  8
0
  6
Continuous
 62
     7
370
    25
100
AcDbCircle
 10
209.0
 20
68.0
 30
0.0
 40
1.000000000000085
100
AcDbArc
 50
0.0
 51
90.0
  0
ARC
  5
475
330
2D7
100
AcDbEntity
  8
0
  6
Continuous
 62
     7
370
    25
100
AcDbCircle
 10
-209.0
 20
172.0
 30
0.0
 40
1.000000000000114
100
AcDbArc
 50
180.0
 51
270.0
  0
ARC
  5
476
330
2D7
100
AcDbEntity
  8
0
  6
Continuous
 62
     7
370
    25
100
AcDbCircle
 10
-209.0
 20
148.0
 30
0.0
 40
1.000000000000057
100
AcDbArc
 50
90.0
 51
180.0
  0
ARC
  5
477
330
2D7
100
AcDbEntity
  8
0
  6
Continuous
 62
     7
370
    25
100
AcDbCircle
 10
209.0
 20
172.0
 30
0.0
 40
1.000000000000142
100
AcDbArc
 50
270.0
 51
360.0
  0
ARC
  5
478
330
2D7
100
AcDbEntity
  8
0
  6
Continuous
 62
     7
370
    25
100
AcDbCircle
 10
209.0
 20
148.0
 30
0.0
 40
1.000000000000114
100
AcDbArc
 50
0.0
 51
90.0
  0
ARC
  5
479
330
2D7
100
AcDbEntity
  8
0
  6
Continuous
 62
     7
370
    25
100
AcDbCircle
 10
-209.0
 20
252.0
 30
0.0
 40
1.000000000000057
100
AcDbArc
 50
180.0
 51
270.0
  0
ARC
  5
47A
330
2D7
100
AcDbEntity
  8
0
  6
Continuous
 62
     7
370
    25
100
AcDbCircle
 10
-209.0
 20
228.0
 30
0.0
 40
1.000000000000057
100
AcDbArc
 50
90.0
 51
180.0
  0
ARC
  5
47B
330
2D7
100
AcDbEntity
  8
0
  6
Continuous
 62
     7
370
    25
100
AcDbCircle
 10
209.0
 20
132.0
 30
0.0
 40
1.000000000000114
100
AcDbArc
 50
270.0
 51
360.0
  0
ARC
  5
47C
330
2D7
100
AcDbEntity
  8
0
  6
Continuous
 62
     7
370
    25
100
AcDbCircle
 10
209.0
 20
108.0
 30
0.0
 40
1.000000000000085
100
AcDbArc
 50
0.0
 51
90.0
  0
ARC
  5
47D
330
2D7
100
AcDbEntity
  8
0
  6
Continuous
 62
     7
370
    25
100
AcDbCircle
 10
-209.0
 20
132.0
 30
0.0
 40
1.000000000000057
100
AcDbArc
 50
180.0
 51
270.0
  0
ARC
  5
47E
330
2D7
100
AcDbEntity
  8
0
  6
Continuous
 62
     7
370
    25
100
AcDbCircle
 10
-209.0
 20
108.0
 30
0.0
 40
1.000000000000028
100
AcDbArc
 50
90.0
 51
180.0
  0
ARC
  5
47F
330
2D7
100
AcDbEntity
  8
0
  6
Continuous
 62
     7
370
    25
100
AcDbCircle
 10
-209.0
 20
412.0
 30
0.0
 40
1.0
100
AcDbArc
 50
180.0
 51
270.0
  0
ARC
  5
480
330
2D7
100
AcDbEntity
  8
0
  6
Continuous
 62
     7
370
    25
100
AcDbCircle
 10
-209.0
 20
388.0
 30
0.0
 40
1.0
100
AcDbArc
 50
90.0
 51
180.0
  0
ARC
  5
481
330
2D7
100
AcDbEntity
  8
0
  6
Continuous
 62
     7
370
    25
100
AcDbCircle
 10
-209.0
 20
492.0
 30
0.0
 40
1.000000000000057
100
AcDbArc
 50
180.0
 51
270.0
  0
ARC
  5
482
330
2D7
100
AcDbEntity
  8
0
  6
Continuous
 62
     7
370
    25
100
AcDbCircle
 10
-209.0
 20
468.0
 30
0.0
 40
1.000000000000114
100
AcDbArc
 50
90.0
 51
180.0
  0
ARC
  5
483
330
2D7
100
AcDbEntity
  8
0
  6
Continuous
 62
     7
370
    25
100
AcDbCircle
 10
209.0
 20
412.0
 30
0.0
 40
1.000000000000057
100
AcDbArc
 50
270.0
 51
360.0
  0
ARC
  5
484
330
2D7
100
AcDbEntity
  8
0
  6
Continuous
 62
     7
370
    25
100
AcDbCircle
 10
209.0
 20
388.0
 30
0.0
 40
1.0
100
AcDbArc
 50
360.0
 51
90.0
  0
ARC
  5
485
330
2D7
100
AcDbEntity
  8
0
  6
Continuous
 62
     7
370
    25
100
AcDbCircle
 10
209.0
 20
532.0
 30
0.0
 40
1.000000000000142
100
AcDbArc
 50
270.0
 51
360.0
  0
ARC
  5
486
330
2D7
100
AcDbEntity
  8
0
  6
Continuous
 62
     7
370
    25
100
AcDbCircle
 10
209.0
 20
508.0
 30
0.0
 40
1.0
100
AcDbArc
 50
360.0
 51
90.0
  0
ARC
  5
487
330
2D7
100
AcDbEntity
  8
0
  6
Continuous
 62
     7
370
    25
100
AcDbCircle
 10
209.0
 20
452.0
 30
0.0
 40
1.000000000000114
100
AcDbArc
 50
270.0
 51
360.0
  0
ARC
  5
488
330
2D7
100
AcDbEntity
  8
0
  6
Continuous
 62
     7
370
    25
100
AcDbCircle
 10
209.0
 20
428.0
 30
0.0
 40
1.000000000000142
100
AcDbArc
 50
0.0
 51
90.0
  0
ARC
  5
489
330
2D7
100
AcDbEntity
  8
0
  6
Continuous
 62
     7
370
    25
100
AcDbCircle
 10
209.0
 20
492.0
 30
0.0
 40
1.000000000000085
100
AcDbArc
 50
270.0
 51
360.0
  0
ARC
  5
48A
330
2D7
100
AcDbEntity
  8
0
  6
Continuous
 62
     7
370
    25
100
AcDbCircle
 10
209.0
 20
468.0
 30
0.0
 40
1.000000000000142
100
AcDbArc
 50
0.0
 51
90.0
  0
ARC
  5
48B
330
2D7
100
AcDbEntity
  8
0
  6
Continuous
 62
     7
370
    25
100
AcDbCircle
 10
-209.0
 20
452.0
 30
0.0
 40
1.000000000000057
100
AcDbArc
 50
180.0
 51
270.0
  0
ARC
  5
48C
330
2D7
100
AcDbEntity
  8
0
  6
Continuous
 62
     7
370
    25
100
AcDbCircle
 10
-209.0
 20
428.0
 30
0.0
 40
1.000000000000114
100
AcDbArc
 50
90.0
 51
180.0
  0
ARC
  5
48D
330
2D7
100
AcDbEntity
  8
0
  6
Continuous
 62
     7
370
    25
100
AcDbCircle
 10
209.0
 20
572.0
 30
0.0
 40
0.9999999999999147
100
AcDbArc
 50
270.0
 51
0.0
  0
ARC
  5
48E
330
2D7
100
AcDbEntity
  8
0
  6
Continuous
 62
     7
370
    25
100
AcDbCircle
 10
209.0
 20
548.0
 30
0.0
 40
0.9999999999998863
100
AcDbArc
 50
360.0
 51
90.0
  0
ARC
  5
48F
330
2D7
100
AcDbEntity
  8
0
  6
Continuous
 62
     7
370
    25
100
AcDbCircle
 10
-209.0
 20
532.0
 30
0.0
 40
1.000000000000114
100
AcDbArc
 50
180.0
 51
270.0
  0
ARC
  5
490
330
2D7
100
AcDbEntity
  8
0
  6
Continuous
 62
     7
370
    25
100
AcDbCircle
 10
-209.0
 20
508.0
 30
0.0
 40
1.0
100
AcDbArc
 50
90.0
 51
180.0
  0
ARC
  5
491
330
2D7
100
AcDbEntity
  8
0
  6
Continuous
 62
     7
370
    25
100
AcDbCircle
 10
-209.0
 20
572.0
 30
0.0
 40
0.9999999999998863
100
AcDbArc
 50
180.0
 51
270.0
  0
ARC
  5
492
330
2D7
100
AcDbEntity
  8
0
  6
Continuous
 62
     7
370
    25
100
AcDbCircle
 10
-209.0
 20
548.0
 30
0.0
 40
0.9999999999998863
100
AcDbArc
 50
90.0
 51
180.0
  0
ARC
  5
493
330
2D7
100
AcDbEntity
  8
0
  6
Continuous
 62
     7
370
    25
100
AcDbCircle
 10
-212.0
 20
-598.0
 30
0.0
 40
2.000000000000114
100
AcDbArc
 50
270.0
 51
360.0
  0
ARC
  5
494
330
2D7
100
AcDbEntity
  8
0
  6
Continuous
 62
     7
370
    25
100
AcDbCircle
 10
-248.0
 20
-598.0
 30
0.0
 40
2.0
100
AcDbArc
 50
180.0
 51
270.0
  0
ARC
  5
495
330
2D7
100
AcDbEntity
  8
0
  6
Continuous
 62
     7
370
    25
100
AcDbCircle
 10
-212.0
 20
598.0
 30
0.0
 40
2.000000000000114
100
AcDbArc
 50
0.0
 51
90.0
  0
ARC
  5
496
330
2D7
100
AcDbEntity
  8
0
  6
Continuous
 62
     7
370
    25
100
AcDbCircle
 10
-248.0
 20
598.0
 30
0.0
 40
2.000000000000142
100
AcDbArc
 50
90.0
 51
180.0
  0
ARC
  5
497
330
2D7
100
AcDbEntity
  8
0
  6
Continuous
 62
     7
370
    25
100
AcDbCircle
 10
212.0
 20
598.0
 30
0.0
 40
2.000000000000114
100
AcDbArc
 50
90.0
 51
180.0
  0
ARC
  5
498
330
2D7
100
AcDbEntity
  8
0
  6
Continuous
 62
     7
370
    25
100
AcDbCircle
 10
248.0
 20
598.0
 30
0.0
 40
2.000000000000114
100
AcDbArc
 50
0.0
 51
90.0
  0
ARC
  5
499
330
2D7
100
AcDbEntity
  8
0
  6
Continuous
 62
     7
370
    25
100
AcDbCircle
 10
248.0
 20
-598.0
 30
0.0
 40
2.000000000000114
100
AcDbArc
 50
270.0
 51
360.0
  0
ARC
  5
49A
330
2D7
100
AcDbEntity
  8
0
  6
Continuous
 62
     7
370
    25
100
AcDbCircle
 10
212.0
 20
-598.0
 30
0.0
 40
2.000000000000114
100
AcDbArc
 50
180.0
 51
270.0
  0
VIEWPORT
  5
6C8
330
2D7
100
AcDbEntity
  8
0
100
AcDbViewport
 10
0.0
 20
0.0
 30
0.0
 40
205.6
 41
156.0
 68
     1
 69
     1
 12
0.0
 22
0.0
 13
0.0
 23
0.0
 14
10.0
 24
10.0
 15
10.0
 25
10.0
 16
0.0
 26
0.0
 36
1.0
 17
0.0
 27
0.0
 37
0.0
 42
50.0
 43
0.0
 44
0.0
 45
386.9649805447
 50
0.0
 51
0.0
 72
   100
 90
   557152
  1

281
     0
 71
     1
 74
     0
110
0.0
120
0.0
130
0.0
111
1.0
121
0.0
131
0.0
112
0.0
122
1.0
132
0.0
 79
     0
146
0.0
  0
ENDBLK
  5
2DA
330
2D7
100
AcDbEntity
  8
0
100
AcDbBlockEnd
  0
BLOCK
  5
49D
330
49B
100
AcDbEntity
  8
0
100
AcDbBlockBegin
  2
*Paper_Space2
 70
     0
 10
0.0
 20
0.0
 30
0.0
  3
*Paper_Space2
  1

  0
LINE
  5
4B6
330
49B
100
AcDbEntity
  8
0
  6
Continuous
 62
     7
370
    25
100
AcDbLine
 10
11.5
 20
600.0
 30
0.0
 11
11.5
 21
601.0
 31
0.0
  0
LINE
  5
4B7
330
49B
100
AcDbEntity
  8
0
  6
Continuous
 62
     7
370
    25
100
AcDbLine
 10
-11.5
 20
601.0
 30
0.0
 11
-11.5
 21
600.0
 31
0.0
  0
LINE
  5
4B8
330
49B
100
AcDbEntity
  8
0
  6
Continuous
 62
     7
370
    25
100
AcDbLine
 10
-11.5
 20
-600.0
 30
0.0
 11
-11.5
 21
-601.0
 31
0.0
  0
LINE
  5
4B9
330
49B
100
AcDbEntity
  8
0
  6
Continuous
 62
     7
370
    25
100
AcDbLine
 10
11.5
 20
-601.0
 30
0.0
 11
11.5
 21
-600.0
 31
0.0
  0
LINE
  5
4BA
330
49B
100
AcDbEntity
  8
0
  6
Continuous
 62
     7
370
    25
100
AcDbLine
 10
-13.0
 20
600.0
 30
0.0
 11
13.0
 21
600.0
 31
0.0
  0
LINE
  5
4BB
330
49B
100
AcDbEntity
  8
0
  6
Continuous
 62
     7
370
    25
100
AcDbLine
 10
15.0
 20
598.0
 30
0.0
 11
-15.0
 21
598.0
 31
0.0
  0
LINE
  5
4BC
330
49B
100
AcDbEntity
  8
0
  6
Continuous
 62
     7
370
    25
100
AcDbLine
 10
-15.0
 20
-598.0
 30
0.0
 11
15.0
 21
-598.0
 31
0.0
  0
LINE
  5
4BD
330
49B
100
AcDbEntity
  8
0
  6
Continuous
 62
     7
370
    25
100
AcDbLine
 10
13.0
 20
-600.0
 30
0.0
 11
-13.0
 21
-600.0
 31
0.0
  0
LINE
  5
4BE
330
49B
100
AcDbEntity
  8
0
  6
Continuous
 62
     7
370
    25
100
AcDbLine
 10
0.0
 20
-600.0
 30
0.0
 11
0.0
 21
600.0
 31
0.0
  0
LINE
  5
4BF
330
49B
100
AcDbEntity
  8
0
  6
Continuous
 62
     7
370
    25
100
AcDbLine
 10
15.0
 20
598.0
 30
0.0
 11
15.0
 21
-598.0
 31
0.0
  0
LINE
  5
4C0
330
49B
100
AcDbEntity
  8
0
  6
Continuous
 62
     7
370
    25
100
AcDbLine
 10
-15.0
 20
-598.0
 30
0.0
 11
-15.0
 21
598.0
 31
0.0
  0
LINE
  5
4C1
330
49B
100
AcDbEntity
  8
0
  6
Continuous
 62
     7
370
    25
100
AcDbLine
 10
11.5
 20
601.0
 30
0.0
 11
-11.5
 21
601.0
 31
0.0
  0
LINE
  5
4C2
330
49B
100
AcDbEntity
  8
0
  6
Continuous
 62
     7
370
    25
100
AcDbLine
 10
11.5
 20
-601.0
 30
0.0
 11
-11.5
 21
-601.0
 31
0.0
  0
ARC
  5
4C3
330
49B
100
AcDbEntity
  8
0
  6
Continuous
 62
     7
370
    25
100
AcDbCircle
 10
13.0
 20
598.0
 30
0.0
 40
2.000000000000114
100
AcDbArc
 50
0.0
 51
90.0
  0
ARC
  5
4C4
330
49B
100
AcDbEntity
  8
0
  6
Continuous
 62
     7
370
    25
100
AcDbCircle
 10
13.0
 20
-598.0
 30
0.0
 40
2.000000000000114
100
AcDbArc
 50
270.0
 51
360.0
  0
ARC
  5
4C5
330
49B
100
AcDbEntity
  8
0
  6
Continuous
 62
     7
370
    25
100
AcDbCircle
 10
-13.0
 20
-598.0
 30
0.0
 40
2.000000000000115
100
AcDbArc
 50
180.0
 51
270.0
  0
ARC
  5
4C6
330
49B
100
AcDbEntity
  8
0
  6
Continuous
 62
     7
370
    25
100
AcDbCircle
 10
-13.0
 20
598.0
 30
0.0
 40
2.000000000000115
100
AcDbArc
 50
90.0
 51
180.0
  0
VIEWPORT
  5
6CA
330
49B
100
AcDbEntity
  8
0
100
AcDbViewport
 10
0.0
 20
0.0
 30
0.0
 40
205.6
 41
156.0
 68
     1
 69
     1
 12
0.0
 22
0.0
 13
0.0
 23
0.0
 14
10.0
 24
10.0
 15
10.0
 25
10.0
 16
0.0
 26
0.0
 36
1.0
 17
0.0
 27
0.0
 37
0.0
 42
50.0
 43
0.0
 44
0.0
 45
386.9649805447
 50
0.0
 51
0.0
 72
   100
 90
   557152
  1

281
     0
 71
     1
 74
     0
110
0.0
120
0.0
130
0.0
111
1.0
121
0.0
131
0.0
112
0.0
122
1.0
132
0.0
 79
     0
146
0.0
  0
ENDBLK
  5
49E
330
49B
100
AcDbEntity
  8
0
100
AcDbBlockEnd
  0
BLOCK
  5
4C9
330
4C7
100
AcDbEntity
  8
0
100
AcDbBlockBegin
  2
*Paper_Space3
 70
     0
 10
0.0
 20
0.0
 30
0.0
  3
*Paper_Space3
  1

  0
CIRCLE
  5
4EF
330
4C7
100
AcDbEntity
  8
0
  6
Continuous
 62
     7
370
    25
100
AcDbCircle
 10
-230.0
 20
0.0
 30
0.0
 40
11.49999999999995
  0
CIRCLE
  5
4F0
330
4C7
100
AcDbEntity
  8
0
  6
Continuous
 62
     7
370
    25
100
AcDbCircle
 10
230.0
 20
0.0
 30
0.0
 40
11.49999999999995
  0
LINE
  5
4F3
330
4C7
100
AcDbEntity
  8
0
  6
Continuous
 62
     7
370
    25
100
AcDbLine
 10
-209.0
 20
-11.0
 30
0.0
 11
209.0
 21
-11.0
 31
0.0
  0
LINE
  5
4F4
330
4C7
100
AcDbEntity
  8
0
  6
Continuous
 62
     7
370
    25
100
AcDbLine
 10
209.0
 20
11.0
 30
0.0
 11
-209.0
 21
11.0
 31
0.0
  0
LINE
  5
4F5
330
4C7
100
AcDbEntity
  8
0
  6
Continuous
 62
     7
370
    25
100
AcDbLine
 10
-235.0
 20
15.0
 30
0.0
 11
-235.0
 21
13.0
 31
0.0
  0
LINE
  5
4F6
330
4C7
100
AcDbEntity
  8
0
  6
Continuous
 62
     7
370
    25
100
AcDbLine
 10
-250.0
 20
0.0
 30
0.0
 11
-248.0
 21
0.0
 31
0.0
  0
LINE
  5
4F7
330
4C7
100
AcDbEntity
  8
0
  6
Continuous
 62
     7
370
    25
100
AcDbLine
 10
-235.0
 20
-13.0
 30
0.0
 11
-235.0
 21
-15.0
 31
0.0
  0
LINE
  5
4F8
330
4C7
100
AcDbEntity
  8
0
  6
Continuous
 62
     7
370
    25
100
AcDbLine
 10
-235.0
 20
-13.0
 30
0.0
 11
-212.0
 21
-13.0
 31
0.0
  0
LINE
  5
4F9
330
4C7
100
AcDbEntity
  8
0
  6
Continuous
 62
     7
370
    25
100
AcDbLine
 10
-212.0
 20
-13.0
 30
0.0
 11
-210.0
 21
-15.0
 31
0.0
  0
LINE
  5
4FA
330
4C7
100
AcDbEntity
  8
0
  6
Continuous
 62
     7
370
    25
100
AcDbLine
 10
-210.0
 20
-15.0
 30
0.0
 11
-235.0
 21
-15.0
 31
0.0
  0
LINE
  5
4FB
330
4C7
100
AcDbEntity
  8
0
  6
Continuous
 62
     7
370
    25
100
AcDbLine
 10
212.0
 20
-13.0
 30
0.0
 11
235.0
 21
-13.0
 31
0.0
  0
LINE
  5
4FC
330
4C7
100
AcDbEntity
  8
0
  6
Continuous
 62
     7
370
    25
100
AcDbLine
 10
212.0
 20
13.0
 30
0.0
 11
212.0
 21
-13.0
 31
0.0
  0
LINE
  5
4FD
330
4C7
100
AcDbEntity
  8
0
  6
Continuous
 62
     7
370
    25
100
AcDbLine
 10
235.0
 20
13.0
 30
0.0
 11
212.0
 21
13.0
 31
0.0
  0
LINE
  5
4FE
330
4C7
100
AcDbEntity
  8
0
  6
Continuous
 62
     7
370
    25
100
AcDbLine
 10
235.0
 20
-15.0
 30
0.0
 11
210.0
 21
-15.0
 31
0.0
  0
LINE
  5
4FF
330
4C7
100
AcDbEntity
  8
0
  6
Continuous
 62
     7
370
    25
100
AcDbLine
 10
210.0
 20
-15.0
 30
0.0
 11
212.0
 21
-13.0
 31
0.0
  0
LINE
  5
500
330
4C7
100
AcDbEntity
  8
0
  6
Continuous
 62
     7
370
    25
100
AcDbLine
 10
235.0
 20
-15.0
 30
0.0
 11
235.0
 21
-13.0
 31
0.0
  0
LINE
  5
501
330
4C7
100
AcDbEntity
  8
0
  6
Continuous
 62
     7
370
    25
100
AcDbLine
 10
212.0
 20
13.0
 30
0.0
 11
210.0
 21
15.0
 31
0.0
  0
LINE
  5
502
330
4C7
100
AcDbEntity
  8
0
  6
Continuous
 62
     7
370
    25
100
AcDbLine
 10
210.0
 20
15.0
 30
0.0
 11
235.0
 21
15.0
 31
0.0
  0
LINE
  5
503
330
4C7
100
AcDbEntity
  8
0
  6
Continuous
 62
     7
370
    25
100
AcDbLine
 10
235.0
 20
13.0
 30
0.0
 11
235.0
 21
15.0
 31
0.0
  0
LINE
  5
504
330
4C7
100
AcDbEntity
  8
0
  6
Continuous
 62
     7
370
    25
100
AcDbLine
 10
-212.0
 20
-13.0
 30
0.0
 11
-212.0
 21
13.0
 31
0.0
  0
LINE
  5
505
330
4C7
100
AcDbEntity
  8
0
  6
Continuous
 62
     7
370
    25
100
AcDbLine
 10
-212.0
 20
13.0
 30
0.0
 11
-210.0
 21
15.0
 31
0.0
  0
LINE
  5
506
330
4C7
100
AcDbEntity
  8
0
  6
Continuous
 62
     7
370
    25
100
AcDbLine
 10
-210.0
 20
15.0
 30
0.0
 11
-210.0
 21
-15.0
 31
0.0
  0
LINE
  5
507
330
4C7
100
AcDbEntity
  8
0
  6
Continuous
 62
     7
370
    25
100
AcDbLine
 10
-212.0
 20
13.0
 30
0.0
 11
-235.0
 21
13.0
 31
0.0
  0
LINE
  5
508
330
4C7
100
AcDbEntity
  8
0
  6
Continuous
 62
     7
370
    25
100
AcDbLine
 10
248.0
 20
0.0
 30
0.0
 11
250.0
 21
0.0
 31
0.0
  0
LINE
  5
509
330
4C7
100
AcDbEntity
  8
0
  6
Continuous
 62
     7
370
    25
100
AcDbLine
 10
-235.0
 20
15.0
 30
0.0
 11
-210.0
 21
15.0
 31
0.0
  0
LINE
  5
50A
330
4C7
100
AcDbEntity
  8
0
  6
Continuous
 62
     7
370
    25
100
AcDbLine
 10
210.0
 20
-15.0
 30
0.0
 11
210.0
 21
15.0
 31
0.0
  0
LINE
  5
50B
330
4C7
100
AcDbEntity
  8
0
  6
Continuous
 62
     8
370
    25
100
AcDbLine
 10
-209.0
 20
11.0
 30
0.0
 11
-209.0
 21
-11.0
 31
0.0
  0
LINE
  5
50C
330
4C7
100
AcDbEntity
  8
0
  6
Continuous
 62
     8
370
    25
100
AcDbLine
 10
209.0
 20
-11.0
 30
0.0
 11
209.0
 21
11.0
 31
0.0
  0
ARC
  5
50D
330
4C7
100
AcDbEntity
  8
0
  6
Continuous
 62
     7
370
    25
100
AcDbCircle
 10
-209.0
 20
-12.0
 30
0.0
 40
1.000000000000114
100
AcDbArc
 50
90.0
 51
180.0
  0
ARC
  5
50E
330
4C7
100
AcDbEntity
  8
0
  6
Continuous
 62
     7
370
    25
100
AcDbCircle
 10
-209.0
 20
12.0
 30
0.0
 40
1.000000000000085
100
AcDbArc
 50
180.0
 51
270.0
  0
ARC
  5
50F
330
4C7
100
AcDbEntity
  8
0
  6
Continuous
 62
     7
370
    25
100
AcDbCircle
 10
209.0
 20
-12.0
 30
0.0
 40
1.000000000000032
100
AcDbArc
 50
0.0
 51
90.0
  0
ARC
  5
510
330
4C7
100
AcDbEntity
  8
0
  6
Continuous
 62
     7
370
    25
100
AcDbCircle
 10
209.0
 20
12.0
 30
0.0
 40
1.000000000000028
100
AcDbArc
 50
270.0
 51
0.0
  0
ARC
  5
511
330
4C7
100
AcDbEntity
  8
0
  6
Continuous
 62
     7
370
    25
100
AcDbCircle
 10
-235.0
 20
0.0
 30
0.0
 40
15.00000000000004
100
AcDbArc
 50
90.0
 51
270.0
  0
ARC
  5
512
330
4C7
100
AcDbEntity
  8
0
  6
Continuous
 62
     7
370
    25
100
AcDbCircle
 10
-235.0
 20
0.0
 30
0.0
 40
13.00000000000004
100
AcDbArc
 50
90.0
 51
270.0
  0
ARC
  5
513
330
4C7
100
AcDbEntity
  8
0
  6
Continuous
 62
     7
370
    25
100
AcDbCircle
 10
235.0
 20
0.0
 30
0.0
 40
13.00000000000006
100
AcDbArc
 50
270.0
 51
90.0
  0
ARC
  5
514
330
4C7
100
AcDbEntity
  8
0
  6
Continuous
 62
     7
370
    25
100
AcDbCircle
 10
235.0
 20
0.0
 30
0.0
 40
15.00000000000001
100
AcDbArc
 50
270.0
 51
90.0
  0
VIEWPORT
  5
6CC
330
4C7
100
AcDbEntity
  8
0
100
AcDbViewport
 10
0.0
 20
0.0
 30
0.0
 40
205.6
 41
156.0
 68
     1
 69
     1
 12
0.0
 22
0.0
 13
0.0
 23
0.0
 14
10.0
 24
10.0
 15
10.0
 25
10.0
 16
0.0
 26
0.0
 36
1.0
 17
0.0
 27
0.0
 37
0.0
 42
50.0
 43
0.0
 44
0.0
 45
386.9649805447
 50
0.0
 51
0.0
 72
   100
 90
   557152
  1

281
     0
 71
     1
 74
     0
110
0.0
120
0.0
130
0.0
111
1.0
121
0.0
131
0.0
112
0.0
122
1.0
132
0.0
 79
     0
146
0.0
  0
ENDBLK
  5
4CA
330
4C7
100
AcDbEntity
  8
0
100
AcDbBlockEnd
  0
BLOCK
  5
517
330
515
100
AcDbEntity
  8
0
100
AcDbBlockBegin
  2
*Paper_Space4
 70
     0
 10
0.0
 20
0.0
 30
0.0
  3
*Paper_Space4
  1

  0
SPLINE
  5
519
330
515
100
AcDbEntity
  8
0
  6
Continuous
 62
     7
370
    25
100
AcDbSpline
210
0.0
220
0.0
230
1.0
 70
     8
 71
     3
 72
    14
 73
    10
 74
     0
 42
0.000000001
 43
0.00000001
 40
0.0
 40
0.0
 40
0.0
 40
0.0
 40
0.0461554958048616
 40
0.2101819901423867
 40
0.3734653646961772
 40
0.5394116644508767
 40
0.7105842368646678
 40
0.8873374514491783
 40
1.0
 40
1.0
 40
1.0
 40
1.0
 10
181.1329343832677
 20
392.1337853796736
 30
0.0
 10
181.1475037625244
 20
392.2659786858027
 30
0.0
 10
181.2138495155904
 20
392.8679579665188
 30
0.0
 10
181.0092211412413
 20
393.9431273887674
 30
0.0
 10
180.5281071793545
 20
395.2957308901802
 30
0.0
 10
179.7388246004731
 20
396.5691684774498
 30
0.0
 10
178.6771505278328
 20
397.7494337383517
 30
0.0
 10
177.5253031457971
 20
398.6924927670738
 30
0.0
 10
176.6882463922163
 20
399.2033417003214
 30
0.0
 10
176.3624004668995
 20
399.4022028201189
 30
0.0
  0
SPLINE
  5
52D
330
515
100
AcDbEntity
  8
0
  6
Continuous
 62
     7
370
    25
100
AcDbSpline
210
0.0
220
0.0
230
1.0
 70
     8
 71
     3
 72
    13
 73
     9
 74
     0
 42
0.000000001
 43
0.00000001
 40
0.0
 40
0.0
 40
0.0
 40
0.0
 40
0.1042145281047668
 40
0.299985111625834
 40
0.4953865123027207
 40
0.6867679044010118
 40
0.8712779059756448
 40
1.0
 40
1.0
 40
1.0
 40
1.0
 10
-176.3624004668996
 20
591.258109098456
 30
0.0
 10
-176.6484125904384
 20
591.084676334315
 30
0.0
 10
-177.4717083474356
 20
590.5854441441722
 30
0.0
 10
-178.6550772417918
 20
589.6330044023796
 30
0.0
 10
-179.7970665644994
 20
588.3654100148684
 30
0.0
 10
-180.6079321002129
 20
586.9772394945245
 30
0.0
 10
-181.0756177775643
 20
585.6534251532873
 30
0.0
 10
-181.1162405410512
 20
584.7998149970877
 30
0.0
 10
-181.1329343832678
 20
584.4490256356836
 30
0.0
  0
SPLINE
  5
530
330
515
100
AcDbEntity
  8
0
  6
Continuous
 62
     7
370
    25
100
AcDbSpline
210
0.0
220
0.0
230
1.0
 70
     8
 71
     3
 72
    18
 73
    14
 74
     0
 42
0.000000001
 43
0.00000001
 40
0.0
 40
0.0
 40
0.0
 40
0.0
 40
0.0526975628634209
 40
0.1508005804869386
 40
0.2486508534438402
 40
0.3462047573058844
 40
0.4435124015991811
 40
0.5407114390373832
 40
0.6379722930424992
 40
0.7354237574291651
 40
0.8332508262136408
 40
0.9316339435239545
 40
1.0
 40
1.0
 40
1.0
 40
1.0
 10
-155.9777866907773
 20
591.2581090984559
 30
0.0
 10
-156.2745670503611
 20
591.4211893844158
 30
0.0
 10
-157.1238406803076
 20
591.8878637513587
 30
0.0
 10
-158.6763022107884
 20
592.5282760287942
 30
0.0
 10
-160.65364139486
 20
593.1154926177907
 30
0.0
 10
-162.7444061203274
 20
593.5146700275805
 30
0.0
 10
-164.9019560553867
 20
593.7236511050455
 30
0.0
 10
-167.0844312730284
 20
593.7393676446219
 30
0.0
 10
-169.2483347113853
 20
593.5616745442888
 30
0.0
 10
-171.3527541901526
 20
593.1934314730388
 30
0.0
 10
-173.3525636159482
 20
592.6352126846655
 30
0.0
 10
-175.0305894502764
 20
591.9800087704107
 30
0.0
 10
-175.9751407088811
 20
591.4680207817094
 30
0.0
 10
-176.3624004668996
 20
591.258109098456
 30
0.0
  0
SPLINE
  5
54F
330
515
100
AcDbEntity
  8
0
  6
Continuous
 62
     7
370
    25
100
AcDbSpline
210
0.0
220
0.0
230
1.0
 70
     8
 71
     3
 72
    18
 73
    14
 74
     0
 42
0.000000001
 43
0.00000001
 40
0.0
 40
0.0
 40
0.0
 40
0.0
 40
0.0526975628634209
 40
0.1508005804869372
 40
0.2486508534438363
 40
0.346204757305883
 40
0.4435124015991782
 40
0.5407114390373804
 40
0.6379722930424975
 40
0.7354237574291654
 40
0.8332508262136338
 40
0.9316339435239499
 40
1.0
 40
1.0
 40
1.0
 40
1.0
 10
155.9777866907772
 20
-591.2581090984559
 30
0.0
 10
156.2745670503609
 20
-591.4211893844156
 30
0.0
 10
157.1238406803074
 20
-591.8878637513586
 30
0.0
 10
158.6763022107882
 20
-592.5282760287942
 30
0.0
 10
160.6536413948598
 20
-593.1154926177904
 30
0.0
 10
162.7444061203273
 20
-593.5146700275807
 30
0.0
 10
164.9019560553864
 20
-593.7236511050446
 30
0.0
 10
167.0844312730283
 20
-593.7393676446223
 30
0.0
 10
169.2483347113852
 20
-593.5616745442884
 30
0.0
 10
171.3527541901523
 20
-593.1934314730385
 30
0.0
 10
173.3525636159481
 20
-592.6352126846654
 30
0.0
 10
175.0305894502762
 20
-591.9800087704109
 30
0.0
 10
175.975140708881
 20
-591.4680207817092
 30
0.0
 10
176.3624004668995
 20
-591.2581090984557
 30
0.0
  0
SPLINE
  5
550
330
515
100
AcDbEntity
  8
0
  6
Continuous
 62
     7
370
    25
100
AcDbSpline
210
0.0
220
0.0
230
1.0
 70
     8
 71
     3
 72
    13
 73
     9
 74
     0
 42
0.000000001
 43
0.00000001
 40
0.0
 40
0.0
 40
0.0
 40
0.0
 40
0.1030125608774437
 40
0.2965252075278498
 40
0.4896729293361765
 40
0.6788470076807614
 40
0.8612289472755764
 40
1.0
 40
1.0
 40
1.0
 40
1.0
 10
176.3624004668995
 20
-591.2581090984557
 30
0.0
 10
176.6484103713219
 20
-591.0846760510666
 30
0.0
 10
177.4716997405162
 20
-590.5854430455844
 30
0.0
 10
178.6551491800143
 20
-589.6330135845793
 30
0.0
 10
179.7968051348599
 20
-588.3653766459711
 30
0.0
 10
180.6088700126739
 20
-586.9773592097353
 30
0.0
 10
181.0834079016436
 20
-585.6224286323123
 30
0.0
 10
181.1238298832121
 20
-584.736801995345
 30
0.0
 10
181.1412963277716
 20
-584.3541203960076
 30
0.0
  0
SPLINE
  5
554
330
515
100
AcDbEntity
  8
0
  6
Continuous
 62
     7
370
    25
100
AcDbSpline
210
0.0
220
0.0
230
1.0
 70
     8
 71
     3
 72
    14
 73
    10
 74
     0
 42
0.000000001
 43
0.00000001
 40
0.0
 40
0.0
 40
0.0
 40
0.0
 40
0.0355062733004032
 40
0.201364045825465
 40
0.3664704019860475
 40
0.5342694136472765
 40
0.7073530468286001
 40
0.8860796274095596
 40
1.0
 40
1.0
 40
1.0
 40
1.0
 10
-181.1412963277717
 20
-392.228690619349
 30
0.0
 10
-181.1519547118752
 20
-392.3292681215037
 30
0.0
 10
-181.212400800567
 20
-392.8996657124176
 30
0.0
 10
-181.0073852688762
 20
-393.9431588818202
 30
0.0
 10
-180.5286065562983
 20
-395.2957223237325
 30
0.0
 10
-179.7386851972727
 20
-396.5691708688101
 30
0.0
 10
-178.6771901326644
 20
-397.7494330589595
 30
0.0
 10
-177.5252972192005
 20
-398.6924928687401
 30
0.0
 10
-176.688244731581
 20
-399.2033417288083
 30
0.0
 10
-176.3624004668997
 20
-399.4022028201188
 30
0.0
  0
LWPOLYLINE
  5
561
330
515
100
AcDbEntity
  8
0
  6
Continuous
 62
     7
370
    25
100
AcDbPolyline
 90
       10
 70
   128
 43
0.0
 10
175.3624817343
 20
388.6898812654
 10
176.8190701546
 20
389.6919918199
 10
177.9520948103
 20
390.82489371
 10
178.7271293206
 20
392.0541642852
 10
179.120624654
 20
393.342452781
 10
179.120624654
 20
394.6506152035
 10
178.7271293206
 20
395.9389036994
 10
177.9520948103
 20
397.1681742746
 10
176.8190701546
 20
398.3010761647
 10
175.3624817343
 20
399.3031867191
  0
LWPOLYLINE
  5
566
330
515
100
AcDbEntity
  8
0
  6
Continuous
 62
     7
370
    25
100
AcDbPolyline
 90
        9
 70
   128
 43
0.0
 10
140.7142494561
 20
398.0785745514
 10
140.1624506976
 20
398.0471953459
 10
139.6318572558
 20
397.9542636147
 10
139.1428595393
 20
397.8033506722
 10
138.7142494561
 20
397.600256018
 10
138.3624982513
 20
397.3527844659
 10
138.1011235264
 20
397.0704462087
 10
137.9401697655
 20
396.7640913475
 10
137.8858223314
 20
396.4454929276
  0
LWPOLYLINE
  5
575
330
515
100
AcDbEntity
  8
0
  6
Continuous
 62
     7
370
    25
100
AcDbPolyline
 90
        9
 70
   128
 43
0.0
 10
-137.8858223314
 20
580.1373180877
 10
-137.9401697655
 20
580.4559165076
 10
-138.1011235264
 20
580.7622713689
 10
-138.3624982513
 20
581.044609626
 10
-138.7142494561
 20
581.2920811781
 10
-139.1428595393
 20
581.4951758323
 10
-139.6318572558
 20
581.6460887749
 10
-140.1624506976
 20
581.739020506
 10
-140.7142494561
 20
581.7703997115
  0
LWPOLYLINE
  5
595
330
515
100
AcDbEntity
  8
0
  6
Continuous
 62
     7
370
    25
100
AcDbPolyline
 90
       10
 70
   128
 43
0.0
 10
-175.3624817343
 20
591.1590929975
 10
-176.8190701546
 20
590.156982443
 10
-177.9520948103
 20
589.0240805529
 10
-178.7271293206
 20
587.7948099777
 10
-179.120624654
 20
586.5065214819
 10
-179.120624654
 20
585.1983590594
 10
-178.7271293206
 20
583.9100705635
 10
-177.9520948103
 20
582.6807999883
 10
-176.8190701546
 20
581.5478980982
 10
-175.3624817343
 20
580.5457875438
  0
LWPOLYLINE
  5
5AD
330
515
100
AcDbEntity
  8
0
  6
Continuous
 62
     7
370
    25
100
AcDbPolyline
 90
       15
 70
   128
 43
0.0
 10
154.5028316893
 20
391.3432076289
 10
156.0854880015
 20
390.580439751
 10
157.8786368658
 20
389.993068024
 10
159.8246450023
 20
389.5999710583
 10
161.8609661084
 20
389.4137833141
 10
163.9221511481
 20
389.4404890184
 10
165.9419519384
 20
389.6792298281
 10
167.8554504199
 20
390.1223324171
 10
169.6011451771
 20
390.7555551036
 10
171.122928144
 20
391.5585455893
 10
172.371887964
 20
392.5054950995
 10
173.3078820409
 20
393.5659678976
 10
173.9008267548
 20
394.7058795154
 10
174.1316643747
 20
395.8885922556
 10
174.1345596729
 20
396.0375542718
  0
LWPOLYLINE
  5
5AF
330
515
100
AcDbEntity
  8
0
  6
Continuous
 62
     7
370
    25
100
AcDbPolyline
 90
       36
 70
   128
 43
0.0
 10
154.5028316893
 20
392.1597484407
 10
156.0854880015
 20
391.3969805629
 10
157.8786368658
 20
390.8096088358
 10
159.8246450023
 20
390.4165118702
 10
161.8609661084
 20
390.230324126
 10
163.9221511481
 20
390.2570298303
 10
165.9419519384
 20
390.49577064
 10
167.8554504199
 20
390.938873229
 10
169.6011451771
 20
391.5720959154
 10
171.122928144
 20
392.3750864012
 10
172.371887964
 20
393.3220359113
 10
173.3078820409
 20
394.3825087095
 10
173.9008267548
 20
395.5224203273
 10
174.1316643747
 20
396.7051330675
 10
173.9929755897
 20
397.8926335695
 10
173.4892179715
 20
399.04675459
 10
172.6365827042
 20
400.1304017299
 10
171.462474187
 20
401.1087456784
 10
170.0046292337
 20
401.9503416561
 10
168.3099041806
 20
402.6281400757
 10
166.4327688854
 20
403.1203559384
 10
164.4335560209
 20
403.4111690213
 10
162.3765219335
 20
403.4912323527
 10
160.3277813914
 20
403.3579726312
 10
158.3531826013
 20
403.0156729339
 10
156.516190793
 20
402.4753350547
 10
154.8758483947
 20
401.7543258977
 10
153.4848773608
 20
400.8758192905
 10
152.3879846447
 20
399.8680511581
 10
151.620425281
 20
398.7634119976
 10
151.2068692591
 20
397.5974058205
 10
151.1606086099
 20
396.4075090248
 10
151.4831301886
 20
395.2319658724
 10
152.1640678863
 20
394.1085592875
 10
153.1815358053
 20
393.0733964822
 10
154.5028316893
 20
392.1597484407
  0
LWPOLYLINE
  5
5B0
330
515
100
AcDbEntity
  8
0
  6
Continuous
 62
     7
370
    25
100
AcDbPolyline
 90
       36
 70
   128
 43
0.0
 10
-170.7662876566
 20
579.93361416
 10
-172.0875835406
 20
580.8472622015
 10
-173.1050514595
 20
581.8824250068
 10
-173.7859891572
 20
583.0058315916
 10
-174.1085107359
 20
584.181374744
 10
-174.0622500867
 20
585.3712715398
 10
-173.6486940648
 20
586.5372777168
 10
-172.8811347011
 20
587.6419168773
 10
-171.784241985
 20
588.6496850097
 10
-170.3932709511
 20
589.528191617
 10
-168.7529285528
 20
590.249200774
 10
-166.9159367445
 20
590.7895386531
 10
-164.9413379544
 20
591.1318383504
 10
-162.8925974123
 20
591.2650980719
 10
-160.8355633249
 20
591.1850347405
 10
-158.8363504604
 20
590.8942216576
 10
-156.9592151652
 20
590.4020057949
 10
-155.2644901121
 20
589.7242073753
 10
-153.8066451588
 20
588.8826113976
 10
-152.6325366416
 20
587.9042674491
 10
-151.7799013744
 20
586.8206203092
 10
-151.2761437561
 20
585.6664992887
 10
-151.1374549711
 20
584.4789987867
 10
-151.368292591
 20
583.2962860465
 10
-151.9612373049
 20
582.1563744287
 10
-152.8972313818
 20
581.0959016306
 10
-154.1461912018
 20
580.1489521204
 10
-155.6679741687
 20
579.3459616347
 10
-157.4136689259
 20
578.7127389482
 10
-159.3271674074
 20
578.2696363593
 10
-161.3469681977
 20
578.0308955496
 10
-163.4081532374
 20
578.0041898452
 10
-165.4444743435
 20
578.1903775895
 10
-167.39048248
 20
578.5834745551
 10
-169.1836313443
 20
579.1708462821
 10
-170.7662876566
 20
579.93361416
  0
LWPOLYLINE
  5
5B2
330
515
100
AcDbEntity
  8
0
  6
Continuous
 62
     7
370
    25
100
AcDbPolyline
 90
       15
 70
   128
 43
0.0
 10
-151.1345596729
 20
583.8114199911
 10
-151.1374549711
 20
583.6624579749
 10
-151.368292591
 20
582.4797452346
 10
-151.9612373049
 20
581.3398336168
 10
-152.8972313818
 20
580.2793608187
 10
-154.1461912018
 20
579.3324113085
 10
-155.6679741687
 20
578.5294208228
 10
-157.4136689259
 20
577.8961981363
 10
-159.3271674074
 20
577.4530955474
 10
-161.3469681977
 20
577.2143547377
 10
-163.4081532374
 20
577.1876490333
 10
-165.4444743435
 20
577.3738367776
 10
-167.39048248
 20
577.7669337432
 10
-169.1836313443
 20
578.3543054702
 10
-170.7662876566
 20
579.1170733481
  0
LWPOLYLINE
  5
5B7
330
515
100
AcDbEntity
  8
0
  6
Continuous
 62
     8
370
    25
100
AcDbPolyline
 90
       15
 70
   128
 43
0.0
 10
-142.2857642385
 20
552.1040398277
 10
-142.4101113294
 20
552.1726492341
 10
-143.5003443635
 20
552.5472588898
 10
-144.7282999523
 20
552.6014323669
 10
-146.0545105931
 20
552.3334284853
 10
-147.4363507844
 20
551.7518611102
 10
-148.8294070457
 20
550.8754222956
 10
-150.1889054025
 20
549.7322815062
 10
-151.4711504589
 20
548.3591802274
 10
-152.6349298038
 20
546.8002510641
 10
-153.6428386116
 20
545.1055992825
 10
-154.4624818638
 20
543.329692385
 10
-155.0675155519
 20
541.5296094807
 10
-155.4384933954
 20
539.763206715
 10
-155.563491861
 20
538.0872577265
  0
LWPOLYLINE
  5
5B9
330
515
100
AcDbEntity
  8
0
  6
Continuous
 62
     8
370
    25
100
AcDbPolyline
 90
       15
 70
   128
 43
0.0
 10
-142.2857642385
 20
519.4424073523
 10
-142.4101113294
 20
519.5110167586
 10
-143.5003443635
 20
519.8856264144
 10
-144.7282999523
 20
519.9397998915
 10
-146.0545105931
 20
519.6717960099
 10
-147.4363507844
 20
519.0902286348
 10
-148.8294070457
 20
518.2137898202
 10
-150.1889054025
 20
517.0706490307
 10
-151.4711504589
 20
515.6975477519
 10
-152.6349298038
 20
514.1386185887
 10
-153.6428386116
 20
512.4439668071
 10
-154.4624818638
 20
510.6680599096
 10
-155.0675155519
 20
508.8679770052
 10
-155.4384933954
 20
507.1015742396
 10
-155.563491861
 20
505.425625251
  0
LWPOLYLINE
  5
5BB
330
515
100
AcDbEntity
  8
0
  6
Continuous
 62
     8
370
    25
100
AcDbPolyline
 90
       15
 70
   128
 43
0.0
 10
-142.2857642385
 20
486.7807748768
 10
-142.4101113294
 20
486.8493842832
 10
-143.5003443635
 20
487.2239939389
 10
-144.7282999523
 20
487.278167416
 10
-146.0545105931
 20
487.0101635344
 10
-147.4363507844
 20
486.4285961594
 10
-148.8294070457
 20
485.5521573448
 10
-150.1889054025
 20
484.4090165553
 10
-151.4711504589
 20
483.0359152765
 10
-152.6349298038
 20
481.4769861133
 10
-153.6428386116
 20
479.7823343316
 10
-154.4624818638
 20
478.0064274342
 10
-155.0675155519
 20
476.2063445298
 10
-155.4384933954
 20
474.4399417642
 10
-155.563491861
 20
472.7639927756
  0
LWPOLYLINE
  5
5BD
330
515
100
AcDbEntity
  8
0
  6
Continuous
 62
     8
370
    25
100
AcDbPolyline
 90
       15
 70
   128
 43
0.0
 10
-142.2857642385
 20
454.1191424014
 10
-142.4101113294
 20
454.1877518078
 10
-143.5003443635
 20
454.5623614635
 10
-144.7282999523
 20
454.6165349406
 10
-146.0545105931
 20
454.348531059
 10
-147.4363507844
 20
453.7669636839
 10
-148.8294070457
 20
452.8905248693
 10
-150.1889054025
 20
451.7473840799
 10
-151.4711504589
 20
450.3742828011
 10
-152.6349298038
 20
448.8153536379
 10
-153.6428386116
 20
447.1207018562
 10
-154.4624818638
 20
445.3447949587
 10
-155.0675155519
 20
443.5447120544
 10
-155.4384933954
 20
441.7783092887
 10
-155.563491861
 20
440.1023603002
  0
LWPOLYLINE
  5
5BF
330
515
100
AcDbEntity
  8
0
  6
Continuous
 62
     8
370
    25
100
AcDbPolyline
 90
       15
 70
   128
 43
0.0
 10
-142.2857642385
 20
421.457509926
 10
-142.4101113294
 20
421.5261193323
 10
-143.5003443635
 20
421.9007289881
 10
-144.7282999523
 20
421.9549024652
 10
-146.0545105931
 20
421.6868985836
 10
-147.4363507844
 20
421.1053312085
 10
-148.8294070457
 20
420.2288923939
 10
-150.1889054025
 20
419.0857516044
 10
-151.4711504589
 20
417.7126503257
 10
-152.6349298038
 20
416.1537211624
 10
-153.6428386116
 20
414.4590693808
 10
-154.4624818638
 20
412.6831624833
 10
-155.0675155519
 20
410.8830795789
 10
-155.4384933954
 20
409.1166768133
 10
-155.563491861
 20
407.4407278247
  0
LWPOLYLINE
  5
5C1
330
515
100
AcDbEntity
  8
0
  6
Continuous
 62
     8
370
    25
100
AcDbPolyline
 90
       15
 70
   128
 43
0.0
 10
-142.2857642385
 20
290.8109800242
 10
-142.4101113294
 20
290.8795894306
 10
-143.5003443635
 20
291.2541990863
 10
-144.7282999523
 20
291.3083725635
 10
-146.0545105931
 20
291.0403686819
 10
-147.4363507844
 20
290.4588013068
 10
-148.8294070457
 20
289.5823624922
 10
-150.1889054025
 20
288.4392217027
 10
-151.4711504589
 20
287.0661204239
 10
-152.6349298038
 20
285.5071912607
 10
-153.6428386116
 20
283.8125394791
 10
-154.4624818638
 20
282.0366325816
 10
-155.0675155519
 20
280.2365496772
 10
-155.4384933954
 20
278.4701469116
 10
-155.563491861
 20
276.794197923
  0
LWPOLYLINE
  5
5C3
330
515
100
AcDbEntity
  8
0
  6
Continuous
 62
     8
370
    25
100
AcDbPolyline
 90
       15
 70
   128
 43
0.0
 10
-142.2857642385
 20
258.1493475488
 10
-142.4101113294
 20
258.2179569552
 10
-143.5003443635
 20
258.5925666109
 10
-144.7282999523
 20
258.646740088
 10
-146.0545105931
 20
258.3787362064
 10
-147.4363507844
 20
257.7971688313
 10
-148.8294070457
 20
256.9207300168
 10
-150.1889054025
 20
255.7775892273
 10
-151.4711504589
 20
254.4044879485
 10
-152.6349298038
 20
252.8455587853
 10
-153.6428386116
 20
251.1509070036
 10
-154.4624818638
 20
249.3750001062
 10
-155.0675155519
 20
247.5749172018
 10
-155.4384933954
 20
245.8085144362
 10
-155.563491861
 20
244.1325654476
  0
LWPOLYLINE
  5
5C4
330
515
100
AcDbEntity
  8
0
  6
Continuous
 62
     8
370
    25
100
AcDbPolyline
 90
       17
 70
   128
 43
0.0
 10
-156.9777054234
 20
-49.8221268313
 10
-156.848794933
 20
-48.0462185015
 10
-156.4659803418
 20
-46.1754333636
 10
-155.8408932775
 20
-44.2666142772
 10
-154.9925266942
 20
-42.3777597444
 10
-153.9466577812
 20
-40.5662616544
 10
-152.7350647363
 20
-38.88716146
 10
-151.394561201
 20
-37.3914777708
 10
-149.9658776968
 20
-36.1246561791
 10
-148.4924240492
 20
-35.1251884177
 10
-147.0189704015
 20
-34.4234428089
 10
-145.5902868974
 20
-34.0407415378
 10
-144.2497833621
 20
-33.988712789
 10
-143.0381903171
 20
-34.2689374297
 10
-141.9923214041
 20
-34.8729009759
 10
-141.1439548208
 20
-35.7822523009
 10
-140.5947604016
 20
-36.7815404662
  0
LWPOLYLINE
  5
5C5
330
515
100
AcDbEntity
  8
0
  6
Continuous
 62
     8
370
    25
100
AcDbPolyline
 90
        8
 70
   128
 43
0.0
 10
-151.5938664606
 20
-55.8346154386
 10
-152.7350647363
 20
-55.8586435316
 10
-153.9466577812
 20
-55.578418891
 10
-154.9925266942
 20
-54.9744553448
 10
-155.8408932775
 20
-54.0651040198
 10
-156.4659803418
 20
-52.8779950959
 10
-156.848794933
 20
-51.4491982769
 10
-156.9777054234
 20
-49.8221268313
  0
LWPOLYLINE
  5
5C6
330
515
100
AcDbEntity
  8
0
  6
Continuous
 62
     8
370
    25
100
AcDbPolyline
 90
       17
 70
   128
 43
0.0
 10
-156.9777054234
 20
-82.4837593067
 10
-156.848794933
 20
-80.7078509769
 10
-156.4659803418
 20
-78.837065839
 10
-155.8408932775
 20
-76.9282467526
 10
-154.9925266942
 20
-75.0393922198
 10
-153.9466577812
 20
-73.2278941298
 10
-152.7350647363
 20
-71.5487939354
 10
-151.394561201
 20
-70.0531102463
 10
-149.9658776968
 20
-68.7862886545
 10
-148.4924240492
 20
-67.7868208931
 10
-147.0189704015
 20
-67.0850752843
 10
-145.5902868974
 20
-66.7023740133
 10
-144.2497833621
 20
-66.6503452645
 10
-143.0381903171
 20
-66.9305699051
 10
-141.9923214041
 20
-67.5345334513
 10
-141.1439548208
 20
-68.4438847763
 10
-140.5947604016
 20
-69.4431729416
  0
LWPOLYLINE
  5
5C7
330
515
100
AcDbEntity
  8
0
  6
Continuous
 62
     8
370
    25
100
AcDbPolyline
 90
        8
 70
   128
 43
0.0
 10
-151.5938664606
 20
-88.496247914
 10
-152.7350647363
 20
-88.5202760071
 10
-153.9466577812
 20
-88.2400513664
 10
-154.9925266942
 20
-87.6360878202
 10
-155.8408932775
 20
-86.7267364952
 10
-156.4659803418
 20
-85.5396275713
 10
-156.848794933
 20
-84.1108307523
 10
-156.9777054234
 20
-82.4837593067
  0
LWPOLYLINE
  5
5C8
330
515
100
AcDbEntity
  8
0
  6
Continuous
 62
     8
370
    25
100
AcDbPolyline
 90
       17
 70
   128
 43
0.0
 10
-156.9777054234
 20
-115.1453917821
 10
-156.848794933
 20
-113.3694834524
 10
-156.4659803418
 20
-111.4986983144
 10
-155.8408932775
 20
-109.589879228
 10
-154.9925266942
 20
-107.7010246953
 10
-153.9466577812
 20
-105.8895266053
 10
-152.7350647363
 20
-104.2104264108
 10
-151.394561201
 20
-102.7147427217
 10
-149.9658776968
 20
-101.4479211299
 10
-148.4924240492
 20
-100.4484533686
 10
-147.0189704015
 20
-99.7467077597
 10
-145.5902868974
 20
-99.3640064887
 10
-144.2497833621
 20
-99.3119777399
 10
-143.0381903171
 20
-99.5922023805
 10
-141.9923214041
 20
-100.1961659267
 10
-141.1439548208
 20
-101.1055172517
 10
-140.5947604016
 20
-102.1048054171
  0
LWPOLYLINE
  5
5C9
330
515
100
AcDbEntity
  8
0
  6
Continuous
 62
     8
370
    25
100
AcDbPolyline
 90
        8
 70
   128
 43
0.0
 10
-151.5938664606
 20
-121.1578803894
 10
-152.7350647363
 20
-121.1819084825
 10
-153.9466577812
 20
-120.9016838419
 10
-154.9925266942
 20
-120.2977202957
 10
-155.8408932775
 20
-119.3883689707
 10
-156.4659803418
 20
-118.2012600467
 10
-156.848794933
 20
-116.7724632278
 10
-156.9777054234
 20
-115.1453917821
  0
LWPOLYLINE
  5
5CA
330
515
100
AcDbEntity
  8
0
  6
Continuous
 62
     8
370
    25
100
AcDbPolyline
 90
       17
 70
   128
 43
0.0
 10
-156.9777054234
 20
-147.8070242576
 10
-156.848794933
 20
-146.0311159278
 10
-156.4659803418
 20
-144.1603307899
 10
-155.8408932775
 20
-142.2515117035
 10
-154.9925266942
 20
-140.3626571707
 10
-153.9466577812
 20
-138.5511590807
 10
-152.7350647363
 20
-136.8720588863
 10
-151.394561201
 20
-135.3763751971
 10
-149.9658776968
 20
-134.1095536054
 10
-148.4924240492
 20
-133.110085844
 10
-147.0189704015
 20
-132.4083402352
 10
-145.5902868974
 20
-132.0256389641
 10
-144.2497833621
 20
-131.9736102153
 10
-143.0381903171
 20
-132.253834856
 10
-141.9923214041
 20
-132.8577984021
 10
-141.1439548208
 20
-133.7671497271
 10
-140.5947604016
 20
-134.7664378925
  0
LWPOLYLINE
  5
5CB
330
515
100
AcDbEntity
  8
0
  6
Continuous
 62
     8
370
    25
100
AcDbPolyline
 90
        8
 70
   128
 43
0.0
 10
-151.5938664606
 20
-153.8195128649
 10
-152.7350647363
 20
-153.8435409579
 10
-153.9466577812
 20
-153.5633163173
 10
-154.9925266942
 20
-152.9593527711
 10
-155.8408932775
 20
-152.0500014461
 10
-156.4659803418
 20
-150.8628925222
 10
-156.848794933
 20
-149.4340957032
 10
-156.9777054234
 20
-147.8070242576
  0
LWPOLYLINE
  5
5CC
330
515
100
AcDbEntity
  8
0
  6
Continuous
 62
     8
370
    25
100
AcDbPolyline
 90
       17
 70
   128
 43
0.0
 10
-156.9777054234
 20
-180.468656733
 10
-156.848794933
 20
-178.6927484032
 10
-156.4659803418
 20
-176.8219632653
 10
-155.8408932775
 20
-174.9131441789
 10
-154.9925266942
 20
-173.0242896461
 10
-153.9466577812
 20
-171.2127915561
 10
-152.7350647363
 20
-169.5336913617
 10
-151.394561201
 20
-168.0380076726
 10
-149.9658776968
 20
-166.7711860808
 10
-148.4924240492
 20
-165.7717183194
 10
-147.0189704015
 20
-165.0699727106
 10
-145.5902868974
 20
-164.6872714396
 10
-144.2497833621
 20
-164.6352426907
 10
-143.0381903171
 20
-164.9154673314
 10
-141.9923214041
 20
-165.5194308776
 10
-141.1439548208
 20
-166.4287822026
 10
-140.5947604016
 20
-167.4280703679
  0
LWPOLYLINE
  5
5CD
330
515
100
AcDbEntity
  8
0
  6
Continuous
 62
     8
370
    25
100
AcDbPolyline
 90
        8
 70
   128
 43
0.0
 10
-151.5938664606
 20
-186.4811453403
 10
-152.7350647363
 20
-186.5051734334
 10
-153.9466577812
 20
-186.2249487927
 10
-154.9925266942
 20
-185.6209852465
 10
-155.8408932775
 20
-184.7116339215
 10
-156.4659803418
 20
-183.5245249976
 10
-156.848794933
 20
-182.0957281786
 10
-156.9777054234
 20
-180.468656733
  0
LWPOLYLINE
  5
5CE
330
515
100
AcDbEntity
  8
0
  6
Continuous
 62
     8
370
    25
100
AcDbPolyline
 90
       17
 70
   128
 43
0.0
 10
-156.9777054234
 20
-213.1302892084
 10
-156.848794933
 20
-211.3543808787
 10
-156.4659803418
 20
-209.4835957407
 10
-155.8408932775
 20
-207.5747766543
 10
-154.9925266942
 20
-205.6859221216
 10
-153.9466577812
 20
-203.8744240315
 10
-152.7350647363
 20
-202.1953238371
 10
-151.394561201
 20
-200.699640148
 10
-149.9658776968
 20
-199.4328185562
 10
-148.4924240492
 20
-198.4333507949
 10
-147.0189704015
 20
-197.731605186
 10
-145.5902868974
 20
-197.348903915
 10
-144.2497833621
 20
-197.2968751662
 10
-143.0381903171
 20
-197.5770998068
 10
-141.9923214041
 20
-198.181063353
 10
-141.1439548208
 20
-199.090414678
 10
-140.5947604016
 20
-200.0897028434
  0
LWPOLYLINE
  5
5CF
330
515
100
AcDbEntity
  8
0
  6
Continuous
 62
     8
370
    25
100
AcDbPolyline
 90
        8
 70
   128
 43
0.0
 10
-151.5938664606
 20
-219.1427778157
 10
-152.7350647363
 20
-219.1668059088
 10
-153.9466577812
 20
-218.8865812681
 10
-154.9925266942
 20
-218.282617722
 10
-155.8408932775
 20
-217.373266397
 10
-156.4659803418
 20
-216.186157473
 10
-156.848794933
 20
-214.7573606541
 10
-156.9777054234
 20
-213.1302892084
  0
LWPOLYLINE
  5
5D0
330
515
100
AcDbEntity
  8
0
  6
Continuous
 62
     8
370
    25
100
AcDbPolyline
 90
       17
 70
   128
 43
0.0
 10
-156.9777054234
 20
-245.7919216839
 10
-156.848794933
 20
-244.0160133541
 10
-156.4659803418
 20
-242.1452282161
 10
-155.8408932775
 20
-240.2364091298
 10
-154.9925266942
 20
-238.347554597
 10
-153.9466577812
 20
-236.536056507
 10
-152.7350647363
 20
-234.8569563125
 10
-151.394561201
 20
-233.3612726234
 10
-149.9658776968
 20
-232.0944510317
 10
-148.4924240492
 20
-231.0949832703
 10
-147.0189704015
 20
-230.3932376615
 10
-145.5902868974
 20
-230.0105363904
 10
-144.2497833621
 20
-229.9585076416
 10
-143.0381903171
 20
-230.2387322823
 10
-141.9923214041
 20
-230.8426958284
 10
-141.1439548208
 20
-231.7520471534
 10
-140.5947604016
 20
-232.7513353188
  0
LWPOLYLINE
  5
5D1
330
515
100
AcDbEntity
  8
0
  6
Continuous
 62
     8
370
    25
100
AcDbPolyline
 90
        8
 70
   128
 43
0.0
 10
-151.5938664606
 20
-251.8044102912
 10
-152.7350647363
 20
-251.8284383842
 10
-153.9466577812
 20
-251.5482137436
 10
-154.9925266942
 20
-250.9442501974
 10
-155.8408932775
 20
-250.0348988724
 10
-156.4659803418
 20
-248.8477899484
 10
-156.848794933
 20
-247.4189931295
 10
-156.9777054234
 20
-245.7919216839
  0
LWPOLYLINE
  5
5D2
330
515
100
AcDbEntity
  8
0
  6
Continuous
 62
     8
370
    25
100
AcDbPolyline
 90
       17
 70
   128
 43
0.0
 10
-156.9777054234
 20
-278.4535541593
 10
-156.848794933
 20
-276.6776458295
 10
-156.4659803418
 20
-274.8068606916
 10
-155.8408932775
 20
-272.8980416052
 10
-154.9925266942
 20
-271.0091870724
 10
-153.9466577812
 20
-269.1976889824
 10
-152.7350647363
 20
-267.518588788
 10
-151.394561201
 20
-266.0229050989
 10
-149.9658776968
 20
-264.7560835071
 10
-148.4924240492
 20
-263.7566157457
 10
-147.0189704015
 20
-263.0548701369
 10
-145.5902868974
 20
-262.6721688658
 10
-144.2497833621
 20
-262.620140117
 10
-143.0381903171
 20
-262.9003647577
 10
-141.9923214041
 20
-263.5043283039
 10
-141.1439548208
 20
-264.4136796289
 10
-140.5947604016
 20
-265.4129677942
  0
LWPOLYLINE
  5
5D3
330
515
100
AcDbEntity
  8
0
  6
Continuous
 62
     8
370
    25
100
AcDbPolyline
 90
        8
 70
   128
 43
0.0
 10
-151.5938664606
 20
-284.4660427666
 10
-152.7350647363
 20
-284.4900708597
 10
-153.9466577812
 20
-284.209846219
 10
-154.9925266942
 20
-283.6058826728
 10
-155.8408932775
 20
-282.6965313478
 10
-156.4659803418
 20
-281.5094224239
 10
-156.848794933
 20
-280.0806256049
 10
-156.9777054234
 20
-278.4535541593
  0
LWPOLYLINE
  5
5D4
330
515
100
AcDbEntity
  8
0
  6
Continuous
 62
     8
370
    25
100
AcDbPolyline
 90
       17
 70
   128
 43
0.0
 10
-156.9777054234
 20
-311.1151866347
 10
-156.848794933
 20
-309.3392783049
 10
-156.4659803418
 20
-307.468493167
 10
-155.8408932775
 20
-305.5596740806
 10
-154.9925266942
 20
-303.6708195478
 10
-153.9466577812
 20
-301.8593214578
 10
-152.7350647363
 20
-300.1802212634
 10
-151.394561201
 20
-298.6845375743
 10
-149.9658776968
 20
-297.4177159825
 10
-148.4924240492
 20
-296.4182482211
 10
-147.0189704015
 20
-295.7165026123
 10
-145.5902868974
 20
-295.3338013413
 10
-144.2497833621
 20
-295.2817725925
 10
-143.0381903171
 20
-295.5619972331
 10
-141.9923214041
 20
-296.1659607793
 10
-141.1439548208
 20
-297.0753121043
 10
-140.5947604016
 20
-298.0746002696
  0
LWPOLYLINE
  5
5D5
330
515
100
AcDbEntity
  8
0
  6
Continuous
 62
     8
370
    25
100
AcDbPolyline
 90
        8
 70
   128
 43
0.0
 10
-151.5938664606
 20
-317.127675242
 10
-152.7350647363
 20
-317.1517033351
 10
-153.9466577812
 20
-316.8714786944
 10
-154.9925266942
 20
-316.2675151483
 10
-155.8408932775
 20
-315.3581638233
 10
-156.4659803418
 20
-314.1710548993
 10
-156.848794933
 20
-312.7422580803
 10
-156.9777054234
 20
-311.1151866347
  0
LWPOLYLINE
  5
5D6
330
515
100
AcDbEntity
  8
0
  6
Continuous
 62
     8
370
    25
100
AcDbPolyline
 90
       17
 70
   128
 43
0.0
 10
-156.9777054234
 20
80.8244030704
 10
-156.848794933
 20
82.6003114002
 10
-156.4659803418
 20
84.4710965382
 10
-155.8408932775
 20
86.3799156245
 10
-154.9925266942
 20
88.2687701573
 10
-153.9466577812
 20
90.0802682473
 10
-152.7350647363
 20
91.7593684418
 10
-151.394561201
 20
93.2550521309
 10
-149.9658776968
 20
94.5218737226
 10
-148.4924240492
 20
95.521341484
 10
-147.0189704015
 20
96.2230870928
 10
-145.5902868974
 20
96.6057883639
 10
-144.2497833621
 20
96.6578171127
 10
-143.0381903171
 20
96.377592472
 10
-141.9923214041
 20
95.7736289259
 10
-141.1439548208
 20
94.8642776009
 10
-140.5947604016
 20
93.8649894355
  0
LWPOLYLINE
  5
5D7
330
515
100
AcDbEntity
  8
0
  6
Continuous
 62
     8
370
    25
100
AcDbPolyline
 90
        8
 70
   128
 43
0.0
 10
-151.5938664606
 20
74.8119144631
 10
-152.7350647363
 20
74.7878863701
 10
-153.9466577812
 20
75.0681110107
 10
-154.9925266942
 20
75.6720745569
 10
-155.8408932775
 20
76.5814258819
 10
-156.4659803418
 20
77.7685348059
 10
-156.848794933
 20
79.1973316248
 10
-156.9777054234
 20
80.8244030704
  0
LWPOLYLINE
  5
5D8
330
515
100
AcDbEntity
  8
0
  6
Continuous
 62
     8
370
    25
100
AcDbPolyline
 90
       17
 70
   128
 43
0.0
 10
-156.9777054234
 20
113.4860355459
 10
-156.848794933
 20
115.2619438756
 10
-156.4659803418
 20
117.1327290136
 10
-155.8408932775
 20
119.0415481
 10
-154.9925266942
 20
120.9304026327
 10
-153.9466577812
 20
122.7419007228
 10
-152.7350647363
 20
124.4210009172
 10
-151.394561201
 20
125.9166846063
 10
-149.9658776968
 20
127.1835061981
 10
-148.4924240492
 20
128.1829739594
 10
-147.0189704015
 20
128.8847195683
 10
-145.5902868974
 20
129.2674208393
 10
-144.2497833621
 20
129.3194495881
 10
-143.0381903171
 20
129.0392249475
 10
-141.9923214041
 20
128.4352614013
 10
-141.1439548208
 20
127.5259100763
 10
-140.5947604016
 20
126.5266219109
  0
LWPOLYLINE
  5
5D9
330
515
100
AcDbEntity
  8
0
  6
Continuous
 62
     8
370
    25
100
AcDbPolyline
 90
        8
 70
   128
 43
0.0
 10
-151.5938664606
 20
107.4735469386
 10
-152.7350647363
 20
107.4495188455
 10
-153.9466577812
 20
107.7297434862
 10
-154.9925266942
 20
108.3337070323
 10
-155.8408932775
 20
109.2430583573
 10
-156.4659803418
 20
110.4301672813
 10
-156.848794933
 20
111.8589641002
 10
-156.9777054234
 20
113.4860355459
  0
LWPOLYLINE
  5
5DA
330
515
100
AcDbEntity
  8
0
  6
Continuous
 62
     8
370
    25
100
AcDbPolyline
 90
       17
 70
   128
 43
0.0
 10
-156.9777054234
 20
146.1476680213
 10
-156.848794933
 20
147.9235763511
 10
-156.4659803418
 20
149.794361489
 10
-155.8408932775
 20
151.7031805754
 10
-154.9925266942
 20
153.5920351082
 10
-153.9466577812
 20
155.4035331982
 10
-152.7350647363
 20
157.0826333926
 10
-151.394561201
 20
158.5783170817
 10
-149.9658776968
 20
159.8451386735
 10
-148.4924240492
 20
160.8446064349
 10
-147.0189704015
 20
161.5463520437
 10
-145.5902868974
 20
161.9290533147
 10
-144.2497833621
 20
161.9810820636
 10
-143.0381903171
 20
161.7008574229
 10
-141.9923214041
 20
161.0968938767
 10
-141.1439548208
 20
160.1875425517
 10
-140.5947604016
 20
159.1882543864
  0
LWPOLYLINE
  5
5DB
330
515
100
AcDbEntity
  8
0
  6
Continuous
 62
     8
370
    25
100
AcDbPolyline
 90
        8
 70
   128
 43
0.0
 10
-151.5938664606
 20
140.135179414
 10
-152.7350647363
 20
140.1111513209
 10
-153.9466577812
 20
140.3913759616
 10
-154.9925266942
 20
140.9953395078
 10
-155.8408932775
 20
141.9046908328
 10
-156.4659803418
 20
143.0917997567
 10
-156.848794933
 20
144.5205965757
 10
-156.9777054234
 20
146.1476680213
  0
LWPOLYLINE
  5
5DC
330
515
100
AcDbEntity
  8
0
  6
Continuous
 62
     8
370
    25
100
AcDbPolyline
 90
       17
 70
   128
 43
0.0
 10
-156.9777054234
 20
178.8093004967
 10
-156.848794933
 20
180.5852088265
 10
-156.4659803418
 20
182.4559939644
 10
-155.8408932775
 20
184.3648130508
 10
-154.9925266942
 20
186.2536675836
 10
-153.9466577812
 20
188.0651656736
 10
-152.7350647363
 20
189.744265868
 10
-151.394561201
 20
191.2399495572
 10
-149.9658776968
 20
192.5067711489
 10
-148.4924240492
 20
193.5062389103
 10
-147.0189704015
 20
194.2079845191
 10
-145.5902868974
 20
194.5906857902
 10
-144.2497833621
 20
194.642714539
 10
-143.0381903171
 20
194.3624898983
 10
-141.9923214041
 20
193.7585263522
 10
-141.1439548208
 20
192.8491750272
 10
-140.5947604016
 20
191.8498868618
  0
LWPOLYLINE
  5
5DD
330
515
100
AcDbEntity
  8
0
  6
Continuous
 62
     8
370
    25
100
AcDbPolyline
 90
        8
 70
   128
 43
0.0
 10
-151.5938664606
 20
172.7968118894
 10
-152.7350647363
 20
172.7727837964
 10
-153.9466577812
 20
173.053008437
 10
-154.9925266942
 20
173.6569719832
 10
-155.8408932775
 20
174.5663233082
 10
-156.4659803418
 20
175.7534322321
 10
-156.848794933
 20
177.1822290511
 10
-156.9777054234
 20
178.8093004967
  0
LWPOLYLINE
  5
5DE
330
515
100
AcDbEntity
  8
0
  6
Continuous
 62
     8
370
    25
100
AcDbPolyline
 90
       17
 70
   128
 43
0.0
 10
-156.9777054234
 20
211.4709329722
 10
-156.848794933
 20
213.2468413019
 10
-156.4659803418
 20
215.1176264399
 10
-155.8408932775
 20
217.0264455263
 10
-154.9925266942
 20
218.915300059
 10
-153.9466577812
 20
220.726798149
 10
-152.7350647363
 20
222.4058983435
 10
-151.394561201
 20
223.9015820326
 10
-149.9658776968
 20
225.1684036244
 10
-148.4924240492
 20
226.1678713857
 10
-147.0189704015
 20
226.8696169946
 10
-145.5902868974
 20
227.2523182656
 10
-144.2497833621
 20
227.3043470144
 10
-143.0381903171
 20
227.0241223738
 10
-141.9923214041
 20
226.4201588276
 10
-141.1439548208
 20
225.5108075026
 10
-140.5947604016
 20
224.5115193372
  0
LWPOLYLINE
  5
5DF
330
515
100
AcDbEntity
  8
0
  6
Continuous
 62
     8
370
    25
100
AcDbPolyline
 90
        8
 70
   128
 43
0.0
 10
-151.5938664606
 20
205.4584443649
 10
-152.7350647363
 20
205.4344162718
 10
-153.9466577812
 20
205.7146409124
 10
-154.9925266942
 20
206.3186044586
 10
-155.8408932775
 20
207.2279557836
 10
-156.4659803418
 20
208.4150647076
 10
-156.848794933
 20
209.8438615265
 10
-156.9777054234
 20
211.4709329722
  0
LWPOLYLINE
  5
5E0
330
515
100
AcDbEntity
  8
0
  6
Continuous
 62
     8
370
    25
100
AcDbPolyline
 90
       17
 70
   128
 43
0.0
 10
-156.9777054234
 20
407.4407278247
 10
-156.848794933
 20
409.2166361545
 10
-156.4659803418
 20
411.0874212925
 10
-155.8408932775
 20
412.9962403788
 10
-154.9925266942
 20
414.8850949116
 10
-153.9466577812
 20
416.6965930016
 10
-152.7350647363
 20
418.3756931961
 10
-151.394561201
 20
419.8713768852
 10
-149.9658776968
 20
421.1381984769
 10
-148.4924240492
 20
422.1376662383
 10
-147.0189704015
 20
422.8394118471
 10
-145.5902868974
 20
423.2221131182
 10
-144.2497833621
 20
423.274141867
 10
-143.0381903171
 20
422.9939172263
 10
-141.9923214041
 20
422.3899536802
 10
-141.1439548208
 20
421.4806023552
 10
-140.5947604016
 20
420.4813141898
  0
LWPOLYLINE
  5
5E1
330
515
100
AcDbEntity
  8
0
  6
Continuous
 62
     8
370
    25
100
AcDbPolyline
 90
        8
 70
   128
 43
0.0
 10
-151.5938664606
 20
401.4282392174
 10
-152.7350647363
 20
401.4042111244
 10
-153.9466577812
 20
401.684435765
 10
-154.9925266942
 20
402.2883993112
 10
-155.8408932775
 20
403.1977506362
 10
-156.4659803418
 20
404.3848595602
 10
-156.848794933
 20
405.8136563791
 10
-156.9777054234
 20
407.4407278247
  0
LWPOLYLINE
  5
5E2
330
515
100
AcDbEntity
  8
0
  6
Continuous
 62
     8
370
    25
100
AcDbPolyline
 90
       17
 70
   128
 43
0.0
 10
-156.9777054234
 20
440.1023603002
 10
-156.848794933
 20
441.8782686299
 10
-156.4659803418
 20
443.7490537679
 10
-155.8408932775
 20
445.6578728543
 10
-154.9925266942
 20
447.546727387
 10
-153.9466577812
 20
449.3582254771
 10
-152.7350647363
 20
451.0373256715
 10
-151.394561201
 20
452.5330093606
 10
-149.9658776968
 20
453.7998309524
 10
-148.4924240492
 20
454.7992987137
 10
-147.0189704015
 20
455.5010443226
 10
-145.5902868974
 20
455.8837455936
 10
-144.2497833621
 20
455.9357743424
 10
-143.0381903171
 20
455.6555497018
 10
-141.9923214041
 20
455.0515861556
 10
-141.1439548208
 20
454.1422348306
 10
-140.5947604016
 20
453.1429466652
  0
LWPOLYLINE
  5
5E3
330
515
100
AcDbEntity
  8
0
  6
Continuous
 62
     8
370
    25
100
AcDbPolyline
 90
        8
 70
   128
 43
0.0
 10
-151.5938664606
 20
434.0898716929
 10
-152.7350647363
 20
434.0658435998
 10
-153.9466577812
 20
434.3460682405
 10
-154.9925266942
 20
434.9500317866
 10
-155.8408932775
 20
435.8593831116
 10
-156.4659803418
 20
437.0464920356
 10
-156.848794933
 20
438.4752888545
 10
-156.9777054234
 20
440.1023603002
  0
LWPOLYLINE
  5
5E4
330
515
100
AcDbEntity
  8
0
  6
Continuous
 62
     8
370
    25
100
AcDbPolyline
 90
       17
 70
   128
 43
0.0
 10
-156.9777054234
 20
472.7639927756
 10
-156.848794933
 20
474.5399011054
 10
-156.4659803418
 20
476.4106862433
 10
-155.8408932775
 20
478.3195053297
 10
-154.9925266942
 20
480.2083598625
 10
-153.9466577812
 20
482.0198579525
 10
-152.7350647363
 20
483.6989581469
 10
-151.394561201
 20
485.194641836
 10
-149.9658776968
 20
486.4614634278
 10
-148.4924240492
 20
487.4609311892
 10
-147.0189704015
 20
488.162676798
 10
-145.5902868974
 20
488.545378069
 10
-144.2497833621
 20
488.5974068179
 10
-143.0381903171
 20
488.3171821772
 10
-141.9923214041
 20
487.713218631
 10
-141.1439548208
 20
486.803867306
 10
-140.5947604016
 20
485.8045791407
  0
LWPOLYLINE
  5
5E5
330
515
100
AcDbEntity
  8
0
  6
Continuous
 62
     8
370
    25
100
AcDbPolyline
 90
        8
 70
   128
 43
0.0
 10
-151.5938664606
 20
466.7515041683
 10
-152.7350647363
 20
466.7274760752
 10
-153.9466577812
 20
467.0077007159
 10
-154.9925266942
 20
467.6116642621
 10
-155.8408932775
 20
468.5210155871
 10
-156.4659803418
 20
469.708124511
 10
-156.848794933
 20
471.13692133
 10
-156.9777054234
 20
472.7639927756
  0
LWPOLYLINE
  5
5E6
330
515
100
AcDbEntity
  8
0
  6
Continuous
 62
     8
370
    25
100
AcDbPolyline
 90
       17
 70
   128
 43
0.0
 10
-156.9777054234
 20
538.0872577265
 10
-156.848794933
 20
539.8631660562
 10
-156.4659803418
 20
541.7339511942
 10
-155.8408932775
 20
543.6427702806
 10
-154.9925266942
 20
545.5316248133
 10
-153.9466577812
 20
547.3431229033
 10
-152.7350647363
 20
549.0222230978
 10
-151.394561201
 20
550.5179067869
 10
-149.9658776968
 20
551.7847283787
 10
-148.4924240492
 20
552.78419614
 10
-147.0189704015
 20
553.4859417489
 10
-145.5902868974
 20
553.8686430199
 10
-144.2497833621
 20
553.9206717687
 10
-143.0381903171
 20
553.6404471281
 10
-141.9923214041
 20
553.0364835819
 10
-141.1439548208
 20
552.1271322569
 10
-140.5947604016
 20
551.1278440915
  0
LWPOLYLINE
  5
5E7
330
515
100
AcDbEntity
  8
0
  6
Continuous
 62
     8
370
    25
100
AcDbPolyline
 90
        8
 70
   128
 43
0.0
 10
-151.5938664606
 20
532.0747691192
 10
-152.7350647363
 20
532.0507410261
 10
-153.9466577812
 20
532.3309656667
 10
-154.9925266942
 20
532.9349292129
 10
-155.8408932775
 20
533.8442805379
 10
-156.4659803418
 20
535.0313894619
 10
-156.848794933
 20
536.4601862808
 10
-156.9777054234
 20
538.0872577265
  0
LWPOLYLINE
  5
5E8
330
515
100
AcDbEntity
  8
0
  6
Continuous
 62
     8
370
    25
100
AcDbPolyline
 90
       17
 70
   128
 43
0.0
 10
-156.9777054234
 20
505.425625251
 10
-156.848794933
 20
507.2015335808
 10
-156.4659803418
 20
509.0723187187
 10
-155.8408932775
 20
510.9811378051
 10
-154.9925266942
 20
512.8699923379
 10
-153.9466577812
 20
514.6814904279
 10
-152.7350647363
 20
516.3605906223
 10
-151.394561201
 20
517.8562743115
 10
-149.9658776968
 20
519.1230959032
 10
-148.4924240492
 20
520.1225636646
 10
-147.0189704015
 20
520.8243092734
 10
-145.5902868974
 20
521.2070105445
 10
-144.2497833621
 20
521.2590392933
 10
-143.0381903171
 20
520.9788146526
 10
-141.9923214041
 20
520.3748511065
 10
-141.1439548208
 20
519.4654997815
 10
-140.5947604016
 20
518.4662116161
  0
LWPOLYLINE
  5
5E9
330
515
100
AcDbEntity
  8
0
  6
Continuous
 62
     8
370
    25
100
AcDbPolyline
 90
        8
 70
   128
 43
0.0
 10
-151.5938664606
 20
499.4131366437
 10
-152.7350647363
 20
499.3891085507
 10
-153.9466577812
 20
499.6693331913
 10
-154.9925266942
 20
500.2732967375
 10
-155.8408932775
 20
501.1826480625
 10
-156.4659803418
 20
502.3697569864
 10
-156.848794933
 20
503.7985538054
 10
-156.9777054234
 20
505.425625251
  0
LWPOLYLINE
  5
5EA
330
515
100
AcDbEntity
  8
0
  6
Continuous
 62
     8
370
    25
100
AcDbPolyline
 90
       17
 70
   128
 43
0.0
 10
-156.9777054234
 20
276.794197923
 10
-156.848794933
 20
278.5701062528
 10
-156.4659803418
 20
280.4408913907
 10
-155.8408932775
 20
282.3497104771
 10
-154.9925266942
 20
284.2385650099
 10
-153.9466577812
 20
286.0500630999
 10
-152.7350647363
 20
287.7291632943
 10
-151.394561201
 20
289.2248469835
 10
-149.9658776968
 20
290.4916685752
 10
-148.4924240492
 20
291.4911363366
 10
-147.0189704015
 20
292.1928819454
 10
-145.5902868974
 20
292.5755832165
 10
-144.2497833621
 20
292.6276119653
 10
-143.0381903171
 20
292.3473873246
 10
-141.9923214041
 20
291.7434237784
 10
-141.1439548208
 20
290.8340724534
 10
-140.5947604016
 20
289.8347842881
  0
LWPOLYLINE
  5
5EB
330
515
100
AcDbEntity
  8
0
  6
Continuous
 62
     8
370
    25
100
AcDbPolyline
 90
        8
 70
   128
 43
0.0
 10
-151.5938664606
 20
270.7817093157
 10
-152.7350647363
 20
270.7576812227
 10
-153.9466577812
 20
271.0379058633
 10
-154.9925266942
 20
271.6418694095
 10
-155.8408932775
 20
272.5512207345
 10
-156.4659803418
 20
273.7383296584
 10
-156.848794933
 20
275.1671264774
 10
-156.9777054234
 20
276.794197923
  0
LWPOLYLINE
  5
5EC
330
515
100
AcDbEntity
  8
0
  6
Continuous
 62
     8
370
    25
100
AcDbPolyline
 90
       17
 70
   128
 43
0.0
 10
-156.9777054234
 20
244.1325654476
 10
-156.848794933
 20
245.9084737774
 10
-156.4659803418
 20
247.7792589153
 10
-155.8408932775
 20
249.6880780017
 10
-154.9925266942
 20
251.5769325345
 10
-153.9466577812
 20
253.3884306245
 10
-152.7350647363
 20
255.0675308189
 10
-151.394561201
 20
256.563214508
 10
-149.9658776968
 20
257.8300360998
 10
-148.4924240492
 20
258.8295038612
 10
-147.0189704015
 20
259.53124947
 10
-145.5902868974
 20
259.913950741
 10
-144.2497833621
 20
259.9659794898
 10
-143.0381903171
 20
259.6857548492
 10
-141.9923214041
 20
259.081791303
 10
-141.1439548208
 20
258.172439978
 10
-140.5947604016
 20
257.1731518127
  0
LWPOLYLINE
  5
5ED
330
515
100
AcDbEntity
  8
0
  6
Continuous
 62
     8
370
    25
100
AcDbPolyline
 90
        8
 70
   128
 43
0.0
 10
-151.5938664606
 20
238.1200768403
 10
-152.7350647363
 20
238.0960487472
 10
-153.9466577812
 20
238.3762733879
 10
-154.9925266942
 20
238.9802369341
 10
-155.8408932775
 20
239.8895882591
 10
-156.4659803418
 20
241.076697183
 10
-156.848794933
 20
242.505494002
 10
-156.9777054234
 20
244.1325654476
  0
LWPOLYLINE
  5
5EE
330
515
100
AcDbEntity
  8
0
  6
Continuous
 62
     8
370
    25
100
AcDbPolyline
 90
       17
 70
   128
 43
0.0
 10
-156.9777054234
 20
-376.4384515856
 10
-156.848794933
 20
-374.6625432558
 10
-156.4659803418
 20
-372.7917581179
 10
-155.8408932775
 20
-370.8829390315
 10
-154.9925266942
 20
-368.9940844987
 10
-153.9466577812
 20
-367.1825864087
 10
-152.7350647363
 20
-365.5034862143
 10
-151.394561201
 20
-364.0078025251
 10
-149.9658776968
 20
-362.7409809334
 10
-148.4924240492
 20
-361.741513172
 10
-147.0189704015
 20
-361.0397675632
 10
-145.5902868974
 20
-360.6570662921
 10
-144.2497833621
 20
-360.6050375433
 10
-143.0381903171
 20
-360.885262184
 10
-141.9923214041
 20
-361.4892257302
 10
-141.1439548208
 20
-362.3985770552
 10
-140.5947604016
 20
-363.3978652205
  0
LWPOLYLINE
  5
5EF
330
515
100
AcDbEntity
  8
0
  6
Continuous
 62
     8
370
    25
100
AcDbPolyline
 90
        8
 70
   128
 43
0.0
 10
-151.5938664606
 20
-382.4509401929
 10
-152.7350647363
 20
-382.4749682859
 10
-153.9466577812
 20
-382.1947436453
 10
-154.9925266942
 20
-381.5907800991
 10
-155.8408932775
 20
-380.6814287741
 10
-156.4659803418
 20
-379.4943198502
 10
-156.848794933
 20
-378.0655230312
 10
-156.9777054234
 20
-376.4384515856
  0
LWPOLYLINE
  5
5F0
330
515
100
AcDbEntity
  8
0
  6
Continuous
 62
     8
370
    25
100
AcDbPolyline
 90
       17
 70
   128
 43
0.0
 10
-156.9777054234
 20
-343.7768191101
 10
-156.848794933
 20
-342.0009107804
 10
-156.4659803418
 20
-340.1301256424
 10
-155.8408932775
 20
-338.2213065561
 10
-154.9925266942
 20
-336.3324520233
 10
-153.9466577812
 20
-334.5209539333
 10
-152.7350647363
 20
-332.8418537388
 10
-151.394561201
 20
-331.3461700497
 10
-149.9658776968
 20
-330.079348458
 10
-148.4924240492
 20
-329.0798806966
 10
-147.0189704015
 20
-328.3781350878
 10
-145.5902868974
 20
-327.9954338167
 10
-144.2497833621
 20
-327.9434050679
 10
-143.0381903171
 20
-328.2236297085
 10
-141.9923214041
 20
-328.8275932547
 10
-141.1439548208
 20
-329.7369445797
 10
-140.5947604016
 20
-330.7362327451
  0
LWPOLYLINE
  5
5F1
330
515
100
AcDbEntity
  8
0
  6
Continuous
 62
     8
370
    25
100
AcDbPolyline
 90
        8
 70
   128
 43
0.0
 10
-151.5938664606
 20
-349.7893077175
 10
-152.7350647363
 20
-349.8133358105
 10
-153.9466577812
 20
-349.5331111699
 10
-154.9925266942
 20
-348.9291476237
 10
-155.8408932775
 20
-348.0197962987
 10
-156.4659803418
 20
-346.8326873747
 10
-156.848794933
 20
-345.4038905558
 10
-156.9777054234
 20
-343.7768191101
  0
LWPOLYLINE
  5
5F3
330
515
100
AcDbEntity
  8
0
  6
Continuous
 62
     8
370
    25
100
AcDbPolyline
 90
       15
 70
   128
 43
0.0
 10
-142.2857642385
 20
225.4877150734
 10
-142.4101113294
 20
225.5563244798
 10
-143.5003443635
 20
225.9309341355
 10
-144.7282999523
 20
225.9851076126
 10
-146.0545105931
 20
225.717103731
 10
-147.4363507844
 20
225.1355363559
 10
-148.8294070457
 20
224.2590975413
 10
-150.1889054025
 20
223.1159567519
 10
-151.4711504589
 20
221.7428554731
 10
-152.6349298038
 20
220.1839263098
 10
-153.6428386116
 20
218.4892745282
 10
-154.4624818638
 20
216.7133676307
 10
-155.0675155519
 20
214.9132847264
 10
-155.4384933954
 20
213.1468819607
 10
-155.563491861
 20
211.4709329722
  0
LWPOLYLINE
  5
5F9
330
515
100
AcDbEntity
  8
0
  6
Continuous
 62
     8
370
    25
100
AcDbPolyline
 90
       15
 70
   128
 43
0.0
 10
-142.2857642385
 20
192.826082598
 10
-142.4101113294
 20
192.8946920043
 10
-143.5003443635
 20
193.2693016601
 10
-144.7282999523
 20
193.3234751372
 10
-146.0545105931
 20
193.0554712556
 10
-147.4363507844
 20
192.4739038805
 10
-148.8294070457
 20
191.5974650659
 10
-150.1889054025
 20
190.4543242764
 10
-151.4711504589
 20
189.0812229976
 10
-152.6349298038
 20
187.5222938344
 10
-153.6428386116
 20
185.8276420528
 10
-154.4624818638
 20
184.0517351553
 10
-155.0675155519
 20
182.2516522509
 10
-155.4384933954
 20
180.4852494853
 10
-155.563491861
 20
178.8093004967
  0
LWPOLYLINE
  5
5FB
330
515
100
AcDbEntity
  8
0
  6
Continuous
 62
     8
370
    25
100
AcDbPolyline
 90
       15
 70
   128
 43
0.0
 10
-142.2857642385
 20
160.1644501225
 10
-142.4101113294
 20
160.2330595289
 10
-143.5003443635
 20
160.6076691846
 10
-144.7282999523
 20
160.6618426617
 10
-146.0545105931
 20
160.3938387801
 10
-147.4363507844
 20
159.8122714051
 10
-148.8294070457
 20
158.9358325905
 10
-150.1889054025
 20
157.792691801
 10
-151.4711504589
 20
156.4195905222
 10
-152.6349298038
 20
154.860661359
 10
-153.6428386116
 20
153.1660095773
 10
-154.4624818638
 20
151.3901026799
 10
-155.0675155519
 20
149.5900197755
 10
-155.4384933954
 20
147.8236170099
 10
-155.563491861
 20
146.1476680213
  0
LWPOLYLINE
  5
5FD
330
515
100
AcDbEntity
  8
0
  6
Continuous
 62
     8
370
    25
100
AcDbPolyline
 90
       15
 70
   128
 43
0.0
 10
-142.2857642385
 20
127.5028176471
 10
-142.4101113294
 20
127.5714270535
 10
-143.5003443635
 20
127.9460367092
 10
-144.7282999523
 20
128.0002101863
 10
-146.0545105931
 20
127.7322063047
 10
-147.4363507844
 20
127.1506389296
 10
-148.8294070457
 20
126.274200115
 10
-150.1889054025
 20
125.1310593256
 10
-151.4711504589
 20
123.7579580468
 10
-152.6349298038
 20
122.1990288836
 10
-153.6428386116
 20
120.5043771019
 10
-154.4624818638
 20
118.7284702044
 10
-155.0675155519
 20
116.9283873001
 10
-155.4384933954
 20
115.1619845344
 10
-155.563491861
 20
113.4860355459
  0
LWPOLYLINE
  5
5FF
330
515
100
AcDbEntity
  8
0
  6
Continuous
 62
     8
370
    25
100
AcDbPolyline
 90
       15
 70
   128
 43
0.0
 10
-142.2857642385
 20
94.8411851717
 10
-142.4101113294
 20
94.909794578
 10
-143.5003443635
 20
95.2844042338
 10
-144.7282999523
 20
95.3385777109
 10
-146.0545105931
 20
95.0705738293
 10
-147.4363507844
 20
94.4890064542
 10
-148.8294070457
 20
93.6125676396
 10
-150.1889054025
 20
92.4694268501
 10
-151.4711504589
 20
91.0963255714
 10
-152.6349298038
 20
89.5373964081
 10
-153.6428386116
 20
87.8427446265
 10
-154.4624818638
 20
86.066837729
 10
-155.0675155519
 20
84.2667548246
 10
-155.4384933954
 20
82.500352059
 10
-155.563491861
 20
80.8244030704
  0
LWPOLYLINE
  5
601
330
515
100
AcDbEntity
  8
0
  6
Continuous
 62
     8
370
    25
100
AcDbPolyline
 90
       15
 70
   128
 43
0.0
 10
-142.2857642385
 20
-35.8053447301
 10
-142.4101113294
 20
-35.7367353237
 10
-143.5003443635
 20
-35.362125668
 10
-144.7282999523
 20
-35.3079521908
 10
-146.0545105931
 20
-35.5759560724
 10
-147.4363507844
 20
-36.1575234475
 10
-148.8294070457
 20
-37.0339622621
 10
-150.1889054025
 20
-38.1771030516
 10
-151.4711504589
 20
-39.5502043304
 10
-152.6349298038
 20
-41.1091334936
 10
-153.6428386116
 20
-42.8037852752
 10
-154.4624818638
 20
-44.5796921727
 10
-155.0675155519
 20
-46.3797750771
 10
-155.4384933954
 20
-48.1461778427
 10
-155.563491861
 20
-49.8221268313
  0
LWPOLYLINE
  5
603
330
515
100
AcDbEntity
  8
0
  6
Continuous
 62
     8
370
    25
100
AcDbPolyline
 90
       15
 70
   128
 43
0.0
 10
-142.2857642385
 20
-68.4669772055
 10
-142.4101113294
 20
-68.3983677991
 10
-143.5003443635
 20
-68.0237581434
 10
-144.7282999523
 20
-67.9695846663
 10
-146.0545105931
 20
-68.2375885479
 10
-147.4363507844
 20
-68.819155923
 10
-148.8294070457
 20
-69.6955947375
 10
-150.1889054025
 20
-70.838735527
 10
-151.4711504589
 20
-72.2118368058
 10
-152.6349298038
 20
-73.770765969
 10
-153.6428386116
 20
-75.4654177507
 10
-154.4624818638
 20
-77.2413246481
 10
-155.0675155519
 20
-79.0414075525
 10
-155.4384933954
 20
-80.8078103181
 10
-155.563491861
 20
-82.4837593067
  0
LWPOLYLINE
  5
605
330
515
100
AcDbEntity
  8
0
  6
Continuous
 62
     8
370
    25
100
AcDbPolyline
 90
       15
 70
   128
 43
0.0
 10
-142.2857642385
 20
-101.1286096809
 10
-142.4101113294
 20
-101.0600002745
 10
-143.5003443635
 20
-100.6853906188
 10
-144.7282999523
 20
-100.6312171417
 10
-146.0545105931
 20
-100.8992210233
 10
-147.4363507844
 20
-101.4807883984
 10
-148.8294070457
 20
-102.357227213
 10
-150.1889054025
 20
-103.5003680024
 10
-151.4711504589
 20
-104.8734692812
 10
-152.6349298038
 20
-106.4323984445
 10
-153.6428386116
 20
-108.1270502261
 10
-154.4624818638
 20
-109.9029571236
 10
-155.0675155519
 20
-111.7030400279
 10
-155.4384933954
 20
-113.4694427936
 10
-155.563491861
 20
-115.1453917821
  0
LWPOLYLINE
  5
607
330
515
100
AcDbEntity
  8
0
  6
Continuous
 62
     8
370
    25
100
AcDbPolyline
 90
       15
 70
   128
 43
0.0
 10
-142.2857642385
 20
-133.7902421563
 10
-142.4101113294
 20
-133.72163275
 10
-143.5003443635
 20
-133.3470230942
 10
-144.7282999523
 20
-133.2928496171
 10
-146.0545105931
 20
-133.5608534987
 10
-147.4363507844
 20
-134.1424208738
 10
-148.8294070457
 20
-135.0188596884
 10
-150.1889054025
 20
-136.1620004779
 10
-151.4711504589
 20
-137.5351017567
 10
-152.6349298038
 20
-139.0940309199
 10
-153.6428386116
 20
-140.7886827015
 10
-154.4624818638
 20
-142.564589599
 10
-155.0675155519
 20
-144.3646725034
 10
-155.4384933954
 20
-146.131075269
 10
-155.563491861
 20
-147.8070242576
  0
LWPOLYLINE
  5
609
330
515
100
AcDbEntity
  8
0
  6
Continuous
 62
     8
370
    25
100
AcDbPolyline
 90
       15
 70
   128
 43
0.0
 10
-142.2857642385
 20
-166.4518746318
 10
-142.4101113294
 20
-166.3832652254
 10
-143.5003443635
 20
-166.0086555697
 10
-144.7282999523
 20
-165.9544820926
 10
-146.0545105931
 20
-166.2224859742
 10
-147.4363507844
 20
-166.8040533492
 10
-148.8294070457
 20
-167.6804921638
 10
-150.1889054025
 20
-168.8236329533
 10
-151.4711504589
 20
-170.1967342321
 10
-152.6349298038
 20
-171.7556633953
 10
-153.6428386116
 20
-173.450315177
 10
-154.4624818638
 20
-175.2262220744
 10
-155.0675155519
 20
-177.0263049788
 10
-155.4384933954
 20
-178.7927077444
 10
-155.563491861
 20
-180.468656733
  0
LWPOLYLINE
  5
60B
330
515
100
AcDbEntity
  8
0
  6
Continuous
 62
     8
370
    25
100
AcDbPolyline
 90
       15
 70
   128
 43
0.0
 10
-142.2857642385
 20
-199.1135071072
 10
-142.4101113294
 20
-199.0448977008
 10
-143.5003443635
 20
-198.6702880451
 10
-144.7282999523
 20
-198.616114568
 10
-146.0545105931
 20
-198.8841184496
 10
-147.4363507844
 20
-199.4656858247
 10
-148.8294070457
 20
-200.3421246393
 10
-150.1889054025
 20
-201.4852654287
 10
-151.4711504589
 20
-202.8583667075
 10
-152.6349298038
 20
-204.4172958707
 10
-153.6428386116
 20
-206.1119476524
 10
-154.4624818638
 20
-207.8878545499
 10
-155.0675155519
 20
-209.6879374542
 10
-155.4384933954
 20
-211.4543402199
 10
-155.563491861
 20
-213.1302892084
  0
LWPOLYLINE
  5
60D
330
515
100
AcDbEntity
  8
0
  6
Continuous
 62
     8
370
    25
100
AcDbPolyline
 90
       15
 70
   128
 43
0.0
 10
-142.2857642385
 20
-231.7751395826
 10
-142.4101113294
 20
-231.7065301763
 10
-143.5003443635
 20
-231.3319205205
 10
-144.7282999523
 20
-231.2777470434
 10
-146.0545105931
 20
-231.545750925
 10
-147.4363507844
 20
-232.1273183001
 10
-148.8294070457
 20
-233.0037571147
 10
-150.1889054025
 20
-234.1468979042
 10
-151.4711504589
 20
-235.5199991829
 10
-152.6349298038
 20
-237.0789283462
 10
-153.6428386116
 20
-238.7735801278
 10
-154.4624818638
 20
-240.5494870253
 10
-155.0675155519
 20
-242.3495699297
 10
-155.4384933954
 20
-244.1159726953
 10
-155.563491861
 20
-245.7919216839
  0
LWPOLYLINE
  5
60F
330
515
100
AcDbEntity
  8
0
  6
Continuous
 62
     8
370
    25
100
AcDbPolyline
 90
       15
 70
   128
 43
0.0
 10
-142.2857642385
 20
-264.4367720581
 10
-142.4101113294
 20
-264.3681626517
 10
-143.5003443635
 20
-263.993552996
 10
-144.7282999523
 20
-263.9393795188
 10
-146.0545105931
 20
-264.2073834005
 10
-147.4363507844
 20
-264.7889507755
 10
-148.8294070457
 20
-265.6653895901
 10
-150.1889054025
 20
-266.8085303796
 10
-151.4711504589
 20
-268.1816316584
 10
-152.6349298038
 20
-269.7405608216
 10
-153.6428386116
 20
-271.4352126033
 10
-154.4624818638
 20
-273.2111195007
 10
-155.0675155519
 20
-275.0112024051
 10
-155.4384933954
 20
-276.7776051707
 10
-155.563491861
 20
-278.4535541593
  0
LWPOLYLINE
  5
611
330
515
100
AcDbEntity
  8
0
  6
Continuous
 62
     8
370
    25
100
AcDbPolyline
 90
       15
 70
   128
 43
0.0
 10
-142.2857642385
 20
-297.0984045335
 10
-142.4101113294
 20
-297.0297951271
 10
-143.5003443635
 20
-296.6551854714
 10
-144.7282999523
 20
-296.6010119943
 10
-146.0545105931
 20
-296.8690158759
 10
-147.4363507844
 20
-297.450583251
 10
-148.8294070457
 20
-298.3270220655
 10
-150.1889054025
 20
-299.470162855
 10
-151.4711504589
 20
-300.8432641338
 10
-152.6349298038
 20
-302.402193297
 10
-153.6428386116
 20
-304.0968450787
 10
-154.4624818638
 20
-305.8727519762
 10
-155.0675155519
 20
-307.6728348805
 10
-155.4384933954
 20
-309.4392376461
 10
-155.563491861
 20
-311.1151866347
  0
LWPOLYLINE
  5
613
330
515
100
AcDbEntity
  8
0
  6
Continuous
 62
     8
370
    25
100
AcDbPolyline
 90
       15
 70
   128
 43
0.0
 10
-142.2857642385
 20
-329.7600370089
 10
-142.4101113294
 20
-329.6914276026
 10
-143.5003443635
 20
-329.3168179468
 10
-144.7282999523
 20
-329.2626444697
 10
-146.0545105931
 20
-329.5306483513
 10
-147.4363507844
 20
-330.1122157264
 10
-148.8294070457
 20
-330.988654541
 10
-150.1889054025
 20
-332.1317953304
 10
-151.4711504589
 20
-333.5048966092
 10
-152.6349298038
 20
-335.0638257725
 10
-153.6428386116
 20
-336.7584775541
 10
-154.4624818638
 20
-338.5343844516
 10
-155.0675155519
 20
-340.334467356
 10
-155.4384933954
 20
-342.1008701216
 10
-155.563491861
 20
-343.7768191101
  0
LWPOLYLINE
  5
615
330
515
100
AcDbEntity
  8
0
  6
Continuous
 62
     8
370
    25
100
AcDbPolyline
 90
       15
 70
   128
 43
0.0
 10
-142.2857642385
 20
-362.4216694844
 10
-142.4101113294
 20
-362.353060078
 10
-143.5003443635
 20
-361.9784504223
 10
-144.7282999523
 20
-361.9242769451
 10
-146.0545105931
 20
-362.1922808267
 10
-147.4363507844
 20
-362.7738482018
 10
-148.8294070457
 20
-363.6502870164
 10
-150.1889054025
 20
-364.7934278059
 10
-151.4711504589
 20
-366.1665290847
 10
-152.6349298038
 20
-367.7254582479
 10
-153.6428386116
 20
-369.4201100295
 10
-154.4624818638
 20
-371.196016927
 10
-155.0675155519
 20
-372.9960998314
 10
-155.4384933954
 20
-374.762502597
 10
-155.563491861
 20
-376.4384515856
  0
LINE
  5
619
330
515
100
AcDbEntity
  8
0
  6
Continuous
 62
     7
370
    25
100
AcDbLine
 10
181.1700935788
 20
-584.2193586468
 30
0.0
 11
181.1700935788
 21
392.3634523685
 31
0.0
  0
LINE
  5
61A
330
515
100
AcDbEntity
  8
0
  6
Continuous
 62
     7
370
    25
100
AcDbLine
 10
159.099025767
 20
409.3681369035
 30
0.0
 11
138.7144119909
 21
397.6003498549
 31
0.0
  0
LINE
  5
61B
330
515
100
AcDbEntity
  8
0
  6
Continuous
 62
     7
370
    25
100
AcDbLine
 10
176.3624004669
 20
399.4022028201
 30
0.0
 11
159.099025767
 21
409.3681369035
 31
0.0
  0
LINE
  5
61C
330
515
100
AcDbEntity
  8
0
  6
Continuous
 62
     7
370
    25
100
AcDbLine
 10
-153.2848702975
 20
533.0509648553
 30
0.0
 11
137.8858223314
 21
364.9617018812
 31
0.0
  0
LINE
  5
61D
330
515
100
AcDbEntity
  8
0
  6
Continuous
 62
     7
370
    25
100
AcDbLine
 10
137.8858223314
 20
390.3644256254
 30
0.0
 11
-142.2857642385
 21
552.1040398277
 31
0.0
  0
LINE
  5
61E
330
515
100
AcDbEntity
  8
0
  6
Continuous
 62
     7
370
    25
100
AcDbLine
 10
-153.2848702975
 20
500.3893323799
 30
0.0
 11
137.8858223314
 21
332.3000694058
 31
0.0
  0
LINE
  5
61F
330
515
100
AcDbEntity
  8
0
  6
Continuous
 62
     7
370
    25
100
AcDbLine
 10
137.8858223314
 20
357.70279315
 30
0.0
 11
-142.2857642385
 21
519.4424073523
 31
0.0
  0
LINE
  5
620
330
515
100
AcDbEntity
  8
0
  6
Continuous
 62
     7
370
    25
100
AcDbLine
 10
-153.2848702975
 20
467.7276999044
 30
0.0
 11
137.8858223314
 21
299.6384369304
 31
0.0
  0
LINE
  5
621
330
515
100
AcDbEntity
  8
0
  6
Continuous
 62
     7
370
    25
100
AcDbLine
 10
137.8858223314
 20
325.0411606745
 30
0.0
 11
-142.2857642385
 21
486.7807748768
 31
0.0
  0
LINE
  5
622
330
515
100
AcDbEntity
  8
0
  6
Continuous
 62
     7
370
    25
100
AcDbLine
 10
-153.2848702975
 20
435.066067429
 30
0.0
 11
137.8858223314
 21
266.9768044549
 31
0.0
  0
LINE
  5
623
330
515
100
AcDbEntity
  8
0
  6
Continuous
 62
     7
370
    25
100
AcDbLine
 10
137.8858223314
 20
292.3795281991
 30
0.0
 11
-142.2857642385
 21
454.1191424014
 31
0.0
  0
LINE
  5
624
330
515
100
AcDbEntity
  8
0
  6
Continuous
 62
     7
370
    25
100
AcDbLine
 10
-153.2848702975
 20
402.4044349536
 30
0.0
 11
137.8858223314
 21
234.3151719795
 31
0.0
  0
LINE
  5
625
330
515
100
AcDbEntity
  8
0
  6
Continuous
 62
     7
370
    25
100
AcDbLine
 10
137.8858223314
 20
259.7178957237
 30
0.0
 11
-142.2857642385
 21
421.457509926
 31
0.0
  0
LINE
  5
626
330
515
100
AcDbEntity
  8
0
  6
Continuous
 62
     7
370
    25
100
AcDbLine
 10
-153.2848702975
 20
271.7579050519
 30
0.0
 11
137.8858223314
 21
103.6686420778
 31
0.0
  0
LINE
  5
627
330
515
100
AcDbEntity
  8
0
  6
Continuous
 62
     7
370
    25
100
AcDbLine
 10
137.8858223314
 20
129.0713658219
 30
0.0
 11
-142.2857642385
 21
290.8109800242
 31
0.0
  0
LINE
  5
628
330
515
100
AcDbEntity
  8
0
  6
Continuous
 62
     7
370
    25
100
AcDbLine
 10
-153.2848702975
 20
239.0962725764
 30
0.0
 11
137.8858223314
 21
71.0070096024
 31
0.0
  0
LINE
  5
629
330
515
100
AcDbEntity
  8
0
  6
Continuous
 62
     7
370
    25
100
AcDbLine
 10
137.8858223314
 20
96.4097333465
 30
0.0
 11
-142.2857642385
 21
258.1493475488
 31
0.0
  0
LINE
  5
62A
330
515
100
AcDbEntity
  8
0
  6
Continuous
 62
     7
370
    25
100
AcDbLine
 10
-153.2848702975
 20
206.434640101
 30
0.0
 11
137.8858223314
 21
38.3453771269
 31
0.0
  0
LINE
  5
62B
330
515
100
AcDbEntity
  8
0
  6
Continuous
 62
     7
370
    25
100
AcDbLine
 10
137.8858223314
 20
63.7481008711
 30
0.0
 11
-142.2857642385
 21
225.4877150734
 31
0.0
  0
LINE
  5
62C
330
515
100
AcDbEntity
  8
0
  6
Continuous
 62
     7
370
    25
100
AcDbLine
 10
-181.1700935788
 20
584.2193586468
 30
0.0
 11
-181.1700935788
 21
-392.3634523685
 31
0.0
  0
LINE
  5
62D
330
515
100
AcDbEntity
  8
0
  6
Continuous
 62
     7
370
    25
100
AcDbLine
 10
-138.7144119909
 20
581.2921750151
 30
0.0
 11
-155.9777866908
 21
591.2581090985
 31
0.0
  0
LINE
  5
62E
330
515
100
AcDbEntity
  8
0
  6
Continuous
 62
     7
370
    25
100
AcDbLine
 10
-153.2848702975
 20
173.7730076256
 30
0.0
 11
137.8858223314
 21
5.6837446515
 31
0.0
  0
LINE
  5
62F
330
515
100
AcDbEntity
  8
0
  6
Continuous
 62
     7
370
    25
100
AcDbLine
 10
137.8858223314
 20
31.0864683957
 30
0.0
 11
-142.2857642385
 21
192.826082598
 31
0.0
  0
LINE
  5
630
330
515
100
AcDbEntity
  8
0
  6
Continuous
 62
     7
370
    25
100
AcDbLine
 10
-153.2848702975
 20
141.1113751501
 30
0.0
 11
137.8858223314
 21
-26.9778878239
 31
0.0
  0
LINE
  5
631
330
515
100
AcDbEntity
  8
0
  6
Continuous
 62
     7
370
    25
100
AcDbLine
 10
137.8858223314
 20
-1.5751640798
 30
0.0
 11
-142.2857642385
 21
160.1644501225
 31
0.0
  0
LINE
  5
632
330
515
100
AcDbEntity
  8
0
  6
Continuous
 62
     7
370
    25
100
AcDbLine
 10
-153.2848702975
 20
108.4497426747
 30
0.0
 11
137.8858223314
 21
-59.6395202994
 31
0.0
  0
LINE
  5
633
330
515
100
AcDbEntity
  8
0
  6
Continuous
 62
     7
370
    25
100
AcDbLine
 10
137.8858223314
 20
-34.2367965552
 30
0.0
 11
-142.2857642385
 21
127.5028176471
 31
0.0
  0
LINE
  5
634
330
515
100
AcDbEntity
  8
0
  6
Continuous
 62
     7
370
    25
100
AcDbLine
 10
-153.2848702975
 20
75.7881101993
 30
0.0
 11
137.8858223314
 21
-92.3011527748
 31
0.0
  0
LINE
  5
635
330
515
100
AcDbEntity
  8
0
  6
Continuous
 62
     7
370
    25
100
AcDbLine
 10
137.8858223314
 20
-66.8984290306
 30
0.0
 11
-142.2857642385
 21
94.8411851717
 31
0.0
  0
LINE
  5
636
330
515
100
AcDbEntity
  8
0
  6
Continuous
 62
     7
370
    25
100
AcDbLine
 10
-153.2848702975
 20
-54.8584197024
 30
0.0
 11
137.8858223314
 21
-222.9476826765
 31
0.0
  0
LINE
  5
637
330
515
100
AcDbEntity
  8
0
  6
Continuous
 62
     7
370
    25
100
AcDbLine
 10
137.8858223314
 20
-197.5449589324
 30
0.0
 11
-142.2857642385
 21
-35.8053447301
 31
0.0
  0
LINE
  5
638
330
515
100
AcDbEntity
  8
0
  6
Continuous
 62
     7
370
    25
100
AcDbLine
 10
-153.2848702975
 20
-87.5200521779
 30
0.0
 11
137.8858223314
 21
-255.6093151519
 31
0.0
  0
LINE
  5
639
330
515
100
AcDbEntity
  8
0
  6
Continuous
 62
     7
370
    25
100
AcDbLine
 10
137.8858223314
 20
-230.2065914078
 30
0.0
 11
-142.2857642385
 21
-68.4669772055
 31
0.0
  0
LINE
  5
63A
330
515
100
AcDbEntity
  8
0
  6
Continuous
 62
     7
370
    25
100
AcDbLine
 10
-153.2848702975
 20
-120.1816846533
 30
0.0
 11
137.8858223314
 21
-288.2709476274
 31
0.0
  0
LINE
  5
63B
330
515
100
AcDbEntity
  8
0
  6
Continuous
 62
     7
370
    25
100
AcDbLine
 10
137.8858223314
 20
-262.8682238832
 30
0.0
 11
-142.2857642385
 21
-101.1286096809
 31
0.0
  0
LINE
  5
63C
330
515
100
AcDbEntity
  8
0
  6
Continuous
 62
     7
370
    25
100
AcDbLine
 10
-153.2848702975
 20
-152.8433171287
 30
0.0
 11
137.8858223314
 21
-320.9325801028
 31
0.0
  0
LINE
  5
63D
330
515
100
AcDbEntity
  8
0
  6
Continuous
 62
     7
370
    25
100
AcDbLine
 10
137.8858223314
 20
-295.5298563586
 30
0.0
 11
-142.2857642385
 21
-133.7902421563
 31
0.0
  0
LINE
  5
63E
330
515
100
AcDbEntity
  8
0
  6
Continuous
 62
     7
370
    25
100
AcDbLine
 10
-153.2848702975
 20
-185.5049496042
 30
0.0
 11
137.8858223314
 21
-353.5942125782
 31
0.0
  0
LINE
  5
63F
330
515
100
AcDbEntity
  8
0
  6
Continuous
 62
     7
370
    25
100
AcDbLine
 10
137.8858223314
 20
-328.1914888341
 30
0.0
 11
-142.2857642385
 21
-166.4518746318
 31
0.0
  0
LINE
  5
640
330
515
100
AcDbEntity
  8
0
  6
Continuous
 62
     7
370
    25
100
AcDbLine
 10
-153.2848702975
 20
-218.1665820796
 30
0.0
 11
137.8858223314
 21
-386.2558450537
 31
0.0
  0
LINE
  5
641
330
515
100
AcDbEntity
  8
0
  6
Continuous
 62
     7
370
    25
100
AcDbLine
 10
137.8858223314
 20
-360.8531213095
 30
0.0
 11
-142.2857642385
 21
-199.1135071072
 31
0.0
  0
LINE
  5
642
330
515
100
AcDbEntity
  8
0
  6
Continuous
 62
     7
370
    25
100
AcDbLine
 10
-153.2848702975
 20
-250.828214555
 30
0.0
 11
137.8858223314
 21
-418.9174775291
 31
0.0
  0
LINE
  5
643
330
515
100
AcDbEntity
  8
0
  6
Continuous
 62
     7
370
    25
100
AcDbLine
 10
137.8858223314
 20
-393.5147537849
 30
0.0
 11
-142.2857642385
 21
-231.7751395826
 31
0.0
  0
LINE
  5
644
330
515
100
AcDbEntity
  8
0
  6
Continuous
 62
     7
370
    25
100
AcDbLine
 10
-153.2848702975
 20
-283.4898470304
 30
0.0
 11
137.8858223314
 21
-451.5791100045
 31
0.0
  0
LINE
  5
645
330
515
100
AcDbEntity
  8
0
  6
Continuous
 62
     7
370
    25
100
AcDbLine
 10
137.8858223314
 20
-426.1763862604
 30
0.0
 11
-142.2857642385
 21
-264.4367720581
 31
0.0
  0
LINE
  5
646
330
515
100
AcDbEntity
  8
0
  6
Continuous
 62
     7
370
    25
100
AcDbLine
 10
-153.2848702975
 20
-316.1514795059
 30
0.0
 11
137.8858223314
 21
-484.24074248
 31
0.0
  0
LINE
  5
647
330
515
100
AcDbEntity
  8
0
  6
Continuous
 62
     7
370
    25
100
AcDbLine
 10
137.8858223314
 20
-458.8380187358
 30
0.0
 11
-142.2857642385
 21
-297.0984045335
 31
0.0
  0
LINE
  5
648
330
515
100
AcDbEntity
  8
0
  6
Continuous
 62
     7
370
    25
100
AcDbLine
 10
-153.2848702975
 20
-348.8131119813
 30
0.0
 11
137.8858223314
 21
-516.9023749554
 31
0.0
  0
LINE
  5
649
330
515
100
AcDbEntity
  8
0
  6
Continuous
 62
     7
370
    25
100
AcDbLine
 10
137.8858223314
 20
-491.4996512112
 30
0.0
 11
-142.2857642385
 21
-329.7600370089
 31
0.0
  0
LINE
  5
64A
330
515
100
AcDbEntity
  8
0
  6
Continuous
 62
     7
370
    25
100
AcDbLine
 10
-153.2848702975
 20
-381.4747444567
 30
0.0
 11
137.8858223314
 21
-549.5640074308
 31
0.0
  0
LINE
  5
64B
330
515
100
AcDbEntity
  8
0
  6
Continuous
 62
     7
370
    25
100
AcDbLine
 10
137.8858223314
 20
-524.1612836867
 30
0.0
 11
-142.2857642385
 21
-362.4216694844
 31
0.0
  0
LINE
  5
64C
330
515
100
AcDbEntity
  8
0
  6
Continuous
 62
     7
370
    25
100
AcDbLine
 10
138.7144119909
 20
-581.2921750151
 30
0.0
 11
155.9777866908
 21
-591.2581090985
 31
0.0
  0
LINE
  5
64D
330
515
100
AcDbEntity
  8
0
  6
Continuous
 62
     7
370
    25
100
AcDbLine
 10
-176.3624004669
 20
-399.4022028201
 30
0.0
 11
-159.099025767
 21
-409.3681369035
 31
0.0
  0
LINE
  5
64E
330
515
100
AcDbEntity
  8
0
  6
Continuous
 62
     7
370
    25
100
AcDbLine
 10
-159.099025767
 20
-409.3681369035
 30
0.0
 11
-138.7144119909
 21
-397.6003498549
 31
0.0
  0
LINE
  5
64F
330
515
100
AcDbEntity
  8
0
  6
Continuous
 62
     7
370
    25
100
AcDbLine
 10
174.1345596729
 20
396.0375542718
 30
0.0
 11
174.1345596729
 21
396.8540950837
 31
0.0
  0
LINE
  5
650
330
515
100
AcDbEntity
  8
0
  6
Continuous
 62
     7
370
    25
100
AcDbLine
 10
151.1345596729
 20
396.8540950837
 30
0.0
 11
151.1345596729
 21
396.0375542718
 31
0.0
  0
LINE
  5
651
330
515
100
AcDbEntity
  8
0
  6
Continuous
 62
     7
370
    25
100
AcDbLine
 10
-151.1345596729
 20
583.8114199911
 30
0.0
 11
-151.1345596729
 21
584.6279608029
 31
0.0
  0
LINE
  5
652
330
515
100
AcDbEntity
  8
0
  6
Continuous
 62
     7
370
    25
100
AcDbLine
 10
-174.1345596729
 20
584.6279608029
 30
0.0
 11
-174.1345596729
 21
583.8114199911
 31
0.0
  0
LINE
  5
653
330
515
100
AcDbEntity
  8
0
  6
Continuous
 62
     7
370
    25
100
AcDbLine
 10
176.7766952966
 20
386.2403915298
 30
0.0
 11
176.7766952966
 21
-590.3424194855
 31
0.0
  0
LINE
  5
654
330
515
100
AcDbEntity
  8
0
  6
Continuous
 62
     7
370
    25
100
AcDbLine
 10
155.563491861
 20
-590.3424194855
 30
0.0
 11
155.563491861
 21
386.2403915298
 31
0.0
  0
LINE
  5
655
330
515
100
AcDbEntity
  8
0
  6
Continuous
 62
     7
370
    25
100
AcDbLine
 10
175.3624817343
 20
399.3031867191
 30
0.0
 11
159.099025767
 21
408.6918800051
 31
0.0
  0
LINE
  5
656
330
515
100
AcDbEntity
  8
0
  6
Continuous
 62
     7
370
    25
100
AcDbLine
 10
140.7142494561
 20
398.0785745514
 30
0.0
 11
156.9777054234
 21
388.6898812654
 31
0.0
  0
LINE
  5
657
330
515
100
AcDbEntity
  8
0
  6
Continuous
 62
     7
370
    25
100
AcDbLine
 10
159.099025767
 20
408.6918800051
 30
0.0
 11
140.7142494561
 21
398.0785745514
 31
0.0
  0
LINE
  5
658
330
515
100
AcDbEntity
  8
0
  6
Continuous
 62
     7
370
    25
100
AcDbLine
 10
181.1700935788
 20
392.3634523685
 30
0.0
 11
181.1667479497
 21
392.1805717762
 31
0.0
  0
LINE
  5
659
330
515
100
AcDbEntity
  8
0
  6
Continuous
 62
     7
370
    25
100
AcDbLine
 10
155.563491861
 20
386.2403915298
 30
0.0
 11
137.8858223314
 21
396.4454929276
 31
0.0
  0
LINE
  5
65A
330
515
100
AcDbEntity
  8
0
  6
Continuous
 62
     7
370
    25
100
AcDbLine
 10
181.1689496105
 20
-584.3263014751
 30
0.0
 11
181.1700935788
 21
-584.2193586468
 31
0.0
  0
LINE
  5
65B
330
515
100
AcDbEntity
  8
0
  6
Continuous
 62
     7
370
    25
100
AcDbLine
 10
137.8858223314
 20
-580.1373180877
 30
0.0
 11
155.563491861
 21
-590.3424194855
 31
0.0
  0
LINE
  5
65C
330
515
100
AcDbEntity
  8
0
  6
Continuous
 62
     7
370
    25
100
AcDbLine
 10
137.8858223314
 20
-580.1373180877
 30
0.0
 11
137.8858223314
 21
396.4454929276
 31
0.0
  0
LINE
  5
65D
330
515
100
AcDbEntity
  8
0
  6
Continuous
 62
     7
370
    25
100
AcDbLine
 10
159.099025767
 20
408.6918800051
 30
0.0
 11
159.099025767
 21
409.3681369035
 31
0.0
  0
LINE
  5
65E
330
515
100
AcDbEntity
  8
0
  6
Continuous
 62
     7
370
    25
100
AcDbLine
 10
-153.4259677564
 20
533.13670908
 30
0.0
 11
-153.2848702975
 21
533.0509648553
 31
0.0
  0
LINE
  5
65F
330
515
100
AcDbEntity
  8
0
  6
Continuous
 62
     7
370
    25
100
AcDbLine
 10
-153.4259677564
 20
500.4750766046
 30
0.0
 11
-153.2848702975
 21
500.3893323799
 31
0.0
  0
LINE
  5
660
330
515
100
AcDbEntity
  8
0
  6
Continuous
 62
     7
370
    25
100
AcDbLine
 10
-153.4259677564
 20
467.8134441292
 30
0.0
 11
-153.2848702975
 21
467.7276999044
 31
0.0
  0
LINE
  5
661
330
515
100
AcDbEntity
  8
0
  6
Continuous
 62
     7
370
    25
100
AcDbLine
 10
-153.4259677564
 20
435.1518116537
 30
0.0
 11
-153.2848702975
 21
435.066067429
 31
0.0
  0
LINE
  5
662
330
515
100
AcDbEntity
  8
0
  6
Continuous
 62
     7
370
    25
100
AcDbLine
 10
-153.4259677564
 20
402.4901791783
 30
0.0
 11
-153.2848702975
 21
402.4044349536
 31
0.0
  0
LINE
  5
663
330
515
100
AcDbEntity
  8
0
  6
Continuous
 62
     7
370
    25
100
AcDbLine
 10
-153.4259677564
 20
271.8436492766
 30
0.0
 11
-153.2848702975
 21
271.7579050519
 31
0.0
  0
LINE
  5
664
330
515
100
AcDbEntity
  8
0
  6
Continuous
 62
     7
370
    25
100
AcDbLine
 10
-153.4259677564
 20
239.1820168012
 30
0.0
 11
-153.2848702975
 21
239.0962725764
 31
0.0
  0
LINE
  5
665
330
515
100
AcDbEntity
  8
0
  6
Continuous
 62
     7
370
    25
100
AcDbLine
 10
-137.8858223314
 20
580.1373180877
 30
0.0
 11
-159.099025767
 21
567.8911964104
 31
0.0
  0
LINE
  5
666
330
515
100
AcDbEntity
  8
0
  6
Continuous
 62
     7
370
    25
100
AcDbLine
 10
-159.099025767
 20
-409.3681369035
 30
0.0
 11
-159.099025767
 21
571.1570942578
 31
0.0
  0
LINE
  5
667
330
515
100
AcDbEntity
  8
0
  6
Continuous
 62
     7
370
    25
100
AcDbLine
 10
-159.099025767
 20
571.1570942578
 30
0.0
 11
-140.7142494561
 21
581.7703997115
 31
0.0
  0
LINE
  5
668
330
515
100
AcDbEntity
  8
0
  6
Continuous
 62
     7
370
    25
100
AcDbLine
 10
-175.3624817343
 20
580.5457875438
 30
0.0
 11
-159.099025767
 21
571.1570942578
 31
0.0
  0
LINE
  5
669
330
515
100
AcDbEntity
  8
0
  6
Continuous
 62
     7
370
    25
100
AcDbLine
 10
-159.099025767
 20
567.8911964104
 30
0.0
 11
-176.7766952966
 21
578.0962978082
 31
0.0
  0
LINE
  5
66A
330
515
100
AcDbEntity
  8
0
  6
Continuous
 62
     7
370
    25
100
AcDbLine
 10
-176.7766952966
 20
-398.4865132072
 30
0.0
 11
-159.099025767
 21
-408.691614605
 31
0.0
  0
LINE
  5
66B
330
515
100
AcDbEntity
  8
0
  6
Continuous
 62
     7
370
    25
100
AcDbLine
 10
-176.7766952966
 20
578.0962978082
 30
0.0
 11
-176.7766952966
 21
-398.4865132072
 31
0.0
  0
LINE
  5
66C
330
515
100
AcDbEntity
  8
0
  6
Continuous
 62
     7
370
    25
100
AcDbLine
 10
-137.8858223314
 20
-396.4454929276
 30
0.0
 11
-137.8858223314
 21
-390.3644256254
 31
0.0
  0
LINE
  5
66D
330
515
100
AcDbEntity
  8
0
  6
Continuous
 62
     7
370
    25
100
AcDbLine
 10
-137.8858223314
 20
-364.9617018812
 30
0.0
 11
-137.8858223314
 21
-357.70279315
 31
0.0
  0
LINE
  5
66E
330
515
100
AcDbEntity
  8
0
  6
Continuous
 62
     7
370
    25
100
AcDbLine
 10
-137.8858223314
 20
-332.3000694058
 30
0.0
 11
-137.8858223314
 21
-325.0411606745
 31
0.0
  0
LINE
  5
66F
330
515
100
AcDbEntity
  8
0
  6
Continuous
 62
     7
370
    25
100
AcDbLine
 10
-137.8858223314
 20
-299.6384369304
 30
0.0
 11
-137.8858223314
 21
-292.3795281991
 31
0.0
  0
LINE
  5
670
330
515
100
AcDbEntity
  8
0
  6
Continuous
 62
     7
370
    25
100
AcDbLine
 10
-137.8858223314
 20
-266.9768044549
 30
0.0
 11
-137.8858223314
 21
-259.7178957237
 31
0.0
  0
LINE
  5
671
330
515
100
AcDbEntity
  8
0
  6
Continuous
 62
     7
370
    25
100
AcDbLine
 10
-137.8858223314
 20
-234.3151719795
 30
0.0
 11
-137.8858223314
 21
-227.0562632482
 31
0.0
  0
LINE
  5
672
330
515
100
AcDbEntity
  8
0
  6
Continuous
 62
     7
370
    25
100
AcDbLine
 10
-137.8858223314
 20
-201.6535395041
 30
0.0
 11
-137.8858223314
 21
-194.3946307728
 31
0.0
  0
LINE
  5
673
330
515
100
AcDbEntity
  8
0
  6
Continuous
 62
     7
370
    25
100
AcDbLine
 10
-137.8858223314
 20
-168.9919070286
 30
0.0
 11
-137.8858223314
 21
-161.7329982974
 31
0.0
  0
LINE
  5
674
330
515
100
AcDbEntity
  8
0
  6
Continuous
 62
     7
370
    25
100
AcDbLine
 10
-137.8858223314
 20
-136.3302745532
 30
0.0
 11
-137.8858223314
 21
-129.0713658219
 31
0.0
  0
LINE
  5
675
330
515
100
AcDbEntity
  8
0
  6
Continuous
 62
     7
370
    25
100
AcDbLine
 10
-137.8858223314
 20
-103.6686420778
 30
0.0
 11
-137.8858223314
 21
-96.4097333465
 31
0.0
  0
LINE
  5
676
330
515
100
AcDbEntity
  8
0
  6
Continuous
 62
     7
370
    25
100
AcDbLine
 10
-137.8858223314
 20
-71.0070096024
 30
0.0
 11
-137.8858223314
 21
-63.7481008711
 31
0.0
  0
LINE
  5
677
330
515
100
AcDbEntity
  8
0
  6
Continuous
 62
     7
370
    25
100
AcDbLine
 10
-137.8858223314
 20
-38.3453771269
 30
0.0
 11
-137.8858223314
 21
66.8984290306
 31
0.0
  0
LINE
  5
678
330
515
100
AcDbEntity
  8
0
  6
Continuous
 62
     7
370
    25
100
AcDbLine
 10
-137.8858223314
 20
92.3011527748
 30
0.0
 11
-137.8858223314
 21
99.5600615061
 31
0.0
  0
LINE
  5
679
330
515
100
AcDbEntity
  8
0
  6
Continuous
 62
     7
370
    25
100
AcDbLine
 10
-137.8858223314
 20
124.9627852502
 30
0.0
 11
-137.8858223314
 21
132.2216939815
 31
0.0
  0
LINE
  5
67A
330
515
100
AcDbEntity
  8
0
  6
Continuous
 62
     7
370
    25
100
AcDbLine
 10
-137.8858223314
 20
157.6244177257
 30
0.0
 11
-137.8858223314
 21
164.8833264569
 31
0.0
  0
LINE
  5
67B
330
515
100
AcDbEntity
  8
0
  6
Continuous
 62
     7
370
    25
100
AcDbLine
 10
-137.8858223314
 20
190.2860502011
 30
0.0
 11
-137.8858223314
 21
197.5449589324
 31
0.0
  0
LINE
  5
67C
330
515
100
AcDbEntity
  8
0
  6
Continuous
 62
     7
370
    25
100
AcDbLine
 10
-137.8858223314
 20
222.9476826765
 30
0.0
 11
-137.8858223314
 21
230.2065914078
 31
0.0
  0
LINE
  5
67D
330
515
100
AcDbEntity
  8
0
  6
Continuous
 62
     7
370
    25
100
AcDbLine
 10
-137.8858223314
 20
255.6093151519
 30
0.0
 11
-137.8858223314
 21
262.8682238832
 31
0.0
  0
LINE
  5
67E
330
515
100
AcDbEntity
  8
0
  6
Continuous
 62
     7
370
    25
100
AcDbLine
 10
-137.8858223314
 20
288.2709476274
 30
0.0
 11
-137.8858223314
 21
393.5147537849
 31
0.0
  0
LINE
  5
67F
330
515
100
AcDbEntity
  8
0
  6
Continuous
 62
     7
370
    25
100
AcDbLine
 10
-137.8858223314
 20
418.9174775291
 30
0.0
 11
-137.8858223314
 21
426.1763862604
 31
0.0
  0
LINE
  5
680
330
515
100
AcDbEntity
  8
0
  6
Continuous
 62
     7
370
    25
100
AcDbLine
 10
-137.8858223314
 20
451.5791100045
 30
0.0
 11
-137.8858223314
 21
458.8380187358
 31
0.0
  0
LINE
  5
681
330
515
100
AcDbEntity
  8
0
  6
Continuous
 62
     7
370
    25
100
AcDbLine
 10
-137.8858223314
 20
484.24074248
 30
0.0
 11
-137.8858223314
 21
491.4996512112
 31
0.0
  0
LINE
  5
682
330
515
100
AcDbEntity
  8
0
  6
Continuous
 62
     7
370
    25
100
AcDbLine
 10
-137.8858223314
 20
516.9023749554
 30
0.0
 11
-137.8858223314
 21
524.1612836867
 31
0.0
  0
LINE
  5
683
330
515
100
AcDbEntity
  8
0
  6
Continuous
 62
     7
370
    25
100
AcDbLine
 10
-137.8858223314
 20
549.5640074308
 30
0.0
 11
-137.8858223314
 21
580.1373180877
 31
0.0
  0
LINE
  5
684
330
515
100
AcDbEntity
  8
0
  6
Continuous
 62
     7
370
    25
100
AcDbLine
 10
-159.099025767
 20
-408.691614605
 30
0.0
 11
-137.8858223314
 21
-396.4454929276
 31
0.0
  0
LINE
  5
685
330
515
100
AcDbEntity
  8
0
  6
Continuous
 62
     7
370
    25
100
AcDbLine
 10
-140.7142494561
 20
581.7703997115
 30
0.0
 11
-156.9777054234
 21
591.1590929975
 31
0.0
  0
LINE
  5
686
330
515
100
AcDbEntity
  8
0
  6
Continuous
 62
     7
370
    25
100
AcDbLine
 10
-153.4259677564
 20
206.5203843257
 30
0.0
 11
-153.2848702975
 21
206.434640101
 31
0.0
  0
LINE
  5
687
330
515
100
AcDbEntity
  8
0
  6
Continuous
 62
     7
370
    25
100
AcDbLine
 10
-181.1700935788
 20
584.2193586468
 30
0.0
 11
-181.1667479497
 21
584.4022392392
 31
0.0
  0
LINE
  5
688
330
515
100
AcDbEntity
  8
0
  6
Continuous
 62
     7
370
    25
100
AcDbLine
 10
-181.1689496105
 20
-392.2565095402
 30
0.0
 11
-181.1700935788
 21
-392.3634523685
 31
0.0
  0
LINE
  5
689
330
515
100
AcDbEntity
  8
0
  6
Continuous
 62
     7
370
    25
100
AcDbLine
 10
-153.4259677564
 20
173.8587518503
 30
0.0
 11
-153.2848702975
 21
173.7730076256
 31
0.0
  0
LINE
  5
68A
330
515
100
AcDbEntity
  8
0
  6
Continuous
 62
     7
370
    25
100
AcDbLine
 10
-153.4259677564
 20
141.1971193749
 30
0.0
 11
-153.2848702975
 21
141.1113751501
 31
0.0
  0
LINE
  5
68B
330
515
100
AcDbEntity
  8
0
  6
Continuous
 62
     7
370
    25
100
AcDbLine
 10
-153.4259677564
 20
108.5354868994
 30
0.0
 11
-153.2848702975
 21
108.4497426747
 31
0.0
  0
LINE
  5
68C
330
515
100
AcDbEntity
  8
0
  6
Continuous
 62
     7
370
    25
100
AcDbLine
 10
-153.4259677564
 20
75.873854424
 30
0.0
 11
-153.2848702975
 21
75.7881101993
 31
0.0
  0
LINE
  5
68D
330
515
100
AcDbEntity
  8
0
  6
Continuous
 62
     7
370
    25
100
AcDbLine
 10
-153.4259677564
 20
-54.7726754777
 30
0.0
 11
-153.2848702975
 21
-54.8584197024
 31
0.0
  0
LINE
  5
68E
330
515
100
AcDbEntity
  8
0
  6
Continuous
 62
     7
370
    25
100
AcDbLine
 10
-153.4259677564
 20
-87.4343079531
 30
0.0
 11
-153.2848702975
 21
-87.5200521779
 31
0.0
  0
LINE
  5
68F
330
515
100
AcDbEntity
  8
0
  6
Continuous
 62
     7
370
    25
100
AcDbLine
 10
-153.4259677564
 20
-120.0959404286
 30
0.0
 11
-153.2848702975
 21
-120.1816846533
 31
0.0
  0
LINE
  5
690
330
515
100
AcDbEntity
  8
0
  6
Continuous
 62
     7
370
    25
100
AcDbLine
 10
-153.4259677564
 20
-152.757572904
 30
0.0
 11
-153.2848702975
 21
-152.8433171287
 31
0.0
  0
LINE
  5
691
330
515
100
AcDbEntity
  8
0
  6
Continuous
 62
     7
370
    25
100
AcDbLine
 10
-153.4259677564
 20
-185.4192053794
 30
0.0
 11
-153.2848702975
 21
-185.5049496042
 31
0.0
  0
LINE
  5
692
330
515
100
AcDbEntity
  8
0
  6
Continuous
 62
     7
370
    25
100
AcDbLine
 10
-153.4259677564
 20
-218.0808378549
 30
0.0
 11
-153.2848702975
 21
-218.1665820796
 31
0.0
  0
LINE
  5
693
330
515
100
AcDbEntity
  8
0
  6
Continuous
 62
     7
370
    25
100
AcDbLine
 10
-153.4259677564
 20
-250.7424703303
 30
0.0
 11
-153.2848702975
 21
-250.828214555
 31
0.0
  0
LINE
  5
694
330
515
100
AcDbEntity
  8
0
  6
Continuous
 62
     7
370
    25
100
AcDbLine
 10
-153.4259677564
 20
-283.4041028057
 30
0.0
 11
-153.2848702975
 21
-283.4898470304
 31
0.0
  0
LINE
  5
695
330
515
100
AcDbEntity
  8
0
  6
Continuous
 62
     7
370
    25
100
AcDbLine
 10
-153.4259677564
 20
-316.0657352811
 30
0.0
 11
-153.2848702975
 21
-316.1514795059
 31
0.0
  0
LINE
  5
696
330
515
100
AcDbEntity
  8
0
  6
Continuous
 62
     7
370
    25
100
AcDbLine
 10
-153.4259677564
 20
-348.7273677566
 30
0.0
 11
-153.2848702975
 21
-348.8131119813
 31
0.0
  0
LINE
  5
697
330
515
100
AcDbEntity
  8
0
  6
Continuous
 62
     7
370
    25
100
AcDbLine
 10
-153.4259677564
 20
-381.389000232
 30
0.0
 11
-153.2848702975
 21
-381.4747444567
 31
0.0
  0
ARC
  5
698
330
515
100
AcDbEntity
  8
0
  6
Continuous
 62
     7
370
    25
100
AcDbCircle
 10
166.1700935788
 20
406.52122427
 30
0.0
 40
22.88694336589494
100
AcDbArc
 50
242.3910402158
 51
297.6089597842
  0
ARC
  5
699
330
515
100
AcDbEntity
  8
0
  6
Continuous
 62
     7
370
    25
100
AcDbCircle
 10
158.6339240638
 20
386.1006698253
 30
0.0
 40
3.073609615144406
100
AcDbArc
 50
122.60547834
 51
177.3945215143
  0
ARC
  5
69A
330
515
100
AcDbEntity
  8
0
  6
Continuous
 62
     7
370
    25
100
AcDbCircle
 10
166.1700935788
 20
406.3336601688
 30
0.0
 40
19.89479665614491
100
AcDbArc
 50
242.4805390039
 51
297.5194609961
  0
ARC
  5
69B
330
515
100
AcDbEntity
  8
0
  6
Continuous
 62
     7
370
    25
100
AcDbCircle
 10
173.7062630939
 20
386.1006698253
 30
0.0
 40
3.073609615144548
100
AcDbArc
 50
2.6054784857
 51
57.39452166
  0
ARC
  5
69C
330
515
100
AcDbEntity
  8
0
  6
Continuous
 62
     7
370
    25
100
AcDbCircle
 10
166.1700935788
 20
-570.0615867454
 30
0.0
 40
22.88694336589366
100
AcDbArc
 50
242.3910402158
 51
297.6089597842
  0
ARC
  5
69D
330
515
100
AcDbEntity
  8
0
  6
Continuous
 62
     7
370
    25
100
AcDbCircle
 10
-173.7062630939
 20
577.9565761037
 30
0.0
 40
3.073609615144532
100
AcDbArc
 50
122.60547834
 51
177.3945215143
  0
ARC
  5
69E
330
515
100
AcDbEntity
  8
0
  6
Continuous
 62
     7
370
    25
100
AcDbCircle
 10
-166.1700935788
 20
573.5153140941
 30
0.0
 40
19.89479665614528
100
AcDbArc
 50
62.4805390039
 51
117.5194609961
  0
ARC
  5
69F
330
515
100
AcDbEntity
  8
0
  6
Continuous
 62
     7
370
    25
100
AcDbCircle
 10
139.3518150338
 20
-579.9601717105
 30
0.0
 40
1.47665684653213
100
AcDbArc
 50
186.8900528776
 51
244.4275040485
  0
ARC
  5
6A0
330
515
100
AcDbEntity
  8
0
  6
Continuous
 62
     7
370
    25
100
AcDbCircle
 10
-139.3518150341
 20
-396.2683465502
 30
0.0
 40
1.476656846852902
100
AcDbArc
 50
295.5724959584
 51
353.1099471155
  0
ARC
  5
6A1
330
515
100
AcDbEntity
  8
0
  6
Continuous
 62
     7
370
    25
100
AcDbCircle
 10
156.8587583554
 20
396.589193306
 30
0.0
 40
5.750717883951252
100
AcDbArc
 50
185.5045757886
 51
245.815565169
  0
ARC
  5
6A2
330
515
100
AcDbEntity
  8
0
  6
Continuous
 62
     7
370
    25
100
AcDbCircle
 10
-168.5514023206
 20
584.2618595182
 30
0.0
 40
5.601298223421832
100
AcDbArc
 50
184.6125345638
 51
246.7076063938
  0
ARC
  5
6A3
330
515
100
AcDbEntity
  8
0
  6
Continuous
 62
     8
370
    25
100
AcDbCircle
 10
175.9429030427
 20
398.539992234
 30
0.0
 40
0.9588298688479505
100
AcDbArc
 50
64.0419709723
 51
127.2535548979
  0
ARC
  5
6A4
330
515
100
AcDbEntity
  8
0
  6
Continuous
 62
     8
370
    25
100
AcDbCircle
 10
173.506999636
 20
393.2491498858
 30
0.0
 40
7.73392548490608
100
AcDbArc
 50
295.0097891612
 51
352.0581715993
  0
ARC
  5
6A5
330
515
100
AcDbEntity
  8
0
  6
Continuous
 62
     8
370
    25
100
AcDbCircle
 10
173.6990583161
 20
-583.4840847306
 30
0.0
 40
7.517220563101521
100
AcDbArc
 50
294.1678751384
 51
353.5671709799
  0
ARC
  5
6A6
330
515
100
AcDbEntity
  8
0
  6
Continuous
 62
     8
370
    25
100
AcDbCircle
 10
-150.1798397684
 20
537.4750458896
 30
0.0
 40
5.418349673847154
100
AcDbArc
 50
173.5123748772
 51
233.1946029665
  0
ARC
  5
6A7
330
515
100
AcDbEntity
  8
0
  6
Continuous
 62
     8
370
    25
100
AcDbCircle
 10
-150.1798397684
 20
504.8134134142
 30
0.0
 40
5.418349673845712
100
AcDbArc
 50
173.5123748772
 51
233.1946029665
  0
ARC
  5
6A8
330
515
100
AcDbEntity
  8
0
  6
Continuous
 62
     8
370
    25
100
AcDbCircle
 10
-150.1798397684
 20
472.1517809388
 30
0.0
 40
5.418349673844593
100
AcDbArc
 50
173.5123748772
 51
233.1946029665
  0
ARC
  5
6A9
330
515
100
AcDbEntity
  8
0
  6
Continuous
 62
     8
370
    25
100
AcDbCircle
 10
-150.1798397684
 20
439.4901484633
 30
0.0
 40
5.418349673844928
100
AcDbArc
 50
173.5123748772
 51
233.1946029665
  0
ARC
  5
6AA
330
515
100
AcDbEntity
  8
0
  6
Continuous
 62
     8
370
    25
100
AcDbCircle
 10
-150.1798397684
 20
406.8285159879
 30
0.0
 40
5.41834967384436
100
AcDbArc
 50
173.5123748772
 51
233.1946029665
  0
ARC
  5
6AB
330
515
100
AcDbEntity
  8
0
  6
Continuous
 62
     8
370
    25
100
AcDbCircle
 10
-150.1798397684
 20
276.1819860862
 30
0.0
 40
5.418349673844718
100
AcDbArc
 50
173.5123748772
 51
233.1946029665
  0
ARC
  5
6AC
330
515
100
AcDbEntity
  8
0
  6
Continuous
 62
     8
370
    25
100
AcDbCircle
 10
-150.1798397684
 20
243.5203536107
 30
0.0
 40
5.418349673845451
100
AcDbArc
 50
173.5123748772
 51
233.1946029665
  0
ARC
  5
6AD
330
515
100
AcDbEntity
  8
0
  6
Continuous
 62
     8
370
    25
100
AcDbCircle
 10
-150.1798397684
 20
210.8587211353
 30
0.0
 40
5.418349673844984
100
AcDbArc
 50
173.5123748772
 51
233.1946029665
  0
ARC
  5
6AE
330
515
100
AcDbEntity
  8
0
  6
Continuous
 62
     8
370
    25
100
AcDbCircle
 10
-173.7269892611
 20
584.9222114499
 30
0.0
 40
7.476215884245376
100
AcDbArc
 50
185.3944478058
 51
245.9256931518
  0
ARC
  5
6AF
330
515
100
AcDbEntity
  8
0
  6
Continuous
 62
     8
370
    25
100
AcDbCircle
 10
-175.9429030347
 20
590.3958985389
 30
0.0
 40
0.9588298428730182
100
AcDbArc
 50
52.7464445257
 51
115.9580349175
  0
ARC
  5
6B0
330
515
100
AcDbEntity
  8
0
  6
Continuous
 62
     8
370
    25
100
AcDbCircle
 10
-173.5561178353
 20
-391.5379964673
 30
0.0
 40
7.658590214177524
100
AcDbArc
 50
186.1874562376
 51
245.1326847201
  0
ARC
  5
6B1
330
515
100
AcDbEntity
  8
0
  6
Continuous
 62
     8
370
    25
100
AcDbCircle
 10
-156.3918653137
 20
590.3413303392
 30
0.0
 40
1.005954471803329
100
AcDbArc
 50
65.6928809539
 51
125.6175774752
  0
ARC
  5
6B2
330
515
100
AcDbEntity
  8
0
  6
Continuous
 62
     8
370
    25
100
AcDbCircle
 10
-150.1798397684
 20
178.1970886599
 30
0.0
 40
5.41834967384533
100
AcDbArc
 50
173.5123748772
 51
233.1946029665
  0
ARC
  5
6B3
330
515
100
AcDbEntity
  8
0
  6
Continuous
 62
     8
370
    25
100
AcDbCircle
 10
-150.1798397684
 20
145.5354561845
 30
0.0
 40
5.418349673845444
100
AcDbArc
 50
173.5123748772
 51
233.1946029665
  0
ARC
  5
6B4
330
515
100
AcDbEntity
  8
0
  6
Continuous
 62
     8
370
    25
100
AcDbCircle
 10
-150.1798397684
 20
112.873823709
 30
0.0
 40
5.418349673845244
100
AcDbArc
 50
173.5123748772
 51
233.1946029665
  0
ARC
  5
6B5
330
515
100
AcDbEntity
  8
0
  6
Continuous
 62
     8
370
    25
100
AcDbCircle
 10
-150.1798397684
 20
80.2121912336
 30
0.0
 40
5.418349673845245
100
AcDbArc
 50
173.5123748772
 51
233.1946029665
  0
ARC
  5
6B6
330
515
100
AcDbEntity
  8
0
  6
Continuous
 62
     8
370
    25
100
AcDbCircle
 10
-150.1798397684
 20
-50.4343386681
 30
0.0
 40
5.418349673845138
100
AcDbArc
 50
173.5123748772
 51
233.1946029665
  0
ARC
  5
6B7
330
515
100
AcDbEntity
  8
0
  6
Continuous
 62
     8
370
    25
100
AcDbCircle
 10
-150.1798397684
 20
-83.0959711436
 30
0.0
 40
5.418349673845246
100
AcDbArc
 50
173.5123748772
 51
233.1946029665
  0
ARC
  5
6B8
330
515
100
AcDbEntity
  8
0
  6
Continuous
 62
     8
370
    25
100
AcDbCircle
 10
-150.1798397684
 20
-115.757603619
 30
0.0
 40
5.418349673845384
100
AcDbArc
 50
173.5123748772
 51
233.1946029665
  0
ARC
  5
6B9
330
515
100
AcDbEntity
  8
0
  6
Continuous
 62
     8
370
    25
100
AcDbCircle
 10
-150.1798397684
 20
-148.4192360944
 30
0.0
 40
5.418349673844723
100
AcDbArc
 50
173.5123748772
 51
233.1946029665
  0
ARC
  5
6BA
330
515
100
AcDbEntity
  8
0
  6
Continuous
 62
     8
370
    25
100
AcDbCircle
 10
-150.1798397684
 20
-181.0808685698
 30
0.0
 40
5.418349673844683
100
AcDbArc
 50
173.5123748772
 51
233.1946029665
  0
ARC
  5
6BB
330
515
100
AcDbEntity
  8
0
  6
Continuous
 62
     8
370
    25
100
AcDbCircle
 10
-150.1798397684
 20
-213.7425010453
 30
0.0
 40
5.418349673844218
100
AcDbArc
 50
173.5123748772
 51
233.1946029665
  0
ARC
  5
6BC
330
515
100
AcDbEntity
  8
0
  6
Continuous
 62
     8
370
    25
100
AcDbCircle
 10
-150.1798397684
 20
-246.4041335207
 30
0.0
 40
5.418349673844178
100
AcDbArc
 50
173.5123748772
 51
233.1946029665
  0
ARC
  5
6BD
330
515
100
AcDbEntity
  8
0
  6
Continuous
 62
     8
370
    25
100
AcDbCircle
 10
-150.1798397684
 20
-279.0657659961
 30
0.0
 40
5.418349673844439
100
AcDbArc
 50
173.5123748772
 51
233.1946029665
  0
ARC
  5
6BE
330
515
100
AcDbEntity
  8
0
  6
Continuous
 62
     8
370
    25
100
AcDbCircle
 10
-150.1798397684
 20
-311.7273984716
 30
0.0
 40
5.418349673844762
100
AcDbArc
 50
173.5123748772
 51
233.1946029665
  0
ARC
  5
6BF
330
515
100
AcDbEntity
  8
0
  6
Continuous
 62
     8
370
    25
100
AcDbCircle
 10
-150.1798397684
 20
-344.389030947
 30
0.0
 40
5.418349673844701
100
AcDbArc
 50
173.5123748772
 51
233.1946029665
  0
ARC
  5
6C0
330
515
100
AcDbEntity
  8
0
  6
Continuous
 62
     8
370
    25
100
AcDbCircle
 10
-150.1798397684
 20
-377.0506634224
 30
0.0
 40
5.418349673845252
100
AcDbArc
 50
173.5123748772
 51
233.1946029665
  0
ARC
  5
6C1
330
515
100
AcDbEntity
  8
0
  6
Continuous
 62
     8
370
    25
100
AcDbCircle
 10
156.5648595868
 20
-590.4409504963
 30
0.0
 40
1.006203598786551
100
AcDbArc
 50
174.3803892633
 51
234.2931450582
  0
ARC
  5
6C2
330
515
100
AcDbEntity
  8
0
  6
Continuous
 62
     8
370
    25
100
AcDbCircle
 10
175.7753288539
 20
-590.440950728
 30
0.0
 40
1.006202344634292
100
AcDbArc
 50
305.7066221152
 51
5.6196310254
  0
ARC
  5
6C3
330
515
100
AcDbEntity
  8
0
  6
Continuous
 62
     8
370
    25
100
AcDbCircle
 10
-175.8253241851
 20
-398.6076412645
 30
0.0
 40
0.9590510925864774
100
AcDbArc
 50
172.7441704292
 51
235.9436491774
  0
VIEWPORT
  5
6CE
330
515
100
AcDbEntity
  8
0
100
AcDbViewport
 10
0.0
 20
0.0
 30
0.0
 40
205.6
 41
156.0
 68
     1
 69
     1
 12
0.0
 22
0.0
 13
0.0
 23
0.0
 14
10.0
 24
10.0
 15
10.0
 25
10.0
 16
0.0
 26
0.0
 36
1.0
 17
0.0
 27
0.0
 37
0.0
 42
50.0
 43
0.0
 44
0.0
 45
386.9649805447
 50
0.0
 51
0.0
 72
   100
 90
   557152
  1

281
     0
 71
     1
 74
     0
110
0.0
120
0.0
130
0.0
111
1.0
121
0.0
131
0.0
112
0.0
122
1.0
132
0.0
 79
     0
146
0.0
  0
ENDBLK
  5
518
330
515
100
AcDbEntity
  8
0
100
AcDbBlockEnd
  0
ENDSEC
  0
SECTION
  2
ENTITIES
  0
CIRCLE
  5
97
330
1F
100
AcDbEntity
  8
0
  6
Continuous
 62
     7
370
    25
100
AcDbCircle
 10
230.0
 20
0.0
 30
0.0
 40
11.49999999999995
  0
CIRCLE
  5
98
330
1F
100
AcDbEntity
  8
0
  6
Continuous
 62
     7
370
    25
100
AcDbCircle
 10
-230.0
 20
0.0
 30
0.0
 40
11.49999999999995
  0
LINE
  5
9B
330
1F
100
AcDbEntity
  8
0
  6
Continuous
 62
     7
370
    25
100
AcDbLine
 10
-209.0
 20
-11.0
 30
0.0
 11
209.0
 21
-11.0
 31
0.0
  0
LINE
  5
9C
330
1F
100
AcDbEntity
  8
0
  6
Continuous
 62
     7
370
    25
100
AcDbLine
 10
209.0
 20
11.0
 30
0.0
 11
-209.0
 21
11.0
 31
0.0
  0
LINE
  5
9D
330
1F
100
AcDbEntity
  8
0
  6
Continuous
 62
     7
370
    25
100
AcDbLine
 10
-235.0
 20
-13.0
 30
0.0
 11
-235.0
 21
-15.0
 31
0.0
  0
LINE
  5
9E
330
1F
100
AcDbEntity
  8
0
  6
Continuous
 62
     7
370
    25
100
AcDbLine
 10
-248.0
 20
0.0
 30
0.0
 11
-250.0
 21
0.0
 31
0.0
  0
LINE
  5
9F
330
1F
100
AcDbEntity
  8
0
  6
Continuous
 62
     7
370
    25
100
AcDbLine
 10
235.0
 20
13.0
 30
0.0
 11
212.0
 21
13.0
 31
0.0
  0
LINE
  5
A0
330
1F
100
AcDbEntity
  8
0
  6
Continuous
 62
     7
370
    25
100
AcDbLine
 10
212.0
 20
13.0
 30
0.0
 11
210.0
 21
15.0
 31
0.0
  0
LINE
  5
A1
330
1F
100
AcDbEntity
  8
0
  6
Continuous
 62
     7
370
    25
100
AcDbLine
 10
210.0
 20
15.0
 30
0.0
 11
235.0
 21
15.0
 31
0.0
  0
LINE
  5
A2
330
1F
100
AcDbEntity
  8
0
  6
Continuous
 62
     7
370
    25
100
AcDbLine
 10
235.0
 20
13.0
 30
0.0
 11
235.0
 21
15.0
 31
0.0
  0
LINE
  5
A3
330
1F
100
AcDbEntity
  8
0
  6
Continuous
 62
     7
370
    25
100
AcDbLine
 10
235.0
 20
-15.0
 30
0.0
 11
235.0
 21
-13.0
 31
0.0
  0
LINE
  5
A4
330
1F
100
AcDbEntity
  8
0
  6
Continuous
 62
     7
370
    25
100
AcDbLine
 10
250.0
 20
0.0
 30
0.0
 11
248.0
 21
0.0
 31
0.0
  0
LINE
  5
A5
330
1F
100
AcDbEntity
  8
0
  6
Continuous
 62
     7
370
    25
100
AcDbLine
 10
212.0
 20
13.0
 30
0.0
 11
212.0
 21
-13.0
 31
0.0
  0
LINE
  5
A6
330
1F
100
AcDbEntity
  8
0
  6
Continuous
 62
     7
370
    25
100
AcDbLine
 10
212.0
 20
-13.0
 30
0.0
 11
210.0
 21
-15.0
 31
0.0
  0
LINE
  5
A7
330
1F
100
AcDbEntity
  8
0
  6
Continuous
 62
     7
370
    25
100
AcDbLine
 10
210.0
 20
-15.0
 30
0.0
 11
210.0
 21
15.0
 31
0.0
  0
LINE
  5
A8
330
1F
100
AcDbEntity
  8
0
  6
Continuous
 62
     7
370
    25
100
AcDbLine
 10
-210.0
 20
15.0
 30
0.0
 11
-210.0
 21
-15.0
 31
0.0
  0
LINE
  5
A9
330
1F
100
AcDbEntity
  8
0
  6
Continuous
 62
     7
370
    25
100
AcDbLine
 10
-212.0
 20
-13.0
 30
0.0
 11
-210.0
 21
-15.0
 31
0.0
  0
LINE
  5
AA
330
1F
100
AcDbEntity
  8
0
  6
Continuous
 62
     7
370
    25
100
AcDbLine
 10
-212.0
 20
-13.0
 30
0.0
 11
-212.0
 21
13.0
 31
0.0
  0
LINE
  5
AB
330
1F
100
AcDbEntity
  8
0
  6
Continuous
 62
     7
370
    25
100
AcDbLine
 10
-210.0
 20
15.0
 30
0.0
 11
-212.0
 21
13.0
 31
0.0
  0
LINE
  5
AC
330
1F
100
AcDbEntity
  8
0
  6
Continuous
 62
     7
370
    25
100
AcDbLine
 10
-235.0
 20
15.0
 30
0.0
 11
-235.0
 21
13.0
 31
0.0
  0
LINE
  5
AD
330
1F
100
AcDbEntity
  8
0
  6
Continuous
 62
     7
370
    25
100
AcDbLine
 10
-235.0
 20
15.0
 30
0.0
 11
-210.0
 21
15.0
 31
0.0
  0
LINE
  5
AE
330
1F
100
AcDbEntity
  8
0
  6
Continuous
 62
     7
370
    25
100
AcDbLine
 10
-212.0
 20
13.0
 30
0.0
 11
-235.0
 21
13.0
 31
0.0
  0
LINE
  5
AF
330
1F
100
AcDbEntity
  8
0
  6
Continuous
 62
     7
370
    25
100
AcDbLine
 10
-235.0
 20
-13.0
 30
0.0
 11
-212.0
 21
-13.0
 31
0.0
  0
LINE
  5
B0
330
1F
100
AcDbEntity
  8
0
  6
Continuous
 62
     7
370
    25
100
AcDbLine
 10
-210.0
 20
-15.0
 30
0.0
 11
-235.0
 21
-15.0
 31
0.0
  0
LINE
  5
B1
330
1F
100
AcDbEntity
  8
0
  6
Continuous
 62
     7
370
    25
100
AcDbLine
 10
235.0
 20
-15.0
 30
0.0
 11
210.0
 21
-15.0
 31
0.0
  0
LINE
  5
B2
330
1F
100
AcDbEntity
  8
0
  6
Continuous
 62
     7
370
    25
100
AcDbLine
 10
212.0
 20
-13.0
 30
0.0
 11
235.0
 21
-13.0
 31
0.0
  0
LINE
  5
B3
330
1F
100
AcDbEntity
  8
0
  6
Continuous
 62
     8
370
    25
100
AcDbLine
 10
-209.0
 20
11.0
 30
0.0
 11
-209.0
 21
-11.0
 31
0.0
  0
LINE
  5
B4
330
1F
100
AcDbEntity
  8
0
  6
Continuous
 62
     8
370
    25
100
AcDbLine
 10
209.0
 20
-11.0
 30
0.0
 11
209.0
 21
11.0
 31
0.0
  0
ARC
  5
B5
330
1F
100
AcDbEntity
  8
0
  6
Continuous
 62
     7
370
    25
100
AcDbCircle
 10
-209.0
 20
-12.0
 30
0.0
 40
1.000000000000114
100
AcDbArc
 50
90.0
 51
180.0
  0
ARC
  5
B6
330
1F
100
AcDbEntity
  8
0
  6
Continuous
 62
     7
370
    25
100
AcDbCircle
 10
-209.0
 20
12.0
 30
0.0
 40
1.000000000000085
100
AcDbArc
 50
180.0
 51
270.0
  0
ARC
  5
B7
330
1F
100
AcDbEntity
  8
0
  6
Continuous
 62
     7
370
    25
100
AcDbCircle
 10
209.0
 20
-12.0
 30
0.0
 40
1.000000000000032
100
AcDbArc
 50
0.0
 51
90.0
  0
ARC
  5
B8
330
1F
100
AcDbEntity
  8
0
  6
Continuous
 62
     7
370
    25
100
AcDbCircle
 10
209.0
 20
12.0
 30
0.0
 40
1.000000000000028
100
AcDbArc
 50
270.0
 51
0.0
  0
ARC
  5
B9
330
1F
100
AcDbEntity
  8
0
  6
Continuous
 62
     7
370
    25
100
AcDbCircle
 10
-235.0
 20
0.0
 30
0.0
 40
13.00000000000003
100
AcDbArc
 50
90.0
 51
270.0
  0
ARC
  5
BA
330
1F
100
AcDbEntity
  8
0
  6
Continuous
 62
     7
370
    25
100
AcDbCircle
 10
-235.0
 20
0.0
 30
0.0
 40
15.00000000000002
100
AcDbArc
 50
90.0
 51
270.0
  0
ARC
  5
BB
330
1F
100
AcDbEntity
  8
0
  6
Continuous
 62
     7
370
    25
100
AcDbCircle
 10
235.0
 20
0.0
 30
0.0
 40
15.00000000000003
100
AcDbArc
 50
270.0
 51
90.0
  0
ARC
  5
BC
330
1F
100
AcDbEntity
  8
0
  6
Continuous
 62
     7
370
    25
100
AcDbCircle
 10
235.0
 20
0.0
 30
0.0
 40
13.00000000000006
100
AcDbArc
 50
270.0
 51
90.0
  0
LINE
  5
1D5
330
1B
100
AcDbEntity
 67
     1
  8
0
  6
Continuous
 62
     7
370
    25
100
AcDbLine
 10
-209.0
 20
-371.0
 30
0.0
 11
209.0
 21
-371.0
 31
0.0
  0
LINE
  5
1D6
330
1B
100
AcDbEntity
 67
     1
  8
0
  6
Continuous
 62
     7
370
    25
100
AcDbLine
 10
209.0
 20
-349.0
 30
0.0
 11
-209.0
 21
-349.0
 31
0.0
  0
LINE
  5
1D7
330
1B
100
AcDbEntity
 67
     1
  8
0
  6
Continuous
 62
     7
370
    25
100
AcDbLine
 10
-209.0
 20
-571.0
 30
0.0
 11
209.0
 21
-571.0
 31
0.0
  0
LINE
  5
1D8
330
1B
100
AcDbEntity
 67
     1
  8
0
  6
Continuous
 62
     7
370
    25
100
AcDbLine
 10
209.0
 20
-549.0
 30
0.0
 11
-209.0
 21
-549.0
 31
0.0
  0
LINE
  5
1D9
330
1B
100
AcDbEntity
 67
     1
  8
0
  6
Continuous
 62
     7
370
    25
100
AcDbLine
 10
-209.0
 20
-211.0
 30
0.0
 11
209.0
 21
-211.0
 31
0.0
  0
LINE
  5
1DA
330
1B
100
AcDbEntity
 67
     1
  8
0
  6
Continuous
 62
     7
370
    25
100
AcDbLine
 10
209.0
 20
-189.0
 30
0.0
 11
-209.0
 21
-189.0
 31
0.0
  0
LINE
  5
1DB
330
1B
100
AcDbEntity
 67
     1
  8
0
  6
Continuous
 62
     7
370
    25
100
AcDbLine
 10
-209.0
 20
-531.0
 30
0.0
 11
209.0
 21
-531.0
 31
0.0
  0
LINE
  5
1DC
330
1B
100
AcDbEntity
 67
     1
  8
0
  6
Continuous
 62
     7
370
    25
100
AcDbLine
 10
209.0
 20
-509.0
 30
0.0
 11
-209.0
 21
-509.0
 31
0.0
  0
LINE
  5
1DD
330
1B
100
AcDbEntity
 67
     1
  8
0
  6
Continuous
 62
     7
370
    25
100
AcDbLine
 10
-209.0
 20
-331.0
 30
0.0
 11
209.0
 21
-331.0
 31
0.0
  0
LINE
  5
1DE
330
1B
100
AcDbEntity
 67
     1
  8
0
  6
Continuous
 62
     7
370
    25
100
AcDbLine
 10
209.0
 20
-309.0
 30
0.0
 11
-209.0
 21
-309.0
 31
0.0
  0
LINE
  5
1DF
330
1B
100
AcDbEntity
 67
     1
  8
0
  6
Continuous
 62
     7
370
    25
100
AcDbLine
 10
-209.0
 20
-251.0
 30
0.0
 11
209.0
 21
-251.0
 31
0.0
  0
LINE
  5
1E0
330
1B
100
AcDbEntity
 67
     1
  8
0
  6
Continuous
 62
     7
370
    25
100
AcDbLine
 10
209.0
 20
-229.0
 30
0.0
 11
-209.0
 21
-229.0
 31
0.0
  0
LINE
  5
1E1
330
1B
100
AcDbEntity
 67
     1
  8
0
  6
Continuous
 62
     7
370
    25
100
AcDbLine
 10
-209.0
 20
-451.0
 30
0.0
 11
209.0
 21
-451.0
 31
0.0
  0
LINE
  5
1E2
330
1B
100
AcDbEntity
 67
     1
  8
0
  6
Continuous
 62
     7
370
    25
100
AcDbLine
 10
209.0
 20
-429.0
 30
0.0
 11
-209.0
 21
-429.0
 31
0.0
  0
LINE
  5
1E3
330
1B
100
AcDbEntity
 67
     1
  8
0
  6
Continuous
 62
     7
370
    25
100
AcDbLine
 10
-209.0
 20
-411.0
 30
0.0
 11
209.0
 21
-411.0
 31
0.0
  0
LINE
  5
1E4
330
1B
100
AcDbEntity
 67
     1
  8
0
  6
Continuous
 62
     7
370
    25
100
AcDbLine
 10
209.0
 20
-389.0
 30
0.0
 11
-209.0
 21
-389.0
 31
0.0
  0
LINE
  5
1E5
330
1B
100
AcDbEntity
 67
     1
  8
0
  6
Continuous
 62
     7
370
    25
100
AcDbLine
 10
-209.0
 20
-291.0
 30
0.0
 11
209.0
 21
-291.0
 31
0.0
  0
LINE
  5
1E6
330
1B
100
AcDbEntity
 67
     1
  8
0
  6
Continuous
 62
     7
370
    25
100
AcDbLine
 10
209.0
 20
-269.0
 30
0.0
 11
-209.0
 21
-269.0
 31
0.0
  0
LINE
  5
1E7
330
1B
100
AcDbEntity
 67
     1
  8
0
  6
Continuous
 62
     7
370
    25
100
AcDbLine
 10
-209.0
 20
-171.0
 30
0.0
 11
209.0
 21
-171.0
 31
0.0
  0
LINE
  5
1E8
330
1B
100
AcDbEntity
 67
     1
  8
0
  6
Continuous
 62
     7
370
    25
100
AcDbLine
 10
209.0
 20
-149.0
 30
0.0
 11
-209.0
 21
-149.0
 31
0.0
  0
LINE
  5
1E9
330
1B
100
AcDbEntity
 67
     1
  8
0
  6
Continuous
 62
     7
370
    25
100
AcDbLine
 10
-209.0
 20
-491.0
 30
0.0
 11
209.0
 21
-491.0
 31
0.0
  0
LINE
  5
1EA
330
1B
100
AcDbEntity
 67
     1
  8
0
  6
Continuous
 62
     7
370
    25
100
AcDbLine
 10
209.0
 20
-469.0
 30
0.0
 11
-209.0
 21
-469.0
 31
0.0
  0
LINE
  5
1EB
330
1B
100
AcDbEntity
 67
     1
  8
0
  6
Continuous
 62
     7
370
    25
100
AcDbLine
 10
-209.0
 20
29.0
 30
0.0
 11
209.0
 21
29.0
 31
0.0
  0
LINE
  5
1EC
330
1B
100
AcDbEntity
 67
     1
  8
0
  6
Continuous
 62
     7
370
    25
100
AcDbLine
 10
209.0
 20
51.0
 30
0.0
 11
-209.0
 21
51.0
 31
0.0
  0
LINE
  5
1ED
330
1B
100
AcDbEntity
 67
     1
  8
0
  6
Continuous
 62
     7
370
    25
100
AcDbLine
 10
-209.0
 20
-11.0
 30
0.0
 11
209.0
 21
-11.0
 31
0.0
  0
LINE
  5
1EE
330
1B
100
AcDbEntity
 67
     1
  8
0
  6
Continuous
 62
     7
370
    25
100
AcDbLine
 10
209.0
 20
11.0
 30
0.0
 11
-209.0
 21
11.0
 31
0.0
  0
LINE
  5
1EF
330
1B
100
AcDbEntity
 67
     1
  8
0
  6
Continuous
 62
     7
370
    25
100
AcDbLine
 10
-209.0
 20
229.0
 30
0.0
 11
209.0
 21
229.0
 31
0.0
  0
LINE
  5
1F0
330
1B
100
AcDbEntity
 67
     1
  8
0
  6
Continuous
 62
     7
370
    25
100
AcDbLine
 10
209.0
 20
251.0
 30
0.0
 11
-209.0
 21
251.0
 31
0.0
  0
LINE
  5
1F1
330
1B
100
AcDbEntity
 67
     1
  8
0
  6
Continuous
 62
     7
370
    25
100
AcDbLine
 10
-209.0
 20
149.0
 30
0.0
 11
209.0
 21
149.0
 31
0.0
  0
LINE
  5
1F2
330
1B
100
AcDbEntity
 67
     1
  8
0
  6
Continuous
 62
     7
370
    25
100
AcDbLine
 10
209.0
 20
171.0
 30
0.0
 11
-209.0
 21
171.0
 31
0.0
  0
LINE
  5
1F3
330
1B
100
AcDbEntity
 67
     1
  8
0
  6
Continuous
 62
     7
370
    25
100
AcDbLine
 10
-209.0
 20
189.0
 30
0.0
 11
209.0
 21
189.0
 31
0.0
  0
LINE
  5
1F4
330
1B
100
AcDbEntity
 67
     1
  8
0
  6
Continuous
 62
     7
370
    25
100
AcDbLine
 10
209.0
 20
211.0
 30
0.0
 11
-209.0
 21
211.0
 31
0.0
  0
LINE
  5
1F5
330
1B
100
AcDbEntity
 67
     1
  8
0
  6
Continuous
 62
     7
370
    25
100
AcDbLine
 10
-209.0
 20
109.0
 30
0.0
 11
209.0
 21
109.0
 31
0.0
  0
LINE
  5
1F6
330
1B
100
AcDbEntity
 67
     1
  8
0
  6
Continuous
 62
     7
370
    25
100
AcDbLine
 10
209.0
 20
131.0
 30
0.0
 11
-209.0
 21
131.0
 31
0.0
  0
LINE
  5
1F7
330
1B
100
AcDbEntity
 67
     1
  8
0
  6
Continuous
 62
     7
370
    25
100
AcDbLine
 10
-209.0
 20
69.0
 30
0.0
 11
209.0
 21
69.0
 31
0.0
  0
LINE
  5
1F8
330
1B
100
AcDbEntity
 67
     1
  8
0
  6
Continuous
 62
     7
370
    25
100
AcDbLine
 10
209.0
 20
91.0
 30
0.0
 11
-209.0
 21
91.0
 31
0.0
  0
LINE
  5
1F9
330
1B
100
AcDbEntity
 67
     1
  8
0
  6
Continuous
 62
     7
370
    25
100
AcDbLine
 10
-209.0
 20
549.0
 30
0.0
 11
209.0
 21
549.0
 31
0.0
  0
LINE
  5
1FA
330
1B
100
AcDbEntity
 67
     1
  8
0
  6
Continuous
 62
     7
370
    25
100
AcDbLine
 10
209.0
 20
571.0
 30
0.0
 11
-209.0
 21
571.0
 31
0.0
  0
LINE
  5
1FB
330
1B
100
AcDbEntity
 67
     1
  8
0
  6
Continuous
 62
     7
370
    25
100
AcDbLine
 10
-209.0
 20
389.0
 30
0.0
 11
209.0
 21
389.0
 31
0.0
  0
LINE
  5
1FC
330
1B
100
AcDbEntity
 67
     1
  8
0
  6
Continuous
 62
     7
370
    25
100
AcDbLine
 10
209.0
 20
411.0
 30
0.0
 11
-209.0
 21
411.0
 31
0.0
  0
LINE
  5
1FD
330
1B
100
AcDbEntity
 67
     1
  8
0
  6
Continuous
 62
     7
370
    25
100
AcDbLine
 10
-209.0
 20
469.0
 30
0.0
 11
209.0
 21
469.0
 31
0.0
  0
LINE
  5
1FE
330
1B
100
AcDbEntity
 67
     1
  8
0
  6
Continuous
 62
     7
370
    25
100
AcDbLine
 10
209.0
 20
491.0
 30
0.0
 11
-209.0
 21
491.0
 31
0.0
  0
LINE
  5
1FF
330
1B
100
AcDbEntity
 67
     1
  8
0
  6
Continuous
 62
     7
370
    25
100
AcDbLine
 10
-209.0
 20
509.0
 30
0.0
 11
209.0
 21
509.0
 31
0.0
  0
LINE
  5
200
330
1B
100
AcDbEntity
 67
     1
  8
0
  6
Continuous
 62
     7
370
    25
100
AcDbLine
 10
209.0
 20
531.0
 30
0.0
 11
-209.0
 21
531.0
 31
0.0
  0
LINE
  5
201
330
1B
100
AcDbEntity
 67
     1
  8
0
  6
Continuous
 62
     7
370
    25
100
AcDbLine
 10
-209.0
 20
429.0
 30
0.0
 11
209.0
 21
429.0
 31
0.0
  0
LINE
  5
202
330
1B
100
AcDbEntity
 67
     1
  8
0
  6
Continuous
 62
     7
370
    25
100
AcDbLine
 10
209.0
 20
451.0
 30
0.0
 11
-209.0
 21
451.0
 31
0.0
  0
LINE
  5
203
330
1B
100
AcDbEntity
 67
     1
  8
0
  6
Continuous
 62
     7
370
    25
100
AcDbLine
 10
241.5
 20
600.0
 30
0.0
 11
241.5
 21
601.0
 31
0.0
  0
LINE
  5
204
330
1B
100
AcDbEntity
 67
     1
  8
0
  6
Continuous
 62
     7
370
    25
100
AcDbLine
 10
218.5
 20
601.0
 30
0.0
 11
218.5
 21
600.0
 31
0.0
  0
LINE
  5
205
330
1B
100
AcDbEntity
 67
     1
  8
0
  6
Continuous
 62
     7
370
    25
100
AcDbLine
 10
-218.5
 20
600.0
 30
0.0
 11
-218.5
 21
601.0
 31
0.0
  0
LINE
  5
206
330
1B
100
AcDbEntity
 67
     1
  8
0
  6
Continuous
 62
     7
370
    25
100
AcDbLine
 10
-241.5
 20
601.0
 30
0.0
 11
-241.5
 21
600.0
 31
0.0
  0
LINE
  5
207
330
1B
100
AcDbEntity
 67
     1
  8
0
  6
Continuous
 62
     7
370
    25
100
AcDbLine
 10
-241.5
 20
-600.0
 30
0.0
 11
-241.5
 21
-601.0
 31
0.0
  0
LINE
  5
208
330
1B
100
AcDbEntity
 67
     1
  8
0
  6
Continuous
 62
     7
370
    25
100
AcDbLine
 10
-218.5
 20
-601.0
 30
0.0
 11
-218.5
 21
-600.0
 31
0.0
  0
LINE
  5
209
330
1B
100
AcDbEntity
 67
     1
  8
0
  6
Continuous
 62
     7
370
    25
100
AcDbLine
 10
218.5
 20
-600.0
 30
0.0
 11
218.5
 21
-601.0
 31
0.0
  0
LINE
  5
20A
330
1B
100
AcDbEntity
 67
     1
  8
0
  6
Continuous
 62
     7
370
    25
100
AcDbLine
 10
241.5
 20
-601.0
 30
0.0
 11
241.5
 21
-600.0
 31
0.0
  0
LINE
  5
20B
330
1B
100
AcDbEntity
 67
     1
  8
0
  6
Continuous
 62
     7
370
    25
100
AcDbLine
 10
250.0
 20
598.0
 30
0.0
 11
210.0
 21
598.0
 31
0.0
  0
LINE
  5
20C
330
1B
100
AcDbEntity
 67
     1
  8
0
  6
Continuous
 62
     7
370
    25
100
AcDbLine
 10
235.0
 20
-600.0
 30
0.0
 11
235.0
 21
600.0
 31
0.0
  0
LINE
  5
20D
330
1B
100
AcDbEntity
 67
     1
  8
0
  6
Continuous
 62
     7
370
    25
100
AcDbLine
 10
210.0
 20
-598.0
 30
0.0
 11
250.0
 21
-598.0
 31
0.0
  0
LINE
  5
20E
330
1B
100
AcDbEntity
 67
     1
  8
0
  6
Continuous
 62
     7
370
    25
100
AcDbLine
 10
210.0
 20
-598.0
 30
0.0
 11
210.0
 21
598.0
 31
0.0
  0
LINE
  5
20F
330
1B
100
AcDbEntity
 67
     1
  8
0
  6
Continuous
 62
     7
370
    25
100
AcDbLine
 10
212.0
 20
600.0
 30
0.0
 11
248.0
 21
600.0
 31
0.0
  0
LINE
  5
210
330
1B
100
AcDbEntity
 67
     1
  8
0
  6
Continuous
 62
     7
370
    25
100
AcDbLine
 10
248.0
 20
-600.0
 30
0.0
 11
212.0
 21
-600.0
 31
0.0
  0
LINE
  5
211
330
1B
100
AcDbEntity
 67
     1
  8
0
  6
Continuous
 62
     7
370
    25
100
AcDbLine
 10
250.0
 20
598.0
 30
0.0
 11
250.0
 21
-598.0
 31
0.0
  0
LINE
  5
212
330
1B
100
AcDbEntity
 67
     1
  8
0
  6
Continuous
 62
     7
370
    25
100
AcDbLine
 10
-250.0
 20
-598.0
 30
0.0
 11
-210.0
 21
-598.0
 31
0.0
  0
LINE
  5
213
330
1B
100
AcDbEntity
 67
     1
  8
0
  6
Continuous
 62
     7
370
    25
100
AcDbLine
 10
-212.0
 20
-600.0
 30
0.0
 11
-248.0
 21
-600.0
 31
0.0
  0
LINE
  5
214
330
1B
100
AcDbEntity
 67
     1
  8
0
  6
Continuous
 62
     7
370
    25
100
AcDbLine
 10
-248.0
 20
600.0
 30
0.0
 11
-212.0
 21
600.0
 31
0.0
  0
LINE
  5
215
330
1B
100
AcDbEntity
 67
     1
  8
0
  6
Continuous
 62
     7
370
    25
100
AcDbLine
 10
-235.0
 20
600.0
 30
0.0
 11
-235.0
 21
-600.0
 31
0.0
  0
LINE
  5
216
330
1B
100
AcDbEntity
 67
     1
  8
0
  6
Continuous
 62
     7
370
    25
100
AcDbLine
 10
-210.0
 20
598.0
 30
0.0
 11
-250.0
 21
598.0
 31
0.0
  0
LINE
  5
217
330
1B
100
AcDbEntity
 67
     1
  8
0
  6
Continuous
 62
     7
370
    25
100
AcDbLine
 10
-250.0
 20
-598.0
 30
0.0
 11
-250.0
 21
598.0
 31
0.0
  0
LINE
  5
218
330
1B
100
AcDbEntity
 67
     1
  8
0
  6
Continuous
 62
     7
370
    25
100
AcDbLine
 10
-210.0
 20
-598.0
 30
0.0
 11
-210.0
 21
598.0
 31
0.0
  0
LINE
  5
219
330
1B
100
AcDbEntity
 67
     1
  8
0
  6
Continuous
 62
     7
370
    25
100
AcDbLine
 10
218.5
 20
601.0
 30
0.0
 11
241.5
 21
601.0
 31
0.0
  0
LINE
  5
21A
330
1B
100
AcDbEntity
 67
     1
  8
0
  6
Continuous
 62
     7
370
    25
100
AcDbLine
 10
-218.5
 20
601.0
 30
0.0
 11
-241.5
 21
601.0
 31
0.0
  0
LINE
  5
21B
330
1B
100
AcDbEntity
 67
     1
  8
0
  6
Continuous
 62
     7
370
    25
100
AcDbLine
 10
-218.5
 20
-601.0
 30
0.0
 11
-241.5
 21
-601.0
 31
0.0
  0
LINE
  5
21C
330
1B
100
AcDbEntity
 67
     1
  8
0
  6
Continuous
 62
     7
370
    25
100
AcDbLine
 10
218.5
 20
-601.0
 30
0.0
 11
241.5
 21
-601.0
 31
0.0
  0
LINE
  5
21D
330
1B
100
AcDbEntity
 67
     1
  8
0
  6
Continuous
 62
     8
370
    25
100
AcDbLine
 10
-209.0
 20
-349.0
 30
0.0
 11
-209.0
 21
-371.0
 31
0.0
  0
LINE
  5
21E
330
1B
100
AcDbEntity
 67
     1
  8
0
  6
Continuous
 62
     8
370
    25
100
AcDbLine
 10
-209.0
 20
-309.0
 30
0.0
 11
-209.0
 21
-331.0
 31
0.0
  0
LINE
  5
21F
330
1B
100
AcDbEntity
 67
     1
  8
0
  6
Continuous
 62
     8
370
    25
100
AcDbLine
 10
209.0
 20
-411.0
 30
0.0
 11
209.0
 21
-389.0
 31
0.0
  0
LINE
  5
220
330
1B
100
AcDbEntity
 67
     1
  8
0
  6
Continuous
 62
     8
370
    25
100
AcDbLine
 10
209.0
 20
-211.0
 30
0.0
 11
209.0
 21
-189.0
 31
0.0
  0
LINE
  5
221
330
1B
100
AcDbEntity
 67
     1
  8
0
  6
Continuous
 62
     8
370
    25
100
AcDbLine
 10
-209.0
 20
-189.0
 30
0.0
 11
-209.0
 21
-211.0
 31
0.0
  0
LINE
  5
222
330
1B
100
AcDbEntity
 67
     1
  8
0
  6
Continuous
 62
     8
370
    25
100
AcDbLine
 10
209.0
 20
-171.0
 30
0.0
 11
209.0
 21
-149.0
 31
0.0
  0
LINE
  5
223
330
1B
100
AcDbEntity
 67
     1
  8
0
  6
Continuous
 62
     8
370
    25
100
AcDbLine
 10
209.0
 20
-371.0
 30
0.0
 11
209.0
 21
-349.0
 31
0.0
  0
LINE
  5
224
330
1B
100
AcDbEntity
 67
     1
  8
0
  6
Continuous
 62
     8
370
    25
100
AcDbLine
 10
-209.0
 20
-389.0
 30
0.0
 11
-209.0
 21
-411.0
 31
0.0
  0
LINE
  5
225
330
1B
100
AcDbEntity
 67
     1
  8
0
  6
Continuous
 62
     8
370
    25
100
AcDbLine
 10
209.0
 20
-451.0
 30
0.0
 11
209.0
 21
-429.0
 31
0.0
  0
LINE
  5
226
330
1B
100
AcDbEntity
 67
     1
  8
0
  6
Continuous
 62
     8
370
    25
100
AcDbLine
 10
-209.0
 20
-429.0
 30
0.0
 11
-209.0
 21
-451.0
 31
0.0
  0
LINE
  5
227
330
1B
100
AcDbEntity
 67
     1
  8
0
  6
Continuous
 62
     8
370
    25
100
AcDbLine
 10
209.0
 20
-291.0
 30
0.0
 11
209.0
 21
-269.0
 31
0.0
  0
LINE
  5
228
330
1B
100
AcDbEntity
 67
     1
  8
0
  6
Continuous
 62
     8
370
    25
100
AcDbLine
 10
209.0
 20
-331.0
 30
0.0
 11
209.0
 21
-309.0
 31
0.0
  0
LINE
  5
229
330
1B
100
AcDbEntity
 67
     1
  8
0
  6
Continuous
 62
     8
370
    25
100
AcDbLine
 10
-209.0
 20
-469.0
 30
0.0
 11
-209.0
 21
-491.0
 31
0.0
  0
LINE
  5
22A
330
1B
100
AcDbEntity
 67
     1
  8
0
  6
Continuous
 62
     8
370
    25
100
AcDbLine
 10
-209.0
 20
-509.0
 30
0.0
 11
-209.0
 21
-531.0
 31
0.0
  0
LINE
  5
22B
330
1B
100
AcDbEntity
 67
     1
  8
0
  6
Continuous
 62
     8
370
    25
100
AcDbLine
 10
209.0
 20
-531.0
 30
0.0
 11
209.0
 21
-509.0
 31
0.0
  0
LINE
  5
22C
330
1B
100
AcDbEntity
 67
     1
  8
0
  6
Continuous
 62
     8
370
    25
100
AcDbLine
 10
-209.0
 20
-149.0
 30
0.0
 11
-209.0
 21
-171.0
 31
0.0
  0
LINE
  5
22D
330
1B
100
AcDbEntity
 67
     1
  8
0
  6
Continuous
 62
     8
370
    25
100
AcDbLine
 10
209.0
 20
-491.0
 30
0.0
 11
209.0
 21
-469.0
 31
0.0
  0
LINE
  5
22E
330
1B
100
AcDbEntity
 67
     1
  8
0
  6
Continuous
 62
     8
370
    25
100
AcDbLine
 10
-209.0
 20
-269.0
 30
0.0
 11
-209.0
 21
-291.0
 31
0.0
  0
LINE
  5
22F
330
1B
100
AcDbEntity
 67
     1
  8
0
  6
Continuous
 62
     8
370
    25
100
AcDbLine
 10
209.0
 20
-251.0
 30
0.0
 11
209.0
 21
-229.0
 31
0.0
  0
LINE
  5
230
330
1B
100
AcDbEntity
 67
     1
  8
0
  6
Continuous
 62
     8
370
    25
100
AcDbLine
 10
-209.0
 20
-229.0
 30
0.0
 11
-209.0
 21
-251.0
 31
0.0
  0
LINE
  5
231
330
1B
100
AcDbEntity
 67
     1
  8
0
  6
Continuous
 62
     8
370
    25
100
AcDbLine
 10
209.0
 20
-571.0
 30
0.0
 11
209.0
 21
-549.0
 31
0.0
  0
LINE
  5
232
330
1B
100
AcDbEntity
 67
     1
  8
0
  6
Continuous
 62
     8
370
    25
100
AcDbLine
 10
-209.0
 20
-549.0
 30
0.0
 11
-209.0
 21
-571.0
 31
0.0
  0
LINE
  5
233
330
1B
100
AcDbEntity
 67
     1
  8
0
  6
Continuous
 62
     8
370
    25
100
AcDbLine
 10
209.0
 20
29.0
 30
0.0
 11
209.0
 21
51.0
 31
0.0
  0
LINE
  5
234
330
1B
100
AcDbEntity
 67
     1
  8
0
  6
Continuous
 62
     8
370
    25
100
AcDbLine
 10
-209.0
 20
51.0
 30
0.0
 11
-209.0
 21
29.0
 31
0.0
  0
LINE
  5
235
330
1B
100
AcDbEntity
 67
     1
  8
0
  6
Continuous
 62
     8
370
    25
100
AcDbLine
 10
209.0
 20
229.0
 30
0.0
 11
209.0
 21
251.0
 31
0.0
  0
LINE
  5
236
330
1B
100
AcDbEntity
 67
     1
  8
0
  6
Continuous
 62
     8
370
    25
100
AcDbLine
 10
209.0
 20
149.0
 30
0.0
 11
209.0
 21
171.0
 31
0.0
  0
LINE
  5
237
330
1B
100
AcDbEntity
 67
     1
  8
0
  6
Continuous
 62
     8
370
    25
100
AcDbLine
 10
-209.0
 20
211.0
 30
0.0
 11
-209.0
 21
189.0
 31
0.0
  0
LINE
  5
238
330
1B
100
AcDbEntity
 67
     1
  8
0
  6
Continuous
 62
     8
370
    25
100
AcDbLine
 10
209.0
 20
-11.0
 30
0.0
 11
209.0
 21
11.0
 31
0.0
  0
LINE
  5
239
330
1B
100
AcDbEntity
 67
     1
  8
0
  6
Continuous
 62
     8
370
    25
100
AcDbLine
 10
-209.0
 20
251.0
 30
0.0
 11
-209.0
 21
229.0
 31
0.0
  0
LINE
  5
23A
330
1B
100
AcDbEntity
 67
     1
  8
0
  6
Continuous
 62
     8
370
    25
100
AcDbLine
 10
-209.0
 20
171.0
 30
0.0
 11
-209.0
 21
149.0
 31
0.0
  0
LINE
  5
23B
330
1B
100
AcDbEntity
 67
     1
  8
0
  6
Continuous
 62
     8
370
    25
100
AcDbLine
 10
209.0
 20
189.0
 30
0.0
 11
209.0
 21
211.0
 31
0.0
  0
LINE
  5
23C
330
1B
100
AcDbEntity
 67
     1
  8
0
  6
Continuous
 62
     8
370
    25
100
AcDbLine
 10
209.0
 20
69.0
 30
0.0
 11
209.0
 21
91.0
 31
0.0
  0
LINE
  5
23D
330
1B
100
AcDbEntity
 67
     1
  8
0
  6
Continuous
 62
     8
370
    25
100
AcDbLine
 10
-209.0
 20
131.0
 30
0.0
 11
-209.0
 21
109.0
 31
0.0
  0
LINE
  5
23E
330
1B
100
AcDbEntity
 67
     1
  8
0
  6
Continuous
 62
     8
370
    25
100
AcDbLine
 10
-209.0
 20
11.0
 30
0.0
 11
-209.0
 21
-11.0
 31
0.0
  0
LINE
  5
23F
330
1B
100
AcDbEntity
 67
     1
  8
0
  6
Continuous
 62
     8
370
    25
100
AcDbLine
 10
209.0
 20
109.0
 30
0.0
 11
209.0
 21
131.0
 31
0.0
  0
LINE
  5
240
330
1B
100
AcDbEntity
 67
     1
  8
0
  6
Continuous
 62
     8
370
    25
100
AcDbLine
 10
-209.0
 20
91.0
 30
0.0
 11
-209.0
 21
69.0
 31
0.0
  0
LINE
  5
241
330
1B
100
AcDbEntity
 67
     1
  8
0
  6
Continuous
 62
     8
370
    25
100
AcDbLine
 10
-209.0
 20
451.0
 30
0.0
 11
-209.0
 21
429.0
 31
0.0
  0
LINE
  5
242
330
1B
100
AcDbEntity
 67
     1
  8
0
  6
Continuous
 62
     8
370
    25
100
AcDbLine
 10
-209.0
 20
411.0
 30
0.0
 11
-209.0
 21
389.0
 31
0.0
  0
LINE
  5
243
330
1B
100
AcDbEntity
 67
     1
  8
0
  6
Continuous
 62
     8
370
    25
100
AcDbLine
 10
209.0
 20
389.0
 30
0.0
 11
209.0
 21
411.0
 31
0.0
  0
LINE
  5
244
330
1B
100
AcDbEntity
 67
     1
  8
0
  6
Continuous
 62
     8
370
    25
100
AcDbLine
 10
209.0
 20
469.0
 30
0.0
 11
209.0
 21
491.0
 31
0.0
  0
LINE
  5
245
330
1B
100
AcDbEntity
 67
     1
  8
0
  6
Continuous
 62
     8
370
    25
100
AcDbLine
 10
-209.0
 20
531.0
 30
0.0
 11
-209.0
 21
509.0
 31
0.0
  0
LINE
  5
246
330
1B
100
AcDbEntity
 67
     1
  8
0
  6
Continuous
 62
     8
370
    25
100
AcDbLine
 10
209.0
 20
509.0
 30
0.0
 11
209.0
 21
531.0
 31
0.0
  0
LINE
  5
247
330
1B
100
AcDbEntity
 67
     1
  8
0
  6
Continuous
 62
     8
370
    25
100
AcDbLine
 10
-209.0
 20
491.0
 30
0.0
 11
-209.0
 21
469.0
 31
0.0
  0
LINE
  5
248
330
1B
100
AcDbEntity
 67
     1
  8
0
  6
Continuous
 62
     8
370
    25
100
AcDbLine
 10
-209.0
 20
571.0
 30
0.0
 11
-209.0
 21
549.0
 31
0.0
  0
LINE
  5
249
330
1B
100
AcDbEntity
 67
     1
  8
0
  6
Continuous
 62
     8
370
    25
100
AcDbLine
 10
209.0
 20
429.0
 30
0.0
 11
209.0
 21
451.0
 31
0.0
  0
LINE
  5
24A
330
1B
100
AcDbEntity
 67
     1
  8
0
  6
Continuous
 62
     8
370
    25
100
AcDbLine
 10
209.0
 20
549.0
 30
0.0
 11
209.0
 21
571.0
 31
0.0
  0
ARC
  5
24B
330
1B
100
AcDbEntity
 67
     1
  8
0
  6
Continuous
 62
     7
370
    25
100
AcDbCircle
 10
-209.0
 20
-372.0
 30
0.0
 40
1.000000000000114
100
AcDbArc
 50
90.0
 51
180.0
  0
ARC
  5
24C
330
1B
100
AcDbEntity
 67
     1
  8
0
  6
Continuous
 62
     7
370
    25
100
AcDbCircle
 10
-209.0
 20
-348.0
 30
0.0
 40
1.000000000000114
100
AcDbArc
 50
180.0
 51
270.0
  0
ARC
  5
24D
330
1B
100
AcDbEntity
 67
     1
  8
0
  6
Continuous
 62
     7
370
    25
100
AcDbCircle
 10
-209.0
 20
-332.0
 30
0.0
 40
1.000000000000142
100
AcDbArc
 50
90.0
 51
180.0
  0
ARC
  5
24E
330
1B
100
AcDbEntity
 67
     1
  8
0
  6
Continuous
 62
     7
370
    25
100
AcDbCircle
 10
-209.0
 20
-308.0
 30
0.0
 40
1.000000000000114
100
AcDbArc
 50
180.0
 51
270.0
  0
ARC
  5
24F
330
1B
100
AcDbEntity
 67
     1
  8
0
  6
Continuous
 62
     7
370
    25
100
AcDbCircle
 10
209.0
 20
-412.0
 30
0.0
 40
1.0
100
AcDbArc
 50
360.0
 51
90.0
  0
ARC
  5
250
330
1B
100
AcDbEntity
 67
     1
  8
0
  6
Continuous
 62
     7
370
    25
100
AcDbCircle
 10
209.0
 20
-388.0
 30
0.0
 40
1.0
100
AcDbArc
 50
270.0
 51
0.0
  0
ARC
  5
251
330
1B
100
AcDbEntity
 67
     1
  8
0
  6
Continuous
 62
     7
370
    25
100
AcDbCircle
 10
209.0
 20
-212.0
 30
0.0
 40
1.000000000000028
100
AcDbArc
 50
0.0
 51
90.0
  0
ARC
  5
252
330
1B
100
AcDbEntity
 67
     1
  8
0
  6
Continuous
 62
     7
370
    25
100
AcDbCircle
 10
209.0
 20
-188.0
 30
0.0
 40
1.000000000000028
100
AcDbArc
 50
270.0
 51
360.0
  0
ARC
  5
253
330
1B
100
AcDbEntity
 67
     1
  8
0
  6
Continuous
 62
     7
370
    25
100
AcDbCircle
 10
-209.0
 20
-212.0
 30
0.0
 40
1.000000000000114
100
AcDbArc
 50
90.0
 51
180.0
  0
ARC
  5
254
330
1B
100
AcDbEntity
 67
     1
  8
0
  6
Continuous
 62
     7
370
    25
100
AcDbCircle
 10
-209.0
 20
-188.0
 30
0.0
 40
1.000000000000114
100
AcDbArc
 50
180.0
 51
270.0
  0
ARC
  5
255
330
1B
100
AcDbEntity
 67
     1
  8
0
  6
Continuous
 62
     7
370
    25
100
AcDbCircle
 10
209.0
 20
-172.0
 30
0.0
 40
1.000000000000028
100
AcDbArc
 50
0.0
 51
90.0
  0
ARC
  5
256
330
1B
100
AcDbEntity
 67
     1
  8
0
  6
Continuous
 62
     7
370
    25
100
AcDbCircle
 10
209.0
 20
-148.0
 30
0.0
 40
1.000000000000028
100
AcDbArc
 50
270.0
 51
360.0
  0
ARC
  5
257
330
1B
100
AcDbEntity
 67
     1
  8
0
  6
Continuous
 62
     7
370
    25
100
AcDbCircle
 10
209.0
 20
-372.0
 30
0.0
 40
1.000000000000057
100
AcDbArc
 50
0.0
 51
90.0
  0
ARC
  5
258
330
1B
100
AcDbEntity
 67
     1
  8
0
  6
Continuous
 62
     7
370
    25
100
AcDbCircle
 10
209.0
 20
-348.0
 30
0.0
 40
1.000000000000057
100
AcDbArc
 50
270.0
 51
360.0
  0
ARC
  5
259
330
1B
100
AcDbEntity
 67
     1
  8
0
  6
Continuous
 62
     7
370
    25
100
AcDbCircle
 10
-209.0
 20
-412.0
 30
0.0
 40
1.0
100
AcDbArc
 50
90.0
 51
180.0
  0
ARC
  5
25A
330
1B
100
AcDbEntity
 67
     1
  8
0
  6
Continuous
 62
     7
370
    25
100
AcDbCircle
 10
-209.0
 20
-388.0
 30
0.0
 40
1.0
100
AcDbArc
 50
180.0
 51
270.0
  0
ARC
  5
25B
330
1B
100
AcDbEntity
 67
     1
  8
0
  6
Continuous
 62
     7
370
    25
100
AcDbCircle
 10
209.0
 20
-452.0
 30
0.0
 40
1.000000000000057
100
AcDbArc
 50
0.0
 51
90.0
  0
ARC
  5
25C
330
1B
100
AcDbEntity
 67
     1
  8
0
  6
Continuous
 62
     7
370
    25
100
AcDbCircle
 10
209.0
 20
-428.0
 30
0.0
 40
1.000000000000057
100
AcDbArc
 50
270.0
 51
360.0
  0
ARC
  5
25D
330
1B
100
AcDbEntity
 67
     1
  8
0
  6
Continuous
 62
     7
370
    25
100
AcDbCircle
 10
-209.0
 20
-452.0
 30
0.0
 40
1.000000000000142
100
AcDbArc
 50
90.0
 51
180.0
  0
ARC
  5
25E
330
1B
100
AcDbEntity
 67
     1
  8
0
  6
Continuous
 62
     7
370
    25
100
AcDbCircle
 10
-209.0
 20
-428.0
 30
0.0
 40
1.000000000000114
100
AcDbArc
 50
180.0
 51
270.0
  0
ARC
  5
25F
330
1B
100
AcDbEntity
 67
     1
  8
0
  6
Continuous
 62
     7
370
    25
100
AcDbCircle
 10
209.0
 20
-292.0
 30
0.0
 40
1.0
100
AcDbArc
 50
0.0
 51
90.0
  0
ARC
  5
260
330
1B
100
AcDbEntity
 67
     1
  8
0
  6
Continuous
 62
     7
370
    25
100
AcDbCircle
 10
209.0
 20
-268.0
 30
0.0
 40
1.0
100
AcDbArc
 50
270.0
 51
0.0
  0
ARC
  5
261
330
1B
100
AcDbEntity
 67
     1
  8
0
  6
Continuous
 62
     7
370
    25
100
AcDbCircle
 10
209.0
 20
-332.0
 30
0.0
 40
1.000000000000057
100
AcDbArc
 50
0.0
 51
90.0
  0
ARC
  5
262
330
1B
100
AcDbEntity
 67
     1
  8
0
  6
Continuous
 62
     7
370
    25
100
AcDbCircle
 10
209.0
 20
-308.0
 30
0.0
 40
1.000000000000057
100
AcDbArc
 50
270.0
 51
360.0
  0
ARC
  5
263
330
1B
100
AcDbEntity
 67
     1
  8
0
  6
Continuous
 62
     7
370
    25
100
AcDbCircle
 10
-209.0
 20
-492.0
 30
0.0
 40
1.000000000000142
100
AcDbArc
 50
90.0
 51
180.0
  0
ARC
  5
264
330
1B
100
AcDbEntity
 67
     1
  8
0
  6
Continuous
 62
     7
370
    25
100
AcDbCircle
 10
-209.0
 20
-468.0
 30
0.0
 40
1.000000000000114
100
AcDbArc
 50
180.0
 51
270.0
  0
ARC
  5
265
330
1B
100
AcDbEntity
 67
     1
  8
0
  6
Continuous
 62
     7
370
    25
100
AcDbCircle
 10
-209.0
 20
-532.0
 30
0.0
 40
1.000000000000142
100
AcDbArc
 50
90.0
 51
180.0
  0
ARC
  5
266
330
1B
100
AcDbEntity
 67
     1
  8
0
  6
Continuous
 62
     7
370
    25
100
AcDbCircle
 10
-209.0
 20
-508.0
 30
0.0
 40
1.0
100
AcDbArc
 50
180.0
 51
270.0
  0
ARC
  5
267
330
1B
100
AcDbEntity
 67
     1
  8
0
  6
Continuous
 62
     7
370
    25
100
AcDbCircle
 10
209.0
 20
-532.0
 30
0.0
 40
1.000000000000114
100
AcDbArc
 50
0.0
 51
90.0
  0
ARC
  5
268
330
1B
100
AcDbEntity
 67
     1
  8
0
  6
Continuous
 62
     7
370
    25
100
AcDbCircle
 10
209.0
 20
-508.0
 30
0.0
 40
1.0
100
AcDbArc
 50
270.0
 51
0.0
  0
ARC
  5
269
330
1B
100
AcDbEntity
 67
     1
  8
0
  6
Continuous
 62
     7
370
    25
100
AcDbCircle
 10
-209.0
 20
-172.0
 30
0.0
 40
1.000000000000114
100
AcDbArc
 50
90.0
 51
180.0
  0
ARC
  5
26A
330
1B
100
AcDbEntity
 67
     1
  8
0
  6
Continuous
 62
     7
370
    25
100
AcDbCircle
 10
-209.0
 20
-148.0
 30
0.0
 40
1.000000000000114
100
AcDbArc
 50
180.0
 51
270.0
  0
ARC
  5
26B
330
1B
100
AcDbEntity
 67
     1
  8
0
  6
Continuous
 62
     7
370
    25
100
AcDbCircle
 10
209.0
 20
-492.0
 30
0.0
 40
1.000000000000057
100
AcDbArc
 50
0.0
 51
90.0
  0
ARC
  5
26C
330
1B
100
AcDbEntity
 67
     1
  8
0
  6
Continuous
 62
     7
370
    25
100
AcDbCircle
 10
209.0
 20
-468.0
 30
0.0
 40
1.000000000000057
100
AcDbArc
 50
270.0
 51
360.0
  0
ARC
  5
26D
330
1B
100
AcDbEntity
 67
     1
  8
0
  6
Continuous
 62
     7
370
    25
100
AcDbCircle
 10
-209.0
 20
-292.0
 30
0.0
 40
1.0
100
AcDbArc
 50
90.0
 51
180.0
  0
ARC
  5
26E
330
1B
100
AcDbEntity
 67
     1
  8
0
  6
Continuous
 62
     7
370
    25
100
AcDbCircle
 10
-209.0
 20
-268.0
 30
0.0
 40
1.0
100
AcDbArc
 50
180.0
 51
270.0
  0
ARC
  5
26F
330
1B
100
AcDbEntity
 67
     1
  8
0
  6
Continuous
 62
     7
370
    25
100
AcDbCircle
 10
209.0
 20
-252.0
 30
0.0
 40
1.000000000000114
100
AcDbArc
 50
0.0
 51
90.0
  0
ARC
  5
270
330
1B
100
AcDbEntity
 67
     1
  8
0
  6
Continuous
 62
     7
370
    25
100
AcDbCircle
 10
209.0
 20
-228.0
 30
0.0
 40
1.000000000000085
100
AcDbArc
 50
270.0
 51
360.0
  0
ARC
  5
271
330
1B
100
AcDbEntity
 67
     1
  8
0
  6
Continuous
 62
     7
370
    25
100
AcDbCircle
 10
-209.0
 20
-252.0
 30
0.0
 40
1.000000000000114
100
AcDbArc
 50
90.0
 51
180.0
  0
ARC
  5
272
330
1B
100
AcDbEntity
 67
     1
  8
0
  6
Continuous
 62
     7
370
    25
100
AcDbCircle
 10
-209.0
 20
-228.0
 30
0.0
 40
1.000000000000142
100
AcDbArc
 50
180.0
 51
270.0
  0
ARC
  5
273
330
1B
100
AcDbEntity
 67
     1
  8
0
  6
Continuous
 62
     7
370
    25
100
AcDbCircle
 10
209.0
 20
-572.0
 30
0.0
 40
0.9999999999998579
100
AcDbArc
 50
360.0
 51
90.0
  0
ARC
  5
274
330
1B
100
AcDbEntity
 67
     1
  8
0
  6
Continuous
 62
     7
370
    25
100
AcDbCircle
 10
209.0
 20
-548.0
 30
0.0
 40
0.9999999999998863
100
AcDbArc
 50
270.0
 51
0.0
  0
ARC
  5
275
330
1B
100
AcDbEntity
 67
     1
  8
0
  6
Continuous
 62
     7
370
    25
100
AcDbCircle
 10
-209.0
 20
-572.0
 30
0.0
 40
0.9999999999998863
100
AcDbArc
 50
90.0
 51
180.0
  0
ARC
  5
276
330
1B
100
AcDbEntity
 67
     1
  8
0
  6
Continuous
 62
     7
370
    25
100
AcDbCircle
 10
-209.0
 20
-548.0
 30
0.0
 40
0.9999999999998863
100
AcDbArc
 50
180.0
 51
270.0
  0
ARC
  5
277
330
1B
100
AcDbEntity
 67
     1
  8
0
  6
Continuous
 62
     7
370
    25
100
AcDbCircle
 10
209.0
 20
28.0
 30
0.0
 40
1.000000000000028
100
AcDbArc
 50
0.0
 51
90.0
  0
ARC
  5
278
330
1B
100
AcDbEntity
 67
     1
  8
0
  6
Continuous
 62
     7
370
    25
100
AcDbCircle
 10
209.0
 20
52.0
 30
0.0
 40
1.000000000000028
100
AcDbArc
 50
270.0
 51
0.0
  0
ARC
  5
279
330
1B
100
AcDbEntity
 67
     1
  8
0
  6
Continuous
 62
     7
370
    25
100
AcDbCircle
 10
-209.0
 20
28.0
 30
0.0
 40
1.000000000000114
100
AcDbArc
 50
90.0
 51
180.0
  0
ARC
  5
27A
330
1B
100
AcDbEntity
 67
     1
  8
0
  6
Continuous
 62
     7
370
    25
100
AcDbCircle
 10
-209.0
 20
52.0
 30
0.0
 40
1.000000000000085
100
AcDbArc
 50
180.0
 51
270.0
  0
ARC
  5
27B
330
1B
100
AcDbEntity
 67
     1
  8
0
  6
Continuous
 62
     7
370
    25
100
AcDbCircle
 10
209.0
 20
228.0
 30
0.0
 40
1.000000000000028
100
AcDbArc
 50
0.0
 51
90.0
  0
ARC
  5
27C
330
1B
100
AcDbEntity
 67
     1
  8
0
  6
Continuous
 62
     7
370
    25
100
AcDbCircle
 10
209.0
 20
252.0
 30
0.0
 40
1.000000000000057
100
AcDbArc
 50
270.0
 51
360.0
  0
ARC
  5
27D
330
1B
100
AcDbEntity
 67
     1
  8
0
  6
Continuous
 62
     7
370
    25
100
AcDbCircle
 10
209.0
 20
148.0
 30
0.0
 40
1.000000000000057
100
AcDbArc
 50
0.0
 51
90.0
  0
ARC
  5
27E
330
1B
100
AcDbEntity
 67
     1
  8
0
  6
Continuous
 62
     7
370
    25
100
AcDbCircle
 10
209.0
 20
172.0
 30
0.0
 40
1.000000000000114
100
AcDbArc
 50
270.0
 51
360.0
  0
ARC
  5
27F
330
1B
100
AcDbEntity
 67
     1
  8
0
  6
Continuous
 62
     7
370
    25
100
AcDbCircle
 10
-209.0
 20
188.0
 30
0.0
 40
1.000000000000114
100
AcDbArc
 50
90.0
 51
180.0
  0
ARC
  5
280
330
1B
100
AcDbEntity
 67
     1
  8
0
  6
Continuous
 62
     7
370
    25
100
AcDbCircle
 10
-209.0
 20
212.0
 30
0.0
 40
1.000000000000085
100
AcDbArc
 50
180.0
 51
270.0
  0
ARC
  5
281
330
1B
100
AcDbEntity
 67
     1
  8
0
  6
Continuous
 62
     7
370
    25
100
AcDbCircle
 10
209.0
 20
-12.0
 30
0.0
 40
1.000000000000034
100
AcDbArc
 50
0.0
 51
90.0
  0
ARC
  5
282
330
1B
100
AcDbEntity
 67
     1
  8
0
  6
Continuous
 62
     7
370
    25
100
AcDbCircle
 10
209.0
 20
12.0
 30
0.0
 40
1.000000000000034
100
AcDbArc
 50
270.0
 51
360.0
  0
ARC
  5
283
330
1B
100
AcDbEntity
 67
     1
  8
0
  6
Continuous
 62
     7
370
    25
100
AcDbCircle
 10
-209.0
 20
228.0
 30
0.0
 40
1.000000000000114
100
AcDbArc
 50
90.0
 51
180.0
  0
ARC
  5
284
330
1B
100
AcDbEntity
 67
     1
  8
0
  6
Continuous
 62
     7
370
    25
100
AcDbCircle
 10
-209.0
 20
252.0
 30
0.0
 40
1.000000000000114
100
AcDbArc
 50
180.0
 51
270.0
  0
ARC
  5
285
330
1B
100
AcDbEntity
 67
     1
  8
0
  6
Continuous
 62
     7
370
    25
100
AcDbCircle
 10
-209.0
 20
148.0
 30
0.0
 40
1.000000000000114
100
AcDbArc
 50
90.0
 51
180.0
  0
ARC
  5
286
330
1B
100
AcDbEntity
 67
     1
  8
0
  6
Continuous
 62
     7
370
    25
100
AcDbCircle
 10
-209.0
 20
172.0
 30
0.0
 40
1.000000000000142
100
AcDbArc
 50
180.0
 51
270.0
  0
ARC
  5
287
330
1B
100
AcDbEntity
 67
     1
  8
0
  6
Continuous
 62
     7
370
    25
100
AcDbCircle
 10
209.0
 20
188.0
 30
0.0
 40
1.000000000000028
100
AcDbArc
 50
0.0
 51
90.0
  0
ARC
  5
288
330
1B
100
AcDbEntity
 67
     1
  8
0
  6
Continuous
 62
     7
370
    25
100
AcDbCircle
 10
209.0
 20
212.0
 30
0.0
 40
1.000000000000028
100
AcDbArc
 50
270.0
 51
360.0
  0
ARC
  5
289
330
1B
100
AcDbEntity
 67
     1
  8
0
  6
Continuous
 62
     7
370
    25
100
AcDbCircle
 10
209.0
 20
68.0
 30
0.0
 40
1.000000000000028
100
AcDbArc
 50
0.0
 51
90.0
  0
ARC
  5
28A
330
1B
100
AcDbEntity
 67
     1
  8
0
  6
Continuous
 62
     7
370
    25
100
AcDbCircle
 10
209.0
 20
92.0
 30
0.0
 40
1.000000000000028
100
AcDbArc
 50
270.0
 51
0.0
  0
ARC
  5
28B
330
1B
100
AcDbEntity
 67
     1
  8
0
  6
Continuous
 62
     7
370
    25
100
AcDbCircle
 10
-209.0
 20
108.0
 30
0.0
 40
1.000000000000085
100
AcDbArc
 50
90.0
 51
180.0
  0
ARC
  5
28C
330
1B
100
AcDbEntity
 67
     1
  8
0
  6
Continuous
 62
     7
370
    25
100
AcDbCircle
 10
-209.0
 20
132.0
 30
0.0
 40
1.000000000000114
100
AcDbArc
 50
180.0
 51
270.0
  0
ARC
  5
28D
330
1B
100
AcDbEntity
 67
     1
  8
0
  6
Continuous
 62
     7
370
    25
100
AcDbCircle
 10
-209.0
 20
-12.0
 30
0.0
 40
1.000000000000114
100
AcDbArc
 50
90.0
 51
180.0
  0
ARC
  5
28E
330
1B
100
AcDbEntity
 67
     1
  8
0
  6
Continuous
 62
     7
370
    25
100
AcDbCircle
 10
-209.0
 20
12.0
 30
0.0
 40
1.000000000000085
100
AcDbArc
 50
180.0
 51
270.0
  0
ARC
  5
28F
330
1B
100
AcDbEntity
 67
     1
  8
0
  6
Continuous
 62
     7
370
    25
100
AcDbCircle
 10
209.0
 20
108.0
 30
0.0
 40
1.000000000000028
100
AcDbArc
 50
0.0
 51
90.0
  0
ARC
  5
290
330
1B
100
AcDbEntity
 67
     1
  8
0
  6
Continuous
 62
     7
370
    25
100
AcDbCircle
 10
209.0
 20
132.0
 30
0.0
 40
1.000000000000057
100
AcDbArc
 50
270.0
 51
360.0
  0
ARC
  5
291
330
1B
100
AcDbEntity
 67
     1
  8
0
  6
Continuous
 62
     7
370
    25
100
AcDbCircle
 10
-209.0
 20
68.0
 30
0.0
 40
1.000000000000085
100
AcDbArc
 50
90.0
 51
180.0
  0
ARC
  5
292
330
1B
100
AcDbEntity
 67
     1
  8
0
  6
Continuous
 62
     7
370
    25
100
AcDbCircle
 10
-209.0
 20
92.0
 30
0.0
 40
1.000000000000085
100
AcDbArc
 50
180.0
 51
270.0
  0
ARC
  5
293
330
1B
100
AcDbEntity
 67
     1
  8
0
  6
Continuous
 62
     7
370
    25
100
AcDbCircle
 10
-209.0
 20
428.0
 30
0.0
 40
1.000000000000142
100
AcDbArc
 50
90.0
 51
180.0
  0
ARC
  5
294
330
1B
100
AcDbEntity
 67
     1
  8
0
  6
Continuous
 62
     7
370
    25
100
AcDbCircle
 10
-209.0
 20
452.0
 30
0.0
 40
1.000000000000114
100
AcDbArc
 50
180.0
 51
270.0
  0
ARC
  5
295
330
1B
100
AcDbEntity
 67
     1
  8
0
  6
Continuous
 62
     7
370
    25
100
AcDbCircle
 10
-209.0
 20
388.0
 30
0.0
 40
1.0
100
AcDbArc
 50
90.0
 51
180.0
  0
ARC
  5
296
330
1B
100
AcDbEntity
 67
     1
  8
0
  6
Continuous
 62
     7
370
    25
100
AcDbCircle
 10
-209.0
 20
412.0
 30
0.0
 40
1.0
100
AcDbArc
 50
180.0
 51
270.0
  0
ARC
  5
297
330
1B
100
AcDbEntity
 67
     1
  8
0
  6
Continuous
 62
     7
370
    25
100
AcDbCircle
 10
209.0
 20
388.0
 30
0.0
 40
1.0
100
AcDbArc
 50
360.0
 51
90.0
  0
ARC
  5
298
330
1B
100
AcDbEntity
 67
     1
  8
0
  6
Continuous
 62
     7
370
    25
100
AcDbCircle
 10
209.0
 20
412.0
 30
0.0
 40
1.0
100
AcDbArc
 50
270.0
 51
0.0
  0
ARC
  5
299
330
1B
100
AcDbEntity
 67
     1
  8
0
  6
Continuous
 62
     7
370
    25
100
AcDbCircle
 10
209.0
 20
468.0
 30
0.0
 40
1.000000000000114
100
AcDbArc
 50
0.0
 51
90.0
  0
ARC
  5
29A
330
1B
100
AcDbEntity
 67
     1
  8
0
  6
Continuous
 62
     7
370
    25
100
AcDbCircle
 10
209.0
 20
492.0
 30
0.0
 40
1.000000000000057
100
AcDbArc
 50
270.0
 51
360.0
  0
ARC
  5
29B
330
1B
100
AcDbEntity
 67
     1
  8
0
  6
Continuous
 62
     7
370
    25
100
AcDbCircle
 10
-209.0
 20
508.0
 30
0.0
 40
1.0
100
AcDbArc
 50
90.0
 51
180.0
  0
ARC
  5
29C
330
1B
100
AcDbEntity
 67
     1
  8
0
  6
Continuous
 62
     7
370
    25
100
AcDbCircle
 10
-209.0
 20
532.0
 30
0.0
 40
1.000000000000142
100
AcDbArc
 50
180.0
 51
270.0
  0
ARC
  5
29D
330
1B
100
AcDbEntity
 67
     1
  8
0
  6
Continuous
 62
     7
370
    25
100
AcDbCircle
 10
209.0
 20
508.0
 30
0.0
 40
1.0
100
AcDbArc
 50
360.0
 51
90.0
  0
ARC
  5
29E
330
1B
100
AcDbEntity
 67
     1
  8
0
  6
Continuous
 62
     7
370
    25
100
AcDbCircle
 10
209.0
 20
532.0
 30
0.0
 40
1.000000000000114
100
AcDbArc
 50
270.0
 51
360.0
  0
ARC
  5
29F
330
1B
100
AcDbEntity
 67
     1
  8
0
  6
Continuous
 62
     7
370
    25
100
AcDbCircle
 10
-209.0
 20
468.0
 30
0.0
 40
1.000000000000142
100
AcDbArc
 50
90.0
 51
180.0
  0
ARC
  5
2A0
330
1B
100
AcDbEntity
 67
     1
  8
0
  6
Continuous
 62
     7
370
    25
100
AcDbCircle
 10
-209.0
 20
492.0
 30
0.0
 40
1.000000000000114
100
AcDbArc
 50
180.0
 51
270.0
  0
ARC
  5
2A1
330
1B
100
AcDbEntity
 67
     1
  8
0
  6
Continuous
 62
     7
370
    25
100
AcDbCircle
 10
-209.0
 20
548.0
 30
0.0
 40
0.9999999999999147
100
AcDbArc
 50
90.0
 51
180.0
  0
ARC
  5
2A2
330
1B
100
AcDbEntity
 67
     1
  8
0
  6
Continuous
 62
     7
370
    25
100
AcDbCircle
 10
-209.0
 20
572.0
 30
0.0
 40
0.9999999999998863
100
AcDbArc
 50
180.0
 51
270.0
  0
ARC
  5
2A3
330
1B
100
AcDbEntity
 67
     1
  8
0
  6
Continuous
 62
     7
370
    25
100
AcDbCircle
 10
209.0
 20
428.0
 30
0.0
 40
1.000000000000114
100
AcDbArc
 50
0.0
 51
90.0
  0
ARC
  5
2A4
330
1B
100
AcDbEntity
 67
     1
  8
0
  6
Continuous
 62
     7
370
    25
100
AcDbCircle
 10
209.0
 20
452.0
 30
0.0
 40
1.000000000000057
100
AcDbArc
 50
270.0
 51
360.0
  0
ARC
  5
2A5
330
1B
100
AcDbEntity
 67
     1
  8
0
  6
Continuous
 62
     7
370
    25
100
AcDbCircle
 10
209.0
 20
548.0
 30
0.0
 40
0.9999999999998863
100
AcDbArc
 50
360.0
 51
90.0
  0
ARC
  5
2A6
330
1B
100
AcDbEntity
 67
     1
  8
0
  6
Continuous
 62
     7
370
    25
100
AcDbCircle
 10
209.0
 20
572.0
 30
0.0
 40
0.9999999999998863
100
AcDbArc
 50
270.0
 51
0.0
  0
ARC
  5
2A7
330
1B
100
AcDbEntity
 67
     1
  8
0
  6
Continuous
 62
     7
370
    25
100
AcDbCircle
 10
212.0
 20
598.0
 30
0.0
 40
2.000000000000114
100
AcDbArc
 50
90.0
 51
180.0
  0
ARC
  5
2A8
330
1B
100
AcDbEntity
 67
     1
  8
0
  6
Continuous
 62
     7
370
    25
100
AcDbCircle
 10
212.0
 20
-598.0
 30
0.0
 40
2.000000000000114
100
AcDbArc
 50
180.0
 51
270.0
  0
ARC
  5
2A9
330
1B
100
AcDbEntity
 67
     1
  8
0
  6
Continuous
 62
     7
370
    25
100
AcDbCircle
 10
248.0
 20
-598.0
 30
0.0
 40
2.0
100
AcDbArc
 50
270.0
 51
0.0
  0
ARC
  5
2AA
330
1B
100
AcDbEntity
 67
     1
  8
0
  6
Continuous
 62
     7
370
    25
100
AcDbCircle
 10
248.0
 20
598.0
 30
0.0
 40
2.000000000000142
100
AcDbArc
 50
0.0
 51
90.0
  0
ARC
  5
2AB
330
1B
100
AcDbEntity
 67
     1
  8
0
  6
Continuous
 62
     7
370
    25
100
AcDbCircle
 10
-248.0
 20
-598.0
 30
0.0
 40
2.000000000000114
100
AcDbArc
 50
180.0
 51
270.0
  0
ARC
  5
2AC
330
1B
100
AcDbEntity
 67
     1
  8
0
  6
Continuous
 62
     7
370
    25
100
AcDbCircle
 10
-248.0
 20
598.0
 30
0.0
 40
2.000000000000114
100
AcDbArc
 50
90.0
 51
180.0
  0
ARC
  5
2AD
330
1B
100
AcDbEntity
 67
     1
  8
0
  6
Continuous
 62
     7
370
    25
100
AcDbCircle
 10
-212.0
 20
598.0
 30
0.0
 40
2.000000000000114
100
AcDbArc
 50
0.0
 51
90.0
  0
ARC
  5
2AE
330
1B
100
AcDbEntity
 67
     1
  8
0
  6
Continuous
 62
     7
370
    25
100
AcDbCircle
 10
-212.0
 20
-598.0
 30
0.0
 40
2.000000000000114
100
AcDbArc
 50
270.0
 51
360.0
  0
VIEWPORT
  5
6C4
330
1B
100
AcDbEntity
 67
     1
  8
0
100
AcDbViewport
 10
0.0
 20
0.0
 30
0.0
 40
205.6
 41
156.0
 68
     1
 69
     1
 12
0.0
 22
0.0
 13
0.0
 23
0.0
 14
10.0
 24
10.0
 15
10.0
 25
10.0
 16
0.0
 26
0.0
 36
1.0
 17
0.0
 27
0.0
 37
0.0
 42
50.0
 43
0.0
 44
0.0
 45
386.9649805447
 50
0.0
 51
0.0
 72
   100
 90
   557152
  1

281
     0
 71
     1
 74
     0
110
0.0
120
0.0
130
0.0
111
1.0
121
0.0
131
0.0
112
0.0
122
1.0
132
0.0
 79
     0
146
0.0
  0
ENDSEC
  0
SECTION
  2
OBJECTS
  0
DICTIONARY
  5
C
330
0
100
AcDbDictionary
281
     1
  3
ACAD_GROUP
350
D
  3
ACAD_LAYOUT
350
1A
  3
ACAD_MLINESTYLE
350
17
  3
ACAD_PLOTSETTINGS
350
19
  3
ACAD_PLOTSTYLENAME
350
E
  3
ACAD_SCALELIST
350
47
  0
DICTIONARY
  5
D
102
{ACAD_REACTORS
330
C
102
}
330
C
100
AcDbDictionary
281
     1
  0
DICTIONARY
  5
1A
102
{ACAD_REACTORS
330
C
102
}
330
C
100
AcDbDictionary
281
     1
  3
_Back
350
2D8
  3
_Bottom
350
4C8
  3
_Front
350
1E
  3
_Isometric
350
516
  3
_Left
350
49C
  3
_Right
350
26
  3
Model
350
22
  0
DICTIONARY
  5
17
102
{ACAD_REACTORS
330
C
102
}
330
C
100
AcDbDictionary
281
     1
  3
Standard
350
18
  0
DICTIONARY
  5
19
102
{ACAD_REACTORS
330
C
102
}
330
C
100
AcDbDictionary
281
     1
  0
ACDBDICTIONARYWDFLT
  5
E
102
{ACAD_REACTORS
330
C
102
}
330
C
100
AcDbDictionary
281
     1
  3
Normal
350
F
100
AcDbDictionaryWithDefault
340
F
  0
DICTIONARY
  5
47
102
{ACAD_REACTORS
330
C
102
}
330
C
100
AcDbDictionary
281
     1
  3
A0
350
48
  3
A1
350
49
  3
A2
350
4A
  3
A3
350
4B
  3
A4
350
4C
  3
A5
350
4D
  3
A6
350
4E
  3
A7
350
4F
  3
A8
350
50
  3
A9
350
51
  3
B0
350
52
  3
B1
350
53
  3
B2
350
54
  3
B3
350
55
  3
B4
350
56
  3
B5
350
57
  3
B6
350
58
  3
B7
350
59
  3
B8
350
5A
  3
B9
350
5B
  3
C0
350
5C
  3
C1
350
5D
  3
C2
350
5E
  3
C3
350
5F
  3
C4
350
60
  3
C5
350
61
  3
C6
350
62
  3
C7
350
63
  3
C8
350
64
  3
C9
350
65
  3
D0
350
66
  3
D1
350
67
  3
D2
350
68
  0
LAYOUT
  5
2D8
102
{ACAD_REACTORS
330
1A
102
}
330
1A
100
AcDbPlotSettings
  1

  2
none_device
  4
ISO_A4_(210.00_x_297.00_MM)
  6

 40
7.5
 41
20.0
 42
7.5
 43
20.0
 44
210.0
 45
297.0
 46
0.0
 47
0.0
 48
0.0
 49
0.0
140
0.0
141
0.0
142
1.0
143
6.1641025641
 70
   688
 72
     1
 73
     1
 74
     1
  7

 75
     0
147
0.1622296173
148
250.0
149
601.0
100
AcDbLayout
  1
_Back
 70
     1
 71
     3
 10
0.0
 20
0.0
 11
0.0
 21
0.0
 12
0.0
 22
0.0
 32
0.0
 14
0.0
 24
0.0
 34
0.0
 15
0.0
 25
0.0
 35
0.0
146
0.0
 13
0.0
 23
0.0
 33
0.0
 16
1.0
 26
0.0
 36
0.0
 17
0.0
 27
1.0
 37
0.0
 76
     0
330
2D7
331
6C8
  0
LAYOUT
  5
4C8
102
{ACAD_REACTORS
330
1A
102
}
330
1A
100
AcDbPlotSettings
  1

  2
none_device
  4
ISO_A4_(210.00_x_297.00_MM)
  6

 40
7.5
 41
20.0
 42
7.5
 43
20.0
 44
210.0
 45
297.0
 46
0.0
 47
0.0
 48
0.0
 49
0.0
140
0.0
141
0.0
142
1.0
143
6.1641025641
 70
   688
 72
     1
 73
     1
 74
     1
  7

 75
     0
147
0.1622296173
148
250.0
149
601.0
100
AcDbLayout
  1
_Bottom
 70
     1
 71
     5
 10
0.0
 20
0.0
 11
0.0
 21
0.0
 12
0.0
 22
0.0
 32
0.0
 14
0.0
 24
0.0
 34
0.0
 15
0.0
 25
0.0
 35
0.0
146
0.0
 13
0.0
 23
0.0
 33
0.0
 16
1.0
 26
0.0
 36
0.0
 17
0.0
 27
1.0
 37
0.0
 76
     0
330
4C7
331
6CC
  0
LAYOUT
  5
1E
102
{ACAD_REACTORS
330
1A
102
}
330
1A
100
AcDbPlotSettings
  1

  2
none_device
  4
ISO_A4_(210.00_x_297.00_MM)
  6

 40
7.5
 41
20.0
 42
7.5
 43
20.0
 44
210.0
 45
297.0
 46
0.0
 47
0.0
 48
0.0
 49
0.0
140
0.0
141
0.0
142
1.0
143
6.1641025641
 70
   688
 72
     1
 73
     1
 74
     1
  7

 75
     0
147
0.1622296173
148
250.0
149
601.0
100
AcDbLayout
  1
_Front
 70
     1
 71
     1
 10
-373.2820512821
 20
-647.2307692308
 11
1457.4564102564
 21
647.2307692308
 12
0.0
 22
0.0
 32
0.0
 14
-250.0
 24
-601.0
 34
0.0
 15
250.0
 25
601.0
 35
0.0
146
0.0
 13
0.0
 23
0.0
 33
0.0
 16
1.0
 26
0.0
 36
0.0
 17
0.0
 27
1.0
 37
0.0
 76
     0
330
1B
331
6C4
  0
LAYOUT
  5
516
102
{ACAD_REACTORS
330
1A
102
}
330
1A
100
AcDbPlotSettings
  1

  2
none_device
  4
ISO_A4_(210.00_x_297.00_MM)
  6

 40
7.5
 41
20.0
 42
7.5
 43
20.0
 44
210.0
 45
297.0
 46
0.0
 47
0.0
 48
0.0
 49
0.0
140
0.0
141
0.0
142
1.0
143
6.1641025641
 70
   688
 72
     1
 73
     1
 74
     1
  7

 75
     0
147
0.1622296173
148
250.0
149
601.0
100
AcDbLayout
  1
_Isometric
 70
     1
 71
     6
 10
0.0
 20
0.0
 11
0.0
 21
0.0
 12
0.0
 22
0.0
 32
0.0
 14
0.0
 24
0.0
 34
0.0
 15
0.0
 25
0.0
 35
0.0
146
0.0
 13
0.0
 23
0.0
 33
0.0
 16
1.0
 26
0.0
 36
0.0
 17
0.0
 27
1.0
 37
0.0
 76
     0
330
515
331
6CE
  0
LAYOUT
  5
49C
102
{ACAD_REACTORS
330
1A
102
}
330
1A
100
AcDbPlotSettings
  1

  2
none_device
  4
ISO_A4_(210.00_x_297.00_MM)
  6

 40
7.5
 41
20.0
 42
7.5
 43
20.0
 44
210.0
 45
297.0
 46
0.0
 47
0.0
 48
0.0
 49
0.0
140
0.0
141
0.0
142
1.0
143
6.1641025641
 70
   688
 72
     1
 73
     1
 74
     1
  7

 75
     0
147
0.1622296173
148
250.0
149
601.0
100
AcDbLayout
  1
_Left
 70
     1
 71
     4
 10
0.0
 20
0.0
 11
0.0
 21
0.0
 12
0.0
 22
0.0
 32
0.0
 14
0.0
 24
0.0
 34
0.0
 15
0.0
 25
0.0
 35
0.0
146
0.0
 13
0.0
 23
0.0
 33
0.0
 16
1.0
 26
0.0
 36
0.0
 17
0.0
 27
1.0
 37
0.0
 76
     0
330
49B
331
6CA
  0
LAYOUT
  5
26
102
{ACAD_REACTORS
330
1A
102
}
330
1A
100
AcDbPlotSettings
  1

  2
none_device
  4
ISO_A4_(210.00_x_297.00_MM)
  6

 40
7.5
 41
20.0
 42
7.5
 43
20.0
 44
210.0
 45
297.0
 46
0.0
 47
0.0
 48
0.0
 49
0.0
140
0.0
141
0.0
142
1.0
143
6.1641025641
 70
   688
 72
     1
 73
     1
 74
     1
  7

 75
     0
147
0.1622296173
148
250.0
149
601.0
100
AcDbLayout
  1
_Right
 70
     1
 71
     2
 10
0.0
 20
0.0
 11
0.0
 21
0.0
 12
0.0
 22
0.0
 32
0.0
 14
0.0
 24
0.0
 34
0.0
 15
0.0
 25
0.0
 35
0.0
146
0.0
 13
0.0
 23
0.0
 33
0.0
 16
1.0
 26
0.0
 36
0.0
 17
0.0
 27
1.0
 37
0.0
 76
     0
330
23
331
6C6
  0
LAYOUT
  5
22
102
{ACAD_REACTORS
330
1A
102
}
330
1A
100
AcDbPlotSettings
  1

  2
none_device
  4
ANSI_A_(11.00_x_8.50_Inches)
  6

 40
6.35
 41
19.05
 42
6.35000508
 43
19.05000254
 44
279.4
 45
215.9
 46
133.34999746
 47
88.89999873
 48
0.0
 49
0.0
140
0.0
141
0.0
142
0.02178
143
1.0
 70
  1696
 72
     0
 73
     0
 74
     0
  7

 75
     0
147
0.0179189148
148
-1300.4909072572
149
0.0
100
AcDbLayout
  1
Model
 70
     1
 71
     0
 10
0.0
 20
0.0
 11
420.0
 21
297.0
 12
0.0
 22
0.0
 32
0.0
 14
-250.0
 24
-15.0
 34
0.0
 15
250.0
 25
15.0
 35
0.0
146
0.0
 13
0.0
 23
0.0
 33
0.0
 16
1.0
 26
0.0
 36
0.0
 17
0.0
 27
1.0
 37
0.0
 76
     0
330
1F
331
29
  0
MLINESTYLE
  5
18
102
{ACAD_REACTORS
330
17
102
}
330
17
100
AcDbMlineStyle
  2
Standard
 70
     0
  3

 62
   256
 51
90.0
 52
90.0
 71
     2
 49
0.5
 62
   256
  6
BYLAYER
 49
-0.5
 62
   256
  6
BYLAYER
  0
ACDBPLACEHOLDER
  5
F
102
{ACAD_REACTORS
330
E
102
}
330
E
  0
SCALE
  5
48
102
{ACAD_REACTORS
330
47
102
}
330
47
100
AcDbScale
 70
     0
300
1:1
140
1.0
141
1.0
290
     1
  0
SCALE
  5
49
102
{ACAD_REACTORS
330
47
102
}
330
47
100
AcDbScale
 70
     0
300
1:2
140
1.0
141
2.0
290
     0
  0
SCALE
  5
4A
102
{ACAD_REACTORS
330
47
102
}
330
47
100
AcDbScale
 70
     0
300
1:4
140
1.0
141
4.0
290
     0
  0
SCALE
  5
4B
102
{ACAD_REACTORS
330
47
102
}
330
47
100
AcDbScale
 70
     0
300
1:5
140
1.0
141
5.0
290
     0
  0
SCALE
  5
4C
102
{ACAD_REACTORS
330
47
102
}
330
47
100
AcDbScale
 70
     0
300
1:8
140
1.0
141
8.0
290
     0
  0
SCALE
  5
4D
102
{ACAD_REACTORS
330
47
102
}
330
47
100
AcDbScale
 70
     0
300
1:10
140
1.0
141
10.0
290
     0
  0
SCALE
  5
4E
102
{ACAD_REACTORS
330
47
102
}
330
47
100
AcDbScale
 70
     0
300
1:16
140
1.0
141
16.0
290
     0
  0
SCALE
  5
4F
102
{ACAD_REACTORS
330
47
102
}
330
47
100
AcDbScale
 70
     0
300
1:20
140
1.0
141
20.0
290
     0
  0
SCALE
  5
50
102
{ACAD_REACTORS
330
47
102
}
330
47
100
AcDbScale
 70
     0
300
1:30
140
1.0
141
30.0
290
     0
  0
SCALE
  5
51
102
{ACAD_REACTORS
330
47
102
}
330
47
100
AcDbScale
 70
     0
300
1:40
140
1.0
141
40.0
290
     0
  0
SCALE
  5
52
102
{ACAD_REACTORS
330
47
102
}
330
47
100
AcDbScale
 70
     0
300
1:50
140
1.0
141
50.0
290
     0
  0
SCALE
  5
53
102
{ACAD_REACTORS
330
47
102
}
330
47
100
AcDbScale
 70
     0
300
1:100
140
1.0
141
100.0
290
     0
  0
SCALE
  5
54
102
{ACAD_REACTORS
330
47
102
}
330
47
100
AcDbScale
 70
     0
300
2:1
140
2.0
141
1.0
290
     0
  0
SCALE
  5
55
102
{ACAD_REACTORS
330
47
102
}
330
47
100
AcDbScale
 70
     0
300
4:1
140
4.0
141
1.0
290
     0
  0
SCALE
  5
56
102
{ACAD_REACTORS
330
47
102
}
330
47
100
AcDbScale
 70
     0
300
8:1
140
8.0
141
1.0
290
     0
  0
SCALE
  5
57
102
{ACAD_REACTORS
330
47
102
}
330
47
100
AcDbScale
 70
     0
300
10:1
140
10.0
141
1.0
290
     0
  0
SCALE
  5
58
102
{ACAD_REACTORS
330
47
102
}
330
47
100
AcDbScale
 70
     0
300
100:1
140
100.0
141
1.0
290
     0
  0
SCALE
  5
59
102
{ACAD_REACTORS
330
47
102
}
330
47
100
AcDbScale
 70
     0
300
1/128" = 1'-0"
140
0.0078125
141
12.0
290
     0
  0
SCALE
  5
5A
102
{ACAD_REACTORS
330
47
102
}
330
47
100
AcDbScale
 70
     0
300
1/64" = 1'-0"
140
0.015625
141
12.0
290
     0
  0
SCALE
  5
5B
102
{ACAD_REACTORS
330
47
102
}
330
47
100
AcDbScale
 70
     0
300
1/32" = 1'-0"
140
0.03125
141
12.0
290
     0
  0
SCALE
  5
5C
102
{ACAD_REACTORS
330
47
102
}
330
47
100
AcDbScale
 70
     0
300
1/16" = 1'-0"
140
0.0625
141
12.0
290
     0
  0
SCALE
  5
5D
102
{ACAD_REACTORS
330
47
102
}
330
47
100
AcDbScale
 70
     0
300
3/32" = 1'-0"
140
0.09375
141
12.0
290
     0
  0
SCALE
  5
5E
102
{ACAD_REACTORS
330
47
102
}
330
47
100
AcDbScale
 70
     0
300
1/8" = 1'-0"
140
0.125
141
12.0
290
     0
  0
SCALE
  5
5F
102
{ACAD_REACTORS
330
47
102
}
330
47
100
AcDbScale
 70
     0
300
3/16" = 1'-0"
140
0.1875
141
12.0
290
     0
  0
SCALE
  5
60
102
{ACAD_REACTORS
330
47
102
}
330
47
100
AcDbScale
 70
     0
300
1/4" = 1'-0"
140
0.25
141
12.0
290
     0
  0
SCALE
  5
61
102
{ACAD_REACTORS
330
47
102
}
330
47
100
AcDbScale
 70
     0
300
3/8" = 1'-0"
140
0.375
141
12.0
290
     0
  0
SCALE
  5
62
102
{ACAD_REACTORS
330
47
102
}
330
47
100
AcDbScale
 70
     0
300
1/2" = 1'-0"
140
0.5
141
12.0
290
     0
  0
SCALE
  5
63
102
{ACAD_REACTORS
330
47
102
}
330
47
100
AcDbScale
 70
     0
300
3/4" = 1'-0"
140
0.75
141
12.0
290
     0
  0
SCALE
  5
64
102
{ACAD_REACTORS
330
47
102
}
330
47
100
AcDbScale
 70
     0
300
1" = 1'-0"
140
1.0
141
12.0
290
     0
  0
SCALE
  5
65
102
{ACAD_REACTORS
330
47
102
}
330
47
100
AcDbScale
 70
     0
300
1-1/2" = 1'-0"
140
1.5
141
12.0
290
     0
  0
SCALE
  5
66
102
{ACAD_REACTORS
330
47
102
}
330
47
100
AcDbScale
 70
     0
300
3" = 1'-0"
140
3.0
141
12.0
290
     0
  0
SCALE
  5
67
102
{ACAD_REACTORS
330
47
102
}
330
47
100
AcDbScale
 70
     0
300
6" = 1'-0"
140
6.0
141
12.0
290
     0
  0
SCALE
  5
68
102
{ACAD_REACTORS
330
47
102
}
330
47
100
AcDbScale
 70
     0
300
1'-0" = 1'-0"
140
12.0
141
12.0
290
     0
  0
ENDSEC
  0
EOF
