  0
SECTION
  2
HEADER
  9
$ACADVER
  1
AC1015
  9
$ACADMAINTVER
 70
     6
  9
$DWGCODEPAGE
  3
ANSI_1252
  9
$INSBASE
 10
0.0
 20
0.0
 30
0.0
  9
$EXTMIN
 10
-225.0
 20
-16.0
 30
0.0
  9
$EXTMAX
 10
225.0
 20
16.0
 30
0.0
  9
$LIMMIN
 10
0.0
 20
0.0
  9
$LIMMAX
 10
420.0
 20
297.0
  9
$ORTHOMODE
 70
     0
  9
$REGENMODE
 70
     1
  9
$FILLMODE
 70
     1
  9
$QTEXTMODE
 70
     0
  9
$MIRRTEXT
 70
     1
  9
$LTSCALE
 40
1.0
  9
$ATTMODE
 70
     1
  9
$TEXTSIZE
 40
3.5
  9
$TRACEWID
 40
1.0
  9
$TEXTSTYLE
  7
Standard
  9
$CLAYER
  8
0
  9
$CELTYPE
  6
ByLayer
  9
$CECOLOR
 62
   256
  9
$CELTSCALE
 40
1.0
  9
$DISPSILH
 70
     0
  9
$DIMSCALE
 40
1.0
  9
$DIMASZ
 40
3.302
  9
$DIMEXO
 40
1.0
  9
$DIMDLI
 40
3.75
  9
$DIMRND
 40
0.0
  9
$DIMDLE
 40
0.0
  9
$DIMEXE
 40
1.0
  9
$DIMTP
 40
0.0
  9
$DIMTM
 40
0.0
  9
$DIMTXT
 40
3.5
  9
$DIMCEN
 40
2.5
  9
$DIMTSZ
 40
0.0
  9
$DIMTOL
 70
     0
  9
$DIMLIM
 70
     0
  9
$DIMTIH
 70
     1
  9
$DIMTOH
 70
     1
  9
$DIMSE1
 70
     0
  9
$DIMSE2
 70
     0
  9
$DIMTAD
 70
     1
  9
$DIMZIN
 70
     1
  9
$DIMBLK
  1

  9
$DIMASO
 70
     1
  9
$DIMSHO
 70
     1
  9
$DIMPOST
  1

  9
$DIMAPOST
  1

  9
$DIMALT
 70
     0
  9
$DIMALTD
 70
     3
  9
$DIMALTF
 40
0.0393700787
  9
$DIMLFAC
 40
1.0
  9
$DIMTOFL
 70
     1
  9
$DIMTVP
 40
0.0
  9
$DIMTIX
 70
     0
  9
$DIMSOXD
 70
     0
  9
$DIMSAH
 70
     0
  9
$DIMBLK1
  1

  9
$DIMBLK2
  1

  9
$DIMSTYLE
  2
ISO-25
  9
$DIMCLRD
 70
     0
  9
$DIMCLRE
 70
     0
  9
$DIMCLRT
 70
     0
  9
$DIMTFAC
 40
1.0
  9
$DIMGAP
 40
1.524
  9
$DIMJUST
 70
     0
  9
$DIMSD1
 70
     0
  9
$DIMSD2
 70
     0
  9
$DIMTOLJ
 70
     0
  9
$DIMTZIN
 70
     1
  9
$DIMALTZ
 70
     0
  9
$DIMALTTZ
 70
     0
  9
$DIMUPT
 70
     0
  9
$DIMDEC
 70
     2
  9
$DIMTDEC
 70
     2
  9
$DIMALTU
 70
     2
  9
$DIMALTTD
 70
     3
  9
$DIMTXSTY
  7
Standard
  9
$DIMAUNIT
 70
     0
  9
$DIMADEC
 70
     2
  9
$DIMALTRND
 40
0.0
  9
$DIMAZIN
 70
     0
  9
$DIMDSEP
 70
    44
  9
$DIMATFIT
 70
     3
  9
$DIMFRAC
 70
     0
  9
$DIMLDRBLK
  1

  9
$DIMLUNIT
 70
     2
  9
$DIMLWD
 70
    -2
  9
$DIMLWE
 70
    -2
  9
$DIMTMOVE
 70
     0
  9
$LUNITS
 70
     2
  9
$LUPREC
 70
     2
  9
$SKETCHINC
 40
1.0
  9
$FILLETRAD
 40
10.0
  9
$AUNITS
 70
     0
  9
$AUPREC
 70
     2
  9
$MENU
  1
.
  9
$ELEVATION
 40
0.0
  9
$PELEVATION
 40
0.0
  9
$THICKNESS
 40
0.0
  9
$LIMCHECK
 70
     0
  9
$CHAMFERA
 40
0.0
  9
$CHAMFERB
 40
0.0
  9
$CHAMFERC
 40
0.0
  9
$CHAMFERD
 40
0.0
  9
$SKPOLY
 70
     0
  9
$TDCREATE
 40
2459299.483292558
  9
$TDUCREATE
 40
2459299.483292558
  9
$TDUPDATE
 40
2459299.483329167
  9
$TDUUPDATE
 40
2459299.483329167
  9
$TDINDWG
 40
0.0000000116
  9
$TDUSRTIMER
 40
0.0000000116
  9
$USRTIMER
 70
     1
  9
$ANGBASE
 50
0.0
  9
$ANGDIR
 70
     0
  9
$PDMODE
 70
     0
  9
$PDSIZE
 40
-1.0
  9
$PLINEWID
 40
0.0
  9
$SPLFRAME
 70
     0
  9
$SPLINETYPE
 70
     6
  9
$SPLINESEGS
 70
     8
  9
$HANDSEED
  5
176
  9
$SURFTAB1
 70
     6
  9
$SURFTAB2
 70
     6
  9
$SURFTYPE
 70
     6
  9
$SURFU
 70
     6
  9
$SURFV
 70
     6
  9
$UCSBASE
  2

  9
$UCSNAME
  2

  9
$UCSORG
 10
0.0
 20
0.0
 30
0.0
  9
$UCSXDIR
 10
1.0
 20
0.0
 30
0.0
  9
$UCSYDIR
 10
0.0
 20
1.0
 30
0.0
  9
$UCSORTHOREF
  2

  9
$UCSORTHOVIEW
 70
     0
  9
$UCSORGTOP
 10
0.0
 20
0.0
 30
0.0
  9
$UCSORGBOTTOM
 10
0.0
 20
0.0
 30
0.0
  9
$UCSORGLEFT
 10
0.0
 20
0.0
 30
0.0
  9
$UCSORGRIGHT
 10
0.0
 20
0.0
 30
0.0
  9
$UCSORGFRONT
 10
0.0
 20
0.0
 30
0.0
  9
$UCSORGBACK
 10
0.0
 20
0.0
 30
0.0
  9
$PUCSBASE
  2

  9
$PUCSNAME
  2

  9
$PUCSORG
 10
0.0
 20
0.0
 30
0.0
  9
$PUCSXDIR
 10
1.0
 20
0.0
 30
0.0
  9
$PUCSYDIR
 10
0.0
 20
1.0
 30
0.0
  9
$PUCSORTHOREF
  2

  9
$PUCSORTHOVIEW
 70
     0
  9
$PUCSORGTOP
 10
0.0
 20
0.0
 30
0.0
  9
$PUCSORGBOTTOM
 10
0.0
 20
0.0
 30
0.0
  9
$PUCSORGLEFT
 10
0.0
 20
0.0
 30
0.0
  9
$PUCSORGRIGHT
 10
0.0
 20
0.0
 30
0.0
  9
$PUCSORGFRONT
 10
0.0
 20
0.0
 30
0.0
  9
$PUCSORGBACK
 10
0.0
 20
0.0
 30
0.0
  9
$USERI1
 70
     0
  9
$USERI2
 70
     0
  9
$USERI3
 70
     0
  9
$USERI4
 70
     0
  9
$USERI5
 70
     0
  9
$USERR1
 40
0.0
  9
$USERR2
 40
0.0
  9
$USERR3
 40
0.0
  9
$USERR4
 40
0.0
  9
$USERR5
 40
0.0
  9
$WORLDVIEW
 70
     1
  9
$SHADEDGE
 70
     3
  9
$SHADEDIF
 70
    70
  9
$TILEMODE
 70
     1
  9
$MAXACTVP
 70
    64
  9
$PINSBASE
 10
0.0
 20
0.0
 30
0.0
  9
$PLIMCHECK
 70
     0
  9
$PEXTMIN
 10
-225.0
 20
-100.0
 30
0.0
  9
$PEXTMAX
 10
225.0
 20
0.0
 30
0.0
  9
$PLIMMIN
 10
-260.0194552529
 20
-113.1322957198
  9
$PLIMMAX
 10
260.0194552529
 20
254.5719844358
  9
$UNITMODE
 70
     0
  9
$VISRETAIN
 70
     1
  9
$PLINEGEN
 70
     0
  9
$PSLTSCALE
 70
     1
  9
$TREEDEPTH
 70
  3020
  9
$CMLSTYLE
  2
Standard
  9
$CMLJUST
 70
     0
  9
$CMLSCALE
 40
20.0
  9
$PROXYGRAPHICS
 70
     1
  9
$MEASUREMENT
 70
     1
  9
$CELWEIGHT
370
    -1
  9
$ENDCAPS
280
     0
  9
$JOINSTYLE
280
     0
  9
$LWDISPLAY
290
     1
  9
$INSUNITS
 70
     4
  9
$HYPERLINKBASE
  1

  9
$STYLESHEET
  1

  9
$XEDIT
290
     1
  9
$CEPSNTYPE
380
     0
  9
$PSTYLEMODE
290
     1
  9
$FINGERPRINTGUID
  2
{b45795a7-3bca-4e38-980c-f2a7b1142e2f}
  9
$VERSIONGUID
  2
{FAEB1C32-E019-11D5-929B-00C0DF256EC4}
  9
$EXTNAMES
290
     1
  9
$PSVPSCALE
 40
0.0
  9
$OLESTARTUP
290
     0
  0
ENDSEC
  0
SECTION
  2
CLASSES
  0
CLASS
  1
ACDBDICTIONARYWDFLT
  2
AcDbDictionaryWithDefault
  3
ObjectDBX Classes
 90
        0
280
     0
281
     0
  0
CLASS
  1
VISUALSTYLE
  2
AcDbVisualStyle
  3
ObjectDBX Classes
 90
     4095
280
     0
281
     0
  0
CLASS
  1
MATERIAL
  2
AcDbMaterial
  3
ObjectDBX Classes
 90
     1153
280
     0
281
     0
  0
CLASS
  1
SCALE
  2
AcDbScale
  3
ObjectDBX Classes
 90
     1153
280
     0
281
     0
  0
CLASS
  1
TABLESTYLE
  2
AcDbTableStyle
  3
ObjectDBX Classes
 90
     4095
280
     0
281
     0
  0
CLASS
  1
MLEADERSTYLE
  2
AcDbMLeaderStyle
  3
ACDB_MLEADERSTYLE_CLASS
 90
     4095
280
     0
281
     0
  0
CLASS
  1
SUN
  2
AcDbSun
  3
SCENEOE
 90
     1153
280
     0
281
     0
  0
CLASS
  1
ACDBPLACEHOLDER
  2
AcDbPlaceHolder
  3
ObjectDBX Classes
 90
        0
280
     0
281
     0
  0
CLASS
  1
LAYOUT
  2
AcDbLayout
  3
ObjectDBX Classes
 90
        0
280
     0
281
     0
  0
ENDSEC
  0
SECTION
  2
TABLES
  0
TABLE
  2
VPORT
  5
8
330
0
100
AcDbSymbolTable
 70
     1
  0
VPORT
  5
29
330
8
100
AcDbSymbolTableRecord
100
AcDbViewportTableRecord
  2
*Active
 70
     0
 10
0.0
 20
0.0
 11
1.0
 21
1.0
 12
0.0
 22
0.0
 13
0.0
 23
0.0
 14
10.0
 24
10.0
 15
10.0
 25
10.0
 16
0.0
 26
0.0
 36
1.0
 17
0.0
 27
0.0
 37
0.0
 40
32.64
 41
14.0625
 42
50.0
 43
0.0
 44
0.0
 50
0.0
 51
0.0
 71
     0
 72
   100
 73
     1
 74
     3
 75
     0
 76
     0
 77
     0
 78
     0
281
     0
 65
     1
110
0.0
120
0.0
130
0.0
111
1.0
121
0.0
131
0.0
112
0.0
122
1.0
132
0.0
 79
     0
146
0.0
  0
ENDTAB
  0
TABLE
  2
LTYPE
  5
5
330
0
100
AcDbSymbolTable
 70
     6
  0
LTYPE
  5
14
330
5
100
AcDbSymbolTableRecord
100
AcDbLinetypeTableRecord
  2
ByBlock
 70
     0
  3

 72
    65
 73
     0
 40
0.0
  0
LTYPE
  5
15
330
5
100
AcDbSymbolTableRecord
100
AcDbLinetypeTableRecord
  2
ByLayer
 70
     0
  3

 72
    65
 73
     0
 40
0.0
  0
LTYPE
  5
16
330
5
100
AcDbSymbolTableRecord
100
AcDbLinetypeTableRecord
  2
Continuous
 70
     0
  3
Solid line
 72
    65
 73
     0
 40
0.0
  0
LTYPE
  5
6E
330
5
100
AcDbSymbolTableRecord
100
AcDbLinetypeTableRecord
  2
HIDDEN
 70
     0
  3
Hidden __ __ __ __ __ __ __ __ __ __ __ __ __ __
 72
    65
 73
     2
 40
1.905
 49
1.27
 74
     0
 49
-0.635
 74
     0
  0
LTYPE
  5
6F
330
5
100
AcDbSymbolTableRecord
100
AcDbLinetypeTableRecord
  2
PHANTOM
 70
     0
  3
Phantom ______  __  __  ______  __  __  ______
 72
    65
 73
     6
 40
12.7
 49
6.35
 74
     0
 49
-1.27
 74
     0
 49
1.27
 74
     0
 49
-1.27
 74
     0
 49
1.27
 74
     0
 49
-1.27
 74
     0
  0
LTYPE
  5
70
330
5
100
AcDbSymbolTableRecord
100
AcDbLinetypeTableRecord
  2
CENTER
 70
     0
  3
Center ____ _ ____ _ ____ _ ____ _ ____ _ ____
 72
    65
 73
     4
 40
10.16
 49
6.35
 74
     0
 49
-1.27
 74
     0
 49
1.27
 74
     0
 49
-1.27
 74
     0
  0
LTYPE
  5
71
330
5
100
AcDbSymbolTableRecord
100
AcDbLinetypeTableRecord
  2
CENTERX2
 70
     0
  3
Center (2x) ________  __  ________  __  _____
 72
    65
 73
     4
 40
20.32
 49
12.7
 74
     0
 49
-2.54
 74
     0
 49
2.54
 74
     0
 49
-2.54
 74
     0
  0
LTYPE
  5
72
330
5
100
AcDbSymbolTableRecord
100
AcDbLinetypeTableRecord
  2
DOT2
 70
     0
  3
Dot (.5x) ........................................
 72
    65
 73
     2
 40
0.635
 49
0.0
 74
     0
 49
-0.635
 74
     0
  0
ENDTAB
  0
TABLE
  2
LAYER
  5
2
330
0
100
AcDbSymbolTable
 70
     1
  0
LAYER
  5
10
330
2
100
AcDbSymbolTableRecord
100
AcDbLayerTableRecord
  2
0
 70
     0
 62
     7
  6
Continuous
370
    -3
390
F
  0
ENDTAB
  0
TABLE
  2
STYLE
  5
3
330
0
100
AcDbSymbolTable
 70
     1
  0
STYLE
  5
11
330
3
100
AcDbSymbolTableRecord
100
AcDbTextStyleTableRecord
  2
Standard
 70
     0
 40
0.0
 41
1.0
 50
0.0
 71
     0
 42
3.5
  3
txt
  4

  0
ENDTAB
  0
TABLE
  2
VIEW
  5
6
330
0
100
AcDbSymbolTable
 70
     0
  0
ENDTAB
  0
TABLE
  2
UCS
  5
7
330
0
100
AcDbSymbolTable
 70
     0
  0
ENDTAB
  0
TABLE
  2
APPID
  5
9
330
0
100
AcDbSymbolTable
 70
     1
  0
APPID
  5
12
330
9
100
AcDbSymbolTableRecord
100
AcDbRegAppTableRecord
  2
ACAD
 70
     0
  0
ENDTAB
  0
TABLE
  2
DIMSTYLE
  5
A
330
0
100
AcDbSymbolTable
 70
     1
100
AcDbDimStyleTable
  0
DIMSTYLE
105
27
330
A
100
AcDbSymbolTableRecord
100
AcDbDimStyleTableRecord
  2
ISO-25
 70
     0
 41
2.5
 42
0.625
 43
3.75
 44
1.25
 73
     0
 74
     0
 77
     1
 78
     8
140
2.5
141
2.5
143
0.0393700787
147
0.625
171
     3
172
     1
178
     0
271
     2
272
     2
274
     3
278
    44
283
     0
284
     8
340
11
  0
ENDTAB
  0
TABLE
  2
BLOCK_RECORD
  5
1
330
0
100
AcDbSymbolTable
 70
     7
  0
BLOCK_RECORD
  5
1F
330
1
100
AcDbSymbolTableRecord
100
AcDbBlockTableRecord
  2
*Model_Space
340
22
  0
BLOCK_RECORD
  5
1B
330
1
100
AcDbSymbolTableRecord
100
AcDbBlockTableRecord
  2
*Paper_Space
340
1E
  0
BLOCK_RECORD
  5
23
330
1
100
AcDbSymbolTableRecord
100
AcDbBlockTableRecord
  2
*Paper_Space0
340
26
  0
BLOCK_RECORD
  5
AE
330
1
100
AcDbSymbolTableRecord
100
AcDbBlockTableRecord
  2
*Paper_Space1
340
AF
  0
BLOCK_RECORD
  5
BE
330
1
100
AcDbSymbolTableRecord
100
AcDbBlockTableRecord
  2
*Paper_Space2
340
BF
  0
BLOCK_RECORD
  5
CB
330
1
100
AcDbSymbolTableRecord
100
AcDbBlockTableRecord
  2
*Paper_Space3
340
CC
  0
BLOCK_RECORD
  5
F7
330
1
100
AcDbSymbolTableRecord
100
AcDbBlockTableRecord
  2
*Paper_Space4
340
F8
  0
BLOCK_RECORD
  5
11C
330
1
100
AcDbSymbolTableRecord
100
AcDbBlockTableRecord
  2
*Paper_Space5
340
11D
  0
BLOCK_RECORD
  5
140
330
1
100
AcDbSymbolTableRecord
100
AcDbBlockTableRecord
  2
*Paper_Space6
340
141
  0
ENDTAB
  0
ENDSEC
  0
SECTION
  2
BLOCKS
  0
BLOCK
  5
20
330
1F
100
AcDbEntity
  8
0
100
AcDbBlockBegin
  2
*Model_Space
 70
     0
 10
0.0
 20
0.0
 30
0.0
  3
*Model_Space
  1

  0
ENDBLK
  5
21
330
1F
100
AcDbEntity
  8
0
100
AcDbBlockEnd
  0
BLOCK
  5
1C
330
1B
100
AcDbEntity
 67
     1
  8
0
100
AcDbBlockBegin
  2
*Paper_Space
 70
     0
 10
0.0
 20
0.0
 30
0.0
  3
*Paper_Space
  1

  0
ENDBLK
  5
1D
330
1B
100
AcDbEntity
 67
     1
  8
0
100
AcDbBlockEnd
  0
BLOCK
  5
24
330
23
100
AcDbEntity
  8
0
100
AcDbBlockBegin
  2
*Paper_Space0
 70
     0
 10
0.0
 20
0.0
 30
0.0
  3
*Paper_Space0
  1

  0
LWPOLYLINE
  5
A7
330
23
100
AcDbEntity
  8
0
  6
Continuous
 62
     7
370
    25
100
AcDbPolyline
 90
       26
 70
   128
 43
0.0
 10
-84.0
 20
16.0
 10
-85.7546652699
 20
15.873835221
 10
-87.4816584203
 20
15.4973305781
 10
-89.1537437376
 20
14.8764237742
 10
-90.7445514374
 20
14.0209068807
 10
-92.2289935321
 20
12.94427191
 10
-93.583659483
 20
11.6634980387
 10
-94.7871853989
 20
10.198783836
 10
-95.820590957
 20
8.5732287197
 10
-96.6675787345
 20
6.812468665
 10
-97.3147912281
 20
4.94427191
 10
-97.7520215102
 20
2.9981010334
 10
-97.972374198
 20
1.0046483125
 10
-97.972374198
 20
-1.0046483125
 10
-97.7520215102
 20
-2.9981010334
 10
-97.3147912281
 20
-4.94427191
 10
-96.6675787345
 20
-6.812468665
 10
-95.820590957
 20
-8.5732287197
 10
-94.7871853989
 20
-10.198783836
 10
-93.583659483
 20
-11.6634980387
 10
-92.2289935321
 20
-12.94427191
 10
-90.7445514374
 20
-14.0209068807
 10
-89.1537437376
 20
-14.8764237742
 10
-87.4816584203
 20
-15.4973305781
 10
-85.7546652699
 20
-15.873835221
 10
-84.0
 20
-16.0
  0
LINE
  5
AA
330
23
100
AcDbEntity
  8
0
  6
Continuous
 62
     7
370
    25
100
AcDbLine
 10
0.0
 20
16.0
 30
0.0
 11
-84.0
 21
16.0
 31
0.0
  0
LINE
  5
AB
330
23
100
AcDbEntity
  8
0
  6
Continuous
 62
     7
370
    25
100
AcDbLine
 10
-84.0
 20
-16.0
 30
0.0
 11
0.0
 21
-16.0
 31
0.0
  0
LINE
  5
AC
330
23
100
AcDbEntity
  8
0
  6
Continuous
 62
     7
370
    25
100
AcDbLine
 10
0.0
 20
-16.0
 30
0.0
 11
0.0
 21
16.0
 31
0.0
  0
ARC
  5
AD
330
23
100
AcDbEntity
  8
0
  6
Continuous
 62
     7
370
    25
100
AcDbCircle
 10
-84.0
 20
0.0
 30
0.0
 40
16.0
100
AcDbArc
 50
90.0
 51
270.0
  0
VIEWPORT
  5
168
330
23
100
AcDbEntity
  8
0
100
AcDbViewport
 10
0.0
 20
0.0
 30
0.0
 40
205.6
 41
156.0
 68
     1
 69
     1
 12
0.0
 22
0.0
 13
0.0
 23
0.0
 14
10.0
 24
10.0
 15
10.0
 25
10.0
 16
0.0
 26
0.0
 36
1.0
 17
0.0
 27
0.0
 37
0.0
 42
50.0
 43
0.0
 44
0.0
 45
348.2684824903
 50
0.0
 51
0.0
 72
   100
 90
   557152
  1

281
     0
 71
     1
 74
     0
110
0.0
120
0.0
130
0.0
111
1.0
121
0.0
131
0.0
112
0.0
122
1.0
132
0.0
 79
     0
146
0.0
  0
ENDBLK
  5
25
330
23
100
AcDbEntity
  8
0
100
AcDbBlockEnd
  0
BLOCK
  5
B0
330
AE
100
AcDbEntity
  8
0
100
AcDbBlockBegin
  2
*Paper_Space1
 70
     0
 10
0.0
 20
0.0
 30
0.0
  3
*Paper_Space1
  1

  0
CIRCLE
  5
B4
330
AE
100
AcDbEntity
  8
0
  6
Continuous
 62
     7
370
    25
100
AcDbCircle
 10
-209.0
 20
0.0
 30
0.0
 40
15.00000000000003
  0
CIRCLE
  5
B5
330
AE
100
AcDbEntity
  8
0
  6
Continuous
 62
     7
370
    25
100
AcDbCircle
 10
-209.0
 20
0.0
 30
0.0
 40
16.0
  0
CIRCLE
  5
B6
330
AE
100
AcDbEntity
  8
0
  6
Continuous
 62
     7
370
    25
100
AcDbCircle
 10
209.0
 20
0.0
 30
0.0
 40
15.00000000000003
  0
CIRCLE
  5
B7
330
AE
100
AcDbEntity
  8
0
  6
Continuous
 62
     7
370
    25
100
AcDbCircle
 10
209.0
 20
0.0
 30
0.0
 40
16.0
  0
LWPOLYLINE
  5
B8
330
AE
100
AcDbEntity
  8
0
  6
Continuous
 62
     7
370
    25
100
AcDbPolyline
 90
       28
 70
   128
 43
0.0
 10
209.0
 20
-16.0
 10
206.9103275457
 20
-15.8918137239
 10
204.8489143266
 20
-15.5687179293
 10
202.8436374201
 20
-15.0350819326
 10
200.9216147564
 20
-14.2981222452
 10
199.1088383947
 20
-13.3678049826
 10
197.4298230256
 20
-12.2567110899
 10
195.9072744517
 20
-10.9798662059
 10
194.5617825304
 20
-9.5545374672
 10
193.4115427319
 20
-8.0
 10
192.4721100762
 20
-6.3372762566
 10
191.7561887783
 20
-4.5888517234
 10
191.2734604458
 20
-2.7783708427
 10
191.0304531511
 20
-0.9303172626
 10
191.0304531511
 20
0.9303172626
 10
191.2734604458
 20
2.7783708427
 10
191.7561887783
 20
4.5888517234
 10
192.4721100762
 20
6.3372762566
 10
193.4115427319
 20
8.0
 10
194.5617825304
 20
9.5545374672
 10
195.9072744517
 20
10.9798662059
 10
197.4298230256
 20
12.2567110899
 10
199.1088383947
 20
13.3678049826
 10
200.9216147564
 20
14.2981222452
 10
202.8436374201
 20
15.0350819326
 10
204.8489143266
 20
15.5687179293
 10
206.9103275457
 20
15.8918137239
 10
209.0
 20
16.0
  0
LWPOLYLINE
  5
B9
330
AE
100
AcDbEntity
  8
0
  6
Continuous
 62
     7
370
    25
100
AcDbPolyline
 90
       28
 70
   128
 43
0.0
 10
-209.0
 20
16.0
 10
-206.9103275457
 20
15.8918137239
 10
-204.8489143266
 20
15.5687179293
 10
-202.8436374201
 20
15.0350819326
 10
-200.9216147564
 20
14.2981222452
 10
-199.1088383947
 20
13.3678049826
 10
-197.4298230256
 20
12.2567110899
 10
-195.9072744517
 20
10.9798662059
 10
-194.5617825304
 20
9.5545374672
 10
-193.4115427319
 20
8.0
 10
-192.4721100762
 20
6.3372762566
 10
-191.7561887783
 20
4.5888517234
 10
-191.2734604458
 20
2.7783708427
 10
-191.0304531511
 20
0.9303172626
 10
-191.0304531511
 20
-0.9303172626
 10
-191.2734604458
 20
-2.7783708427
 10
-191.7561887783
 20
-4.5888517234
 10
-192.4721100762
 20
-6.3372762566
 10
-193.4115427319
 20
-8.0
 10
-194.5617825304
 20
-9.5545374672
 10
-195.9072744517
 20
-10.9798662059
 10
-197.4298230256
 20
-12.2567110899
 10
-199.1088383947
 20
-13.3678049826
 10
-200.9216147564
 20
-14.2981222452
 10
-202.8436374201
 20
-15.0350819326
 10
-204.8489143266
 20
-15.5687179293
 10
-206.9103275457
 20
-15.8918137239
 10
-209.0
 20
-16.0
  0
LWPOLYLINE
  5
BA
330
AE
100
AcDbEntity
  8
0
  6
Continuous
 62
     7
370
    25
100
AcDbPolyline
 90
       26
 70
   128
 43
0.0
 10
-209.0
 20
-15.0
 10
-210.7546652699
 20
-14.8817205197
 10
-212.4816584203
 20
-14.5287474169
 10
-214.1537437376
 20
-13.9466472883
 10
-215.7445514374
 20
-13.1446002007
 10
-217.2289935321
 20
-12.1352549156
 10
-218.583659483
 20
-10.9345294113
 10
-219.7871853989
 20
-9.5613598462
 10
-220.820590957
 20
-8.0374019247
 10
-221.6675787345
 20
-6.3866893735
 10
-222.3147912281
 20
-4.6352549156
 10
-222.7520215102
 20
-2.8107197188
 10
-222.972374198
 20
-0.9418577929
 10
-222.972374198
 20
0.9418577929
 10
-222.7520215102
 20
2.8107197188
 10
-222.3147912281
 20
4.6352549156
 10
-221.6675787345
 20
6.3866893735
 10
-220.820590957
 20
8.0374019247
 10
-219.7871853989
 20
9.5613598462
 10
-218.583659483
 20
10.9345294113
 10
-217.2289935321
 20
12.1352549156
 10
-215.7445514374
 20
13.1446002007
 10
-214.1537437376
 20
13.9466472883
 10
-212.4816584203
 20
14.5287474169
 10
-210.7546652699
 20
14.8817205197
 10
-209.0
 20
15.0
  0
LWPOLYLINE
  5
BB
330
AE
100
AcDbEntity
  8
0
  6
Continuous
 62
     7
370
    25
100
AcDbPolyline
 90
       26
 70
   128
 43
0.0
 10
209.0
 20
15.0
 10
210.7546652699
 20
14.8817205197
 10
212.4816584203
 20
14.5287474169
 10
214.1537437376
 20
13.9466472883
 10
215.7445514374
 20
13.1446002007
 10
217.2289935321
 20
12.1352549156
 10
218.583659483
 20
10.9345294113
 10
219.7871853989
 20
9.5613598462
 10
220.820590957
 20
8.0374019247
 10
221.6675787345
 20
6.3866893735
 10
222.3147912281
 20
4.6352549156
 10
222.7520215102
 20
2.8107197188
 10
222.972374198
 20
0.9418577929
 10
222.972374198
 20
-0.9418577929
 10
222.7520215102
 20
-2.8107197188
 10
222.3147912281
 20
-4.6352549156
 10
221.6675787345
 20
-6.3866893735
 10
220.820590957
 20
-8.0374019247
 10
219.7871853989
 20
-9.5613598462
 10
218.583659483
 20
-10.9345294113
 10
217.2289935321
 20
-12.1352549156
 10
215.7445514374
 20
-13.1446002007
 10
214.1537437376
 20
-13.9466472883
 10
212.4816584203
 20
-14.5287474169
 10
210.7546652699
 20
-14.8817205197
 10
209.0
 20
-15.0
  0
LINE
  5
BC
330
AE
100
AcDbEntity
  8
0
  6
Continuous
 62
     7
370
    25
100
AcDbLine
 10
-209.0
 20
-16.0
 30
0.0
 11
209.0
 21
-16.0
 31
0.0
  0
LINE
  5
BD
330
AE
100
AcDbEntity
  8
0
  6
Continuous
 62
     7
370
    25
100
AcDbLine
 10
209.0
 20
16.0
 30
0.0
 11
-209.0
 21
16.0
 31
0.0
  0
VIEWPORT
  5
16A
330
AE
100
AcDbEntity
  8
0
100
AcDbViewport
 10
0.0
 20
0.0
 30
0.0
 40
205.6
 41
156.0
 68
     1
 69
     1
 12
0.0
 22
0.0
 13
0.0
 23
0.0
 14
10.0
 24
10.0
 15
10.0
 25
10.0
 16
0.0
 26
0.0
 36
1.0
 17
0.0
 27
0.0
 37
0.0
 42
50.0
 43
0.0
 44
0.0
 45
348.2684824903
 50
0.0
 51
0.0
 72
   100
 90
   557152
  1

281
     0
 71
     1
 74
     0
110
0.0
120
0.0
130
0.0
111
1.0
121
0.0
131
0.0
112
0.0
122
1.0
132
0.0
 79
     0
146
0.0
  0
ENDBLK
  5
B1
330
AE
100
AcDbEntity
  8
0
100
AcDbBlockEnd
  0
BLOCK
  5
C0
330
BE
100
AcDbEntity
  8
0
100
AcDbBlockBegin
  2
*Paper_Space2
 70
     0
 10
0.0
 20
0.0
 30
0.0
  3
*Paper_Space2
  1

  0
LWPOLYLINE
  5
C5
330
BE
100
AcDbEntity
  8
0
  6
Continuous
 62
     7
370
    25
100
AcDbPolyline
 90
       26
 70
   128
 43
0.0
 10
84.0
 20
-16.0
 10
85.7546652699
 20
-15.873835221
 10
87.4816584203
 20
-15.4973305781
 10
89.1537437376
 20
-14.8764237742
 10
90.7445514374
 20
-14.0209068807
 10
92.2289935321
 20
-12.94427191
 10
93.583659483
 20
-11.6634980387
 10
94.7871853989
 20
-10.198783836
 10
95.820590957
 20
-8.5732287197
 10
96.6675787345
 20
-6.812468665
 10
97.3147912281
 20
-4.94427191
 10
97.7520215102
 20
-2.9981010334
 10
97.972374198
 20
-1.0046483125
 10
97.972374198
 20
1.0046483125
 10
97.7520215102
 20
2.9981010334
 10
97.3147912281
 20
4.94427191
 10
96.6675787345
 20
6.812468665
 10
95.820590957
 20
8.5732287197
 10
94.7871853989
 20
10.198783836
 10
93.583659483
 20
11.6634980387
 10
92.2289935321
 20
12.94427191
 10
90.7445514374
 20
14.0209068807
 10
89.1537437376
 20
14.8764237742
 10
87.4816584203
 20
15.4973305781
 10
85.7546652699
 20
15.873835221
 10
84.0
 20
16.0
  0
LINE
  5
C7
330
BE
100
AcDbEntity
  8
0
  6
Continuous
 62
     7
370
    25
100
AcDbLine
 10
0.0
 20
-16.0
 30
0.0
 11
84.0
 21
-16.0
 31
0.0
  0
LINE
  5
C8
330
BE
100
AcDbEntity
  8
0
  6
Continuous
 62
     7
370
    25
100
AcDbLine
 10
84.0
 20
16.0
 30
0.0
 11
0.0
 21
16.0
 31
0.0
  0
LINE
  5
C9
330
BE
100
AcDbEntity
  8
0
  6
Continuous
 62
     7
370
    25
100
AcDbLine
 10
0.0
 20
16.0
 30
0.0
 11
0.0
 21
-16.0
 31
0.0
  0
ARC
  5
CA
330
BE
100
AcDbEntity
  8
0
  6
Continuous
 62
     7
370
    25
100
AcDbCircle
 10
84.0
 20
0.0
 30
0.0
 40
16.0
100
AcDbArc
 50
270.0
 51
90.0
  0
VIEWPORT
  5
16C
330
BE
100
AcDbEntity
  8
0
100
AcDbViewport
 10
0.0
 20
0.0
 30
0.0
 40
205.6
 41
156.0
 68
     1
 69
     1
 12
0.0
 22
0.0
 13
0.0
 23
0.0
 14
10.0
 24
10.0
 15
10.0
 25
10.0
 16
0.0
 26
0.0
 36
1.0
 17
0.0
 27
0.0
 37
0.0
 42
50.0
 43
0.0
 44
0.0
 45
348.2684824903
 50
0.0
 51
0.0
 72
   100
 90
   557152
  1

281
     0
 71
     1
 74
     0
110
0.0
120
0.0
130
0.0
111
1.0
121
0.0
131
0.0
112
0.0
122
1.0
132
0.0
 79
     0
146
0.0
  0
ENDBLK
  5
C1
330
BE
100
AcDbEntity
  8
0
100
AcDbBlockEnd
  0
BLOCK
  5
CD
330
CB
100
AcDbEntity
  8
0
100
AcDbBlockBegin
  2
*Paper_Space3
 70
     0
 10
0.0
 20
0.0
 30
0.0
  3
*Paper_Space3
  1

  0
LINE
  5
E3
330
CB
100
AcDbEntity
  8
0
  6
Continuous
 62
     7
370
    25
100
AcDbLine
 10
-193.0
 20
0.0
 30
0.0
 11
-193.0
 21
66.0
 31
0.0
  0
LINE
  5
E4
330
CB
100
AcDbEntity
  8
0
  6
Continuous
 62
     7
370
    25
100
AcDbLine
 10
-225.0
 20
98.0
 30
0.0
 11
-225.0
 21
0.0
 31
0.0
  0
LINE
  5
E5
330
CB
100
AcDbEntity
  8
0
  6
Continuous
 62
     7
370
    25
100
AcDbLine
 10
225.0
 20
0.0
 30
0.0
 11
225.0
 21
98.0
 31
0.0
  0
LINE
  5
E6
330
CB
100
AcDbEntity
  8
0
  6
Continuous
 62
     7
370
    25
100
AcDbLine
 10
193.0
 20
66.0
 30
0.0
 11
193.0
 21
0.0
 31
0.0
  0
LINE
  5
E7
330
CB
100
AcDbEntity
  8
0
  6
Continuous
 62
     7
370
    25
100
AcDbLine
 10
223.0
 20
100.0
 30
0.0
 11
-223.0
 21
100.0
 31
0.0
  0
LINE
  5
E8
330
CB
100
AcDbEntity
  8
0
  6
Continuous
 62
     7
370
    25
100
AcDbLine
 10
-191.0
 20
68.0
 30
0.0
 11
191.0
 21
68.0
 31
0.0
  0
LINE
  5
E9
330
CB
100
AcDbEntity
  8
0
  6
Continuous
 62
     7
370
    25
100
AcDbLine
 10
-225.0
 20
0.0
 30
0.0
 11
-193.0
 21
0.0
 31
0.0
  0
LINE
  5
EA
330
CB
100
AcDbEntity
  8
0
  6
Continuous
 62
     7
370
    25
100
AcDbLine
 10
193.0
 20
0.0
 30
0.0
 11
225.0
 21
0.0
 31
0.0
  0
LINE
  5
EB
330
CB
100
AcDbEntity
  8
0
  6
Continuous
 62
     8
370
    25
100
AcDbLine
 10
-209.0
 20
84.0
 30
0.0
 11
-225.0
 21
98.0
 31
0.0
  0
LINE
  5
EC
330
CB
100
AcDbEntity
  8
0
  6
Continuous
 62
     8
370
    25
100
AcDbLine
 10
-193.0
 20
66.0
 30
0.0
 11
-209.0
 21
84.0
 31
0.0
  0
LINE
  5
ED
330
CB
100
AcDbEntity
  8
0
  6
Continuous
 62
     8
370
    25
100
AcDbLine
 10
225.0
 20
98.0
 30
0.0
 11
209.0
 21
84.0
 31
0.0
  0
LINE
  5
EE
330
CB
100
AcDbEntity
  8
0
  6
Continuous
 62
     8
370
    25
100
AcDbLine
 10
209.0
 20
84.0
 30
0.0
 11
193.0
 21
66.0
 31
0.0
  0
LINE
  5
EF
330
CB
100
AcDbEntity
  8
0
  6
Continuous
 62
     8
370
    25
100
AcDbLine
 10
-222.9999999999
 20
99.9999999999
 30
0.0
 11
-209.0
 21
84.0
 31
0.0
  0
LINE
  5
F0
330
CB
100
AcDbEntity
  8
0
  6
Continuous
 62
     8
370
    25
100
AcDbLine
 10
209.0
 20
84.0
 30
0.0
 11
222.9999999999
 21
99.9999999999
 31
0.0
  0
LINE
  5
F1
330
CB
100
AcDbEntity
  8
0
  6
Continuous
 62
     8
370
    25
100
AcDbLine
 10
191.0
 20
68.0
 30
0.0
 11
209.0
 21
84.0
 31
0.0
  0
LINE
  5
F2
330
CB
100
AcDbEntity
  8
0
  6
Continuous
 62
     8
370
    25
100
AcDbLine
 10
-209.0
 20
84.0
 30
0.0
 11
-191.0
 21
68.0
 31
0.0
  0
ARC
  5
F3
330
CB
100
AcDbEntity
  8
0
  6
Continuous
 62
     7
370
    25
100
AcDbCircle
 10
-223.0
 20
98.0
 30
0.0
 40
2.0
100
AcDbArc
 50
90.0
 51
180.0
  0
ARC
  5
F4
330
CB
100
AcDbEntity
  8
0
  6
Continuous
 62
     7
370
    25
100
AcDbCircle
 10
223.0
 20
98.0
 30
0.0
 40
1.999999999999972
100
AcDbArc
 50
0.0
 51
90.0
  0
ARC
  5
F5
330
CB
100
AcDbEntity
  8
0
  6
Continuous
 62
     7
370
    25
100
AcDbCircle
 10
191.0
 20
66.0
 30
0.0
 40
1.999999999999996
100
AcDbArc
 50
1.2957671153
 51
88.6365279868
  0
ARC
  5
F6
330
CB
100
AcDbEntity
  8
0
  6
Continuous
 62
     7
370
    25
100
AcDbCircle
 10
-191.0
 20
66.0
 30
0.0
 40
2.000000000000024
100
AcDbArc
 50
91.2957671153
 51
178.6365279868
  0
VIEWPORT
  5
16E
330
CB
100
AcDbEntity
  8
0
100
AcDbViewport
 10
0.0
 20
0.0
 30
0.0
 40
205.6
 41
156.0
 68
     1
 69
     1
 12
0.0
 22
0.0
 13
0.0
 23
0.0
 14
10.0
 24
10.0
 15
10.0
 25
10.0
 16
0.0
 26
0.0
 36
1.0
 17
0.0
 27
0.0
 37
0.0
 42
50.0
 43
0.0
 44
0.0
 45
348.2684824903
 50
0.0
 51
0.0
 72
   100
 90
   557152
  1

281
     0
 71
     1
 74
     0
110
0.0
120
0.0
130
0.0
111
1.0
121
0.0
131
0.0
112
0.0
122
1.0
132
0.0
 79
     0
146
0.0
  0
ENDBLK
  5
CE
330
CB
100
AcDbEntity
  8
0
100
AcDbBlockEnd
  0
BLOCK
  5
F9
330
F7
100
AcDbEntity
  8
0
100
AcDbBlockBegin
  2
*Paper_Space4
 70
     0
 10
0.0
 20
0.0
 30
0.0
  3
*Paper_Space4
  1

  0
SPLINE
  5
103
330
F7
100
AcDbEntity
  8
0
  6
Continuous
 62
     7
370
    25
100
AcDbSpline
210
0.0
220
0.0
230
1.0
 70
     8
 71
     3
 72
    23
 73
    19
 74
     0
 42
0.000000001
 43
0.00000001
 40
0.0
 40
0.0
 40
0.0
 40
0.0
 40
0.0101586070592345
 40
0.0935720163714955
 40
0.172352931544946
 40
0.2467090721001334
 40
0.3170143670745438
 40
0.3837986520973032
 40
0.4477887217289654
 40
0.5099405635632492
 40
0.5714064348412914
 40
0.6331801923520352
 40
0.6963948312859811
 40
0.7622236273030125
 40
0.8316261698003642
 40
0.9052888980155855
 40
0.9836125437093688
 40
0.9999999999999999
 40
0.9999999999999999
 40
0.9999999999999999
 40
0.9999999999999999
 10
-221.5399241405408
 20
61.18162838874289
 30
0.0
 10
-221.6254465049525
 20
61.14106533918692
 30
0.0
 10
-222.4132021525727
 20
60.76743475036707
 30
0.0
 10
-223.7275063162807
 20
59.88757468737312
 30
0.0
 10
-225.398025915111
 20
58.5589141048731
 30
0.0
 10
-226.7495087325479
 20
57.10647143048601
 30
0.0
 10
-227.7898696048804
 20
55.57982296683608
 30
0.0
 10
-228.5123523056418
 20
54.00065427806452
 30
0.0
 10
-228.921617456509
 20
52.39881225105155
 30
0.0
 10
-229.0267975105316
 20
50.80006059882879
 30
0.0
 10
-228.8401201658813
 20
49.22717868378592
 30
0.0
 10
-228.3736085740068
 20
47.69708942908293
 30
0.0
 10
-227.6360320481878
 20
46.22064118779353
 30
0.0
 10
-226.6286860407979
 20
44.80645343273058
 30
0.0
 10
-225.3523951300818
 20
43.45944187044741
 30
0.0
 10
-223.7925976577721
 20
42.21230566353986
 30
0.0
 10
-222.5124685770484
 20
41.35089916406868
 30
0.0
 10
-221.7200338768758
 20
40.96520071668145
 30
0.0
 10
-221.5829222950213
 20
40.89846496643155
 30
0.0
  0
LWPOLYLINE
  5
104
330
F7
100
AcDbEntity
  8
0
  6
Continuous
 62
     7
370
    25
100
AcDbPolyline
 90
       24
 70
   128
 43
0.0
 10
155.7846671291
 20
-99.1714294836
 10
156.3356476505
 20
-98.8061765954
 10
157.3030145122
 20
-97.8723820243
 10
158.0766285048
 20
-96.6829481955
 10
158.6407410783
 20
-95.2620885518
 10
158.9838685275
 20
-93.6387276981
 10
159.099025767
 20
-91.8459125801
 10
158.9838685275
 20
-89.9201397433
 10
158.6407410783
 20
-87.9006123695
 10
158.0766285048
 20
-85.8284422119
 10
157.3030145122
 20
-83.7458126795
 10
156.3356476505
 20
-81.6951201037
 10
155.1942207193
 20
-79.7181106715
 10
153.9019698793
 20
-77.8550305939
 10
152.4852016312
 20
-76.1438068085
 10
150.9727572908
 20
-74.6192748969
 10
149.3954258633
 20
-73.3124699323
 10
147.785317268
 20
-72.2499946953
 10
146.1752086727
 20
-71.4534781179
 10
144.5978772452
 20
-70.9391349805
 10
143.0854329048
 20
-70.7174358263
 10
141.6686646566
 20
-70.7928938107
 10
140.3764138167
 20
-71.1639728266
 10
139.7859674069
 20
-71.4578658874
  0
LWPOLYLINE
  5
105
330
F7
100
AcDbEntity
  8
0
  6
Continuous
 62
     7
370
    25
100
AcDbPolyline
 90
       20
 70
   128
 43
0.0
 10
-207.1822868877
 20
64.0901599791
 10
-209.8410062685
 20
63.8848182195
 10
-212.4577960565
 20
63.47667744
 10
-214.9913879134
 20
62.8721742645
 10
-217.4018255822
 20
62.0808420692
 10
-219.651095021
 20
61.1151606356
 10
-221.703723907
 20
59.9903593367
 10
-223.5273410565
 20
58.7241769609
 10
-225.0931869377
 20
57.3365819607
 10
-226.3765672257
 20
55.8494575382
 10
-227.3572422466
 20
54.2862565338
 10
-228.0197461696
 20
52.6716315612
 10
-228.353630912
 20
51.0310462207
 10
-228.353630912
 20
49.3903735233
 10
-228.0197461696
 20
47.7754878574
 10
-227.3572422466
 20
46.2118569346
 10
-226.3765672257
 20
44.7241401488
 10
-225.0931869377
 20
43.3357996823
 10
-223.5273410565
 20
42.0687304936
 10
-222.1810678772
 20
41.2094107729
  0
LWPOLYLINE
  5
106
330
F7
100
AcDbEntity
  8
0
  6
Continuous
 62
     7
370
    25
100
AcDbPolyline
 90
       18
 70
   128
 43
0.0
 10
-136.471608769
 20
78.7833827909
 10
-136.5867660085
 20
80.7091556276
 10
-136.9298934577
 20
82.7286830015
 10
-137.4940060312
 20
84.800853159
 10
-138.2676200238
 20
86.8834826914
 10
-139.2349868855
 20
88.9341752673
 10
-140.3764138167
 20
90.9111846994
 10
-141.6686646566
 20
92.774264777
 10
-143.0854329048
 20
94.4854885624
 10
-144.5978772452
 20
96.0100204741
 10
-146.1752086727
 20
97.3168254387
 10
-147.785317268
 20
98.3793006756
 10
-149.3954258633
 20
99.1758172531
 10
-150.9727572908
 20
99.6901603904
 10
-152.4852016312
 20
99.9118595446
 10
-153.9019698793
 20
99.8364015603
 10
-155.1942207193
 20
99.4653225443
 10
-155.7846671291
 20
99.1714294836
  0
LWPOLYLINE
  5
108
330
F7
100
AcDbEntity
  8
0
  6
Continuous
 62
     7
370
    25
100
AcDbPolyline
 90
        3
 70
   128
 43
0.0
 10
-222.1810678772
 20
60.841603205
 10
-221.703723907
 20
61.1080989571
 10
-221.5903986823
 20
61.1688005016
  0
LWPOLYLINE
  5
109
330
F7
100
AcDbEntity
  8
0
  6
Continuous
 62
     8
370
    25
100
AcDbPolyline
 90
       20
 70
   128
 43
0.0
 10
88.3883476483
 20
-106.5391353919
 10
88.565595607
 20
-108.1770001113
 10
88.7400482596
 20
-109.9950721079
 10
88.9089543834
 20
-111.9646793001
 10
89.069650228
 20
-114.0547598058
 10
89.2196015239
 20
-116.2323518071
 10
89.3564434496
 20
-118.4631133771
 10
89.4780179262
 20
-120.7118640734
 10
89.5824076517
 20
-122.9431397541
 10
89.6679663375
 20
-125.1217518688
 10
89.7333446722
 20
-127.213342403
 10
89.7775116004
 20
-129.1849257246
 10
89.7997705833
 20
-131.0054087869
 10
89.7997705833
 20
-132.6460814843
 10
89.7775116004
 20
-134.0810694285
 10
89.7333446722
 20
-135.2877420022
 10
89.6679663375
 20
-136.2470692582
 10
89.5824076517
 20
-136.9439220325
 10
89.4780179262
 20
-137.3673105407
 10
89.3903694002
 20
-137.5000007815
  0
LWPOLYLINE
  5
10A
330
F7
100
AcDbEntity
  8
0
  6
Continuous
 62
     8
370
    25
100
AcDbPolyline
 90
       20
 70
   128
 43
0.0
 10
87.3867287694
 20
-137.5002475469
 10
87.2986773704
 20
-137.3673105407
 10
87.194287645
 20
-136.9439220325
 10
87.1087289591
 20
-136.2470692582
 10
87.0433506244
 20
-135.2877420022
 10
86.9991836962
 20
-134.0810694285
 10
86.9769247134
 20
-132.6460814843
 10
86.9769247134
 20
-131.0054087869
 10
86.9991836962
 20
-129.1849257246
 10
87.0433506244
 20
-127.213342403
 10
87.1087289591
 20
-125.1217518688
 10
87.194287645
 20
-122.9431397541
 10
87.2986773704
 20
-120.7118640734
 10
87.420251847
 20
-118.4631133771
 10
87.5570937728
 20
-116.2323518071
 10
87.7070450687
 20
-114.0547598058
 10
87.8677409133
 20
-111.9646793001
 10
88.0366470371
 20
-109.9950721079
 10
88.2110996896
 20
-108.1770001113
 10
88.3883476483
 20
-106.5391353919
  0
LWPOLYLINE
  5
10C
330
F7
100
AcDbEntity
  8
0
  6
Continuous
 62
     8
370
    25
100
AcDbPolyline
 90
        8
 70
   128
 43
0.0
 10
88.3883476483
 20
-106.5391353919
 10
88.2241674747
 20
-105.0162275557
 10
88.0622075562
 20
-103.690591455
 10
87.904658123
 20
-102.5801540439
 10
87.7536497609
 20
-101.6999320835
 10
87.6112245989
 20
-101.0618290657
 10
87.479308693
 20
-100.6744742393
 10
87.3884289157
 20
-100.551839407
  0
LWPOLYLINE
  5
10F
330
F7
100
AcDbEntity
  8
0
  6
Continuous
 62
     8
370
    25
100
AcDbPolyline
 90
       12
 70
   128
 43
0.0
 10
-207.1822868877
 20
64.0901599791
 10
-204.3912239356
 20
64.0966006662
 10
-201.6379053219
 20
63.9262772345
 10
-198.9595649576
 20
63.5814930163
 10
-196.3924228015
 20
63.0669106267
 10
-193.9711950473
 20
62.3894889098
 10
-191.7286246468
 20
61.558388832
 10
-189.6950385176
 20
60.5848495964
 10
-187.8979374236
 20
59.4820366509
 10
-186.361624074
 20
58.2648636487
 10
-185.1068744715
 20
56.9497907667
 10
-184.8314437179
 20
56.5973480499
  0
LINE
  5
110
330
F7
100
AcDbEntity
  8
0
  6
Continuous
 62
     7
370
    25
100
AcDbLine
 10
139.7859674069
 20
-71.4578658874
 30
0.0
 11
89.388266381
 21
-100.551839407
 31
0.0
  0
LINE
  5
111
330
F7
100
AcDbEntity
  8
0
  6
Continuous
 62
     7
370
    25
100
AcDbLine
 10
89.388266381
 20
-137.5012557622
 30
0.0
 11
155.7846671291
 21
-99.1714294836
 31
0.0
  0
LINE
  5
112
330
F7
100
AcDbEntity
  8
0
  6
Continuous
 62
     7
370
    25
100
AcDbLine
 10
87.3884289157
 20
-100.551839407
 30
0.0
 11
-190.1836684328
 21
59.6871216101
 31
0.0
  0
LINE
  5
113
330
F7
100
AcDbEntity
  8
0
  6
Continuous
 62
     7
370
    25
100
AcDbLine
 10
-222.1810678772
 20
41.2094107729
 30
0.0
 11
87.3884289157
 21
-137.5012557622
 31
0.0
  0
LINE
  5
114
330
F7
100
AcDbEntity
  8
0
  6
Continuous
 62
     7
370
    25
100
AcDbLine
 10
-155.7846671291
 20
99.1714294836
 30
0.0
 11
-222.1810678772
 21
60.841603205
 31
0.0
  0
LINE
  5
115
330
F7
100
AcDbEntity
  8
0
  6
Continuous
 62
     7
370
    25
100
AcDbLine
 10
-175.1796861207
 20
51.0255069889
 30
0.0
 11
-139.7859674069
 21
71.4578658874
 31
0.0
  0
ARC
  5
116
330
F7
100
AcDbEntity
  8
0
  6
Continuous
 62
     7
370
    25
100
AcDbCircle
 10
88.3883476483
 20
-135.7691580374
 30
0.0
 40
1.999999999999916
100
AcDbArc
 50
240.0026882663
 51
299.9973117337
  0
ARC
  5
117
330
F7
100
AcDbEntity
  8
0
  6
Continuous
 62
     7
370
    25
100
AcDbCircle
 10
88.3883476483
 20
-98.8197416823
 30
0.0
 40
2.000000000000094
100
AcDbArc
 50
242.0131591529
 51
298.1915731276
  0
ARC
  5
118
330
F7
100
AcDbEntity
  8
0
  6
Continuous
 62
     7
370
    25
100
AcDbCircle
 10
-144.4040418367
 20
77.9598016615
 30
0.0
 40
7.975072429123611
100
AcDbArc
 50
305.3847106268
 51
5.9274697666
  0
ARC
  5
119
330
F7
100
AcDbEntity
  8
0
  6
Continuous
 62
     8
370
    25
100
AcDbCircle
 10
113.0782040209
 20
-107.5853630325
 30
0.0
 40
24.71201327242371
100
AcDbArc
 50
163.4638876943
 51
177.5735546325
  0
ARC
  5
11A
330
F7
100
AcDbEntity
  8
0
  6
Continuous
 62
     8
370
    25
100
AcDbCircle
 10
-207.8588515167
 20
26.4637442563
 30
0.0
 40
37.63249792187977
100
AcDbArc
 50
61.9865570612
 51
88.9698694356
  0
ARC
  5
11B
330
F7
100
AcDbEntity
  8
0
  6
Continuous
 62
     8
370
    25
100
AcDbCircle
 10
-208.8603588963
 20
35.3753904039
 30
0.0
 40
28.76376048816879
100
AcDbArc
 50
86.6554767017
 51
116.2681109764
  0
VIEWPORT
  5
170
330
F7
100
AcDbEntity
  8
0
100
AcDbViewport
 10
0.0
 20
0.0
 30
0.0
 40
205.6
 41
156.0
 68
     1
 69
     1
 12
0.0
 22
0.0
 13
0.0
 23
0.0
 14
10.0
 24
10.0
 15
10.0
 25
10.0
 16
0.0
 26
0.0
 36
1.0
 17
0.0
 27
0.0
 37
0.0
 42
50.0
 43
0.0
 44
0.0
 45
348.2684824903
 50
0.0
 51
0.0
 72
   100
 90
   557152
  1

281
     0
 71
     1
 74
     0
110
0.0
120
0.0
130
0.0
111
1.0
121
0.0
131
0.0
112
0.0
122
1.0
132
0.0
 79
     0
146
0.0
  0
ENDBLK
  5
FA
330
F7
100
AcDbEntity
  8
0
100
AcDbBlockEnd
  0
BLOCK
  5
11E
330
11C
100
AcDbEntity
  8
0
100
AcDbBlockBegin
  2
*Paper_Space5
 70
     0
 10
0.0
 20
0.0
 30
0.0
  3
*Paper_Space5
  1

  0
SPLINE
  5
120
330
11C
100
AcDbEntity
  8
0
  6
Continuous
 62
     7
370
    25
100
AcDbSpline
210
0.0
220
0.0
230
1.0
 70
     8
 71
     3
 72
    12
 73
     8
 74
     0
 42
0.000000001
 43
0.00000001
 40
0.0
 40
0.0
 40
0.0
 40
0.0
 40
0.2400443977353622
 40
0.4828025325024157
 40
0.7347914668280106
 40
0.978300393874323
 40
1.0
 40
1.0
 40
1.0
 40
1.0
 10
148.3516761488653
 20
-105.8086281092634
 30
0.0
 10
148.6231654716728
 20
-105.8720137341412
 30
0.0
 10
149.1692133437976
 20
-105.9995015676585
 30
0.0
 10
150.1000166304537
 20
-105.9124464968691
 30
0.0
 10
150.966462610997
 20
-105.5504458881306
 30
0.0
 10
151.5154269541007
 20
-105.1742730284733
 30
0.0
 10
151.7170993840359
 20
-104.9175013904654
 30
0.0
 10
151.7336004077536
 20
-104.8964920988624
 30
0.0
  0
SPLINE
  5
127
330
11C
100
AcDbEntity
  8
0
  6
Continuous
 62
     7
370
    25
100
AcDbSpline
210
0.0
220
0.0
230
1.0
 70
     8
 71
     3
 72
    23
 73
    19
 74
     0
 42
0.000000001
 43
0.00000001
 40
0.0
 40
0.0
 40
0.0
 40
0.0
 40
0.0105989070880004
 40
0.0867610259259211
 40
0.158898273272793
 40
0.2275364936940405
 40
0.293289663570836
 40
0.3567962224965253
 40
0.4187185200453693
 40
0.4798010296544069
 40
0.5408763125383753
 40
0.6026568823665103
 40
0.6662391918498064
 40
0.7327034874396384
 40
0.8029913016833478
 40
0.8777897240781564
 40
0.9574460769627995
 40
1.0
 40
1.0
 40
1.0
 40
1.0
 10
-239.8626686640955
 20
18.85731189417561
 30
0.0
 10
-239.9433542856269
 20
18.78994440021408
 30
0.0
 10
-240.6038343939455
 20
18.23848443914162
 30
0.0
 10
-241.651363037885
 20
17.07192168979913
 30
0.0
 10
-242.9303660742844
 20
15.39500402965984
 30
0.0
 10
-243.8962705162975
 20
13.66720067870786
 30
0.0
 10
-244.5648141305951
 20
11.93046878723605
 30
0.0
 10
-244.9309246884464
 20
10.20382108016912
 30
0.0
 10
-244.9994287606221
 20
8.513419439253374
 30
0.0
 10
-244.7781814902952
 20
6.883677087682213
 30
0.0
 10
-244.2795252082206
 20
5.338389611792484
 30
0.0
 10
-243.5172968770498
 20
3.895271962616381
 30
0.0
 10
-242.5024706323366
 20
2.56595921206549
 30
0.0
 10
-241.2385727562847
 20
1.359468119488172
 30
0.0
 10
-239.7266900826187
 20
0.2836341842685497
 30
0.0
 10
-237.9618997717776
 20
-0.633344334406899
 30
0.0
 10
-236.3206892383928
 20
-1.284618487191254
 30
0.0
 10
-235.237840912065
 20
-1.542371372791645
 30
0.0
 10
-234.8607904227184
 20
-1.632121570749379
 30
0.0
  0
LWPOLYLINE
  5
129
330
11C
100
AcDbEntity
  8
0
  6
Continuous
 62
     7
370
    25
100
AcDbPolyline
 90
       22
 70
   128
 43
0.0
 10
-224.0458001007
 20
25.6883922286
 10
-226.5335369378
 20
25.0885629252
 10
-228.9820406789
 20
24.2819046422
 10
-231.3526969573
 20
23.2811388625
 10
-233.6081191074
 20
22.1020482604
 10
-235.7127377745
 20
20.7632277989
 10
-237.6333618649
 20
19.2857914767
 10
-239.3397019896
 20
17.6930393469
 10
-240.8048481453
 20
16.0100900622
 10
-242.0056941019
 20
14.2634847381
 10
-242.9233018015
 20
12.4807683841
 10
-243.5432000223
 20
10.6900555018
 10
-243.8556125993
 20
8.9195867032
 10
-243.8556125993
 20
7.1972833389
 10
-243.5432000223
 20
5.5503071618
 10
-242.9233018015
 20
4.00463197
 10
-242.0056941019
 20
2.5846339847
 10
-240.8048481453
 20
1.3127074223
 10
-239.3397019896
 20
0.2089113246
 10
-237.6333618649
 20
-0.7093467846
 10
-235.7127377745
 20
-1.4275854264
 10
-235.2001775563
 20
-1.5751461741
  0
LWPOLYLINE
  5
12A
330
11C
100
AcDbEntity
  8
0
  6
Continuous
 62
     7
370
    25
100
AcDbPolyline
 90
       24
 70
   128
 43
0.0
 10
196.019037969
 20
-61.6865739554
 10
196.7477053404
 20
-60.8865246005
 10
197.7153077626
 20
-59.4320667691
 10
198.4208750064
 20
-57.790413146
 10
198.8500437574
 20
-55.9949830646
 10
198.9940773774
 20
-54.0823263039
 10
198.8500437574
 20
-52.0913790399
 10
198.4208750064
 20
-50.0626712174
 10
197.7153077626
 20
-48.0375014774
 10
196.7477053404
 20
-46.0570964358
 10
195.5377653347
 20
-44.1617714281
 10
194.110118635
 20
-42.3901098058
 10
192.493828011
 20
-40.7781774905
 10
190.7217964788
 20
-39.3587887757
 10
188.8300974904
 20
-38.1608383226
 10
186.8572405818
 20
-37.2087129476
 10
184.8433874306
 20
-36.5217951777
 10
182.8295342793
 20
-36.1140686779
 10
180.8566773708
 20
-35.9938335838
 10
178.9649783823
 20
-36.1635375352
 10
177.1929468502
 20
-36.6197258492
 10
175.5766562262
 20
-37.3531118471
 10
174.1490095264
 20
-38.348765905
 10
173.6677368922
 20
-38.7863700224
  0
LWPOLYLINE
  5
12B
330
11C
100
AcDbEntity
  8
0
  6
Continuous
 62
     7
370
    25
100
AcDbPolyline
 90
       19
 70
   128
 43
0.0
 10
-170.6926974837
 20
46.390617674
 10
-170.8367311038
 20
48.381564938
 10
-171.2658998548
 20
50.4102727605
 10
-171.9714670986
 20
52.4354425005
 10
-172.9390695208
 20
54.4158475421
 10
-174.1490095264
 20
56.3111725498
 10
-175.5766562262
 20
58.0828341721
 10
-177.1929468502
 20
59.6947664874
 10
-178.9649783823
 20
61.1141552021
 10
-180.8566773708
 20
62.3121056553
 10
-182.8295342793
 20
63.2642310303
 10
-184.8433874306
 20
63.9511488002
 10
-186.8572405818
 20
64.3588753
 10
-188.8300974904
 20
64.4791103941
 10
-190.7217964788
 20
64.3094064426
 10
-192.493828011
 20
63.8532181287
 10
-194.110118635
 20
63.1198321308
 10
-195.5377653347
 20
62.1241780729
 10
-196.019037969
 20
61.6865739554
  0
LWPOLYLINE
  5
12D
330
11C
100
AcDbEntity
  8
0
  6
Continuous
 62
     7
370
    25
100
AcDbPolyline
 90
        3
 70
   128
 43
0.0
 10
-240.3815343042
 20
18.3874175371
 10
-239.9834237843
 20
18.7654010007
 10
-239.9044980599
 20
18.837934413
  0
LWPOLYLINE
  5
12E
330
11C
100
AcDbEntity
  8
0
  6
Continuous
 62
     8
370
    25
100
AcDbPolyline
 90
       19
 70
   128
 43
0.0
 10
145.6409747605
 20
-74.7845517493
 10
146.5956322981
 20
-76.1739752638
 10
147.5352343161
 20
-77.7577753855
 10
148.4449627293
 20
-79.5109746405
 10
149.3104705772
 20
-81.4059240291
 10
150.118108284
 20
-83.4127390674
 10
150.8551389207
 20
-85.4997710837
 10
151.5099390737
 20
-87.6341063361
 10
152.0721821536
 20
-89.7820850828
 10
152.5330012511
 20
-91.9098324157
 10
152.8851289737
 20
-93.9837924885
 10
153.123012057
 20
-95.9712577119
 10
153.2428989425
 20
-97.8408845719
 10
153.2428989425
 20
-99.5631879362
 10
153.123012057
 20
-101.1110060519
 10
152.8851289737
 20
-102.4599289026
 10
152.5330012511
 20
-103.5886831692
 10
152.0721821536
 20
-104.4794677226
 10
151.712671778
 20
-104.9293068062
  0
LWPOLYLINE
  5
12F
330
11C
100
AcDbEntity
  8
0
  6
Continuous
 62
     8
370
    25
100
AcDbPolyline
 90
       22
 70
   128
 43
0.0
 10
148.3883608989
 20
-105.8261863297
 10
148.5297790926
 20
-105.8564681896
 10
149.0053372337
 20
-105.7894605344
 10
149.4278373689
 20
-105.4497755923
 10
149.7906164186
 20
-104.8427703977
 10
150.0879531404
 20
-103.9780177852
 10
150.3151583567
 20
-102.86915542
 10
150.4686489055
 20
-101.5336707241
 10
150.546004149
 20
-99.9926250889
 10
150.546004149
 20
-98.2703217246
 10
150.4686489055
 20
-96.3939223841
 10
150.3151583567
 20
-94.393019006
 10
150.0879531404
 20
-92.2991670317
 10
149.7906164186
 20
-90.1453877578
 10
149.4278373689
 20
-87.96564757
 10
149.0053372337
 20
-85.7943222732
 10
148.5297790926
 20
-83.6656549643
 10
148.0086627814
 20
-81.6132159985
 10
147.4502066158
 20
-79.6693735643
 10
146.8632177831
 20
-77.8647832181
 10
146.2569534477
 20
-76.2279044276
 10
145.6409747605
 20
-74.7845517493
  0
LWPOLYLINE
  5
132
330
11C
100
AcDbEntity
  8
0
  6
Continuous
 62
     8
370
    25
100
AcDbPolyline
 90
        9
 70
   128
 43
0.0
 10
141.0997175057
 20
-70.5737553624
 10
141.458450525
 20
-70.3264188138
 10
141.9448348371
 20
-70.2507892756
 10
142.4812031011
 20
-70.4219385739
 10
143.0603018562
 20
-70.8375522079
 10
143.6742997853
 20
-71.4920097162
 10
144.3148936196
 20
-72.3764606838
 10
144.9734204264
 20
-73.4789444286
 10
145.6409747605
 20
-74.7845517493
  0
LWPOLYLINE
  5
134
330
11C
100
AcDbEntity
  8
0
  6
Continuous
 62
     8
370
    25
100
AcDbPolyline
 90
       10
 70
   128
 43
0.0
 10
-224.0458001007
 20
25.6883922286
 10
-221.4277647691
 20
26.1010466798
 10
-218.8451338742
 20
26.3226532109
 10
-216.3328330683
 20
26.3502149736
 10
-213.9248369101
 20
26.1833592426
 10
-211.6537094167
 20
25.8243424552
 10
-209.5501636913
 20
25.2780196976
 10
-207.6426465814
 20
24.551779048
 10
-205.9569539834
 20
23.6554416653
 10
-205.9076746796
 20
23.6245439555
  0
LINE
  5
135
330
11C
100
AcDbEntity
  8
0
  6
Continuous
 62
     7
370
    25
100
AcDbLine
 10
140.8910450416
 20
-70.6279170671
 30
0.0
 11
-210.9033842483
 21
24.9822707711
 31
0.0
  0
LINE
  5
136
330
11C
100
AcDbEntity
  8
0
  6
Continuous
 62
     7
370
    25
100
AcDbLine
 10
-235.2001775563
 20
-1.5751461741
 30
0.0
 11
148.4028660825
 21
-105.8302338162
 31
0.0
  0
LINE
  5
137
330
11C
100
AcDbEntity
  8
0
  6
Continuous
 62
     7
370
    25
100
AcDbLine
 10
173.6677368922
 20
-38.7863700224
 30
0.0
 11
141.0997175057
 21
-70.5737553624
 31
0.0
  0
LINE
  5
138
330
11C
100
AcDbEntity
  8
0
  6
Continuous
 62
     7
370
    25
100
AcDbLine
 10
151.6565416338
 20
-104.9857303738
 30
0.0
 11
196.019037969
 21
-61.6865739554
 31
0.0
  0
LINE
  5
139
330
11C
100
AcDbEntity
  8
0
  6
Continuous
 62
     7
370
    25
100
AcDbLine
 10
-196.019037969
 20
61.6865739554
 30
0.0
 11
-240.3815343042
 21
18.3874175371
 31
0.0
  0
LINE
  5
13A
330
11C
100
AcDbEntity
  8
0
  6
Continuous
 62
     7
370
    25
100
AcDbLine
 10
-192.8404996696
 20
20.0731657834
 30
0.0
 11
-173.6677368922
 21
38.7863700224
 31
0.0
  0
LINE
  5
13B
330
11C
100
AcDbEntity
  8
0
  6
Continuous
 62
     7
370
    25
100
AcDbLine
 10
151.712671778
 20
-104.9293068062
 30
0.0
 11
151.6565416338
 21
-104.9857303738
 31
0.0
  0
ARC
  5
13C
330
11C
100
AcDbEntity
  8
0
  6
Continuous
 62
     7
370
    25
100
AcDbCircle
 10
-181.1397570163
 20
46.0937694905
 30
0.0
 40
10.45127608096937
100
AcDbArc
 50
315.6381630021
 51
1.6275941437
  0
ARC
  5
13D
330
11C
100
AcDbEntity
  8
0
  6
Continuous
 62
     8
370
    25
100
AcDbCircle
 10
137.0877938801
 20
-79.766294801
 30
0.0
 40
9.898215344450199
100
AcDbArc
 50
30.2183749989
 51
67.4036785274
  0
ARC
  5
13E
330
11C
100
AcDbEntity
  8
0
  6
Continuous
 62
     8
370
    25
100
AcDbCircle
 10
-219.2546613118
 20
-7.7955252396
 30
0.0
 40
33.82495735268124
100
AcDbArc
 50
75.7060377072
 51
98.143051128
  0
ARC
  5
13F
330
11C
100
AcDbEntity
  8
0
  6
Continuous
 62
     8
370
    25
100
AcDbCircle
 10
-220.8617823854
 20
-3.464099071
 30
0.0
 40
29.32585408451222
100
AcDbArc
 50
96.2331045751
 51
130.4925414695
  0
VIEWPORT
  5
172
330
11C
100
AcDbEntity
  8
0
100
AcDbViewport
 10
0.0
 20
0.0
 30
0.0
 40
205.6
 41
156.0
 68
     1
 69
     1
 12
0.0
 22
0.0
 13
0.0
 23
0.0
 14
10.0
 24
10.0
 15
10.0
 25
10.0
 16
0.0
 26
0.0
 36
1.0
 17
0.0
 27
0.0
 37
0.0
 42
50.0
 43
0.0
 44
0.0
 45
348.2684824903
 50
0.0
 51
0.0
 72
   100
 90
   557152
  1

281
     0
 71
     1
 74
     0
110
0.0
120
0.0
130
0.0
111
1.0
121
0.0
131
0.0
112
0.0
122
1.0
132
0.0
 79
     0
146
0.0
  0
ENDBLK
  5
11F
330
11C
100
AcDbEntity
  8
0
100
AcDbBlockEnd
  0
BLOCK
  5
142
330
140
100
AcDbEntity
  8
0
100
AcDbBlockBegin
  2
*Paper_Space6
 70
     0
 10
0.0
 20
0.0
 30
0.0
  3
*Paper_Space6
  1

  0
SPLINE
  5
144
330
140
100
AcDbEntity
  8
0
  6
Continuous
 62
     7
370
    25
100
AcDbSpline
210
0.0
220
0.0
230
1.0
 70
     8
 71
     3
 72
    12
 73
     8
 74
     0
 42
0.000000001
 43
0.00000001
 40
0.0
 40
0.0
 40
0.0
 40
0.0
 40
0.1816914759631214
 40
0.437180415368973
 40
0.6761007345638836
 40
0.9064910761628522
 40
1.0
 40
1.0
 40
1.0
 40
1.0
 10
168.3872344947362
 20
-67.25091715695974
 30
0.0
 10
168.6883165840346
 20
-67.28760660952837
 30
0.0
 10
169.4127710041545
 20
-67.37588763662987
 30
0.0
 10
170.5614071021448
 20
-67.20564503625401
 30
0.0
 10
171.7345577946965
 20
-66.7468749757781
 30
0.0
 10
172.592702249748
 20
-66.2154392328502
 30
0.0
 10
173.0064716009606
 20
-65.77225620642267
 30
0.0
 10
173.1259257982296
 20
-65.64431035323179
 30
0.0
  0
SPLINE
  5
14B
330
140
100
AcDbEntity
  8
0
  6
Continuous
 62
     7
370
    25
100
AcDbSpline
210
0.0
220
0.0
230
1.0
 70
     8
 71
     3
 72
    26
 73
    22
 74
     0
 42
0.000000001
 43
0.00000001
 40
0.0
 40
0.0
 40
0.0
 40
0.0
 40
0.0105215029534809
 40
0.0750779807036199
 40
0.1361035244581657
 40
0.1938825477125339
 40
0.2488711141959276
 40
0.3016360182667772
 40
0.352797531563954
 40
0.4029890472874981
 40
0.4528422737691719
 40
0.5029200104029842
 40
0.5537111386973488
 40
0.6058837672310294
 40
0.6601039029633775
 40
0.7169921532551564
 40
0.7770641570699437
 40
0.8406641588284888
 40
0.9079055675864092
 40
0.9786328024274342
 40
0.9999999999999999
 40
0.9999999999999999
 40
0.9999999999999999
 40
0.9999999999999999
 10
-238.5117808619606
 20
7.981369219430007
 30
0.0
 10
-238.6153039931634
 20
7.904723614633378
 30
0.0
 10
-239.3540109707867
 20
7.357805815590666
 30
0.0
 10
-240.5617186342562
 20
6.173457425313829
 30
0.0
 10
-242.0602301850663
 20
4.464918335227958
 30
0.0
 10
-243.2691077174245
 20
2.672405324580001
 30
0.0
 10
-244.1982457752277
 20
0.8442068880656246
 30
0.0
 10
-244.8427866339582
 20
-1.0015969469989
 30
0.0
 10
-245.2044847298188
 20
-2.841386635764904
 30
0.0
 10
-245.2856119341617
 20
-4.653710100002726
 30
0.0
 10
-245.0905060155189
 20
-6.416044573338855
 30
0.0
 10
-244.6260925769607
 20
-8.10506483606974
 30
0.0
 10
-243.9018494504399
 20
-9.699841408585774
 30
0.0
 10
-242.9273658296027
 20
-11.18319635102914
 30
0.0
 10
-241.7095497934917
 20
-12.5408978448985
 30
0.0
 10
-240.2534630890809
 20
-13.75852608758571
 30
0.0
 10
-238.563711921404
 20
-14.81779778837014
 30
0.0
 10
-236.6489463736137
 20
-15.70408915292493
 30
0.0
 10
-234.5186980841733
 20
-16.37371716625693
 30
0.0
 10
-232.7829712839232
 20
-16.76253275724301
 30
0.0
 10
-231.7496219773972
 20
-16.84357700553742
 30
0.0
 10
-231.509870472172
 20
-16.8623804057001
 30
0.0
  0
LWPOLYLINE
  5
14D
330
140
100
AcDbEntity
  8
0
  6
Continuous
 62
     7
370
    25
100
AcDbPolyline
 90
       24
 70
   128
 43
0.0
 10
-225.2000832684
 20
13.5242291635
 10
-227.5504141703
 20
12.9867971288
 10
-229.8636789498
 20
12.2199421297
 10
-232.1033960396
 20
11.2357579275
 10
-234.2342437631
 20
10.0497656951
 10
-236.2226173788
 20
8.6806692384
 10
-238.0371590471
 20
7.1500600265
 10
-239.6492523619
 20
5.4820766809
 10
-241.0334736486
 20
3.7030242955
 10
-242.1679929105
 20
1.840959589
 10
-243.0349181013
 20
-0.0747515657
 10
-243.6205772927
 20
-2.0138972594
 10
-243.9157342895
 20
-3.9458960061
 10
-243.9157342895
 20
-5.8402790313
 10
-243.6205772927
 20
-7.6671707832
 10
-243.0349181013
 20
-9.3977600876
 10
-242.1679929105
 20
-11.0047545172
 10
-241.0334736486
 20
-12.4628108099
 10
-239.6492523619
 20
-13.748934547
 10
-238.0371590471
 20
-14.8428427889
 10
-236.2226173788
 20
-15.7272839492
 10
-234.2342437631
 20
-16.3883098623
 10
-232.1033960396
 20
-16.8154957548
 10
-231.552997722
 20
-16.8848066748
  0
LWPOLYLINE
  5
14E
330
140
100
AcDbEntity
  8
0
  6
Continuous
 62
     7
370
    25
100
AcDbPolyline
 90
       24
 70
   128
 43
0.0
 10
206.0846037097
 20
-36.6308861997
 10
206.8126223755
 20
-35.9344791982
 10
208.0923284468
 20
-34.3727058885
 10
209.1157235644
 20
-32.6126172229
 10
209.8619743549
 20
-30.6900435312
 10
210.3158893042
 20
-28.6441228693
 10
210.4682280129
 20
-26.5165042821
 10
210.3158893042
 20
-24.3504999484
 10
209.8619743549
 20
-22.1902034702
 10
209.1157235644
 20
-20.079592254
 10
208.0923284468
 20
-18.0616322577
 10
206.8126223755
 20
-16.1774033276
 10
205.3026564756
 20
-14.4652629308
 10
203.5931692985
 20
-12.9600653086
 10
201.7189610735
 20
-11.6924519439
 10
199.7181852751
 20
-10.6882277892
 10
197.6315719289
 20
-9.9678359525
 10
195.5015984653
 20
-9.5459415341
 10
193.3716250018
 20
-9.4311330876
 10
191.2850116556
 20
-9.6257477821
 10
189.2842358572
 20
-10.1258238235
 10
187.4100276322
 20
-10.9211811058
 10
185.7005404551
 20
-11.9956284482
 10
184.9185932209
 20
-12.6308861999
  0
LWPOLYLINE
  5
14F
330
140
100
AcDbEntity
  8
0
  6
Continuous
 62
     7
370
    25
100
AcDbPolyline
 90
       18
 70
   128
 43
0.0
 10
-180.5349689178
 20
22.7452681175
 10
-180.6873076265
 20
24.9112724512
 10
-181.1412225757
 20
27.0715689294
 10
-181.8874733662
 20
29.1821801456
 10
-182.9108684839
 20
31.2001401419
 10
-184.1905745552
 20
33.0843690721
 10
-185.7005404551
 20
34.7965094688
 10
-187.4100276322
 20
36.301707091
 10
-189.2842358572
 20
37.5693204558
 10
-191.2850116556
 20
38.5735446104
 10
-193.3716250018
 20
39.2939364472
 10
-195.5015984653
 20
39.7158308656
 10
-197.6315719289
 20
39.830639312
 10
-199.7181852751
 20
39.6360246175
 10
-201.7189610735
 20
39.1359485761
 10
-203.5931692985
 20
38.3405912939
 10
-205.3026564756
 20
37.2661439514
 10
-206.0846037097
 20
36.6308861997
  0
LWPOLYLINE
  5
151
330
140
100
AcDbEntity
  8
0
  6
Continuous
 62
     7
370
    25
100
AcDbPolyline
 90
        3
 70
   128
 43
0.0
 10
-239.2830885119
 20
7.3525746354
 10
-238.8337815144
 20
7.7382994492
 10
-238.532390308
 20
7.9858163306
  0
LWPOLYLINE
  5
152
330
140
100
AcDbEntity
  8
0
  6
Continuous
 62
     8
370
    25
100
AcDbPolyline
 90
       20
 70
   128
 43
0.0
 10
165.8031136623
 20
-35.7375432361
 10
167.0585618837
 20
-36.6399361642
 10
168.2942109366
 20
-37.7659964055
 10
169.4905738975
 20
-39.0979653172
 10
170.6287834076
 20
-40.614836954
 10
171.6908892231
 20
-42.292689344
 10
172.6601413009
 20
-44.1050617527
 10
173.5212539566
 20
-46.0233719846
 10
174.2606469293
 20
-48.0173671413
 10
174.86665955
 20
-50.0556007282
 10
175.3297346379
 20
-52.1059285838
 10
175.642569222
 20
-54.1360158133
 10
175.8002297141
 20
-56.1138467281
 10
175.8002297141
 20
-58.0082297534
 10
175.642569222
 20
-59.7892893371
 10
175.3297346379
 20
-61.4289371057
 10
174.86665955
 20
-62.9013148343
 10
174.2606469293
 20
-64.1832022467
 10
173.5212539566
 20
-65.2543832126
 10
173.1166761794
 20
-65.694176585
  0
LWPOLYLINE
  5
153
330
140
100
AcDbEntity
  8
0
  6
Continuous
 62
     8
370
    25
100
AcDbPolyline
 90
       24
 70
   128
 43
0.0
 10
168.4108510322
 20
-67.2774331956
 10
168.5415725541
 20
-67.2920172023
 10
169.3868535212
 20
-67.2397882804
 10
170.1756167699
 20
-66.9286487242
 10
170.8954230326
 20
-66.3635053905
 10
171.5349205345
 20
-65.5532709273
 10
172.084024018
 20
-64.510723216
 10
172.5340737932
 20
-63.2523038569
 10
172.8779723063
 20
-61.7978588749
 10
173.1102960722
 20
-60.1703257363
 10
173.2273812064
 20
-58.395371611
 10
173.2273812064
 20
-56.5009885857
 10
173.1102960722
 20
-54.5170522125
 10
172.8779723063
 20
-52.4748503531
 10
172.5340737932
 20
-50.4065897507
 10
172.084024018
 20
-48.3448881106
 10
171.5349205345
 20
-46.3222596993
 10
170.8954230326
 20
-44.3706025751
 10
170.1756167699
 20
-42.5206955366
 10
169.3868535212
 20
-40.801712723
 10
168.5415725541
 20
-39.24076352
 10
167.6531044544
 20
-37.8624650292
 10
166.7354608948
 20
-36.688553841
 10
165.8031136623
 20
-35.7375432361
  0
LINE
  5
159
330
140
100
AcDbEntity
  8
0
  6
Continuous
 62
     7
370
    25
100
AcDbLine
 10
161.8501732128
 20
-34.1979800359
 30
0.0
 11
-217.2471428208
 21
13.5637923648
 31
0.0
  0
LINE
  5
15A
330
140
100
AcDbEntity
  8
0
  6
Continuous
 62
     7
370
    25
100
AcDbLine
 10
-231.8301480607
 20
-16.8518900358
 30
0.0
 11
168.4331784566
 21
-67.2803291013
 31
0.0
  0
LINE
  5
15B
330
140
100
AcDbEntity
  8
0
  6
Continuous
 62
     7
370
    25
100
AcDbLine
 10
184.9185932209
 20
-12.6308861999
 30
0.0
 11
160.6371031732
 21
-34.0451475766
 31
0.0
  0
LINE
  5
15C
330
140
100
AcDbEntity
  8
0
  6
Continuous
 62
     7
370
    25
100
AcDbLine
 10
172.8861189076
 20
-65.909197764
 30
0.0
 11
206.0846037097
 21
-36.6308861997
 31
0.0
  0
LINE
  5
15D
330
140
100
AcDbEntity
  8
0
  6
Continuous
 62
     7
370
    25
100
AcDbLine
 10
-206.0846037097
 20
36.6308861997
 30
0.0
 11
-239.2830885119
 21
7.3525746354
 31
0.0
  0
LINE
  5
15E
330
140
100
AcDbEntity
  8
0
  6
Continuous
 62
     7
370
    25
100
AcDbLine
 10
-188.0340727782
 20
9.8832914921
 30
0.0
 11
-184.9185932209
 21
12.6308861999
 31
0.0
  0
LINE
  5
15F
330
140
100
AcDbEntity
  8
0
  6
Continuous
 62
     7
370
    25
100
AcDbLine
 10
173.1166761794
 20
-65.694176585
 30
0.0
 11
172.8861189076
 21
-65.909197764
 31
0.0
  0
ARC
  5
160
330
140
100
AcDbEntity
  8
0
  6
Continuous
 62
     7
370
    25
100
AcDbCircle
 10
-193.8467806129
 20
22.5075412296
 30
0.0
 40
13.31393422994182
100
AcDbArc
 50
312.112595797
 51
1.0230988816
  0
ARC
  5
161
330
140
100
AcDbEntity
  8
0
  6
Continuous
 62
     8
370
    25
100
AcDbCircle
 10
160.4820892062
 20
-43.5551477887
 30
0.0
 40
9.456650686369374
100
AcDbArc
 50
55.758979688
 51
81.681888986
  0
ARC
  5
162
330
140
100
AcDbEntity
  8
0
  6
Continuous
 62
     8
370
    25
100
AcDbCircle
 10
-221.0684761196
 20
-17.6414010593
 30
0.0
 40
31.43829964898516
100
AcDbArc
 50
83.0184194275
 51
97.551630298
  0
ARC
  5
163
330
140
100
AcDbEntity
  8
0
  6
Continuous
 62
     8
370
    25
100
AcDbCircle
 10
161.9718840189
 20
-39.1533180777
 30
0.0
 40
5.132819726958577
100
AcDbArc
 50
41.7189504036
 51
100.0950866038
  0
ARC
  5
164
330
140
100
AcDbEntity
  8
0
  6
Continuous
 62
     8
370
    25
100
AcDbCircle
 10
-222.0419089317
 20
-12.894524405
 30
0.0
 40
26.60685259955732
100
AcDbArc
 50
96.8169537288
 51
128.3003074187
  0
ARC
  5
165
330
140
100
AcDbEntity
  8
0
  6
Continuous
 62
     8
370
    25
100
AcDbCircle
 10
-220.2693640662
 20
-11.8160913077
 30
0.0
 40
25.81557346713044
100
AcDbArc
 50
74.7282571578
 51
101.0110236965
  0
VIEWPORT
  5
174
330
140
100
AcDbEntity
  8
0
100
AcDbViewport
 10
0.0
 20
0.0
 30
0.0
 40
205.6
 41
156.0
 68
     1
 69
     1
 12
0.0
 22
0.0
 13
0.0
 23
0.0
 14
10.0
 24
10.0
 15
10.0
 25
10.0
 16
0.0
 26
0.0
 36
1.0
 17
0.0
 27
0.0
 37
0.0
 42
50.0
 43
0.0
 44
0.0
 45
348.2684824903
 50
0.0
 51
0.0
 72
   100
 90
   557152
  1

281
     0
 71
     1
 74
     0
110
0.0
120
0.0
130
0.0
111
1.0
121
0.0
131
0.0
112
0.0
122
1.0
132
0.0
 79
     0
146
0.0
  0
ENDBLK
  5
143
330
140
100
AcDbEntity
  8
0
100
AcDbBlockEnd
  0
ENDSEC
  0
SECTION
  2
ENTITIES
  0
LWPOLYLINE
  5
76
330
1F
100
AcDbEntity
  8
0
  6
Continuous
 62
     7
370
    25
100
AcDbPolyline
 90
       26
 70
   128
 43
0.0
 10
209.0
 20
-16.0
 10
210.7546652699
 20
-15.873835221
 10
212.4816584203
 20
-15.4973305781
 10
214.1537437376
 20
-14.8764237742
 10
215.7445514374
 20
-14.0209068807
 10
217.2289935321
 20
-12.94427191
 10
218.583659483
 20
-11.6634980387
 10
219.7871853989
 20
-10.198783836
 10
220.820590957
 20
-8.5732287197
 10
221.6675787345
 20
-6.812468665
 10
222.3147912281
 20
-4.94427191
 10
222.7520215102
 20
-2.9981010334
 10
222.972374198
 20
-1.0046483125
 10
222.972374198
 20
1.0046483125
 10
222.7520215102
 20
2.9981010334
 10
222.3147912281
 20
4.94427191
 10
221.6675787345
 20
6.812468665
 10
220.820590957
 20
8.5732287197
 10
219.7871853989
 20
10.198783836
 10
218.583659483
 20
11.6634980387
 10
217.2289935321
 20
12.94427191
 10
215.7445514374
 20
14.0209068807
 10
214.1537437376
 20
14.8764237742
 10
212.4816584203
 20
15.4973305781
 10
210.7546652699
 20
15.873835221
 10
209.0
 20
16.0
  0
LWPOLYLINE
  5
77
330
1F
100
AcDbEntity
  8
0
  6
Continuous
 62
     7
370
    25
100
AcDbPolyline
 90
       26
 70
   128
 43
0.0
 10
-209.0
 20
16.0
 10
-210.7546652699
 20
15.873835221
 10
-212.4816584203
 20
15.4973305781
 10
-214.1537437376
 20
14.8764237742
 10
-215.7445514374
 20
14.0209068807
 10
-217.2289935321
 20
12.94427191
 10
-218.583659483
 20
11.6634980387
 10
-219.7871853989
 20
10.198783836
 10
-220.820590957
 20
8.5732287197
 10
-221.6675787345
 20
6.812468665
 10
-222.3147912281
 20
4.94427191
 10
-222.7520215102
 20
2.9981010334
 10
-222.972374198
 20
1.0046483125
 10
-222.972374198
 20
-1.0046483125
 10
-222.7520215102
 20
-2.9981010334
 10
-222.3147912281
 20
-4.94427191
 10
-221.6675787345
 20
-6.812468665
 10
-220.820590957
 20
-8.5732287197
 10
-219.7871853989
 20
-10.198783836
 10
-218.583659483
 20
-11.6634980387
 10
-217.2289935321
 20
-12.94427191
 10
-215.7445514374
 20
-14.0209068807
 10
-214.1537437376
 20
-14.8764237742
 10
-212.4816584203
 20
-15.4973305781
 10
-210.7546652699
 20
-15.873835221
 10
-209.0
 20
-16.0
  0
LINE
  5
79
330
1F
100
AcDbEntity
  8
0
  6
Continuous
 62
     7
370
    25
100
AcDbLine
 10
209.0
 20
16.0
 30
0.0
 11
-209.0
 21
16.0
 31
0.0
  0
LINE
  5
7A
330
1F
100
AcDbEntity
  8
0
  6
Continuous
 62
     7
370
    25
100
AcDbLine
 10
-209.0
 20
-16.0
 30
0.0
 11
209.0
 21
-16.0
 31
0.0
  0
ARC
  5
7B
330
1F
100
AcDbEntity
  8
0
  6
Continuous
 62
     7
370
    25
100
AcDbCircle
 10
209.0
 20
0.0
 30
0.0
 40
16.00000000000001
100
AcDbArc
 50
270.0
 51
90.0
  0
ARC
  5
7C
330
1F
100
AcDbEntity
  8
0
  6
Continuous
 62
     7
370
    25
100
AcDbCircle
 10
-209.0
 20
0.0
 30
0.0
 40
16.00000000000001
100
AcDbArc
 50
90.0
 51
270.0
  0
LINE
  5
91
330
1B
100
AcDbEntity
 67
     1
  8
0
  6
Continuous
 62
     7
370
    25
100
AcDbLine
 10
-225.0
 20
0.0
 30
0.0
 11
-225.0
 21
-98.0
 31
0.0
  0
LINE
  5
92
330
1B
100
AcDbEntity
 67
     1
  8
0
  6
Continuous
 62
     7
370
    25
100
AcDbLine
 10
-193.0
 20
-66.0
 30
0.0
 11
-193.0
 21
0.0
 31
0.0
  0
LINE
  5
93
330
1B
100
AcDbEntity
 67
     1
  8
0
  6
Continuous
 62
     7
370
    25
100
AcDbLine
 10
193.0
 20
0.0
 30
0.0
 11
193.0
 21
-66.0
 31
0.0
  0
LINE
  5
94
330
1B
100
AcDbEntity
 67
     1
  8
0
  6
Continuous
 62
     7
370
    25
100
AcDbLine
 10
225.0
 20
-98.0
 30
0.0
 11
225.0
 21
0.0
 31
0.0
  0
LINE
  5
95
330
1B
100
AcDbEntity
 67
     1
  8
0
  6
Continuous
 62
     7
370
    25
100
AcDbLine
 10
191.0
 20
-68.0
 30
0.0
 11
-191.0
 21
-68.0
 31
0.0
  0
LINE
  5
96
330
1B
100
AcDbEntity
 67
     1
  8
0
  6
Continuous
 62
     7
370
    25
100
AcDbLine
 10
-223.0
 20
-100.0
 30
0.0
 11
223.0
 21
-100.0
 31
0.0
  0
LINE
  5
97
330
1B
100
AcDbEntity
 67
     1
  8
0
  6
Continuous
 62
     7
370
    25
100
AcDbLine
 10
-193.0
 20
0.0
 30
0.0
 11
-225.0
 21
0.0
 31
0.0
  0
LINE
  5
98
330
1B
100
AcDbEntity
 67
     1
  8
0
  6
Continuous
 62
     7
370
    25
100
AcDbLine
 10
225.0
 20
0.0
 30
0.0
 11
193.0
 21
0.0
 31
0.0
  0
LINE
  5
99
330
1B
100
AcDbEntity
 67
     1
  8
0
  6
Continuous
 62
     8
370
    25
100
AcDbLine
 10
-225.0
 20
-98.0
 30
0.0
 11
-209.0
 21
-84.0
 31
0.0
  0
LINE
  5
9A
330
1B
100
AcDbEntity
 67
     1
  8
0
  6
Continuous
 62
     8
370
    25
100
AcDbLine
 10
-209.0
 20
-84.0
 30
0.0
 11
-193.0
 21
-66.0
 31
0.0
  0
LINE
  5
9B
330
1B
100
AcDbEntity
 67
     1
  8
0
  6
Continuous
 62
     8
370
    25
100
AcDbLine
 10
209.0
 20
-84.0
 30
0.0
 11
225.0
 21
-98.0
 31
0.0
  0
LINE
  5
9C
330
1B
100
AcDbEntity
 67
     1
  8
0
  6
Continuous
 62
     8
370
    25
100
AcDbLine
 10
193.0
 20
-66.0
 30
0.0
 11
209.0
 21
-84.0
 31
0.0
  0
LINE
  5
9D
330
1B
100
AcDbEntity
 67
     1
  8
0
  6
Continuous
 62
     8
370
    25
100
AcDbLine
 10
-209.0
 20
-84.0
 30
0.0
 11
-222.9999999999
 21
-99.9999999999
 31
0.0
  0
LINE
  5
9E
330
1B
100
AcDbEntity
 67
     1
  8
0
  6
Continuous
 62
     8
370
    25
100
AcDbLine
 10
222.9999999999
 20
-99.9999999999
 30
0.0
 11
209.0
 21
-84.0
 31
0.0
  0
LINE
  5
9F
330
1B
100
AcDbEntity
 67
     1
  8
0
  6
Continuous
 62
     8
370
    25
100
AcDbLine
 10
209.0
 20
-84.0
 30
0.0
 11
191.0
 21
-68.0
 31
0.0
  0
LINE
  5
A0
330
1B
100
AcDbEntity
 67
     1
  8
0
  6
Continuous
 62
     8
370
    25
100
AcDbLine
 10
-191.0
 20
-68.0
 30
0.0
 11
-209.0
 21
-84.0
 31
0.0
  0
ARC
  5
A1
330
1B
100
AcDbEntity
 67
     1
  8
0
  6
Continuous
 62
     7
370
    25
100
AcDbCircle
 10
-223.0
 20
-98.0
 30
0.0
 40
1.999999999999972
100
AcDbArc
 50
180.0
 51
270.0
  0
ARC
  5
A2
330
1B
100
AcDbEntity
 67
     1
  8
0
  6
Continuous
 62
     7
370
    25
100
AcDbCircle
 10
223.0
 20
-98.0
 30
0.0
 40
2.0
100
AcDbArc
 50
270.0
 51
0.0
  0
ARC
  5
A3
330
1B
100
AcDbEntity
 67
     1
  8
0
  6
Continuous
 62
     7
370
    25
100
AcDbCircle
 10
191.0
 20
-66.0
 30
0.0
 40
2.000000000000011
100
AcDbArc
 50
271.2957671153
 51
358.6365279868
  0
ARC
  5
A4
330
1B
100
AcDbEntity
 67
     1
  8
0
  6
Continuous
 62
     7
370
    25
100
AcDbCircle
 10
-191.0
 20
-66.0
 30
0.0
 40
1.999999999999967
100
AcDbArc
 50
181.2957671153
 51
268.6365279868
  0
VIEWPORT
  5
166
330
1B
100
AcDbEntity
 67
     1
  8
0
100
AcDbViewport
 10
0.0
 20
0.0
 30
0.0
 40
205.6
 41
156.0
 68
     1
 69
     1
 12
0.0
 22
0.0
 13
0.0
 23
0.0
 14
10.0
 24
10.0
 15
10.0
 25
10.0
 16
0.0
 26
0.0
 36
1.0
 17
0.0
 27
0.0
 37
0.0
 42
50.0
 43
0.0
 44
0.0
 45
348.2684824903
 50
0.0
 51
0.0
 72
   100
 90
   557152
  1

281
     0
 71
     1
 74
     0
110
0.0
120
0.0
130
0.0
111
1.0
121
0.0
131
0.0
112
0.0
122
1.0
132
0.0
 79
     0
146
0.0
  0
ENDSEC
  0
SECTION
  2
OBJECTS
  0
DICTIONARY
  5
C
330
0
100
AcDbDictionary
281
     1
  3
ACAD_GROUP
350
D
  3
ACAD_LAYOUT
350
1A
  3
ACAD_MLINESTYLE
350
17
  3
ACAD_PLOTSETTINGS
350
19
  3
ACAD_PLOTSTYLENAME
350
E
  3
ACAD_SCALELIST
350
47
  0
DICTIONARY
  5
D
102
{ACAD_REACTORS
330
C
102
}
330
C
100
AcDbDictionary
281
     1
  0
DICTIONARY
  5
1A
102
{ACAD_REACTORS
330
C
102
}
330
C
100
AcDbDictionary
281
     1
  3
_Back
350
AF
  3
_Bottom
350
CC
  3
_Dimetric
350
141
  3
_Isometric
350
F8
  3
_Left
350
BF
  3
_Right
350
26
  3
_Top
350
1E
  3
_Trimetric
350
11D
  3
Model
350
22
  0
DICTIONARY
  5
17
102
{ACAD_REACTORS
330
C
102
}
330
C
100
AcDbDictionary
281
     1
  3
Standard
350
18
  0
DICTIONARY
  5
19
102
{ACAD_REACTORS
330
C
102
}
330
C
100
AcDbDictionary
281
     1
  0
ACDBDICTIONARYWDFLT
  5
E
102
{ACAD_REACTORS
330
C
102
}
330
C
100
AcDbDictionary
281
     1
  3
Normal
350
F
100
AcDbDictionaryWithDefault
340
F
  0
DICTIONARY
  5
47
102
{ACAD_REACTORS
330
C
102
}
330
C
100
AcDbDictionary
281
     1
  3
A0
350
48
  3
A1
350
49
  3
A2
350
4A
  3
A3
350
4B
  3
A4
350
4C
  3
A5
350
4D
  3
A6
350
4E
  3
A7
350
4F
  3
A8
350
50
  3
A9
350
51
  3
B0
350
52
  3
B1
350
53
  3
B2
350
54
  3
B3
350
55
  3
B4
350
56
  3
B5
350
57
  3
B6
350
58
  3
B7
350
59
  3
B8
350
5A
  3
B9
350
5B
  3
C0
350
5C
  3
C1
350
5D
  3
C2
350
5E
  3
C3
350
5F
  3
C4
350
60
  3
C5
350
61
  3
C6
350
62
  3
C7
350
63
  3
C8
350
64
  3
C9
350
65
  3
D0
350
66
  3
D1
350
67
  3
D2
350
68
  0
LAYOUT
  5
AF
102
{ACAD_REACTORS
330
1A
102
}
330
1A
100
AcDbPlotSettings
  1

  2
none_device
  4
ISO_A4_(210.00_x_297.00_MM)
  6

 40
7.5
 41
20.0
 42
7.5
 43
20.0
 44
210.0
 45
297.0
 46
0.0
 47
0.0
 48
0.0
 49
0.0
140
0.0
141
0.0
142
1.0
143
1.7509727626
 70
   688
 72
     1
 73
     1
 74
     1
  7

 75
     0
147
0.5711111111
148
225.0
149
100.0
100
AcDbLayout
  1
_Back
 70
     1
 71
     3
 10
0.0
 20
0.0
 11
0.0
 21
0.0
 12
0.0
 22
0.0
 32
0.0
 14
0.0
 24
0.0
 34
0.0
 15
0.0
 25
0.0
 35
0.0
146
0.0
 13
0.0
 23
0.0
 33
0.0
 16
1.0
 26
0.0
 36
0.0
 17
0.0
 27
1.0
 37
0.0
 76
     0
330
AE
331
16A
  0
LAYOUT
  5
CC
102
{ACAD_REACTORS
330
1A
102
}
330
1A
100
AcDbPlotSettings
  1

  2
none_device
  4
ISO_A4_(210.00_x_297.00_MM)
  6

 40
7.5
 41
20.0
 42
7.5
 43
20.0
 44
210.0
 45
297.0
 46
0.0
 47
0.0
 48
0.0
 49
0.0
140
0.0
141
0.0
142
1.0
143
1.7509727626
 70
   688
 72
     1
 73
     1
 74
     1
  7

 75
     0
147
0.5711111111
148
225.0
149
100.0
100
AcDbLayout
  1
_Bottom
 70
     1
 71
     5
 10
0.0
 20
0.0
 11
0.0
 21
0.0
 12
0.0
 22
0.0
 32
0.0
 14
0.0
 24
0.0
 34
0.0
 15
0.0
 25
0.0
 35
0.0
146
0.0
 13
0.0
 23
0.0
 33
0.0
 16
1.0
 26
0.0
 36
0.0
 17
0.0
 27
1.0
 37
0.0
 76
     0
330
CB
331
16E
  0
LAYOUT
  5
141
102
{ACAD_REACTORS
330
1A
102
}
330
1A
100
AcDbPlotSettings
  1

  2
none_device
  4
ISO_A4_(210.00_x_297.00_MM)
  6

 40
7.5
 41
20.0
 42
7.5
 43
20.0
 44
210.0
 45
297.0
 46
0.0
 47
0.0
 48
0.0
 49
0.0
140
0.0
141
0.0
142
1.0
143
1.7509727626
 70
   688
 72
     1
 73
     1
 74
     1
  7

 75
     0
147
0.5711111111
148
225.0
149
100.0
100
AcDbLayout
  1
_Dimetric
 70
     1
 71
     8
 10
0.0
 20
0.0
 11
0.0
 21
0.0
 12
0.0
 22
0.0
 32
0.0
 14
0.0
 24
0.0
 34
0.0
 15
0.0
 25
0.0
 35
0.0
146
0.0
 13
0.0
 23
0.0
 33
0.0
 16
1.0
 26
0.0
 36
0.0
 17
0.0
 27
1.0
 37
0.0
 76
     0
330
140
331
174
  0
LAYOUT
  5
F8
102
{ACAD_REACTORS
330
1A
102
}
330
1A
100
AcDbPlotSettings
  1

  2
none_device
  4
ISO_A4_(210.00_x_297.00_MM)
  6

 40
7.5
 41
20.0
 42
7.5
 43
20.0
 44
210.0
 45
297.0
 46
0.0
 47
0.0
 48
0.0
 49
0.0
140
0.0
141
0.0
142
1.0
143
1.7509727626
 70
   688
 72
     1
 73
     1
 74
     1
  7

 75
     0
147
0.5711111111
148
225.0
149
100.0
100
AcDbLayout
  1
_Isometric
 70
     1
 71
     6
 10
0.0
 20
0.0
 11
0.0
 21
0.0
 12
0.0
 22
0.0
 32
0.0
 14
0.0
 24
0.0
 34
0.0
 15
0.0
 25
0.0
 35
0.0
146
0.0
 13
0.0
 23
0.0
 33
0.0
 16
1.0
 26
0.0
 36
0.0
 17
0.0
 27
1.0
 37
0.0
 76
     0
330
F7
331
170
  0
LAYOUT
  5
BF
102
{ACAD_REACTORS
330
1A
102
}
330
1A
100
AcDbPlotSettings
  1

  2
none_device
  4
ISO_A4_(210.00_x_297.00_MM)
  6

 40
7.5
 41
20.0
 42
7.5
 43
20.0
 44
210.0
 45
297.0
 46
0.0
 47
0.0
 48
0.0
 49
0.0
140
0.0
141
0.0
142
1.0
143
1.7509727626
 70
   688
 72
     1
 73
     1
 74
     1
  7

 75
     0
147
0.5711111111
148
225.0
149
100.0
100
AcDbLayout
  1
_Left
 70
     1
 71
     4
 10
0.0
 20
0.0
 11
0.0
 21
0.0
 12
0.0
 22
0.0
 32
0.0
 14
0.0
 24
0.0
 34
0.0
 15
0.0
 25
0.0
 35
0.0
146
0.0
 13
0.0
 23
0.0
 33
0.0
 16
1.0
 26
0.0
 36
0.0
 17
0.0
 27
1.0
 37
0.0
 76
     0
330
BE
331
16C
  0
LAYOUT
  5
26
102
{ACAD_REACTORS
330
1A
102
}
330
1A
100
AcDbPlotSettings
  1

  2
none_device
  4
ISO_A4_(210.00_x_297.00_MM)
  6

 40
7.5
 41
20.0
 42
7.5
 43
20.0
 44
210.0
 45
297.0
 46
0.0
 47
0.0
 48
0.0
 49
0.0
140
0.0
141
0.0
142
1.0
143
1.7509727626
 70
   688
 72
     1
 73
     1
 74
     1
  7

 75
     0
147
0.5711111111
148
225.0
149
100.0
100
AcDbLayout
  1
_Right
 70
     1
 71
     2
 10
0.0
 20
0.0
 11
0.0
 21
0.0
 12
0.0
 22
0.0
 32
0.0
 14
0.0
 24
0.0
 34
0.0
 15
0.0
 25
0.0
 35
0.0
146
0.0
 13
0.0
 23
0.0
 33
0.0
 16
1.0
 26
0.0
 36
0.0
 17
0.0
 27
1.0
 37
0.0
 76
     0
330
23
331
168
  0
LAYOUT
  5
1E
102
{ACAD_REACTORS
330
1A
102
}
330
1A
100
AcDbPlotSettings
  1

  2
none_device
  4
ISO_A4_(210.00_x_297.00_MM)
  6

 40
7.5
 41
20.0
 42
7.5
 43
20.0
 44
210.0
 45
297.0
 46
0.0
 47
0.0
 48
0.0
 49
0.0
140
0.0
141
0.0
142
1.0
143
1.7509727626
 70
   688
 72
     1
 73
     1
 74
     1
  7

 75
     0
147
0.5711111111
148
225.0
149
100.0
100
AcDbLayout
  1
_Top
 70
     1
 71
     1
 10
-260.0194552529
 20
-113.1322957198
 11
260.0194552529
 21
254.5719844358
 12
0.0
 22
0.0
 32
0.0
 14
-225.0
 24
-100.0
 34
0.0
 15
225.0
 25
0.0
 35
0.0
146
0.0
 13
0.0
 23
0.0
 33
0.0
 16
1.0
 26
0.0
 36
0.0
 17
0.0
 27
1.0
 37
0.0
 76
     0
330
1B
331
166
  0
LAYOUT
  5
11D
102
{ACAD_REACTORS
330
1A
102
}
330
1A
100
AcDbPlotSettings
  1

  2
none_device
  4
ISO_A4_(210.00_x_297.00_MM)
  6

 40
7.5
 41
20.0
 42
7.5
 43
20.0
 44
210.0
 45
297.0
 46
0.0
 47
0.0
 48
0.0
 49
0.0
140
0.0
141
0.0
142
1.0
143
1.7509727626
 70
   688
 72
     1
 73
     1
 74
     1
  7

 75
     0
147
0.5711111111
148
225.0
149
100.0
100
AcDbLayout
  1
_Trimetric
 70
     1
 71
     7
 10
0.0
 20
0.0
 11
0.0
 21
0.0
 12
0.0
 22
0.0
 32
0.0
 14
0.0
 24
0.0
 34
0.0
 15
0.0
 25
0.0
 35
0.0
146
0.0
 13
0.0
 23
0.0
 33
0.0
 16
1.0
 26
0.0
 36
0.0
 17
0.0
 27
1.0
 37
0.0
 76
     0
330
11C
331
172
  0
LAYOUT
  5
22
102
{ACAD_REACTORS
330
1A
102
}
330
1A
100
AcDbPlotSettings
  1

  2
none_device
  4
ANSI_A_(11.00_x_8.50_Inches)
  6

 40
6.35
 41
19.05
 42
6.35000508
 43
19.05000254
 44
279.4
 45
215.9
 46
133.34999746
 47
88.89999873
 48
0.0
 49
0.0
140
0.0
141
0.0
142
0.0242
143
1.0
 70
  1696
 72
     0
 73
     0
 74
     0
  7

 75
     0
147
0.0179189148
148
-1300.4909072572
149
0.0
100
AcDbLayout
  1
Model
 70
     1
 71
     0
 10
0.0
 20
0.0
 11
420.0
 21
297.0
 12
0.0
 22
0.0
 32
0.0
 14
-225.0
 24
-16.0
 34
0.0
 15
225.0
 25
16.0
 35
0.0
146
0.0
 13
0.0
 23
0.0
 33
0.0
 16
1.0
 26
0.0
 36
0.0
 17
0.0
 27
1.0
 37
0.0
 76
     0
330
1F
331
29
  0
MLINESTYLE
  5
18
102
{ACAD_REACTORS
330
17
102
}
330
17
100
AcDbMlineStyle
  2
Standard
 70
     0
  3

 62
   256
 51
90.0
 52
90.0
 71
     2
 49
0.5
 62
   256
  6
BYLAYER
 49
-0.5
 62
   256
  6
BYLAYER
  0
ACDBPLACEHOLDER
  5
F
102
{ACAD_REACTORS
330
E
102
}
330
E
  0
SCALE
  5
48
102
{ACAD_REACTORS
330
47
102
}
330
47
100
AcDbScale
 70
     0
300
1:1
140
1.0
141
1.0
290
     1
  0
SCALE
  5
49
102
{ACAD_REACTORS
330
47
102
}
330
47
100
AcDbScale
 70
     0
300
1:2
140
1.0
141
2.0
290
     0
  0
SCALE
  5
4A
102
{ACAD_REACTORS
330
47
102
}
330
47
100
AcDbScale
 70
     0
300
1:4
140
1.0
141
4.0
290
     0
  0
SCALE
  5
4B
102
{ACAD_REACTORS
330
47
102
}
330
47
100
AcDbScale
 70
     0
300
1:5
140
1.0
141
5.0
290
     0
  0
SCALE
  5
4C
102
{ACAD_REACTORS
330
47
102
}
330
47
100
AcDbScale
 70
     0
300
1:8
140
1.0
141
8.0
290
     0
  0
SCALE
  5
4D
102
{ACAD_REACTORS
330
47
102
}
330
47
100
AcDbScale
 70
     0
300
1:10
140
1.0
141
10.0
290
     0
  0
SCALE
  5
4E
102
{ACAD_REACTORS
330
47
102
}
330
47
100
AcDbScale
 70
     0
300
1:16
140
1.0
141
16.0
290
     0
  0
SCALE
  5
4F
102
{ACAD_REACTORS
330
47
102
}
330
47
100
AcDbScale
 70
     0
300
1:20
140
1.0
141
20.0
290
     0
  0
SCALE
  5
50
102
{ACAD_REACTORS
330
47
102
}
330
47
100
AcDbScale
 70
     0
300
1:30
140
1.0
141
30.0
290
     0
  0
SCALE
  5
51
102
{ACAD_REACTORS
330
47
102
}
330
47
100
AcDbScale
 70
     0
300
1:40
140
1.0
141
40.0
290
     0
  0
SCALE
  5
52
102
{ACAD_REACTORS
330
47
102
}
330
47
100
AcDbScale
 70
     0
300
1:50
140
1.0
141
50.0
290
     0
  0
SCALE
  5
53
102
{ACAD_REACTORS
330
47
102
}
330
47
100
AcDbScale
 70
     0
300
1:100
140
1.0
141
100.0
290
     0
  0
SCALE
  5
54
102
{ACAD_REACTORS
330
47
102
}
330
47
100
AcDbScale
 70
     0
300
2:1
140
2.0
141
1.0
290
     0
  0
SCALE
  5
55
102
{ACAD_REACTORS
330
47
102
}
330
47
100
AcDbScale
 70
     0
300
4:1
140
4.0
141
1.0
290
     0
  0
SCALE
  5
56
102
{ACAD_REACTORS
330
47
102
}
330
47
100
AcDbScale
 70
     0
300
8:1
140
8.0
141
1.0
290
     0
  0
SCALE
  5
57
102
{ACAD_REACTORS
330
47
102
}
330
47
100
AcDbScale
 70
     0
300
10:1
140
10.0
141
1.0
290
     0
  0
SCALE
  5
58
102
{ACAD_REACTORS
330
47
102
}
330
47
100
AcDbScale
 70
     0
300
100:1
140
100.0
141
1.0
290
     0
  0
SCALE
  5
59
102
{ACAD_REACTORS
330
47
102
}
330
47
100
AcDbScale
 70
     0
300
1/128" = 1'-0"
140
0.0078125
141
12.0
290
     0
  0
SCALE
  5
5A
102
{ACAD_REACTORS
330
47
102
}
330
47
100
AcDbScale
 70
     0
300
1/64" = 1'-0"
140
0.015625
141
12.0
290
     0
  0
SCALE
  5
5B
102
{ACAD_REACTORS
330
47
102
}
330
47
100
AcDbScale
 70
     0
300
1/32" = 1'-0"
140
0.03125
141
12.0
290
     0
  0
SCALE
  5
5C
102
{ACAD_REACTORS
330
47
102
}
330
47
100
AcDbScale
 70
     0
300
1/16" = 1'-0"
140
0.0625
141
12.0
290
     0
  0
SCALE
  5
5D
102
{ACAD_REACTORS
330
47
102
}
330
47
100
AcDbScale
 70
     0
300
3/32" = 1'-0"
140
0.09375
141
12.0
290
     0
  0
SCALE
  5
5E
102
{ACAD_REACTORS
330
47
102
}
330
47
100
AcDbScale
 70
     0
300
1/8" = 1'-0"
140
0.125
141
12.0
290
     0
  0
SCALE
  5
5F
102
{ACAD_REACTORS
330
47
102
}
330
47
100
AcDbScale
 70
     0
300
3/16" = 1'-0"
140
0.1875
141
12.0
290
     0
  0
SCALE
  5
60
102
{ACAD_REACTORS
330
47
102
}
330
47
100
AcDbScale
 70
     0
300
1/4" = 1'-0"
140
0.25
141
12.0
290
     0
  0
SCALE
  5
61
102
{ACAD_REACTORS
330
47
102
}
330
47
100
AcDbScale
 70
     0
300
3/8" = 1'-0"
140
0.375
141
12.0
290
     0
  0
SCALE
  5
62
102
{ACAD_REACTORS
330
47
102
}
330
47
100
AcDbScale
 70
     0
300
1/2" = 1'-0"
140
0.5
141
12.0
290
     0
  0
SCALE
  5
63
102
{ACAD_REACTORS
330
47
102
}
330
47
100
AcDbScale
 70
     0
300
3/4" = 1'-0"
140
0.75
141
12.0
290
     0
  0
SCALE
  5
64
102
{ACAD_REACTORS
330
47
102
}
330
47
100
AcDbScale
 70
     0
300
1" = 1'-0"
140
1.0
141
12.0
290
     0
  0
SCALE
  5
65
102
{ACAD_REACTORS
330
47
102
}
330
47
100
AcDbScale
 70
     0
300
1-1/2" = 1'-0"
140
1.5
141
12.0
290
     0
  0
SCALE
  5
66
102
{ACAD_REACTORS
330
47
102
}
330
47
100
AcDbScale
 70
     0
300
3" = 1'-0"
140
3.0
141
12.0
290
     0
  0
SCALE
  5
67
102
{ACAD_REACTORS
330
47
102
}
330
47
100
AcDbScale
 70
     0
300
6" = 1'-0"
140
6.0
141
12.0
290
     0
  0
SCALE
  5
68
102
{ACAD_REACTORS
330
47
102
}
330
47
100
AcDbScale
 70
     0
300
1'-0" = 1'-0"
140
12.0
141
12.0
290
     0
  0
ENDSEC
  0
EOF
