  0
SECTION
  2
HEADER
  9
$ACADVER
  1
AC1015
  9
$ACADMAINTVER
 70
     6
  9
$DWGCODEPAGE
  3
ANSI_1252
  9
$INSBASE
 10
0.0
 20
0.0
 30
0.0
  9
$EXTMIN
 10
-30.0
 20
-30.0
 30
0.0
  9
$EXTMAX
 10
30.0
 20
30.0
 30
0.0
  9
$LIMMIN
 10
0.0
 20
0.0
  9
$LIMMAX
 10
420.0
 20
297.0
  9
$ORTHOMODE
 70
     0
  9
$REGENMODE
 70
     1
  9
$FILLMODE
 70
     1
  9
$QTEXTMODE
 70
     0
  9
$MIRRTEXT
 70
     1
  9
$LTSCALE
 40
1.0
  9
$ATTMODE
 70
     1
  9
$TEXTSIZE
 40
3.5
  9
$TRACEWID
 40
1.0
  9
$TEXTSTYLE
  7
Standard
  9
$CLAYER
  8
0
  9
$CELTYPE
  6
ByLayer
  9
$CECOLOR
 62
   256
  9
$CELTSCALE
 40
1.0
  9
$DISPSILH
 70
     0
  9
$DIMSCALE
 40
1.0
  9
$DIMASZ
 40
3.302
  9
$DIMEXO
 40
1.0
  9
$DIMDLI
 40
3.75
  9
$DIMRND
 40
0.0
  9
$DIMDLE
 40
0.0
  9
$DIMEXE
 40
1.0
  9
$DIMTP
 40
0.0
  9
$DIMTM
 40
0.0
  9
$DIMTXT
 40
3.5
  9
$DIMCEN
 40
2.5
  9
$DIMTSZ
 40
0.0
  9
$DIMTOL
 70
     0
  9
$DIMLIM
 70
     0
  9
$DIMTIH
 70
     1
  9
$DIMTOH
 70
     1
  9
$DIMSE1
 70
     0
  9
$DIMSE2
 70
     0
  9
$DIMTAD
 70
     1
  9
$DIMZIN
 70
     1
  9
$DIMBLK
  1

  9
$DIMASO
 70
     1
  9
$DIMSHO
 70
     1
  9
$DIMPOST
  1

  9
$DIMAPOST
  1

  9
$DIMALT
 70
     0
  9
$DIMALTD
 70
     3
  9
$DIMALTF
 40
0.0393700787
  9
$DIMLFAC
 40
1.0
  9
$DIMTOFL
 70
     1
  9
$DIMTVP
 40
0.0
  9
$DIMTIX
 70
     0
  9
$DIMSOXD
 70
     0
  9
$DIMSAH
 70
     0
  9
$DIMBLK1
  1

  9
$DIMBLK2
  1

  9
$DIMSTYLE
  2
ISO-25
  9
$DIMCLRD
 70
     0
  9
$DIMCLRE
 70
     0
  9
$DIMCLRT
 70
     0
  9
$DIMTFAC
 40
1.0
  9
$DIMGAP
 40
1.524
  9
$DIMJUST
 70
     0
  9
$DIMSD1
 70
     0
  9
$DIMSD2
 70
     0
  9
$DIMTOLJ
 70
     0
  9
$DIMTZIN
 70
     1
  9
$DIMALTZ
 70
     0
  9
$DIMALTTZ
 70
     0
  9
$DIMUPT
 70
     0
  9
$DIMDEC
 70
     2
  9
$DIMTDEC
 70
     2
  9
$DIMALTU
 70
     2
  9
$DIMALTTD
 70
     3
  9
$DIMTXSTY
  7
Standard
  9
$DIMAUNIT
 70
     0
  9
$DIMADEC
 70
     2
  9
$DIMALTRND
 40
0.0
  9
$DIMAZIN
 70
     0
  9
$DIMDSEP
 70
    44
  9
$DIMATFIT
 70
     3
  9
$DIMFRAC
 70
     0
  9
$DIMLDRBLK
  1

  9
$DIMLUNIT
 70
     2
  9
$DIMLWD
 70
    -2
  9
$DIMLWE
 70
    -2
  9
$DIMTMOVE
 70
     0
  9
$LUNITS
 70
     2
  9
$LUPREC
 70
     2
  9
$SKETCHINC
 40
1.0
  9
$FILLETRAD
 40
10.0
  9
$AUNITS
 70
     0
  9
$AUPREC
 70
     2
  9
$MENU
  1
.
  9
$ELEVATION
 40
0.0
  9
$PELEVATION
 40
0.0
  9
$THICKNESS
 40
0.0
  9
$LIMCHECK
 70
     0
  9
$CHAMFERA
 40
0.0
  9
$CHAMFERB
 40
0.0
  9
$CHAMFERC
 40
0.0
  9
$CHAMFERD
 40
0.0
  9
$SKPOLY
 70
     0
  9
$TDCREATE
 40
2460010.420292604
  9
$TDUCREATE
 40
2460010.420292604
  9
$TDUPDATE
 40
2460010.420320185
  9
$TDUUPDATE
 40
2460010.420320185
  9
$TDINDWG
 40
0.0000000116
  9
$TDUSRTIMER
 40
0.0000000116
  9
$USRTIMER
 70
     1
  9
$ANGBASE
 50
0.0
  9
$ANGDIR
 70
     0
  9
$PDMODE
 70
     0
  9
$PDSIZE
 40
-1.0
  9
$PLINEWID
 40
0.0
  9
$SPLFRAME
 70
     0
  9
$SPLINETYPE
 70
     6
  9
$SPLINESEGS
 70
     8
  9
$HANDSEED
  5
15E
  9
$SURFTAB1
 70
     6
  9
$SURFTAB2
 70
     6
  9
$SURFTYPE
 70
     6
  9
$SURFU
 70
     6
  9
$SURFV
 70
     6
  9
$UCSBASE
  2

  9
$UCSNAME
  2

  9
$UCSORG
 10
0.0
 20
0.0
 30
0.0
  9
$UCSXDIR
 10
1.0
 20
0.0
 30
0.0
  9
$UCSYDIR
 10
0.0
 20
1.0
 30
0.0
  9
$UCSORTHOREF
  2

  9
$UCSORTHOVIEW
 70
     0
  9
$UCSORGTOP
 10
0.0
 20
0.0
 30
0.0
  9
$UCSORGBOTTOM
 10
0.0
 20
0.0
 30
0.0
  9
$UCSORGLEFT
 10
0.0
 20
0.0
 30
0.0
  9
$UCSORGRIGHT
 10
0.0
 20
0.0
 30
0.0
  9
$UCSORGFRONT
 10
0.0
 20
0.0
 30
0.0
  9
$UCSORGBACK
 10
0.0
 20
0.0
 30
0.0
  9
$PUCSBASE
  2

  9
$PUCSNAME
  2

  9
$PUCSORG
 10
0.0
 20
0.0
 30
0.0
  9
$PUCSXDIR
 10
1.0
 20
0.0
 30
0.0
  9
$PUCSYDIR
 10
0.0
 20
1.0
 30
0.0
  9
$PUCSORTHOREF
  2

  9
$PUCSORTHOVIEW
 70
     0
  9
$PUCSORGTOP
 10
0.0
 20
0.0
 30
0.0
  9
$PUCSORGBOTTOM
 10
0.0
 20
0.0
 30
0.0
  9
$PUCSORGLEFT
 10
0.0
 20
0.0
 30
0.0
  9
$PUCSORGRIGHT
 10
0.0
 20
0.0
 30
0.0
  9
$PUCSORGFRONT
 10
0.0
 20
0.0
 30
0.0
  9
$PUCSORGBACK
 10
0.0
 20
0.0
 30
0.0
  9
$USERI1
 70
     0
  9
$USERI2
 70
     0
  9
$USERI3
 70
     0
  9
$USERI4
 70
     0
  9
$USERI5
 70
     0
  9
$USERR1
 40
0.0
  9
$USERR2
 40
0.0
  9
$USERR3
 40
0.0
  9
$USERR4
 40
0.0
  9
$USERR5
 40
0.0
  9
$WORLDVIEW
 70
     1
  9
$SHADEDGE
 70
     3
  9
$SHADEDIF
 70
    70
  9
$TILEMODE
 70
     1
  9
$MAXACTVP
 70
    64
  9
$PINSBASE
 10
0.0
 20
0.0
 30
0.0
  9
$PLIMCHECK
 70
     0
  9
$PEXTMIN
 10
-30.0
 20
-5.0
 30
0.0
  9
$PEXTMAX
 10
30.0
 20
228.0
 30
0.0
  9
$PLIMMIN
 10
-53.8974358974
 20
-13.9615384615
  9
$PLIMMAX
 10
300.9794871795
 20
236.9615384615
  9
$UNITMODE
 70
     0
  9
$VISRETAIN
 70
     1
  9
$PLINEGEN
 70
     0
  9
$PSLTSCALE
 70
     1
  9
$TREEDEPTH
 70
  3020
  9
$CMLSTYLE
  2
Standard
  9
$CMLJUST
 70
     0
  9
$CMLSCALE
 40
20.0
  9
$PROXYGRAPHICS
 70
     1
  9
$MEASUREMENT
 70
     1
  9
$CELWEIGHT
370
    -1
  9
$ENDCAPS
280
     0
  9
$JOINSTYLE
280
     0
  9
$LWDISPLAY
290
     1
  9
$INSUNITS
 70
     4
  9
$HYPERLINKBASE
  1

  9
$STYLESHEET
  1

  9
$XEDIT
290
     1
  9
$CEPSNTYPE
380
     0
  9
$PSTYLEMODE
290
     1
  9
$FINGERPRINTGUID
  2
{d8244ac9-7eea-4f59-9f85-1ebcce58c9af}
  9
$VERSIONGUID
  2
{FAEB1C32-E019-11D5-929B-00C0DF256EC4}
  9
$EXTNAMES
290
     1
  9
$PSVPSCALE
 40
0.0
  9
$OLESTARTUP
290
     0
  0
ENDSEC
  0
SECTION
  2
CLASSES
  0
CLASS
  1
ACDBDICTIONARYWDFLT
  2
AcDbDictionaryWithDefault
  3
ObjectDBX Classes
 90
        0
280
     0
281
     0
  0
CLASS
  1
VISUALSTYLE
  2
AcDbVisualStyle
  3
ObjectDBX Classes
 90
     4095
280
     0
281
     0
  0
CLASS
  1
MATERIAL
  2
AcDbMaterial
  3
ObjectDBX Classes
 90
     1153
280
     0
281
     0
  0
CLASS
  1
SCALE
  2
AcDbScale
  3
ObjectDBX Classes
 90
     1153
280
     0
281
     0
  0
CLASS
  1
TABLESTYLE
  2
AcDbTableStyle
  3
ObjectDBX Classes
 90
     4095
280
     0
281
     0
  0
CLASS
  1
MLEADERSTYLE
  2
AcDbMLeaderStyle
  3
ACDB_MLEADERSTYLE_CLASS
 90
     4095
280
     0
281
     0
  0
CLASS
  1
SUN
  2
AcDbSun
  3
SCENEOE
 90
     1153
280
     0
281
     0
  0
CLASS
  1
ACDBPLACEHOLDER
  2
AcDbPlaceHolder
  3
ObjectDBX Classes
 90
        0
280
     0
281
     0
  0
CLASS
  1
LAYOUT
  2
AcDbLayout
  3
ObjectDBX Classes
 90
        0
280
     0
281
     0
  0
ENDSEC
  0
SECTION
  2
TABLES
  0
TABLE
  2
VPORT
  5
8
330
0
100
AcDbSymbolTable
 70
     1
  0
VPORT
  5
29
330
8
100
AcDbSymbolTableRecord
100
AcDbViewportTableRecord
  2
*Active
 70
     0
 10
0.0
 20
0.0
 11
1.0
 21
1.0
 12
0.0
 22
0.0
 13
0.0
 23
0.0
 14
10.0
 24
10.0
 15
10.0
 25
10.0
 16
0.0
 26
0.0
 36
1.0
 17
0.0
 27
0.0
 37
0.0
 40
61.2
 41
1.0
 42
50.0
 43
0.0
 44
0.0
 50
0.0
 51
0.0
 71
     0
 72
   100
 73
     1
 74
     3
 75
     0
 76
     0
 77
     0
 78
     0
281
     0
 65
     1
110
0.0
120
0.0
130
0.0
111
1.0
121
0.0
131
0.0
112
0.0
122
1.0
132
0.0
 79
     0
146
0.0
  0
ENDTAB
  0
TABLE
  2
LTYPE
  5
5
330
0
100
AcDbSymbolTable
 70
     6
  0
LTYPE
  5
14
330
5
100
AcDbSymbolTableRecord
100
AcDbLinetypeTableRecord
  2
ByBlock
 70
     0
  3

 72
    65
 73
     0
 40
0.0
  0
LTYPE
  5
15
330
5
100
AcDbSymbolTableRecord
100
AcDbLinetypeTableRecord
  2
ByLayer
 70
     0
  3

 72
    65
 73
     0
 40
0.0
  0
LTYPE
  5
16
330
5
100
AcDbSymbolTableRecord
100
AcDbLinetypeTableRecord
  2
Continuous
 70
     0
  3
Solid line
 72
    65
 73
     0
 40
0.0
  0
LTYPE
  5
6E
330
5
100
AcDbSymbolTableRecord
100
AcDbLinetypeTableRecord
  2
HIDDEN
 70
     0
  3
Hidden __ __ __ __ __ __ __ __ __ __ __ __ __ __
 72
    65
 73
     2
 40
1.905
 49
1.27
 74
     0
 49
-0.635
 74
     0
  0
LTYPE
  5
6F
330
5
100
AcDbSymbolTableRecord
100
AcDbLinetypeTableRecord
  2
PHANTOM
 70
     0
  3
Phantom ______  __  __  ______  __  __  ______
 72
    65
 73
     6
 40
12.7
 49
6.35
 74
     0
 49
-1.27
 74
     0
 49
1.27
 74
     0
 49
-1.27
 74
     0
 49
1.27
 74
     0
 49
-1.27
 74
     0
  0
LTYPE
  5
70
330
5
100
AcDbSymbolTableRecord
100
AcDbLinetypeTableRecord
  2
CENTER
 70
     0
  3
Center ____ _ ____ _ ____ _ ____ _ ____ _ ____
 72
    65
 73
     4
 40
10.16
 49
6.35
 74
     0
 49
-1.27
 74
     0
 49
1.27
 74
     0
 49
-1.27
 74
     0
  0
LTYPE
  5
71
330
5
100
AcDbSymbolTableRecord
100
AcDbLinetypeTableRecord
  2
CENTERX2
 70
     0
  3
Center (2x) ________  __  ________  __  _____
 72
    65
 73
     4
 40
20.32
 49
12.7
 74
     0
 49
-2.54
 74
     0
 49
2.54
 74
     0
 49
-2.54
 74
     0
  0
LTYPE
  5
72
330
5
100
AcDbSymbolTableRecord
100
AcDbLinetypeTableRecord
  2
DOT2
 70
     0
  3
Dot (.5x) ........................................
 72
    65
 73
     2
 40
0.635
 49
0.0
 74
     0
 49
-0.635
 74
     0
  0
ENDTAB
  0
TABLE
  2
LAYER
  5
2
330
0
100
AcDbSymbolTable
 70
     1
  0
LAYER
  5
10
330
2
100
AcDbSymbolTableRecord
100
AcDbLayerTableRecord
  2
0
 70
     0
 62
     7
  6
Continuous
370
    -3
390
F
  0
ENDTAB
  0
TABLE
  2
STYLE
  5
3
330
0
100
AcDbSymbolTable
 70
     1
  0
STYLE
  5
11
330
3
100
AcDbSymbolTableRecord
100
AcDbTextStyleTableRecord
  2
Standard
 70
     0
 40
0.0
 41
1.0
 50
0.0
 71
     0
 42
3.5
  3
txt
  4

  0
ENDTAB
  0
TABLE
  2
VIEW
  5
6
330
0
100
AcDbSymbolTable
 70
     0
  0
ENDTAB
  0
TABLE
  2
UCS
  5
7
330
0
100
AcDbSymbolTable
 70
     0
  0
ENDTAB
  0
TABLE
  2
APPID
  5
9
330
0
100
AcDbSymbolTable
 70
     1
  0
APPID
  5
12
330
9
100
AcDbSymbolTableRecord
100
AcDbRegAppTableRecord
  2
ACAD
 70
     0
  0
ENDTAB
  0
TABLE
  2
DIMSTYLE
  5
A
330
0
100
AcDbSymbolTable
 70
     1
100
AcDbDimStyleTable
  0
DIMSTYLE
105
27
330
A
100
AcDbSymbolTableRecord
100
AcDbDimStyleTableRecord
  2
ISO-25
 70
     0
 41
2.5
 42
0.625
 43
3.75
 44
1.25
 73
     0
 74
     0
 77
     1
 78
     8
140
2.5
141
2.5
143
0.0393700787
147
0.625
171
     3
172
     1
178
     0
271
     2
272
     2
274
     3
278
    44
283
     0
284
     8
340
11
  0
ENDTAB
  0
TABLE
  2
BLOCK_RECORD
  5
1
330
0
100
AcDbSymbolTable
 70
     1
  0
BLOCK_RECORD
  5
1F
330
1
100
AcDbSymbolTableRecord
100
AcDbBlockTableRecord
  2
*Model_Space
340
22
  0
BLOCK_RECORD
  5
1B
330
1
100
AcDbSymbolTableRecord
100
AcDbBlockTableRecord
  2
*Paper_Space
340
1E
  0
BLOCK_RECORD
  5
23
330
1
100
AcDbSymbolTableRecord
100
AcDbBlockTableRecord
  2
*Paper_Space0
340
26
  0
ENDTAB
  0
ENDSEC
  0
SECTION
  2
BLOCKS
  0
BLOCK
  5
20
330
1F
100
AcDbEntity
  8
0
100
AcDbBlockBegin
  2
*Model_Space
 70
     0
 10
0.0
 20
0.0
 30
0.0
  3
*Model_Space
  1

  0
ENDBLK
  5
21
330
1F
100
AcDbEntity
  8
0
100
AcDbBlockEnd
  0
BLOCK
  5
1C
330
1B
100
AcDbEntity
 67
     1
  8
0
100
AcDbBlockBegin
  2
*Paper_Space
 70
     0
 10
0.0
 20
0.0
 30
0.0
  3
*Paper_Space
  1

  0
ENDBLK
  5
1D
330
1B
100
AcDbEntity
 67
     1
  8
0
100
AcDbBlockEnd
  0
BLOCK
  5
24
330
23
100
AcDbEntity
  8
0
100
AcDbBlockBegin
  2
*Paper_Space0
 70
     0
 10
0.0
 20
0.0
 30
0.0
  3
*Paper_Space0
  1

  0
SPLINE
  5
149
330
23
100
AcDbEntity
  8
0
  6
Continuous
 62
     7
370
    25
100
AcDbSpline
210
0.0
220
0.0
230
1.0
 70
     8
 71
     3
 72
    36
 73
    32
 74
     0
 42
0.000000001
 43
0.00000001
 40
0.0
 40
0.0
 40
0.0
 40
0.0
 40
0.0625
 40
0.0625
 40
0.125
 40
0.125
 40
0.1875
 40
0.1875
 40
0.25
 40
0.25
 40
0.375
 40
0.375
 40
0.5
 40
0.5
 40
0.5625
 40
0.5625
 40
0.625
 40
0.625
 40
0.65625
 40
0.65625
 40
0.6875
 40
0.6875
 40
0.75
 40
0.75
 40
0.8125
 40
0.8125
 40
0.875
 40
0.875
 40
0.9375
 40
0.9375
 40
1.0
 40
1.0
 40
1.0
 40
1.0
 10
10.36602540378442
 20
0.0
 30
0.0
 10
10.37929553389432
 20
-0.5640032669520356
 30
0.0
 10
10.34699459791631
 20
-1.121836891776833
 30
0.0
 10
10.19461206975177
 20
-2.225620212287468
 30
0.0
 10
10.07425539973831
 20
-2.772461623279072
 30
0.0
 10
9.743295724773274
 20
-3.850111788664025
 30
0.0
 10
9.536520287451568
 20
-4.368968303293236
 30
0.0
 10
9.043212907903186
 20
-5.368114766555625
 30
0.0
 10
8.755542344009637
 20
-5.849810694513908
 30
0.0
 10
7.774915367017875
 20
-7.225622750758731
 30
0.0
 10
6.994534057780603
 20
-8.018886726732234
 30
0.0
 10
5.179845366384417
 20
-9.356876148820538
 30
0.0
 10
4.183531283207145
 20
-9.871254113490057
 30
0.0
 10
2.576502847058411
 20
-10.40100340190519
 30
0.0
 10
2.030582386654548
 20
-10.53419300750628
 30
0.0
 10
0.931782979173237
 20
-10.71399571954044
 30
0.0
 10
0.376952199972994
 20
-10.76126974406539
 30
0.0
 10
-0.4636031660690864
 20
-10.76696393890287
 30
0.0
 10
-0.7463648276029307
 20
-10.75781093442741
 30
0.0
 10
-1.30631645433186
 20
-10.71763232910927
 30
0.0
 10
-1.584004846880085
 20
-10.68671199185241
 30
0.0
 10
-2.410363146829412
 20
-10.56219377683182
 30
0.0
 10
-2.952348609961237
 20
-10.43693454582096
 30
0.0
 10
-4.018429908184689
 20
-10.10175399336596
 30
0.0
 10
-4.545163183185521
 20
-9.890292834535403
 30
0.0
 10
-5.546145477429016
 20
-9.395903895086592
 30
0.0
 10
-6.02457737997604
 20
-9.112136438159704
 30
0.0
 10
-6.937473718116941
 20
-8.471705845458045
 30
0.0
 10
-7.374677689055741
 20
-8.112105359514883
 30
0.0
 10
-8.184206515229768
 20
-7.333444741933658
 30
0.0
 10
-8.557592634269428
 20
-6.914528891909132
 30
0.0
 10
-8.899186938127013
 20
-6.465637775213636
 30
0.0
  0
CIRCLE
  5
14C
330
23
100
AcDbEntity
  8
0
  6
Continuous
 62
     7
370
    25
100
AcDbCircle
 10
0.0
 20
0.0
 30
0.0
 40
9.999999999999984
  0
CIRCLE
  5
14D
330
23
100
AcDbEntity
  8
0
  6
Continuous
 62
     7
370
    25
100
AcDbCircle
 10
0.0
 20
0.0
 30
0.0
 40
8.0
  0
SPLINE
  5
14E
330
23
100
AcDbEntity
  8
0
  6
Continuous
 62
     7
370
    25
100
AcDbSpline
210
0.0
220
0.0
230
1.0
 70
     8
 71
     3
 72
    20
 73
    16
 74
     0
 42
0.000000001
 43
0.00000001
 40
0.0
 40
0.0
 40
0.0
 40
0.0
 40
0.0791708866343373
 40
0.1592683568397493
 40
0.238745718677425
 40
0.3176475356817275
 40
0.3976825609058563
 40
0.4774068128474063
 40
0.5561737874739584
 40
0.6360842137352424
 40
0.7159946399965263
 40
0.7947616146230785
 40
0.8744858665646283
 40
0.9545208917887572
 40
1.0
 40
1.0
 40
1.0
 40
1.0
 10
11.0
 20
0.0
 30
0.0
 10
10.95938061559492
 20
-0.7168642347743559
 30
0.0
 10
10.87766645417698
 20
-2.158982589176839
 30
0.0
 10
10.22310861366142
 20
-4.237909336959724
 30
0.0
 10
9.205634568070154
 20
-6.15088665233415
 30
0.0
 10
7.828274580377789
 20
-7.827881783822693
 30
0.0
 10
6.150521771801166
 20
-9.206086069134825
 30
0.0
 10
4.235751821711755
 20
-10.22803940932712
 30
0.0
 10
2.160401432548725
 20
-10.85772829707432
 30
0.0
 10
-0.0001836691208215
 20
-11.07177566308661
 30
0.0
 10
-2.159672012369682
 20
-10.85722315047907
 30
0.0
 10
-4.238278746427874
 20
-10.23003635707377
 30
0.0
 10
-6.140989087677714
 20
-9.198479621530543
 30
0.0
 10
-7.62250409521249
 20
-8.04419455238653
 30
0.0
 10
-8.316550196681916
 20
-7.143356943636666
 30
0.0
 10
-8.568032614545015
 20
-6.816945168581962
 30
0.0
  0
CIRCLE
  5
14F
330
23
100
AcDbEntity
  8
0
  6
Continuous
 62
     7
370
    25
100
AcDbCircle
 10
0.0
 20
0.0
 30
0.0
 40
30.0
  0
CIRCLE
  5
150
330
23
100
AcDbEntity
  8
0
  6
Continuous
 62
     7
370
    25
100
AcDbCircle
 10
0.0
 20
0.0
 30
0.0
 40
29.39999999999998
  0
CIRCLE
  5
151
330
23
100
AcDbEntity
  8
0
  6
Continuous
 62
     7
370
    25
100
AcDbCircle
 10
0.0
 20
0.0
 30
0.0
 40
13.00000000000001
  0
CIRCLE
  5
152
330
23
100
AcDbEntity
  8
0
  6
Continuous
 62
     7
370
    25
100
AcDbCircle
 10
0.0
 20
0.0
 30
0.0
 40
15.0
  0
CIRCLE
  5
153
330
23
100
AcDbEntity
  8
0
  6
Continuous
 62
     7
370
    25
100
AcDbCircle
 10
0.0
 20
0.0
 30
0.0
 40
12.0
  0
LINE
  5
156
330
23
100
AcDbEntity
  8
0
  6
Continuous
 62
     7
370
    25
100
AcDbLine
 10
11.0
 20
0.0
 30
0.0
 11
10.3660254038
 21
0.0
 31
0.0
  0
LINE
  5
157
330
23
100
AcDbEntity
  8
0
  6
Continuous
 62
     7
370
    25
100
AcDbLine
 10
10.9876917742
 20
-0.5202206021
 30
0.0
 11
11.0
 21
0.0
 31
0.0
  0
LINE
  5
158
330
23
100
AcDbEntity
  8
0
  6
Continuous
 62
     7
370
    25
100
AcDbLine
 10
-1.2963490063
 20
-10.9233456072
 30
0.0
 11
0.0
 21
-11.0
 31
0.0
  0
ARC
  5
159
330
23
100
AcDbEntity
  8
0
  6
Continuous
 62
     7
370
    25
100
AcDbCircle
 10
0.0
 20
0.0
 30
0.0
 40
11.0
100
AcDbArc
 50
0.0
 51
216.0
  0
VIEWPORT
  5
15C
330
23
100
AcDbEntity
  8
0
100
AcDbViewport
 10
0.0
 20
0.0
 30
0.0
 40
205.6
 41
156.0
 68
     1
 69
     1
 12
0.0
 22
0.0
 13
0.0
 23
0.0
 14
10.0
 24
10.0
 15
10.0
 25
10.0
 16
0.0
 26
0.0
 36
1.0
 17
0.0
 27
0.0
 37
0.0
 42
50.0
 43
0.0
 44
0.0
 45
61.2
 50
0.0
 51
0.0
 72
   100
 90
   557152
  1

281
     0
 71
     1
 74
     0
110
0.0
120
0.0
130
0.0
111
1.0
121
0.0
131
0.0
112
0.0
122
1.0
132
0.0
 79
     0
146
0.0
  0
ENDBLK
  5
25
330
23
100
AcDbEntity
  8
0
100
AcDbBlockEnd
  0
ENDSEC
  0
SECTION
  2
ENTITIES
  0
SPLINE
  5
73
330
1F
100
AcDbEntity
  8
0
  6
Continuous
 62
     7
370
    25
100
AcDbSpline
210
0.0
220
0.0
230
1.0
 70
     8
 71
     3
 72
    36
 73
    32
 74
     0
 42
0.000000001
 43
0.00000001
 40
0.0
 40
0.0
 40
0.0
 40
0.0
 40
0.0625
 40
0.0625
 40
0.125
 40
0.125
 40
0.1875
 40
0.1875
 40
0.2500000000000001
 40
0.2500000000000001
 40
0.3750000000000002
 40
0.3750000000000002
 40
0.5000000000000004
 40
0.5000000000000004
 40
0.5625000000000004
 40
0.5625000000000004
 40
0.6250000000000004
 40
0.6250000000000004
 40
0.6562500000000004
 40
0.6562500000000004
 40
0.6875000000000004
 40
0.6875000000000004
 40
0.7500000000000002
 40
0.7500000000000002
 40
0.8125000000000002
 40
0.8125000000000002
 40
0.8750000000000002
 40
0.8750000000000002
 40
0.9375000000000002
 40
0.9375000000000002
 40
1.0
 40
1.0
 40
1.0
 40
1.0
 10
-10.36602540378446
 20
0.0
 30
0.0
 10
-10.37929553389435
 20
0.5640032669516972
 30
0.0
 10
-10.34699459791638
 20
1.121836891776163
 30
0.0
 10
-10.19461206975203
 20
2.225620212286149
 30
0.0
 10
-10.07425539973873
 20
2.77246162327741
 30
0.0
 10
-9.743295724774091
 20
3.850111788661811
 30
0.0
 10
-9.536520287452651
 20
4.368968303290774
 30
0.0
 10
-9.043212907904868
 20
5.368114766552708
 30
0.0
 10
-8.755542344011658
 20
5.849810694510712
 30
0.0
 10
-7.774915367020951
 20
7.22562275075517
 30
0.0
 10
-6.9945340577845
 20
8.018886726728553
 30
0.0
 10
-5.179845366390336
 20
9.356876148816971
 30
0.0
 10
-4.183531283213846
 20
9.87125411348705
 30
0.0
 10
-2.576502847066473
 20
10.40100340190305
 30
0.0
 10
-2.030582386662938
 20
10.53419300750446
 30
0.0
 10
-0.9317829791824012
 20
10.71399571953942
 30
0.0
 10
-0.3769521999825557
 20
10.76126974406485
 30
0.0
 10
0.4636031660589223
 20
10.76696393890309
 30
0.0
 10
0.7463648275925826
 20
10.7578109344279
 30
0.0
 10
1.306316454321291
 20
10.71763232911033
 30
0.0
 10
1.584004846869412
 20
10.68671199185376
 30
0.0
 10
2.410363146818425
 20
10.56219377683408
 30
0.0
 10
2.952348609950056
 20
10.43693454582393
 30
0.0
 10
4.018429908173125
 20
10.10175399337031
 30
0.0
 10
4.545163183173884
 20
9.890292834540423
 30
0.0
 10
5.546145477417468
 20
9.39590389509304
 30
0.0
 10
6.024577379964558
 20
9.112136438166916
 30
0.0
 10
6.937473718105654
 20
8.471705845466865
 30
0.0
 10
7.37467768904459
 20
8.11210535952456
 30
0.0
 10
8.184206515219294
 20
7.33344474194483
 30
0.0
 10
8.557592634260416
 20
6.914528891919975
 30
0.0
 10
8.899186938118378
 20
6.465637775225183
 30
0.0
  0
CIRCLE
  5
76
330
1F
100
AcDbEntity
  8
0
  6
Continuous
 62
     7
370
    25
100
AcDbCircle
 10
0.0
 20
0.0
 30
0.0
 40
10.00000000000004
  0
CIRCLE
  5
77
330
1F
100
AcDbEntity
  8
0
  6
Continuous
 62
     7
370
    25
100
AcDbCircle
 10
0.0
 20
0.0
 30
0.0
 40
8.0
  0
SPLINE
  5
78
330
1F
100
AcDbEntity
  8
0
  6
Continuous
 62
     7
370
    25
100
AcDbSpline
210
0.0
220
0.0
230
1.0
 70
     8
 71
     3
 72
    20
 73
    16
 74
     0
 42
0.000000001
 43
0.00000001
 40
0.0
 40
0.0
 40
0.0
 40
0.0
 40
0.0791708866344057
 40
0.1592683568398869
 40
0.2387457186776311
 40
0.3176475356820019
 40
0.3976825609061999
 40
0.4774068128478187
 40
0.5561737874744389
 40
0.6360842137357918
 40
0.7159946399971449
 40
0.794761614623765
 40
0.8744858665653839
 40
0.9545208917895819
 40
0.9999999999999999
 40
0.9999999999999999
 40
0.9999999999999999
 40
0.9999999999999999
 10
-11.0
 20
0.0
 30
0.0
 10
-10.95938061559492
 20
0.7168642347743561
 30
0.0
 10
-10.87766645417699
 20
2.158982589176839
 30
0.0
 10
-10.22310861366142
 20
4.237909336959723
 30
0.0
 10
-9.205634568070154
 20
6.150886652334152
 30
0.0
 10
-7.828274580377784
 20
7.827881783822687
 30
0.0
 10
-6.150521771801169
 20
9.206086069134829
 30
0.0
 10
-4.235751821711749
 20
10.22803940932711
 30
0.0
 10
-2.160401432548731
 20
10.85772829707432
 30
0.0
 10
0.0001836691208274
 20
11.07177566308661
 30
0.0
 10
2.159672012369669
 20
10.85722315047906
 30
0.0
 10
4.238278746427919
 20
10.23003635707381
 30
0.0
 10
6.14098908767754
 20
9.198479621530382
 30
0.0
 10
7.622504095206782
 20
8.044194552391877
 30
0.0
 10
8.316550196671724
 20
7.143356943648484
 30
0.0
 10
8.568032614530152
 20
6.816945168600081
 30
0.0
  0
CIRCLE
  5
79
330
1F
100
AcDbEntity
  8
0
  6
Continuous
 62
     7
370
    25
100
AcDbCircle
 10
0.0
 20
0.0
 30
0.0
 40
28.99999999999998
  0
CIRCLE
  5
7A
330
1F
100
AcDbEntity
  8
0
  6
Continuous
 62
     7
370
    25
100
AcDbCircle
 10
0.0
 20
0.0
 30
0.0
 40
30.0
  0
LINE
  5
7B
330
1F
100
AcDbEntity
  8
0
  6
Continuous
 62
     7
370
    25
100
AcDbLine
 10
-11.0
 20
0.0
 30
0.0
 11
-10.3660254038
 21
0.0
 31
0.0
  0
ARC
  5
7C
330
1F
100
AcDbEntity
  8
0
  6
Continuous
 62
     7
370
    25
100
AcDbCircle
 10
0.0
 20
0.0
 30
0.0
 40
11.0
100
AcDbArc
 50
180.0
 51
36.0000000001
  0
SPLINE
  5
7D
330
1B
100
AcDbEntity
 67
     1
  8
0
  6
Continuous
 62
     7
370
    25
100
AcDbSpline
210
0.0
220
0.0
230
1.0
 70
     8
 71
     3
 72
     9
 73
     5
 74
     0
 42
0.000000001
 43
0.00000001
 40
0.0
 40
0.0
 40
0.0
 40
0.0
 40
0.5088003439104082
 40
1.0
 40
1.0
 40
1.0
 40
1.0
 10
-10.979560360198
 20
-1.586173883992778
 30
0.0
 10
-10.75351810003301
 20
-1.716934688088104
 30
0.0
 10
-10.30925295188526
 20
-1.973932950098609
 30
0.0
 10
-9.865035011866192
 20
-2.231013153607297
 30
0.0
 10
-9.646835312499999
 20
-2.357290861158212
 30
0.0
  0
SPLINE
  5
7E
330
1B
100
AcDbEntity
 67
     1
  8
0
  6
Continuous
 62
     7
370
    25
100
AcDbSpline
210
0.0
220
0.0
230
1.0
 70
     8
 71
     3
 72
     9
 73
     5
 74
     0
 42
0.000000001
 43
0.00000001
 40
0.0
 40
0.0
 40
0.0
 40
0.0
 40
0.4999906512290373
 40
1.0
 40
1.0
 40
1.0
 40
1.0
 10
9.405570786268225
 20
-1.182377131431336
 30
0.0
 10
9.626798768554485
 20
-1.051924100603507
 30
0.0
 10
10.06926300612064
 20
-0.7910131605546183
 30
0.0
 10
10.51220987943394
 20
-0.5301170380851428
 30
0.0
 10
10.73368745709945
 20
-0.3996665377923175
 30
0.0
  0
SPLINE
  5
7F
330
1B
100
AcDbEntity
 67
     1
  8
0
  6
Continuous
 62
     7
370
    25
100
AcDbSpline
210
0.0
220
0.0
230
1.0
 70
     8
 71
     3
 72
     9
 73
     5
 74
     0
 42
0.000000001
 43
0.00000001
 40
0.0
 40
0.0
 40
0.0
 40
0.0
 40
0.4999906512290309
 40
1.0
 40
1.0
 40
1.0
 40
1.0
 10
-9.405570786268227
 20
221.6823771314313
 30
0.0
 10
-9.62679876855449
 20
221.5519241006035
 30
0.0
 10
-10.06926300612066
 20
221.2910131605545
 30
0.0
 10
-10.51220987943397
 20
221.0301170380851
 30
0.0
 10
-10.7336874570995
 20
220.8996665377923
 30
0.0
  0
SPLINE
  5
80
330
1B
100
AcDbEntity
 67
     1
  8
0
  6
Continuous
 62
     7
370
    25
100
AcDbSpline
210
0.0
220
0.0
230
1.0
 70
     8
 71
     3
 72
     9
 73
     5
 74
     0
 42
0.000000001
 43
0.00000001
 40
0.0
 40
0.0
 40
0.0
 40
0.0
 40
0.4999906512290304
 40
1.0
 40
1.0
 40
1.0
 40
1.0
 10
-9.405570786268227
 20
219.1823771314313
 30
0.0
 10
-9.626798768554487
 20
219.0519241006035
 30
0.0
 10
-10.06926300612064
 20
218.7910131605547
 30
0.0
 10
-10.51220987943397
 20
218.5301170380852
 30
0.0
 10
-10.7336874570995
 20
218.3996665377923
 30
0.0
  0
SPLINE
  5
81
330
1B
100
AcDbEntity
 67
     1
  8
0
  6
Continuous
 62
     7
370
    25
100
AcDbSpline
210
0.0
220
0.0
230
1.0
 70
     8
 71
     3
 72
     9
 73
     5
 74
     0
 42
0.000000001
 43
0.00000001
 40
0.0
 40
0.0
 40
0.0
 40
0.0
 40
0.4999906512290297
 40
1.0
 40
1.0
 40
1.0
 40
1.0
 10
-9.405570786268227
 20
216.6823771314313
 30
0.0
 10
-9.626798768554485
 20
216.5519241006035
 30
0.0
 10
-10.06926300612064
 20
216.2910131605547
 30
0.0
 10
-10.51220987943397
 20
216.0301170380852
 30
0.0
 10
-10.7336874570995
 20
215.8996665377923
 30
0.0
  0
SPLINE
  5
82
330
1B
100
AcDbEntity
 67
     1
  8
0
  6
Continuous
 62
     7
370
    25
100
AcDbSpline
210
0.0
220
0.0
230
1.0
 70
     8
 71
     3
 72
     9
 73
     5
 74
     0
 42
0.000000001
 43
0.00000001
 40
0.0
 40
0.0
 40
0.0
 40
0.0
 40
0.4999906512290386
 40
1.0
 40
1.0
 40
1.0
 40
1.0
 10
-9.405570786268227
 20
214.1823771314313
 30
0.0
 10
-9.626798768554481
 20
214.0519241006035
 30
0.0
 10
-10.06926300612062
 20
213.7910131605546
 30
0.0
 10
-10.51220987943396
 20
213.5301170380852
 30
0.0
 10
-10.7336874570995
 20
213.3996665377923
 30
0.0
  0
SPLINE
  5
83
330
1B
100
AcDbEntity
 67
     1
  8
0
  6
Continuous
 62
     7
370
    25
100
AcDbSpline
210
0.0
220
0.0
230
1.0
 70
     8
 71
     3
 72
     9
 73
     5
 74
     0
 42
0.000000001
 43
0.00000001
 40
0.0
 40
0.0
 40
0.0
 40
0.0
 40
0.4999906512290277
 40
1.0
 40
1.0
 40
1.0
 40
1.0
 10
-9.405570786268227
 20
211.6823771314313
 30
0.0
 10
-9.626798768554467
 20
211.5519241006035
 30
0.0
 10
-10.06926300612059
 20
211.2910131605547
 30
0.0
 10
-10.51220987943395
 20
211.0301170380852
 30
0.0
 10
-10.7336874570995
 20
210.8996665377923
 30
0.0
  0
SPLINE
  5
84
330
1B
100
AcDbEntity
 67
     1
  8
0
  6
Continuous
 62
     7
370
    25
100
AcDbSpline
210
0.0
220
0.0
230
1.0
 70
     8
 71
     3
 72
     9
 73
     5
 74
     0
 42
0.000000001
 43
0.00000001
 40
0.0
 40
0.0
 40
0.0
 40
0.0
 40
0.4999906512290277
 40
1.0
 40
1.0
 40
1.0
 40
1.0
 10
-9.405570786268227
 20
209.1823771314313
 30
0.0
 10
-9.626798768554467
 20
209.0519241006034
 30
0.0
 10
-10.06926300612059
 20
208.7910131605547
 30
0.0
 10
-10.51220987943395
 20
208.5301170380852
 30
0.0
 10
-10.7336874570995
 20
208.3996665377923
 30
0.0
  0
SPLINE
  5
85
330
1B
100
AcDbEntity
 67
     1
  8
0
  6
Continuous
 62
     7
370
    25
100
AcDbSpline
210
0.0
220
0.0
230
1.0
 70
     8
 71
     3
 72
     9
 73
     5
 74
     0
 42
0.000000001
 43
0.00000001
 40
0.0
 40
0.0
 40
0.0
 40
0.0
 40
0.4999906512290233
 40
1.0
 40
1.0
 40
1.0
 40
1.0
 10
-9.405570786268227
 20
206.6823771314313
 30
0.0
 10
-9.62679876855447
 20
206.5519241006035
 30
0.0
 10
-10.0692630061206
 20
206.2910131605546
 30
0.0
 10
-10.51220987943395
 20
206.0301170380852
 30
0.0
 10
-10.7336874570995
 20
205.8996665377923
 30
0.0
  0
SPLINE
  5
86
330
1B
100
AcDbEntity
 67
     1
  8
0
  6
Continuous
 62
     7
370
    25
100
AcDbSpline
210
0.0
220
0.0
230
1.0
 70
     8
 71
     3
 72
     9
 73
     5
 74
     0
 42
0.000000001
 43
0.00000001
 40
0.0
 40
0.0
 40
0.0
 40
0.0
 40
0.5088003439103918
 40
0.9999999999999999
 40
0.9999999999999999
 40
0.9999999999999999
 40
0.9999999999999999
 10
10.979560360198
 20
222.0861738839928
 30
0.0
 10
10.75351810003301
 20
222.216934688088
 30
0.0
 10
10.30925295188523
 20
222.4739329500984
 30
0.0
 10
9.865035011866189
 20
222.7310131536073
 30
0.0
 10
9.646835312499999
 20
222.8572908611582
 30
0.0
  0
SPLINE
  5
87
330
1B
100
AcDbEntity
 67
     1
  8
0
  6
Continuous
 62
     7
370
    25
100
AcDbSpline
210
0.0
220
0.0
230
1.0
 70
     8
 71
     3
 72
     9
 73
     5
 74
     0
 42
0.000000001
 43
0.00000001
 40
0.0
 40
0.0
 40
0.0
 40
0.0
 40
0.5088003439104188
 40
1.0
 40
1.0
 40
1.0
 40
1.0
 10
10.979560360198
 20
219.5861738839928
 30
0.0
 10
10.75351810003302
 20
219.7169346880882
 30
0.0
 10
10.30925295188527
 20
219.9739329500987
 30
0.0
 10
9.865035011866192
 20
220.2310131536073
 30
0.0
 10
9.646835312499999
 20
220.3572908611582
 30
0.0
  0
SPLINE
  5
88
330
1B
100
AcDbEntity
 67
     1
  8
0
  6
Continuous
 62
     7
370
    25
100
AcDbSpline
210
0.0
220
0.0
230
1.0
 70
     8
 71
     3
 72
     9
 73
     5
 74
     0
 42
0.000000001
 43
0.00000001
 40
0.0
 40
0.0
 40
0.0
 40
0.0
 40
0.5088003439104027
 40
1.0
 40
1.0
 40
1.0
 40
1.0
 10
10.979560360198
 20
217.0861738839928
 30
0.0
 10
10.75351810003301
 20
217.2169346880881
 30
0.0
 10
10.30925295188524
 20
217.4739329500986
 30
0.0
 10
9.86503501186619
 20
217.7310131536073
 30
0.0
 10
9.6468353125
 20
217.8572908611582
 30
0.0
  0
SPLINE
  5
89
330
1B
100
AcDbEntity
 67
     1
  8
0
  6
Continuous
 62
     7
370
    25
100
AcDbSpline
210
0.0
220
0.0
230
1.0
 70
     8
 71
     3
 72
     9
 73
     5
 74
     0
 42
0.000000001
 43
0.00000001
 40
0.0
 40
0.0
 40
0.0
 40
0.0
 40
0.5088003439104046
 40
1.0
 40
1.0
 40
1.0
 40
1.0
 10
10.979560360198
 20
214.5861738839928
 30
0.0
 10
10.75351810003301
 20
214.7169346880881
 30
0.0
 10
10.30925295188524
 20
214.9739329500986
 30
0.0
 10
9.865035011866185
 20
215.2310131536073
 30
0.0
 10
9.646835312499999
 20
215.3572908611582
 30
0.0
  0
SPLINE
  5
8A
330
1B
100
AcDbEntity
 67
     1
  8
0
  6
Continuous
 62
     7
370
    25
100
AcDbSpline
210
0.0
220
0.0
230
1.0
 70
     8
 71
     3
 72
     9
 73
     5
 74
     0
 42
0.000000001
 43
0.00000001
 40
0.0
 40
0.0
 40
0.0
 40
0.0
 40
0.5088003439104077
 40
1.0
 40
1.0
 40
1.0
 40
1.0
 10
10.979560360198
 20
212.0861738839928
 30
0.0
 10
10.75351810003301
 20
212.2169346880881
 30
0.0
 10
10.30925295188523
 20
212.4739329500986
 30
0.0
 10
9.865035011866185
 20
212.7310131536073
 30
0.0
 10
9.646835312499999
 20
212.8572908611582
 30
0.0
  0
SPLINE
  5
8B
330
1B
100
AcDbEntity
 67
     1
  8
0
  6
Continuous
 62
     7
370
    25
100
AcDbSpline
210
0.0
220
0.0
230
1.0
 70
     8
 71
     3
 72
     9
 73
     5
 74
     0
 42
0.000000001
 43
0.00000001
 40
0.0
 40
0.0
 40
0.0
 40
0.0
 40
0.5088003439104166
 40
1.0
 40
1.0
 40
1.0
 40
1.0
 10
10.979560360198
 20
209.5861738839928
 30
0.0
 10
10.75351810003301
 20
209.7169346880881
 30
0.0
 10
10.30925295188525
 20
209.9739329500985
 30
0.0
 10
9.865035011866185
 20
210.2310131536073
 30
0.0
 10
9.646835312499999
 20
210.3572908611582
 30
0.0
  0
SPLINE
  5
8C
330
1B
100
AcDbEntity
 67
     1
  8
0
  6
Continuous
 62
     7
370
    25
100
AcDbSpline
210
0.0
220
0.0
230
1.0
 70
     8
 71
     3
 72
     9
 73
     5
 74
     0
 42
0.000000001
 43
0.00000001
 40
0.0
 40
0.0
 40
0.0
 40
0.0
 40
0.5088003439104133
 40
1.0
 40
1.0
 40
1.0
 40
1.0
 10
10.979560360198
 20
207.0861738839928
 30
0.0
 10
10.75351810003301
 20
207.2169346880881
 30
0.0
 10
10.30925295188524
 20
207.4739329500985
 30
0.0
 10
9.865035011866187
 20
207.7310131536073
 30
0.0
 10
9.646835312499999
 20
207.8572908611582
 30
0.0
  0
SPLINE
  5
8D
330
1B
100
AcDbEntity
 67
     1
  8
0
  6
Continuous
 62
     7
370
    25
100
AcDbSpline
210
0.0
220
0.0
230
1.0
 70
     8
 71
     3
 72
     9
 73
     5
 74
     0
 42
0.000000001
 43
0.00000001
 40
0.0
 40
0.0
 40
0.0
 40
0.0
 40
0.5088003439103989
 40
1.0
 40
1.0
 40
1.0
 40
1.0
 10
10.979560360198
 20
224.5861738839928
 30
0.0
 10
10.75351810003301
 20
224.7169346880881
 30
0.0
 10
10.30925295188524
 20
224.9739329500985
 30
0.0
 10
9.86503501186619
 20
225.2310131536073
 30
0.0
 10
9.646835312499999
 20
225.3572908611582
 30
0.0
  0
SPLINE
  5
8E
330
1B
100
AcDbEntity
 67
     1
  8
0
  6
Continuous
 62
     7
370
    25
100
AcDbSpline
210
0.0
220
0.0
230
1.0
 70
     8
 71
     3
 72
     9
 73
     5
 74
     0
 42
0.000000001
 43
0.00000001
 40
0.0
 40
0.0
 40
0.0
 40
0.0
 40
0.499990651229049
 40
1.0
 40
1.0
 40
1.0
 40
1.0
 10
-9.405570786268227
 20
224.1823771314313
 30
0.0
 10
-9.626798768554492
 20
224.0519241006035
 30
0.0
 10
-10.06926300612064
 20
223.7910131605545
 30
0.0
 10
-10.51220987943397
 20
223.5301170380851
 30
0.0
 10
-10.7336874570995
 20
223.3996665377923
 30
0.0
  0
SPLINE
  5
8F
330
1B
100
AcDbEntity
 67
     1
  8
0
  6
Continuous
 62
     7
370
    25
100
AcDbSpline
210
0.0
220
0.0
230
1.0
 70
     8
 71
     3
 72
     9
 73
     5
 74
     0
 42
0.000000001
 43
0.00000001
 40
0.0
 40
0.0
 40
0.0
 40
0.0
 40
0.5000093487709344
 40
1.0
 40
1.0
 40
1.0
 40
1.0
 10
10.73368745709946
 20
-2.412833469035661
 30
0.0
 10
10.51220987943396
 20
-2.282382968742835
 30
0.0
 10
10.06926300612066
 20
-2.02148684627336
 30
0.0
 10
9.626798768554506
 20
-1.760575906224471
 30
0.0
 10
9.405570786268232
 20
-1.630122875396642
 30
0.0
  0
SPLINE
  5
90
330
1B
100
AcDbEntity
 67
     1
  8
0
  6
Continuous
 62
     7
370
    25
100
AcDbSpline
210
0.0
220
0.0
230
1.0
 70
     8
 71
     3
 72
     9
 73
     5
 74
     0
 42
0.000000001
 43
0.00000001
 40
0.0
 40
0.0
 40
0.0
 40
0.0
 40
0.4999486084130365
 40
1.0
 40
1.0
 40
1.0
 40
1.0
 10
-9.62351865383738
 20
-0.4417161421450266
 30
0.0
 10
-9.849490367486831
 20
-0.5724918738365392
 30
0.0
 10
-10.30148025174062
 20
-0.8340702230725389
 30
0.0
 10
-10.75351817008154
 20
-1.095565197153175
 30
0.0
 10
-10.97956036019799
 20
-1.226326122835186
 30
0.0
  0
SPLINE
  5
91
330
1B
100
AcDbEntity
 67
     1
  8
0
  6
Continuous
 62
     7
370
    25
100
AcDbSpline
210
0.0
220
0.0
230
1.0
 70
     8
 71
     3
 72
     9
 73
     5
 74
     0
 42
0.000000001
 43
0.00000001
 40
0.0
 40
0.0
 40
0.0
 40
0.0
 40
0.4999486084130385
 40
1.0
 40
1.0
 40
1.0
 40
1.0
 10
-9.62351865383738
 20
-2.941716142145029
 30
0.0
 10
-9.84949036748683
 20
-3.072491873836541
 30
0.0
 10
-10.30148025174062
 20
-3.334070223072541
 30
0.0
 10
-10.75351817008155
 20
-3.595565197153178
 30
0.0
 10
-10.97956036019799
 20
-3.726326122835188
 30
0.0
  0
SPLINE
  5
92
330
1B
100
AcDbEntity
 67
     1
  8
0
  6
Continuous
 62
     7
370
    25
100
AcDbSpline
210
0.0
220
0.0
230
1.0
 70
     8
 71
     3
 72
     9
 73
     5
 74
     0
 42
0.000000001
 43
0.00000001
 40
0.0
 40
0.0
 40
0.0
 40
0.0
 40
0.50000934877095
 40
0.9999999999999999
 40
0.9999999999999999
 40
0.9999999999999999
 40
0.9999999999999999
 10
-10.73368745709947
 20
225.4128334690356
 30
0.0
 10
-10.51220987943396
 20
225.2823829687428
 30
0.0
 10
-10.06926300612065
 20
225.0214868462733
 30
0.0
 10
-9.626798768554503
 20
224.7605759062244
 30
0.0
 10
-9.405570786268243
 20
224.6301228753966
 30
0.0
  0
SPLINE
  5
93
330
1B
100
AcDbEntity
 67
     1
  8
0
  6
Continuous
 62
     7
370
    25
100
AcDbSpline
210
0.0
220
0.0
230
1.0
 70
     8
 71
     3
 72
     9
 73
     5
 74
     0
 42
0.000000001
 43
0.00000001
 40
0.0
 40
0.0
 40
0.0
 40
0.0
 40
0.5000093487709584
 40
1.0
 40
1.0
 40
1.0
 40
1.0
 10
-10.73368745709947
 20
222.9128334690356
 30
0.0
 10
-10.51220987943396
 20
222.7823829687428
 30
0.0
 10
-10.06926300612067
 20
222.5214868462733
 30
0.0
 10
-9.62679876855451
 20
222.2605759062244
 30
0.0
 10
-9.405570786268243
 20
222.1301228753966
 30
0.0
  0
SPLINE
  5
94
330
1B
100
AcDbEntity
 67
     1
  8
0
  6
Continuous
 62
     7
370
    25
100
AcDbSpline
210
0.0
220
0.0
230
1.0
 70
     8
 71
     3
 72
     9
 73
     5
 74
     0
 42
0.000000001
 43
0.00000001
 40
0.0
 40
0.0
 40
0.0
 40
0.0
 40
0.5000093487709648
 40
1.0
 40
1.0
 40
1.0
 40
1.0
 10
-10.73368745709947
 20
220.4128334690356
 30
0.0
 10
-10.51220987943397
 20
220.2823829687428
 30
0.0
 10
-10.06926300612071
 20
220.0214868462733
 30
0.0
 10
-9.626798768554519
 20
219.7605759062244
 30
0.0
 10
-9.405570786268243
 20
219.6301228753966
 30
0.0
  0
SPLINE
  5
95
330
1B
100
AcDbEntity
 67
     1
  8
0
  6
Continuous
 62
     7
370
    25
100
AcDbSpline
210
0.0
220
0.0
230
1.0
 70
     8
 71
     3
 72
     9
 73
     5
 74
     0
 42
0.000000001
 43
0.00000001
 40
0.0
 40
0.0
 40
0.0
 40
0.0
 40
0.5000093487709659
 40
1.0
 40
1.0
 40
1.0
 40
1.0
 10
-10.73368745709947
 20
217.9128334690356
 30
0.0
 10
-10.51220987943397
 20
217.7823829687428
 30
0.0
 10
-10.06926300612072
 20
217.5214868462733
 30
0.0
 10
-9.626798768554524
 20
217.2605759062245
 30
0.0
 10
-9.405570786268243
 20
217.1301228753966
 30
0.0
  0
SPLINE
  5
96
330
1B
100
AcDbEntity
 67
     1
  8
0
  6
Continuous
 62
     7
370
    25
100
AcDbSpline
210
0.0
220
0.0
230
1.0
 70
     8
 71
     3
 72
     9
 73
     5
 74
     0
 42
0.000000001
 43
0.00000001
 40
0.0
 40
0.0
 40
0.0
 40
0.0
 40
0.500009348770936
 40
0.9999999999999999
 40
0.9999999999999999
 40
0.9999999999999999
 40
0.9999999999999999
 10
-10.73368745709947
 20
215.4128334690356
 30
0.0
 10
-10.51220987943398
 20
215.2823829687428
 30
0.0
 10
-10.0692630061207
 20
215.0214868462734
 30
0.0
 10
-9.626798768554522
 20
214.7605759062244
 30
0.0
 10
-9.405570786268243
 20
214.6301228753966
 30
0.0
  0
SPLINE
  5
97
330
1B
100
AcDbEntity
 67
     1
  8
0
  6
Continuous
 62
     7
370
    25
100
AcDbSpline
210
0.0
220
0.0
230
1.0
 70
     8
 71
     3
 72
     9
 73
     5
 74
     0
 42
0.000000001
 43
0.00000001
 40
0.0
 40
0.0
 40
0.0
 40
0.0
 40
0.5000093487709271
 40
1.0
 40
1.0
 40
1.0
 40
1.0
 10
-10.73368745709947
 20
212.9128334690356
 30
0.0
 10
-10.51220987943398
 20
212.7823829687428
 30
0.0
 10
-10.06926300612069
 20
212.5214868462734
 30
0.0
 10
-9.626798768554522
 20
212.2605759062245
 30
0.0
 10
-9.405570786268243
 20
212.1301228753966
 30
0.0
  0
SPLINE
  5
98
330
1B
100
AcDbEntity
 67
     1
  8
0
  6
Continuous
 62
     7
370
    25
100
AcDbSpline
210
0.0
220
0.0
230
1.0
 70
     8
 71
     3
 72
     9
 73
     5
 74
     0
 42
0.000000001
 43
0.00000001
 40
0.0
 40
0.0
 40
0.0
 40
0.0
 40
0.5000093487709416
 40
0.9999999999999999
 40
0.9999999999999999
 40
0.9999999999999999
 40
0.9999999999999999
 10
-10.73368745709947
 20
210.4128334690356
 30
0.0
 10
-10.51220987943398
 20
210.2823829687428
 30
0.0
 10
-10.06926300612072
 20
210.0214868462734
 30
0.0
 10
-9.626798768554531
 20
209.7605759062244
 30
0.0
 10
-9.405570786268243
 20
209.6301228753966
 30
0.0
  0
SPLINE
  5
99
330
1B
100
AcDbEntity
 67
     1
  8
0
  6
Continuous
 62
     7
370
    25
100
AcDbSpline
210
0.0
220
0.0
230
1.0
 70
     8
 71
     3
 72
     9
 73
     5
 74
     0
 42
0.000000001
 43
0.00000001
 40
0.0
 40
0.0
 40
0.0
 40
0.0
 40
0.4999486084130037
 40
1.0
 40
1.0
 40
1.0
 40
1.0
 10
9.623518653837381
 20
223.441716142145
 30
0.0
 10
9.849490367486826
 20
223.5724918738365
 30
0.0
 10
10.30148025174063
 20
223.8340702230725
 30
0.0
 10
10.75351817008154
 20
224.0955651971531
 30
0.0
 10
10.97956036019799
 20
224.2263261228352
 30
0.0
  0
SPLINE
  5
9A
330
1B
100
AcDbEntity
 67
     1
  8
0
  6
Continuous
 62
     7
370
    25
100
AcDbSpline
210
0.0
220
0.0
230
1.0
 70
     8
 71
     3
 72
     9
 73
     5
 74
     0
 42
0.000000001
 43
0.00000001
 40
0.0
 40
0.0
 40
0.0
 40
0.0
 40
0.4999486084130144
 40
1.0
 40
1.0
 40
1.0
 40
1.0
 10
9.62351865383738
 20
220.941716142145
 30
0.0
 10
9.849490367486823
 20
221.0724918738365
 30
0.0
 10
10.30148025174062
 20
221.3340702230726
 30
0.0
 10
10.75351817008153
 20
221.5955651971532
 30
0.0
 10
10.97956036019799
 20
221.7263261228352
 30
0.0
  0
SPLINE
  5
9B
330
1B
100
AcDbEntity
 67
     1
  8
0
  6
Continuous
 62
     7
370
    25
100
AcDbSpline
210
0.0
220
0.0
230
1.0
 70
     8
 71
     3
 72
     9
 73
     5
 74
     0
 42
0.000000001
 43
0.00000001
 40
0.0
 40
0.0
 40
0.0
 40
0.0
 40
0.4999486084130055
 40
1.0
 40
1.0
 40
1.0
 40
1.0
 10
9.62351865383738
 20
218.441716142145
 30
0.0
 10
9.849490367486824
 20
218.5724918738365
 30
0.0
 10
10.30148025174063
 20
218.8340702230725
 30
0.0
 10
10.75351817008154
 20
219.0955651971532
 30
0.0
 10
10.97956036019799
 20
219.2263261228352
 30
0.0
  0
SPLINE
  5
9C
330
1B
100
AcDbEntity
 67
     1
  8
0
  6
Continuous
 62
     7
370
    25
100
AcDbSpline
210
0.0
220
0.0
230
1.0
 70
     8
 71
     3
 72
     9
 73
     5
 74
     0
 42
0.000000001
 43
0.00000001
 40
0.0
 40
0.0
 40
0.0
 40
0.0
 40
0.4999486084130085
 40
1.0
 40
1.0
 40
1.0
 40
1.0
 10
9.623518653837381
 20
215.941716142145
 30
0.0
 10
9.849490367486828
 20
216.0724918738365
 30
0.0
 10
10.30148025174063
 20
216.3340702230725
 30
0.0
 10
10.75351817008154
 20
216.5955651971531
 30
0.0
 10
10.97956036019799
 20
216.7263261228352
 30
0.0
  0
SPLINE
  5
9D
330
1B
100
AcDbEntity
 67
     1
  8
0
  6
Continuous
 62
     7
370
    25
100
AcDbSpline
210
0.0
220
0.0
230
1.0
 70
     8
 71
     3
 72
     9
 73
     5
 74
     0
 42
0.000000001
 43
0.00000001
 40
0.0
 40
0.0
 40
0.0
 40
0.0
 40
0.4999486084130212
 40
1.0
 40
1.0
 40
1.0
 40
1.0
 10
9.62351865383738
 20
213.441716142145
 30
0.0
 10
9.849490367486826
 20
213.5724918738365
 30
0.0
 10
10.30148025174062
 20
213.8340702230725
 30
0.0
 10
10.75351817008154
 20
214.0955651971532
 30
0.0
 10
10.97956036019799
 20
214.2263261228352
 30
0.0
  0
SPLINE
  5
9E
330
1B
100
AcDbEntity
 67
     1
  8
0
  6
Continuous
 62
     7
370
    25
100
AcDbSpline
210
0.0
220
0.0
230
1.0
 70
     8
 71
     3
 72
     9
 73
     5
 74
     0
 42
0.000000001
 43
0.00000001
 40
0.0
 40
0.0
 40
0.0
 40
0.0
 40
0.4999486084130212
 40
1.0
 40
1.0
 40
1.0
 40
1.0
 10
9.62351865383738
 20
210.941716142145
 30
0.0
 10
9.849490367486826
 20
211.0724918738364
 30
0.0
 10
10.30148025174062
 20
211.3340702230724
 30
0.0
 10
10.75351817008154
 20
211.5955651971532
 30
0.0
 10
10.97956036019799
 20
211.7263261228352
 30
0.0
  0
SPLINE
  5
9F
330
1B
100
AcDbEntity
 67
     1
  8
0
  6
Continuous
 62
     7
370
    25
100
AcDbSpline
210
0.0
220
0.0
230
1.0
 70
     8
 71
     3
 72
     9
 73
     5
 74
     0
 42
0.000000001
 43
0.00000001
 40
0.0
 40
0.0
 40
0.0
 40
0.0
 40
0.4999486084130256
 40
1.0
 40
1.0
 40
1.0
 40
1.0
 10
9.623518653837381
 20
208.441716142145
 30
0.0
 10
9.849490367486828
 20
208.5724918738365
 30
0.0
 10
10.30148025174062
 20
208.8340702230725
 30
0.0
 10
10.75351817008154
 20
209.0955651971532
 30
0.0
 10
10.97956036019799
 20
209.2263261228352
 30
0.0
  0
SPLINE
  5
A0
330
1B
100
AcDbEntity
 67
     1
  8
0
  6
Continuous
 62
     7
370
    25
100
AcDbSpline
210
0.0
220
0.0
230
1.0
 70
     8
 71
     3
 72
     9
 73
     5
 74
     0
 42
0.000000001
 43
0.00000001
 40
0.0
 40
0.0
 40
0.0
 40
0.0
 40
0.4999486084130125
 40
1.0
 40
1.0
 40
1.0
 40
1.0
 10
9.62351865383738
 20
225.941716142145
 30
0.0
 10
9.849490367486819
 20
226.0724918738365
 30
0.0
 10
10.30148025174061
 20
226.3340702230725
 30
0.0
 10
10.75351817008153
 20
226.5955651971531
 30
0.0
 10
10.97956036019799
 20
226.7263261228352
 30
0.0
  0
SPLINE
  5
D9
330
1B
100
AcDbEntity
 67
     1
  8
0
  6
Continuous
 62
     7
370
    25
100
AcDbSpline
210
0.0
220
0.0
230
1.0
 70
     8
 71
     3
 72
    24
 73
    20
 74
     0
 42
0.000000001
 43
0.00000001
 40
0.0
 40
0.0
 40
0.0
 40
0.0
 40
0.0191390258508455
 40
0.0801809691278177
 40
0.1419373222616374
 40
0.2032155625257129
 40
0.2640500490746837
 40
0.3257582561895883
 40
0.3872268524337091
 40
0.4479573734831904
 40
0.5095695129254227
 40
0.5711816523676552
 40
0.6319121734171363
 40
0.6933807696612571
 40
0.7550889767761616
 40
0.8159234633251324
 40
0.8772017035892079
 40
0.9389580567230277
 40
1.0
 40
1.0
 40
1.0
 40
1.0
 10
-10.93429328942717
 20
-1.586679509495328
 30
0.0
 10
-10.96079639390951
 20
-1.578612172921642
 30
0.0
 10
-11.07182840874928
 20
-1.544814900803424
 30
0.0
 10
-10.83954459347407
 20
-1.485685833755482
 30
0.0
 10
-10.23328733176654
 20
-1.405353431842532
 30
0.0
 10
-9.202939089909764
 20
-1.327314844394675
 30
0.0
 10
-7.829007114907284
 20
-1.251493879155865
 30
0.0
 10
-6.150321803343751
 20
-1.17141643544838
 30
0.0
 10
-4.235816707967809
 20
-1.092438138068447
 30
0.0
 10
-2.160338983686658
 20
-1.017152635318694
 30
0.0
 10
-0.000003786133569
 20
-0.9375000006541512
 30
0.0
 10
2.16035401986809
 20
-0.857847402855827
 30
0.0
 10
4.235764618240087
 20
-0.7825617906479787
 30
0.0
 10
6.150518308968642
 20
-0.7035838986371723
 30
0.0
 10
7.828275494868325
 20
-0.623504941492381
 30
0.0
 10
9.205634322672163
 20
-0.5476895642111956
 30
0.0
 10
10.22310867989914
 20
-0.4696299841132207
 30
0.0
 10
10.87766643778793
 20
-0.3893763428421265
 30
0.0
 10
10.95938061015313
 20
-0.3380258707535583
 30
0.0
 10
11.0
 20
-0.312500006827976
 30
0.0
  0
SPLINE
  5
DA
330
1B
100
AcDbEntity
 67
     1
  8
0
  6
Continuous
 62
     7
370
    25
100
AcDbSpline
210
0.0
220
0.0
230
1.0
 70
     8
 71
     3
 72
    22
 73
    18
 74
     0
 42
0.000000001
 43
0.00000001
 40
0.0
 40
0.0
 40
0.0
 40
0.0
 40
0.0670040562523073
 40
0.1347929276246995
 40
0.202056564784848
 40
0.268832723948849
 40
0.3365687035876834
 40
0.4040414560723909
 40
0.4707034064633933
 40
0.5383338495118265
 40
0.6059642925602599
 40
0.672626242951262
 40
0.7400989954359696
 40
0.807834975074804
 40
0.874611134238805
 40
0.9418747713989534
 40
0.9999999999999999
 40
0.9999999999999999
 40
0.9999999999999999
 40
0.9999999999999999
 10
-9.646835312499999
 20
-2.343750003413983
 30
0.0
 10
-9.611212154470259
 20
-2.318224066422819
 30
0.0
 10
-9.539548586163514
 20
-2.266873208432246
 30
0.0
 10
-8.965515221649467
 20
-2.186620331120964
 30
0.0
 10
-8.073208204613268
 20
-2.108560735517462
 30
0.0
 10
-6.865270737465848
 20
-2.032744501812983
 30
0.0
 10
-5.393915032209212
 20
-1.952666266666847
 30
0.0
 10
-3.714712857703026
 20
-1.873688695822981
 30
0.0
 10
-1.894586265678611
 20
-1.798402048750397
 30
0.0
 10
0.0000100678071113
 20
-1.718749955046575
 30
0.0
 10
1.894546282799514
 20
-1.639098150161972
 30
0.0
 10
3.714851368963293
 20
-1.563810645573899
 30
0.0
 10
5.393392499720624
 20
-1.484836250493976
 30
0.0
 10
6.867216201610778
 20
-1.404746158682177
 30
0.0
 10
8.066041335773495
 20
-1.328973702138511
 30
0.0
 10
8.948218299584758
 20
-1.254495046367446
 30
0.0
 10
9.246141443551723
 20
-1.205134739766814
 30
0.0
 10
9.384246615358625
 20
-1.182253289427809
 30
0.0
  0
SPLINE
  5
DB
330
1B
100
AcDbEntity
 67
     1
  8
0
  6
Continuous
 62
     7
370
    25
100
AcDbSpline
210
0.0
220
0.0
230
1.0
 70
     8
 71
     3
 72
    24
 73
    20
 74
     0
 42
0.000000001
 43
0.00000001
 40
0.0
 40
0.0
 40
0.0
 40
0.0
 40
0.0191390258508434
 40
0.0801809691278158
 40
0.1419373222616355
 40
0.2032155625257111
 40
0.2640500490746821
 40
0.3257582561895868
 40
0.3872268524337077
 40
0.447957373483189
 40
0.5095695129254216
 40
0.5711816523676541
 40
0.6319121734171355
 40
0.6933807696612564
 40
0.755088976776161
 40
0.8159234633251315
 40
0.8772017035892068
 40
0.9389580567230261
 40
1.0
 40
1.0
 40
1.0
 40
1.0
 10
10.93429328942718
 20
224.5866795094953
 30
0.0
 10
10.96079639390952
 20
224.5786121729216
 30
0.0
 10
11.07182840874928
 20
224.5448149008033
 30
0.0
 10
10.83954459347407
 20
224.4856858337555
 30
0.0
 10
10.23328733176654
 20
224.4053534318426
 30
0.0
 10
9.202939089909762
 20
224.3273148443947
 30
0.0
 10
7.829007114907284
 20
224.2514938791558
 30
0.0
 10
6.150321803343752
 20
224.1714164354484
 30
0.0
 10
4.23581670796781
 20
224.0924381380685
 30
0.0
 10
2.160338983686651
 20
224.0171526353186
 30
0.0
 10
0.0000037861335765
 20
223.9375000006542
 30
0.0
 10
-2.160354019868095
 20
223.8578474028559
 30
0.0
 10
-4.235764618240088
 20
223.7825617906479
 30
0.0
 10
-6.150518308968642
 20
223.7035838986372
 30
0.0
 10
-7.828275494868318
 20
223.6235049414924
 30
0.0
 10
-9.20563432267216
 20
223.5476895642112
 30
0.0
 10
-10.22310867989912
 20
223.4696299841132
 30
0.0
 10
-10.87766643778793
 20
223.3893763428422
 30
0.0
 10
-10.95938061015313
 20
223.3380258707536
 30
0.0
 10
-11.0
 20
223.312500006828
 30
0.0
  0
SPLINE
  5
DC
330
1B
100
AcDbEntity
 67
     1
  8
0
  6
Continuous
 62
     7
370
    25
100
AcDbSpline
210
0.0
220
0.0
230
1.0
 70
     8
 71
     3
 72
    24
 73
    20
 74
     0
 42
0.000000001
 43
0.00000001
 40
0.0
 40
0.0
 40
0.0
 40
0.0
 40
0.0191390258508435
 40
0.0801809691278158
 40
0.1419373222616355
 40
0.2032155625257112
 40
0.2640500490746822
 40
0.3257582561895869
 40
0.3872268524337077
 40
0.447957373483189
 40
0.5095695129254216
 40
0.5711816523676542
 40
0.6319121734171355
 40
0.6933807696612564
 40
0.755088976776161
 40
0.8159234633251317
 40
0.8772017035892068
 40
0.9389580567230262
 40
1.0
 40
1.0
 40
1.0
 40
1.0
 10
10.93429328942718
 20
222.0866795094953
 30
0.0
 10
10.96079639390952
 20
222.0786121729216
 30
0.0
 10
11.07182840874929
 20
222.0448149008035
 30
0.0
 10
10.83954459347406
 20
221.9856858337554
 30
0.0
 10
10.23328733176654
 20
221.9053534318426
 30
0.0
 10
9.20293908990976
 20
221.8273148443946
 30
0.0
 10
7.829007114907284
 20
221.7514938791558
 30
0.0
 10
6.150321803343753
 20
221.6714164354484
 30
0.0
 10
4.235816707967809
 20
221.5924381380684
 30
0.0
 10
2.160338983686653
 20
221.5171526353187
 30
0.0
 10
0.0000037861335719
 20
221.437500000654
 30
0.0
 10
-2.160354019868089
 20
221.3578474028559
 30
0.0
 10
-4.235764618240092
 20
221.282561790648
 30
0.0
 10
-6.15051830896864
 20
221.2035838986371
 30
0.0
 10
-7.828275494868323
 20
221.1235049414924
 30
0.0
 10
-9.205634322672156
 20
221.0476895642112
 30
0.0
 10
-10.22310867989912
 20
220.9696299841131
 30
0.0
 10
-10.87766643778793
 20
220.8893763428422
 30
0.0
 10
-10.95938061015313
 20
220.8380258707535
 30
0.0
 10
-11.0
 20
220.8125000068279
 30
0.0
  0
SPLINE
  5
DD
330
1B
100
AcDbEntity
 67
     1
  8
0
  6
Continuous
 62
     7
370
    25
100
AcDbSpline
210
0.0
220
0.0
230
1.0
 70
     8
 71
     3
 72
    24
 73
    20
 74
     0
 42
0.000000001
 43
0.00000001
 40
0.0
 40
0.0
 40
0.0
 40
0.0
 40
0.0191390258508439
 40
0.0801809691278162
 40
0.1419373222616359
 40
0.2032155625257115
 40
0.2640500490746824
 40
0.3257582561895871
 40
0.387226852433708
 40
0.4479573734831893
 40
0.5095695129254219
 40
0.5711816523676543
 40
0.6319121734171356
 40
0.6933807696612565
 40
0.7550889767761612
 40
0.8159234633251318
 40
0.8772017035892069
 40
0.9389580567230262
 40
1.0
 40
1.0
 40
1.0
 40
1.0
 10
10.93429328942718
 20
219.5866795094953
 30
0.0
 10
10.96079639390951
 20
219.5786121729216
 30
0.0
 10
11.07182840874929
 20
219.5448149008034
 30
0.0
 10
10.83954459347406
 20
219.4856858337555
 30
0.0
 10
10.23328733176654
 20
219.4053534318426
 30
0.0
 10
9.202939089909762
 20
219.3273148443946
 30
0.0
 10
7.829007114907286
 20
219.251493879156
 30
0.0
 10
6.150321803343752
 20
219.1714164354483
 30
0.0
 10
4.235816707967809
 20
219.0924381380685
 30
0.0
 10
2.160338983686652
 20
219.0171526353187
 30
0.0
 10
0.0000037861335747
 20
218.9375000006541
 30
0.0
 10
-2.160354019868092
 20
218.8578474028559
 30
0.0
 10
-4.235764618240089
 20
218.7825617906479
 30
0.0
 10
-6.150518308968641
 20
218.7035838986371
 30
0.0
 10
-7.828275494868323
 20
218.6235049414924
 30
0.0
 10
-9.205634322672157
 20
218.5476895642112
 30
0.0
 10
-10.22310867989912
 20
218.4696299841131
 30
0.0
 10
-10.87766643778793
 20
218.389376342842
 30
0.0
 10
-10.95938061015313
 20
218.3380258707535
 30
0.0
 10
-11.0
 20
218.3125000068279
 30
0.0
  0
SPLINE
  5
DE
330
1B
100
AcDbEntity
 67
     1
  8
0
  6
Continuous
 62
     7
370
    25
100
AcDbSpline
210
0.0
220
0.0
230
1.0
 70
     8
 71
     3
 72
    24
 73
    20
 74
     0
 42
0.000000001
 43
0.00000001
 40
0.0
 40
0.0
 40
0.0
 40
0.0
 40
0.0191390258508439
 40
0.0801809691278162
 40
0.1419373222616359
 40
0.2032155625257115
 40
0.2640500490746824
 40
0.3257582561895871
 40
0.387226852433708
 40
0.4479573734831893
 40
0.5095695129254219
 40
0.5711816523676543
 40
0.6319121734171356
 40
0.6933807696612565
 40
0.7550889767761612
 40
0.8159234633251318
 40
0.8772017035892069
 40
0.9389580567230262
 40
1.0
 40
1.0
 40
1.0
 40
1.0
 10
10.93429328942718
 20
217.0866795094953
 30
0.0
 10
10.96079639390951
 20
217.0786121729216
 30
0.0
 10
11.07182840874929
 20
217.0448149008034
 30
0.0
 10
10.83954459347406
 20
216.9856858337555
 30
0.0
 10
10.23328733176654
 20
216.9053534318426
 30
0.0
 10
9.202939089909762
 20
216.8273148443947
 30
0.0
 10
7.829007114907286
 20
216.751493879156
 30
0.0
 10
6.150321803343752
 20
216.6714164354483
 30
0.0
 10
4.235816707967809
 20
216.5924381380685
 30
0.0
 10
2.160338983686652
 20
216.5171526353187
 30
0.0
 10
0.0000037861335747
 20
216.4375000006541
 30
0.0
 10
-2.160354019868092
 20
216.3578474028559
 30
0.0
 10
-4.235764618240089
 20
216.2825617906479
 30
0.0
 10
-6.150518308968641
 20
216.2035838986371
 30
0.0
 10
-7.828275494868323
 20
216.1235049414924
 30
0.0
 10
-9.205634322672157
 20
216.0476895642112
 30
0.0
 10
-10.22310867989912
 20
215.9696299841131
 30
0.0
 10
-10.87766643778793
 20
215.889376342842
 30
0.0
 10
-10.95938061015313
 20
215.8380258707535
 30
0.0
 10
-11.0
 20
215.8125000068279
 30
0.0
  0
SPLINE
  5
DF
330
1B
100
AcDbEntity
 67
     1
  8
0
  6
Continuous
 62
     7
370
    25
100
AcDbSpline
210
0.0
220
0.0
230
1.0
 70
     8
 71
     3
 72
    24
 73
    20
 74
     0
 42
0.000000001
 43
0.00000001
 40
0.0
 40
0.0
 40
0.0
 40
0.0
 40
0.019139025850843
 40
0.0801809691278154
 40
0.1419373222616352
 40
0.2032155625257109
 40
0.2640500490746819
 40
0.3257582561895866
 40
0.3872268524337075
 40
0.4479573734831888
 40
0.5095695129254214
 40
0.571181652367654
 40
0.6319121734171353
 40
0.6933807696612563
 40
0.755088976776161
 40
0.8159234633251315
 40
0.8772017035892068
 40
0.9389580567230262
 40
1.0
 40
1.0
 40
1.0
 40
1.0
 10
10.93429328942718
 20
214.5866795094953
 30
0.0
 10
10.96079639390951
 20
214.5786121729216
 30
0.0
 10
11.07182840874928
 20
214.5448149008034
 30
0.0
 10
10.83954459347407
 20
214.4856858337555
 30
0.0
 10
10.23328733176654
 20
214.4053534318425
 30
0.0
 10
9.202939089909762
 20
214.3273148443947
 30
0.0
 10
7.829007114907284
 20
214.2514938791558
 30
0.0
 10
6.150321803343752
 20
214.1714164354484
 30
0.0
 10
4.235816707967809
 20
214.0924381380685
 30
0.0
 10
2.160338983686654
 20
214.0171526353187
 30
0.0
 10
0.0000037861335723
 20
213.9375000006541
 30
0.0
 10
-2.160354019868093
 20
213.8578474028558
 30
0.0
 10
-4.235764618240087
 20
213.782561790648
 30
0.0
 10
-6.150518308968643
 20
213.7035838986371
 30
0.0
 10
-7.828275494868318
 20
213.6235049414925
 30
0.0
 10
-9.205634322672159
 20
213.5476895642112
 30
0.0
 10
-10.22310867989912
 20
213.4696299841132
 30
0.0
 10
-10.87766643778793
 20
213.3893763428421
 30
0.0
 10
-10.95938061015313
 20
213.3380258707535
 30
0.0
 10
-11.0
 20
213.3125000068279
 30
0.0
  0
SPLINE
  5
E0
330
1B
100
AcDbEntity
 67
     1
  8
0
  6
Continuous
 62
     7
370
    25
100
AcDbSpline
210
0.0
220
0.0
230
1.0
 70
     8
 71
     3
 72
    24
 73
    20
 74
     0
 42
0.000000001
 43
0.00000001
 40
0.0
 40
0.0
 40
0.0
 40
0.0
 40
0.019139025850843
 40
0.0801809691278154
 40
0.1419373222616352
 40
0.2032155625257108
 40
0.2640500490746818
 40
0.3257582561895866
 40
0.3872268524337075
 40
0.4479573734831888
 40
0.5095695129254214
 40
0.571181652367654
 40
0.6319121734171353
 40
0.6933807696612563
 40
0.755088976776161
 40
0.8159234633251315
 40
0.8772017035892068
 40
0.9389580567230262
 40
1.0
 40
1.0
 40
1.0
 40
1.0
 10
10.93429328942718
 20
212.0866795094953
 30
0.0
 10
10.96079639390952
 20
212.0786121729216
 30
0.0
 10
11.07182840874928
 20
212.0448149008034
 30
0.0
 10
10.83954459347406
 20
211.9856858337555
 30
0.0
 10
10.23328733176654
 20
211.9053534318425
 30
0.0
 10
9.20293908990976
 20
211.8273148443946
 30
0.0
 10
7.829007114907281
 20
211.7514938791558
 30
0.0
 10
6.150321803343753
 20
211.6714164354483
 30
0.0
 10
4.235816707967809
 20
211.5924381380685
 30
0.0
 10
2.160338983686654
 20
211.5171526353187
 30
0.0
 10
0.0000037861335723
 20
211.4375000006541
 30
0.0
 10
-2.160354019868093
 20
211.3578474028559
 30
0.0
 10
-4.235764618240087
 20
211.282561790648
 30
0.0
 10
-6.150518308968643
 20
211.2035838986371
 30
0.0
 10
-7.828275494868318
 20
211.1235049414925
 30
0.0
 10
-9.205634322672159
 20
211.0476895642112
 30
0.0
 10
-10.22310867989912
 20
210.9696299841132
 30
0.0
 10
-10.87766643778793
 20
210.8893763428421
 30
0.0
 10
-10.95938061015313
 20
210.8380258707535
 30
0.0
 10
-11.0
 20
210.8125000068279
 30
0.0
  0
SPLINE
  5
E1
330
1B
100
AcDbEntity
 67
     1
  8
0
  6
Continuous
 62
     7
370
    25
100
AcDbSpline
210
0.0
220
0.0
230
1.0
 70
     8
 71
     3
 72
    24
 73
    20
 74
     0
 42
0.000000001
 43
0.00000001
 40
0.0
 40
0.0
 40
0.0
 40
0.0
 40
0.019139025850843
 40
0.0801809691278154
 40
0.1419373222616352
 40
0.2032155625257108
 40
0.2640500490746818
 40
0.3257582561895866
 40
0.3872268524337075
 40
0.4479573734831888
 40
0.5095695129254214
 40
0.571181652367654
 40
0.6319121734171353
 40
0.6933807696612563
 40
0.755088976776161
 40
0.8159234633251315
 40
0.8772017035892068
 40
0.9389580567230262
 40
1.0
 40
1.0
 40
1.0
 40
1.0
 10
10.93429328942718
 20
209.5866795094953
 30
0.0
 10
10.96079639390952
 20
209.5786121729216
 30
0.0
 10
11.07182840874928
 20
209.5448149008034
 30
0.0
 10
10.83954459347406
 20
209.4856858337555
 30
0.0
 10
10.23328733176654
 20
209.4053534318425
 30
0.0
 10
9.20293908990976
 20
209.3273148443946
 30
0.0
 10
7.829007114907281
 20
209.2514938791558
 30
0.0
 10
6.150321803343753
 20
209.1714164354484
 30
0.0
 10
4.235816707967809
 20
209.0924381380685
 30
0.0
 10
2.160338983686654
 20
209.0171526353187
 30
0.0
 10
0.0000037861335723
 20
208.9375000006541
 30
0.0
 10
-2.160354019868093
 20
208.8578474028559
 30
0.0
 10
-4.235764618240087
 20
208.782561790648
 30
0.0
 10
-6.150518308968643
 20
208.7035838986371
 30
0.0
 10
-7.828275494868318
 20
208.6235049414925
 30
0.0
 10
-9.205634322672159
 20
208.5476895642112
 30
0.0
 10
-10.22310867989912
 20
208.4696299841132
 30
0.0
 10
-10.87766643778793
 20
208.3893763428421
 30
0.0
 10
-10.95938061015313
 20
208.3380258707535
 30
0.0
 10
-11.0
 20
208.3125000068279
 30
0.0
  0
SPLINE
  5
E2
330
1B
100
AcDbEntity
 67
     1
  8
0
  6
Continuous
 62
     7
370
    25
100
AcDbSpline
210
0.0
220
0.0
230
1.0
 70
     8
 71
     3
 72
    24
 73
    20
 74
     0
 42
0.000000001
 43
0.00000001
 40
0.0
 40
0.0
 40
0.0
 40
0.0
 40
0.019139025850843
 40
0.0801809691278154
 40
0.1419373222616352
 40
0.2032155625257109
 40
0.2640500490746818
 40
0.3257582561895866
 40
0.3872268524337074
 40
0.4479573734831888
 40
0.5095695129254214
 40
0.571181652367654
 40
0.6319121734171353
 40
0.6933807696612563
 40
0.755088976776161
 40
0.8159234633251315
 40
0.8772017035892068
 40
0.9389580567230262
 40
1.0
 40
1.0
 40
1.0
 40
1.0
 10
10.93429328942718
 20
207.0866795094953
 30
0.0
 10
10.96079639390951
 20
207.0786121729217
 30
0.0
 10
11.07182840874928
 20
207.0448149008034
 30
0.0
 10
10.83954459347407
 20
206.9856858337555
 30
0.0
 10
10.23328733176654
 20
206.9053534318426
 30
0.0
 10
9.202939089909764
 20
206.8273148443947
 30
0.0
 10
7.829007114907281
 20
206.7514938791559
 30
0.0
 10
6.150321803343755
 20
206.6714164354484
 30
0.0
 10
4.235816707967805
 20
206.5924381380685
 30
0.0
 10
2.160338983686655
 20
206.5171526353187
 30
0.0
 10
0.0000037861335721
 20
206.4375000006541
 30
0.0
 10
-2.160354019868093
 20
206.3578474028559
 30
0.0
 10
-4.235764618240087
 20
206.282561790648
 30
0.0
 10
-6.150518308968643
 20
206.2035838986372
 30
0.0
 10
-7.828275494868318
 20
206.1235049414924
 30
0.0
 10
-9.205634322672159
 20
206.0476895642112
 30
0.0
 10
-10.22310867989912
 20
205.9696299841132
 30
0.0
 10
-10.87766643778793
 20
205.8893763428422
 30
0.0
 10
-10.95938061015313
 20
205.8380258707535
 30
0.0
 10
-11.0
 20
205.8125000068279
 30
0.0
  0
SPLINE
  5
E3
330
1B
100
AcDbEntity
 67
     1
  8
0
  6
Continuous
 62
     7
370
    25
100
AcDbSpline
210
0.0
220
0.0
230
1.0
 70
     8
 71
     3
 72
    22
 73
    18
 74
     0
 42
0.000000001
 43
0.00000001
 40
0.0
 40
0.0
 40
0.0
 40
0.0
 40
0.0670040562523073
 40
0.1347929276246994
 40
0.2020565647848479
 40
0.2688327239488488
 40
0.3365687035876833
 40
0.4040414560723908
 40
0.470703406463393
 40
0.5383338495118263
 40
0.6059642925602595
 40
0.6726262429512619
 40
0.7400989954359694
 40
0.8078349750748037
 40
0.8746111342388041
 40
0.9418747713989521
 40
1.0
 40
1.0
 40
1.0
 40
1.0
 10
9.646835312499999
 20
225.343750003414
 30
0.0
 10
9.611212154470257
 20
225.3182240664227
 30
0.0
 10
9.539548586163516
 20
225.2668732084322
 30
0.0
 10
8.965515221649468
 20
225.186620331121
 30
0.0
 10
8.073208204613266
 20
225.1085607355173
 30
0.0
 10
6.865270737465848
 20
225.0327445018131
 30
0.0
 10
5.393915032209213
 20
224.9526662666668
 30
0.0
 10
3.714712857703027
 20
224.873688695823
 30
0.0
 10
1.894586265678609
 20
224.7984020487503
 30
0.0
 10
-0.0000100678071082
 20
224.7187499550466
 30
0.0
 10
-1.894546282799521
 20
224.6390981501619
 30
0.0
 10
-3.714851368963284
 20
224.5638106455739
 30
0.0
 10
-5.393392499720629
 20
224.4848362504939
 30
0.0
 10
-6.867216201610771
 20
224.4047461586822
 30
0.0
 10
-8.066041335773487
 20
224.3289737021385
 30
0.0
 10
-8.94821829958475
 20
224.2544950463673
 30
0.0
 10
-9.246141443551721
 20
224.2051347397667
 30
0.0
 10
-9.38424661535863
 20
224.1822532894278
 30
0.0
  0
SPLINE
  5
E4
330
1B
100
AcDbEntity
 67
     1
  8
0
  6
Continuous
 62
     7
370
    25
100
AcDbSpline
210
0.0
220
0.0
230
1.0
 70
     8
 71
     3
 72
    22
 73
    18
 74
     0
 42
0.000000001
 43
0.00000001
 40
0.0
 40
0.0
 40
0.0
 40
0.0
 40
0.0670040562523073
 40
0.1347929276246994
 40
0.2020565647848479
 40
0.2688327239488488
 40
0.3365687035876833
 40
0.4040414560723908
 40
0.470703406463393
 40
0.5383338495118263
 40
0.6059642925602595
 40
0.6726262429512619
 40
0.7400989954359694
 40
0.8078349750748037
 40
0.8746111342388041
 40
0.9418747713989521
 40
1.0
 40
1.0
 40
1.0
 40
1.0
 10
9.646835312499999
 20
222.843750003414
 30
0.0
 10
9.611212154470257
 20
222.8182240664227
 30
0.0
 10
9.539548586163516
 20
222.7668732084321
 30
0.0
 10
8.965515221649468
 20
222.686620331121
 30
0.0
 10
8.073208204613266
 20
222.6085607355174
 30
0.0
 10
6.865270737465848
 20
222.5327445018131
 30
0.0
 10
5.393915032209213
 20
222.4526662666668
 30
0.0
 10
3.714712857703027
 20
222.373688695823
 30
0.0
 10
1.894586265678609
 20
222.2984020487503
 30
0.0
 10
-0.0000100678071082
 20
222.2187499550466
 30
0.0
 10
-1.894546282799521
 20
222.1390981501619
 30
0.0
 10
-3.714851368963284
 20
222.0638106455739
 30
0.0
 10
-5.393392499720629
 20
221.984836250494
 30
0.0
 10
-6.867216201610771
 20
221.9047461586822
 30
0.0
 10
-8.066041335773487
 20
221.8289737021385
 30
0.0
 10
-8.94821829958475
 20
221.7544950463674
 30
0.0
 10
-9.246141443551721
 20
221.7051347397667
 30
0.0
 10
-9.38424661535863
 20
221.6822532894278
 30
0.0
  0
SPLINE
  5
E5
330
1B
100
AcDbEntity
 67
     1
  8
0
  6
Continuous
 62
     7
370
    25
100
AcDbSpline
210
0.0
220
0.0
230
1.0
 70
     8
 71
     3
 72
    22
 73
    18
 74
     0
 42
0.000000001
 43
0.00000001
 40
0.0
 40
0.0
 40
0.0
 40
0.0
 40
0.0670040562523073
 40
0.1347929276246994
 40
0.2020565647848479
 40
0.2688327239488488
 40
0.3365687035876833
 40
0.4040414560723908
 40
0.470703406463393
 40
0.5383338495118263
 40
0.6059642925602595
 40
0.6726262429512619
 40
0.7400989954359694
 40
0.8078349750748037
 40
0.8746111342388041
 40
0.9418747713989521
 40
1.0
 40
1.0
 40
1.0
 40
1.0
 10
9.646835312499999
 20
220.343750003414
 30
0.0
 10
9.611212154470257
 20
220.3182240664227
 30
0.0
 10
9.539548586163516
 20
220.2668732084322
 30
0.0
 10
8.965515221649468
 20
220.186620331121
 30
0.0
 10
8.073208204613266
 20
220.1085607355174
 30
0.0
 10
6.865270737465848
 20
220.0327445018131
 30
0.0
 10
5.393915032209213
 20
219.9526662666668
 30
0.0
 10
3.714712857703027
 20
219.873688695823
 30
0.0
 10
1.894586265678609
 20
219.7984020487503
 30
0.0
 10
-0.0000100678071082
 20
219.7187499550466
 30
0.0
 10
-1.894546282799521
 20
219.6390981501619
 30
0.0
 10
-3.714851368963284
 20
219.5638106455739
 30
0.0
 10
-5.393392499720629
 20
219.4848362504939
 30
0.0
 10
-6.867216201610771
 20
219.4047461586822
 30
0.0
 10
-8.06604133577349
 20
219.3289737021385
 30
0.0
 10
-8.948218299584747
 20
219.2544950463673
 30
0.0
 10
-9.246141443551725
 20
219.2051347397667
 30
0.0
 10
-9.384246615358633
 20
219.1822532894278
 30
0.0
  0
SPLINE
  5
E6
330
1B
100
AcDbEntity
 67
     1
  8
0
  6
Continuous
 62
     7
370
    25
100
AcDbSpline
210
0.0
220
0.0
230
1.0
 70
     8
 71
     3
 72
    22
 73
    18
 74
     0
 42
0.000000001
 43
0.00000001
 40
0.0
 40
0.0
 40
0.0
 40
0.0
 40
0.0670040562523073
 40
0.1347929276246995
 40
0.202056564784848
 40
0.2688327239488489
 40
0.3365687035876834
 40
0.4040414560723908
 40
0.4707034064633931
 40
0.5383338495118264
 40
0.6059642925602597
 40
0.672626242951262
 40
0.7400989954359696
 40
0.8078349750748038
 40
0.8746111342388043
 40
0.9418747713989524
 40
1.0
 40
1.0
 40
1.0
 40
1.0
 10
9.646835312499999
 20
217.843750003414
 30
0.0
 10
9.61121215447026
 20
217.8182240664228
 30
0.0
 10
9.53954858616352
 20
217.7668732084322
 30
0.0
 10
8.965515221649467
 20
217.6866203311209
 30
0.0
 10
8.07320820461327
 20
217.6085607355175
 30
0.0
 10
6.865270737465845
 20
217.5327445018131
 30
0.0
 10
5.393915032209216
 20
217.4526662666669
 30
0.0
 10
3.714712857703026
 20
217.3736886958229
 30
0.0
 10
1.894586265678611
 20
217.2984020487504
 30
0.0
 10
-0.0000100678071109
 20
217.2187499550465
 30
0.0
 10
-1.894546282799516
 20
217.139098150162
 30
0.0
 10
-3.714851368963289
 20
217.0638106455739
 30
0.0
 10
-5.393392499720624
 20
216.9848362504939
 30
0.0
 10
-6.867216201610775
 20
216.9047461586822
 30
0.0
 10
-8.066041335773487
 20
216.8289737021385
 30
0.0
 10
-8.948218299584747
 20
216.7544950463673
 30
0.0
 10
-9.246141443551727
 20
216.7051347397669
 30
0.0
 10
-9.384246615358634
 20
216.6822532894278
 30
0.0
  0
SPLINE
  5
E7
330
1B
100
AcDbEntity
 67
     1
  8
0
  6
Continuous
 62
     7
370
    25
100
AcDbSpline
210
0.0
220
0.0
230
1.0
 70
     8
 71
     3
 72
    22
 73
    18
 74
     0
 42
0.000000001
 43
0.00000001
 40
0.0
 40
0.0
 40
0.0
 40
0.0
 40
0.0670040562523073
 40
0.1347929276246994
 40
0.2020565647848479
 40
0.2688327239488488
 40
0.3365687035876833
 40
0.4040414560723908
 40
0.470703406463393
 40
0.5383338495118263
 40
0.6059642925602595
 40
0.6726262429512619
 40
0.7400989954359694
 40
0.8078349750748037
 40
0.8746111342388041
 40
0.9418747713989521
 40
1.0
 40
1.0
 40
1.0
 40
1.0
 10
9.646835312499999
 20
215.343750003414
 30
0.0
 10
9.611212154470257
 20
215.3182240664227
 30
0.0
 10
9.539548586163516
 20
215.2668732084321
 30
0.0
 10
8.965515221649468
 20
215.186620331121
 30
0.0
 10
8.073208204613266
 20
215.1085607355173
 30
0.0
 10
6.865270737465848
 20
215.0327445018132
 30
0.0
 10
5.393915032209213
 20
214.9526662666668
 30
0.0
 10
3.714712857703027
 20
214.873688695823
 30
0.0
 10
1.894586265678609
 20
214.7984020487504
 30
0.0
 10
-0.0000100678071082
 20
214.7187499550465
 30
0.0
 10
-1.894546282799521
 20
214.6390981501619
 30
0.0
 10
-3.714851368963284
 20
214.5638106455739
 30
0.0
 10
-5.393392499720629
 20
214.4848362504939
 30
0.0
 10
-6.867216201610771
 20
214.4047461586822
 30
0.0
 10
-8.06604133577349
 20
214.3289737021385
 30
0.0
 10
-8.948218299584747
 20
214.2544950463673
 30
0.0
 10
-9.246141443551725
 20
214.2051347397667
 30
0.0
 10
-9.384246615358633
 20
214.1822532894278
 30
0.0
  0
SPLINE
  5
E8
330
1B
100
AcDbEntity
 67
     1
  8
0
  6
Continuous
 62
     7
370
    25
100
AcDbSpline
210
0.0
220
0.0
230
1.0
 70
     8
 71
     3
 72
    22
 73
    18
 74
     0
 42
0.000000001
 43
0.00000001
 40
0.0
 40
0.0
 40
0.0
 40
0.0
 40
0.0670040562523073
 40
0.1347929276246995
 40
0.202056564784848
 40
0.2688327239488489
 40
0.3365687035876834
 40
0.4040414560723908
 40
0.4707034064633931
 40
0.5383338495118264
 40
0.6059642925602597
 40
0.672626242951262
 40
0.7400989954359696
 40
0.8078349750748038
 40
0.8746111342388043
 40
0.9418747713989524
 40
1.0
 40
1.0
 40
1.0
 40
1.0
 10
9.646835312499999
 20
212.843750003414
 30
0.0
 10
9.61121215447026
 20
212.8182240664228
 30
0.0
 10
9.53954858616352
 20
212.7668732084322
 30
0.0
 10
8.965515221649467
 20
212.686620331121
 30
0.0
 10
8.07320820461327
 20
212.6085607355174
 30
0.0
 10
6.865270737465845
 20
212.532744501813
 30
0.0
 10
5.393915032209216
 20
212.4526662666668
 30
0.0
 10
3.714712857703026
 20
212.3736886958229
 30
0.0
 10
1.894586265678611
 20
212.2984020487504
 30
0.0
 10
-0.0000100678071109
 20
212.2187499550466
 30
0.0
 10
-1.894546282799516
 20
212.1390981501619
 30
0.0
 10
-3.714851368963289
 20
212.0638106455739
 30
0.0
 10
-5.393392499720624
 20
211.9848362504939
 30
0.0
 10
-6.867216201610775
 20
211.9047461586823
 30
0.0
 10
-8.066041335773487
 20
211.8289737021385
 30
0.0
 10
-8.948218299584747
 20
211.7544950463673
 30
0.0
 10
-9.246141443551725
 20
211.7051347397668
 30
0.0
 10
-9.384246615358633
 20
211.6822532894278
 30
0.0
  0
SPLINE
  5
E9
330
1B
100
AcDbEntity
 67
     1
  8
0
  6
Continuous
 62
     7
370
    25
100
AcDbSpline
210
0.0
220
0.0
230
1.0
 70
     8
 71
     3
 72
    22
 73
    18
 74
     0
 42
0.000000001
 43
0.00000001
 40
0.0
 40
0.0
 40
0.0
 40
0.0
 40
0.0670040562523073
 40
0.1347929276246995
 40
0.202056564784848
 40
0.2688327239488489
 40
0.3365687035876834
 40
0.4040414560723908
 40
0.4707034064633931
 40
0.5383338495118264
 40
0.6059642925602597
 40
0.672626242951262
 40
0.7400989954359696
 40
0.8078349750748038
 40
0.8746111342388043
 40
0.9418747713989524
 40
1.0
 40
1.0
 40
1.0
 40
1.0
 10
9.646835312499999
 20
210.343750003414
 30
0.0
 10
9.61121215447026
 20
210.3182240664228
 30
0.0
 10
9.53954858616352
 20
210.2668732084322
 30
0.0
 10
8.965515221649467
 20
210.186620331121
 30
0.0
 10
8.07320820461327
 20
210.1085607355174
 30
0.0
 10
6.865270737465845
 20
210.0327445018131
 30
0.0
 10
5.393915032209216
 20
209.9526662666668
 30
0.0
 10
3.714712857703026
 20
209.8736886958229
 30
0.0
 10
1.894586265678611
 20
209.7984020487504
 30
0.0
 10
-0.0000100678071109
 20
209.7187499550465
 30
0.0
 10
-1.894546282799516
 20
209.639098150162
 30
0.0
 10
-3.714851368963289
 20
209.5638106455739
 30
0.0
 10
-5.393392499720624
 20
209.4848362504939
 30
0.0
 10
-6.867216201610775
 20
209.4047461586823
 30
0.0
 10
-8.066041335773487
 20
209.3289737021384
 30
0.0
 10
-8.948218299584747
 20
209.2544950463674
 30
0.0
 10
-9.246141443551725
 20
209.2051347397668
 30
0.0
 10
-9.384246615358633
 20
209.1822532894278
 30
0.0
  0
SPLINE
  5
EA
330
1B
100
AcDbEntity
 67
     1
  8
0
  6
Continuous
 62
     7
370
    25
100
AcDbSpline
210
0.0
220
0.0
230
1.0
 70
     8
 71
     3
 72
    22
 73
    18
 74
     0
 42
0.000000001
 43
0.00000001
 40
0.0
 40
0.0
 40
0.0
 40
0.0
 40
0.0670040562523073
 40
0.1347929276246995
 40
0.202056564784848
 40
0.2688327239488489
 40
0.3365687035876834
 40
0.4040414560723909
 40
0.4707034064633932
 40
0.5383338495118264
 40
0.6059642925602597
 40
0.6726262429512619
 40
0.7400989954359695
 40
0.8078349750748037
 40
0.8746111342388042
 40
0.9418747713989523
 40
1.0
 40
1.0
 40
1.0
 40
1.0
 10
9.646835312499999
 20
207.843750003414
 30
0.0
 10
9.611212154470259
 20
207.8182240664228
 30
0.0
 10
9.53954858616352
 20
207.7668732084322
 30
0.0
 10
8.965515221649467
 20
207.686620331121
 30
0.0
 10
8.073208204613268
 20
207.6085607355174
 30
0.0
 10
6.865270737465846
 20
207.5327445018131
 30
0.0
 10
5.393915032209215
 20
207.4526662666667
 30
0.0
 10
3.714712857703025
 20
207.3736886958229
 30
0.0
 10
1.894586265678612
 20
207.2984020487503
 30
0.0
 10
-0.0000100678071124
 20
207.2187499550467
 30
0.0
 10
-1.894546282799513
 20
207.1390981501619
 30
0.0
 10
-3.714851368963292
 20
207.063810645574
 30
0.0
 10
-5.393392499720622
 20
206.9848362504939
 30
0.0
 10
-6.867216201610777
 20
206.9047461586823
 30
0.0
 10
-8.066041335773487
 20
206.8289737021385
 30
0.0
 10
-8.94821829958475
 20
206.7544950463674
 30
0.0
 10
-9.246141443551725
 20
206.7051347397668
 30
0.0
 10
-9.384246615358633
 20
206.6822532894278
 30
0.0
  0
SPLINE
  5
EB
330
1B
100
AcDbEntity
 67
     1
  8
0
  6
Continuous
 62
     7
370
    25
100
AcDbSpline
210
0.0
220
0.0
230
1.0
 70
     8
 71
     3
 72
    23
 73
    19
 74
     0
 42
0.000000001
 43
0.00000001
 40
0.0
 40
0.0
 40
0.0
 40
0.0
 40
0.0410954971414423
 40
0.1054763971253862
 40
0.1693584681628966
 40
0.2327775683398664
 40
0.2971082356331161
 40
0.3611889090742804
 40
0.4244995421320482
 40
0.4887299785093126
 40
0.552960414886577
 40
0.6162710479443448
 40
0.6803517213855091
 40
0.7446823886787588
 40
0.8081014888557286
 40
0.8719835598932388
 40
0.9363644598771829
 40
0.9999999999999999
 40
0.9999999999999999
 40
0.9999999999999999
 40
0.9999999999999999
 10
-9.581737644296664
 20
-2.941434394192255
 30
0.0
 10
-9.555357053491413
 20
-2.924926171852499
 30
0.0
 10
-9.487648183524463
 20
-2.882555889547625
 30
0.0
 10
-8.960645427912128
 20
-2.811586128467019
 30
0.0
 10
-8.074497663362258
 20
-2.733569791968635
 30
0.0
 10
-6.864920766714127
 20
-2.657742043705016
 30
0.0
 10
-5.394008818442338
 20
-2.57766692579782
 30
0.0
 10
-3.714688781585696
 20
-2.498688525136669
 30
0.0
 10
-1.894590328437449
 20
-2.423402083173904
 30
0.0
 10
0.0000018114165884
 20
-2.343749990691632
 30
0.0
 10
1.89458313465138
 20
-2.264097974179119
 30
0.0
 10
3.714713702761874
 20
-2.188811306659211
 30
0.0
 10
5.393914803528427
 20
-2.109833741337136
 30
0.0
 10
6.865270797856875
 20
-2.029755504704425
 30
0.0
 10
8.073208188407675
 20
-1.953939271393854
 30
0.0
 10
8.96551522602372
 20
-1.875879675684519
 30
0.0
 10
9.53954858508121
 20
-1.795626798401284
 30
0.0
 10
9.611212154110893
 20
-1.744275940407006
 30
0.0
 10
9.646835312499999
 20
-1.718750003413982
 30
0.0
  0
SPLINE
  5
EC
330
1B
100
AcDbEntity
 67
     1
  8
0
  6
Continuous
 62
     7
370
    25
100
AcDbSpline
210
0.0
220
0.0
230
1.0
 70
     8
 71
     3
 72
    13
 73
     9
 74
     0
 42
0.000000001
 43
0.00000001
 40
0.0
 40
0.0
 40
0.0
 40
0.0
 40
0.1140390551008557
 40
0.2926945651058144
 40
0.4699658363093188
 40
0.6459523740712602
 40
0.824468489520114
 40
1.0
 40
1.0
 40
1.0
 40
1.0
 10
-9.581737644296666
 20
-0.4414343941922527
 30
0.0
 10
-9.555362469992842
 20
-0.4249260363485274
 30
0.0
 10
-9.487667502109943
 20
-0.3825554062568404
 30
0.0
 10
-8.960515192969295
 20
-0.3115893865392877
 30
0.0
 10
-8.074973270631054
 20
-0.2335578937574384
 30
0.0
 10
-6.863150220350953
 20
-0.1577863372554805
 30
0.0
 10
-5.407006430057015
 20
-0.0778447316813063
 30
0.0
 10
-4.269583043157348
 20
-0.0258020046401131
 30
0.0
 10
-3.705665562750824
 20
0.0
 30
0.0
  0
SPLINE
  5
ED
330
1B
100
AcDbEntity
 67
     1
  8
0
  6
Continuous
 62
     7
370
    25
100
AcDbSpline
210
0.0
220
0.0
230
1.0
 70
     8
 71
     3
 72
    25
 73
    21
 74
     0
 42
0.000000001
 43
0.00000001
 40
0.0
 40
0.0
 40
0.0
 40
0.0
 40
0.0581491095215538
 40
0.1169787723606944
 40
0.1753529805381074
 40
0.2333044648965368
 40
0.2920882634008182
 40
0.350643806413551
 40
0.408496252292998
 40
0.4671885358598478
 40
0.5258808194266975
 40
0.5837332653061446
 40
0.6422888083188772
 40
0.7010726068231586
 40
0.7590240911815881
 40
0.817398299359001
 40
0.8762279621981417
 40
0.9343770717196955
 40
0.9925261812412493
 40
0.9999999999999999
 40
0.9999999999999999
 40
0.9999999999999999
 40
0.9999999999999999
 10
-11.0
 20
-3.750000000000004
 30
0.0
 10
-10.95938061007534
 20
-3.724474136074671
 30
0.0
 10
-10.87766643755366
 20
-3.673123663986602
 30
0.0
 10
-10.22310868084597
 20
-3.592870022711664
 30
0.0
 10
-9.205634319164343
 20
-3.514810442628191
 30
0.0
 10
-7.828275507940448
 20
-3.438995065293063
 30
0.0
 10
-6.150518259469428
 20
-3.358916108351873
 30
0.0
 10
-4.235764801159179
 20
-3.279938215584768
 30
0.0
 10
-2.160353342130819
 20
-3.204652606177513
 30
0.0
 10
0.0000012148086815
 20
-3.124999997806688
 30
0.0
 10
2.160348517661879
 20
-3.045347402532997
 30
0.0
 10
4.235781514529815
 20
-2.970061754239472
 30
0.0
 10
6.150455209200461
 20
-2.891084005484559
 30
0.0
 10
7.828510253588375
 20
-2.811004510876791
 30
0.0
 10
9.204769533992474
 20
-2.735191118730024
 30
0.0
 10
10.22637457584669
 20
-2.657124080758078
 30
0.0
 10
10.86543476459883
 20
-2.576898420137266
 30
0.0
 10
11.04504950193462
 20
-2.499918663719653
 30
0.0
 10
10.98021433625605
 20
-2.445859295029801
 30
0.0
 10
10.73794826001014
 20
-2.416122439046528
 30
0.0
 10
10.71035648998851
 20
-2.412735697889148
 30
0.0
  0
SPLINE
  5
EE
330
1B
100
AcDbEntity
 67
     1
  8
0
  6
Continuous
 62
     7
370
    25
100
AcDbSpline
210
0.0
220
0.0
230
1.0
 70
     8
 71
     3
 72
    46
 73
    42
 74
     0
 42
0.000000001
 43
0.00000001
 40
0.0
 40
0.0
 40
0.0
 40
0.0
 40
0.0625
 40
0.0625
 40
0.125
 40
0.125
 40
0.1875000000000001
 40
0.1875000000000001
 40
0.2187500000000001
 40
0.2187500000000001
 40
0.2500000000000001
 40
0.2500000000000001
 40
0.3125000000000001
 40
0.3125000000000001
 40
0.375
 40
0.375
 40
0.40625
 40
0.40625
 40
0.4375
 40
0.4375
 40
0.4999999999999999
 40
0.4999999999999999
 40
0.5624999999999999
 40
0.5624999999999999
 40
0.5937499999999999
 40
0.5937499999999999
 40
0.6249999999999999
 40
0.6249999999999999
 40
0.6874999999999999
 40
0.6874999999999999
 40
0.7499999999999999
 40
0.7499999999999999
 40
0.78125
 40
0.78125
 40
0.8125
 40
0.8125
 40
0.875
 40
0.875
 40
0.9375
 40
0.9375
 40
1.0
 40
1.0
 40
1.0
 40
1.0
 10
-11.0
 20
-1.250000000000001
 30
0.0
 10
-11.0
 20
-1.22523290322149
 30
0.0
 10
-10.93096360981033
 20
-1.199296055895638
 30
0.0
 10
-10.64990687639303
 20
-1.146467898676687
 30
0.0
 10
-10.43787584711631
 20
-1.119585924421865
 30
0.0
 10
-9.882325575976386
 20
-1.066446515307642
 30
0.0
 10
-9.538948616325355
 20
-1.040198812118379
 30
0.0
 10
-8.944922087456144
 20
-1.002391674641653
 30
0.0
 10
-8.734406015679713
 20
-0.990116471531452
 30
0.0
 10
-8.28177795972044
 20
-0.964711998474227
 30
0.0
 10
-8.040560434623986
 20
-0.9517675092756833
 30
0.0
 10
-7.276141813926086
 20
-0.9124706627423734
 30
0.0
 10
-6.711816598965094
 20
-0.8856528811312103
 30
0.0
 10
-5.504855515607298
 20
-0.8323257440955995
 30
0.0
 10
-4.862457969307416
 20
-0.8058263623988565
 30
0.0
 10
-3.870101334850258
 20
-0.7674399392890996
 30
0.0
 10
-3.536021564491965
 20
-0.7550318880977375
 30
0.0
 10
-2.856397078021787
 20
-0.7300397172183004
 30
0.0
 10
-2.509118952398531
 20
-0.7172690851544872
 30
0.0
 10
-1.451720652130596
 20
-0.6783848490299477
 30
0.0
 10
-0.725928684820792
 20
-0.6516949383056497
 30
0.0
 10
0.72592868482079
 20
-0.5983050616943514
 30
0.0
 10
1.451720652130592
 20
-0.5716151509700673
 30
0.0
 10
2.509118952398527
 20
-0.5327309148455139
 30
0.0
 10
2.856397078021784
 20
-0.5199602827817007
 30
0.0
 10
3.536021564491962
 20
-0.4949681119022636
 30
0.0
 10
3.870101334850254
 20
-0.4825600607109154
 30
0.0
 10
4.862457969307413
 20
-0.4441736376011446
 30
0.0
 10
5.504855515607292
 20
-0.4176742559044017
 30
0.0
 10
6.711816598965092
 20
-0.3643471188687908
 30
0.0
 10
7.276141813926082
 20
-0.3375293372576277
 30
0.0
 10
8.04056043462398
 20
-0.2982324907243317
 30
0.0
 10
8.28177795972044
 20
-0.2852880015257742
 30
0.0
 10
8.734406015679712
 20
-0.2598835284685491
 30
0.0
 10
8.944922087456138
 20
-0.2476083253583616
 30
0.0
 10
9.538948616325351
 20
-0.2098011878816225
 30
0.0
 10
9.882325575976385
 20
-0.1835534846923587
 30
0.0
 10
10.43787584711631
 20
-0.1304140755781502
 30
0.0
 10
10.64990687639303
 20
-0.1035321013233143
 30
0.0
 10
10.93096360981033
 20
-0.0507039441043633
 30
0.0
 10
11.0
 20
-0.0247670967785246
 30
0.0
 10
11.0
 20
0.0
 30
0.0
  0
SPLINE
  5
EF
330
1B
100
AcDbEntity
 67
     1
  8
0
  6
Continuous
 62
     7
370
    25
100
AcDbSpline
210
0.0
220
0.0
230
1.0
 70
     8
 71
     3
 72
    23
 73
    19
 74
     0
 42
0.000000001
 43
0.00000001
 40
0.0
 40
0.0
 40
0.0
 40
0.0
 40
0.0410954971414436
 40
0.1054763971253874
 40
0.1693584681628977
 40
0.2327775683398674
 40
0.2971082356331171
 40
0.3611889090742812
 40
0.424499542132049
 40
0.4887299785093134
 40
0.5529604148865775
 40
0.6162710479443454
 40
0.6803517213855096
 40
0.7446823886787591
 40
0.8081014888557284
 40
0.8719835598932383
 40
0.9363644598771816
 40
1.0
 40
1.0
 40
1.0
 40
1.0
 10
9.581737644296668
 20
225.9414343941922
 30
0.0
 10
9.555357053491417
 20
225.9249261718525
 30
0.0
 10
9.487648183524469
 20
225.8825558895476
 30
0.0
 10
8.960645427912123
 20
225.8115861284669
 30
0.0
 10
8.07449766336226
 20
225.7335697919686
 30
0.0
 10
6.864920766714122
 20
225.657742043705
 30
0.0
 10
5.394008818442342
 20
225.5776669257978
 30
0.0
 10
3.714688781585694
 20
225.4986885251366
 30
0.0
 10
1.894590328437448
 20
225.4234020831739
 30
0.0
 10
-0.0000018114165836
 20
225.3437499906916
 30
0.0
 10
-1.894583134651385
 20
225.2640979741791
 30
0.0
 10
-3.714713702761872
 20
225.1888113066592
 30
0.0
 10
-5.393914803528427
 20
225.1098337413371
 30
0.0
 10
-6.865270797856873
 20
225.0297555047044
 30
0.0
 10
-8.073208188407666
 20
224.9539392713938
 30
0.0
 10
-8.965515226023701
 20
224.8758796756845
 30
0.0
 10
-9.539548585081212
 20
224.7956267984013
 30
0.0
 10
-9.611212154110891
 20
224.744275940407
 30
0.0
 10
-9.646835312499999
 20
224.718750003414
 30
0.0
  0
SPLINE
  5
F0
330
1B
100
AcDbEntity
 67
     1
  8
0
  6
Continuous
 62
     7
370
    25
100
AcDbSpline
210
0.0
220
0.0
230
1.0
 70
     8
 71
     3
 72
    23
 73
    19
 74
     0
 42
0.000000001
 43
0.00000001
 40
0.0
 40
0.0
 40
0.0
 40
0.0
 40
0.0410954971414438
 40
0.1054763971253876
 40
0.1693584681628978
 40
0.2327775683398675
 40
0.2971082356331172
 40
0.3611889090742813
 40
0.4244995421320491
 40
0.4887299785093134
 40
0.5529604148865775
 40
0.6162710479443454
 40
0.6803517213855096
 40
0.7446823886787591
 40
0.8081014888557284
 40
0.8719835598932383
 40
0.9363644598771816
 40
1.0
 40
1.0
 40
1.0
 40
1.0
 10
9.581737644296668
 20
223.4414343941922
 30
0.0
 10
9.555357053491417
 20
223.4249261718525
 30
0.0
 10
9.487648183524469
 20
223.3825558895476
 30
0.0
 10
8.96064542791213
 20
223.311586128467
 30
0.0
 10
8.074497663362257
 20
223.2335697919686
 30
0.0
 10
6.864920766714126
 20
223.157742043705
 30
0.0
 10
5.394008818442341
 20
223.0776669257978
 30
0.0
 10
3.714688781585694
 20
222.9986885251366
 30
0.0
 10
1.89459032843745
 20
222.9234020831738
 30
0.0
 10
-0.0000018114165858
 20
222.8437499906915
 30
0.0
 10
-1.894583134651385
 20
222.7640979741792
 30
0.0
 10
-3.714713702761872
 20
222.6888113066591
 30
0.0
 10
-5.393914803528427
 20
222.6098337413372
 30
0.0
 10
-6.865270797856873
 20
222.5297555047044
 30
0.0
 10
-8.073208188407666
 20
222.4539392713938
 30
0.0
 10
-8.965515226023701
 20
222.3758796756845
 30
0.0
 10
-9.539548585081212
 20
222.2956267984013
 30
0.0
 10
-9.611212154110891
 20
222.244275940407
 30
0.0
 10
-9.646835312499999
 20
222.218750003414
 30
0.0
  0
SPLINE
  5
F1
330
1B
100
AcDbEntity
 67
     1
  8
0
  6
Continuous
 62
     7
370
    25
100
AcDbSpline
210
0.0
220
0.0
230
1.0
 70
     8
 71
     3
 72
    23
 73
    19
 74
     0
 42
0.000000001
 43
0.00000001
 40
0.0
 40
0.0
 40
0.0
 40
0.0
 40
0.0410954971414438
 40
0.1054763971253876
 40
0.1693584681628978
 40
0.2327775683398675
 40
0.2971082356331172
 40
0.3611889090742813
 40
0.4244995421320491
 40
0.4887299785093134
 40
0.5529604148865775
 40
0.6162710479443454
 40
0.6803517213855096
 40
0.7446823886787591
 40
0.8081014888557284
 40
0.8719835598932383
 40
0.9363644598771816
 40
1.0
 40
1.0
 40
1.0
 40
1.0
 10
9.581737644296668
 20
220.9414343941922
 30
0.0
 10
9.555357053491417
 20
220.9249261718525
 30
0.0
 10
9.487648183524469
 20
220.8825558895476
 30
0.0
 10
8.96064542791213
 20
220.811586128467
 30
0.0
 10
8.074497663362257
 20
220.7335697919686
 30
0.0
 10
6.864920766714126
 20
220.6577420437051
 30
0.0
 10
5.394008818442341
 20
220.5776669257977
 30
0.0
 10
3.714688781585694
 20
220.4986885251367
 30
0.0
 10
1.89459032843745
 20
220.4234020831738
 30
0.0
 10
-0.0000018114165858
 20
220.3437499906915
 30
0.0
 10
-1.894583134651385
 20
220.2640979741792
 30
0.0
 10
-3.714713702761872
 20
220.1888113066591
 30
0.0
 10
-5.393914803528427
 20
220.1098337413371
 30
0.0
 10
-6.865270797856873
 20
220.0297555047044
 30
0.0
 10
-8.073208188407666
 20
219.9539392713938
 30
0.0
 10
-8.965515226023701
 20
219.8758796756844
 30
0.0
 10
-9.539548585081212
 20
219.7956267984013
 30
0.0
 10
-9.611212154110891
 20
219.744275940407
 30
0.0
 10
-9.646835312499999
 20
219.718750003414
 30
0.0
  0
SPLINE
  5
F2
330
1B
100
AcDbEntity
 67
     1
  8
0
  6
Continuous
 62
     7
370
    25
100
AcDbSpline
210
0.0
220
0.0
230
1.0
 70
     8
 71
     3
 72
    23
 73
    19
 74
     0
 42
0.000000001
 43
0.00000001
 40
0.0
 40
0.0
 40
0.0
 40
0.0
 40
0.0410954971414438
 40
0.1054763971253876
 40
0.1693584681628978
 40
0.2327775683398675
 40
0.2971082356331172
 40
0.3611889090742813
 40
0.4244995421320491
 40
0.4887299785093134
 40
0.5529604148865775
 40
0.6162710479443454
 40
0.6803517213855096
 40
0.7446823886787591
 40
0.8081014888557284
 40
0.8719835598932383
 40
0.9363644598771816
 40
1.0
 40
1.0
 40
1.0
 40
1.0
 10
9.581737644296668
 20
218.4414343941922
 30
0.0
 10
9.555357053491417
 20
218.4249261718525
 30
0.0
 10
9.487648183524469
 20
218.3825558895476
 30
0.0
 10
8.96064542791213
 20
218.3115861284671
 30
0.0
 10
8.074497663362257
 20
218.2335697919685
 30
0.0
 10
6.864920766714126
 20
218.1577420437051
 30
0.0
 10
5.394008818442341
 20
218.0776669257978
 30
0.0
 10
3.714688781585694
 20
217.9986885251366
 30
0.0
 10
1.89459032843745
 20
217.9234020831738
 30
0.0
 10
-0.0000018114165858
 20
217.8437499906915
 30
0.0
 10
-1.894583134651385
 20
217.7640979741792
 30
0.0
 10
-3.714713702761872
 20
217.6888113066591
 30
0.0
 10
-5.393914803528427
 20
217.6098337413372
 30
0.0
 10
-6.865270797856873
 20
217.5297555047044
 30
0.0
 10
-8.073208188407666
 20
217.4539392713938
 30
0.0
 10
-8.965515226023701
 20
217.3758796756844
 30
0.0
 10
-9.539548585081212
 20
217.2956267984013
 30
0.0
 10
-9.611212154110891
 20
217.2442759404069
 30
0.0
 10
-9.646835312499999
 20
217.218750003414
 30
0.0
  0
SPLINE
  5
F3
330
1B
100
AcDbEntity
 67
     1
  8
0
  6
Continuous
 62
     7
370
    25
100
AcDbSpline
210
0.0
220
0.0
230
1.0
 70
     8
 71
     3
 72
    23
 73
    19
 74
     0
 42
0.000000001
 43
0.00000001
 40
0.0
 40
0.0
 40
0.0
 40
0.0
 40
0.0410954971414438
 40
0.1054763971253876
 40
0.1693584681628978
 40
0.2327775683398675
 40
0.2971082356331172
 40
0.3611889090742813
 40
0.4244995421320491
 40
0.4887299785093134
 40
0.5529604148865775
 40
0.6162710479443454
 40
0.6803517213855096
 40
0.7446823886787591
 40
0.8081014888557284
 40
0.8719835598932383
 40
0.9363644598771816
 40
1.0
 40
1.0
 40
1.0
 40
1.0
 10
9.581737644296668
 20
215.9414343941922
 30
0.0
 10
9.555357053491417
 20
215.9249261718525
 30
0.0
 10
9.487648183524469
 20
215.8825558895476
 30
0.0
 10
8.96064542791213
 20
215.811586128467
 30
0.0
 10
8.074497663362257
 20
215.7335697919686
 30
0.0
 10
6.864920766714126
 20
215.657742043705
 30
0.0
 10
5.394008818442341
 20
215.5776669257978
 30
0.0
 10
3.714688781585694
 20
215.4986885251366
 30
0.0
 10
1.89459032843745
 20
215.4234020831738
 30
0.0
 10
-0.0000018114165858
 20
215.3437499906915
 30
0.0
 10
-1.894583134651385
 20
215.2640979741792
 30
0.0
 10
-3.714713702761872
 20
215.1888113066591
 30
0.0
 10
-5.393914803528427
 20
215.1098337413372
 30
0.0
 10
-6.865270797856873
 20
215.0297555047043
 30
0.0
 10
-8.073208188407666
 20
214.9539392713939
 30
0.0
 10
-8.965515226023701
 20
214.8758796756844
 30
0.0
 10
-9.539548585081212
 20
214.7956267984013
 30
0.0
 10
-9.611212154110891
 20
214.744275940407
 30
0.0
 10
-9.646835312499999
 20
214.718750003414
 30
0.0
  0
SPLINE
  5
F4
330
1B
100
AcDbEntity
 67
     1
  8
0
  6
Continuous
 62
     7
370
    25
100
AcDbSpline
210
0.0
220
0.0
230
1.0
 70
     8
 71
     3
 72
    23
 73
    19
 74
     0
 42
0.000000001
 43
0.00000001
 40
0.0
 40
0.0
 40
0.0
 40
0.0
 40
0.0410954971414438
 40
0.1054763971253876
 40
0.1693584681628978
 40
0.2327775683398675
 40
0.2971082356331172
 40
0.3611889090742813
 40
0.4244995421320491
 40
0.4887299785093134
 40
0.5529604148865775
 40
0.6162710479443454
 40
0.6803517213855096
 40
0.7446823886787591
 40
0.8081014888557284
 40
0.8719835598932383
 40
0.9363644598771816
 40
1.0
 40
1.0
 40
1.0
 40
1.0
 10
9.581737644296668
 20
213.4414343941922
 30
0.0
 10
9.555357053491417
 20
213.4249261718525
 30
0.0
 10
9.487648183524469
 20
213.3825558895476
 30
0.0
 10
8.96064542791213
 20
213.311586128467
 30
0.0
 10
8.074497663362257
 20
213.2335697919686
 30
0.0
 10
6.864920766714126
 20
213.157742043705
 30
0.0
 10
5.394008818442341
 20
213.0776669257978
 30
0.0
 10
3.714688781585694
 20
212.9986885251367
 30
0.0
 10
1.89459032843745
 20
212.9234020831738
 30
0.0
 10
-0.0000018114165858
 20
212.8437499906915
 30
0.0
 10
-1.894583134651385
 20
212.7640979741792
 30
0.0
 10
-3.714713702761872
 20
212.6888113066591
 30
0.0
 10
-5.393914803528427
 20
212.6098337413371
 30
0.0
 10
-6.865270797856873
 20
212.5297555047044
 30
0.0
 10
-8.073208188407666
 20
212.4539392713938
 30
0.0
 10
-8.965515226023701
 20
212.3758796756844
 30
0.0
 10
-9.539548585081212
 20
212.2956267984013
 30
0.0
 10
-9.611212154110891
 20
212.244275940407
 30
0.0
 10
-9.646835312499999
 20
212.218750003414
 30
0.0
  0
SPLINE
  5
F5
330
1B
100
AcDbEntity
 67
     1
  8
0
  6
Continuous
 62
     7
370
    25
100
AcDbSpline
210
0.0
220
0.0
230
1.0
 70
     8
 71
     3
 72
    23
 73
    19
 74
     0
 42
0.000000001
 43
0.00000001
 40
0.0
 40
0.0
 40
0.0
 40
0.0
 40
0.0410954971414438
 40
0.1054763971253876
 40
0.1693584681628978
 40
0.2327775683398675
 40
0.2971082356331172
 40
0.3611889090742813
 40
0.4244995421320491
 40
0.4887299785093134
 40
0.5529604148865775
 40
0.6162710479443454
 40
0.6803517213855096
 40
0.7446823886787591
 40
0.8081014888557284
 40
0.8719835598932383
 40
0.9363644598771816
 40
1.0
 40
1.0
 40
1.0
 40
1.0
 10
9.581737644296668
 20
210.9414343941922
 30
0.0
 10
9.555357053491417
 20
210.9249261718525
 30
0.0
 10
9.487648183524469
 20
210.8825558895476
 30
0.0
 10
8.96064542791213
 20
210.811586128467
 30
0.0
 10
8.074497663362257
 20
210.7335697919686
 30
0.0
 10
6.864920766714126
 20
210.657742043705
 30
0.0
 10
5.394008818442341
 20
210.5776669257978
 30
0.0
 10
3.714688781585694
 20
210.4986885251367
 30
0.0
 10
1.89459032843745
 20
210.4234020831738
 30
0.0
 10
-0.0000018114165858
 20
210.3437499906916
 30
0.0
 10
-1.894583134651385
 20
210.2640979741792
 30
0.0
 10
-3.714713702761872
 20
210.1888113066591
 30
0.0
 10
-5.393914803528427
 20
210.1098337413372
 30
0.0
 10
-6.865270797856873
 20
210.0297555047044
 30
0.0
 10
-8.073208188407666
 20
209.9539392713938
 30
0.0
 10
-8.965515226023701
 20
209.8758796756845
 30
0.0
 10
-9.539548585081212
 20
209.7956267984012
 30
0.0
 10
-9.611212154110891
 20
209.744275940407
 30
0.0
 10
-9.646835312499999
 20
209.718750003414
 30
0.0
  0
SPLINE
  5
F6
330
1B
100
AcDbEntity
 67
     1
  8
0
  6
Continuous
 62
     7
370
    25
100
AcDbSpline
210
0.0
220
0.0
230
1.0
 70
     8
 71
     3
 72
    23
 73
    19
 74
     0
 42
0.000000001
 43
0.00000001
 40
0.0
 40
0.0
 40
0.0
 40
0.0
 40
0.0410954971414438
 40
0.1054763971253877
 40
0.169358468162898
 40
0.2327775683398677
 40
0.2971082356331173
 40
0.3611889090742815
 40
0.4244995421320493
 40
0.4887299785093136
 40
0.5529604148865778
 40
0.6162710479443455
 40
0.6803517213855097
 40
0.7446823886787591
 40
0.8081014888557284
 40
0.8719835598932383
 40
0.9363644598771816
 40
1.0
 40
1.0
 40
1.0
 40
1.0
 10
9.581737644296668
 20
208.4414343941923
 30
0.0
 10
9.555357053491415
 20
208.4249261718525
 30
0.0
 10
9.48764818352447
 20
208.3825558895477
 30
0.0
 10
8.960645427912127
 20
208.311586128467
 30
0.0
 10
8.074497663362262
 20
208.2335697919686
 30
0.0
 10
6.864920766714123
 20
208.157742043705
 30
0.0
 10
5.394008818442341
 20
208.0776669257978
 30
0.0
 10
3.714688781585695
 20
207.9986885251367
 30
0.0
 10
1.89459032843745
 20
207.9234020831738
 30
0.0
 10
-0.0000018114165863
 20
207.8437499906915
 30
0.0
 10
-1.894583134651382
 20
207.764097974179
 30
0.0
 10
-3.714713702761876
 20
207.6888113066592
 30
0.0
 10
-5.393914803528423
 20
207.6098337413371
 30
0.0
 10
-6.865270797856875
 20
207.5297555047045
 30
0.0
 10
-8.073208188407664
 20
207.4539392713938
 30
0.0
 10
-8.965515226023701
 20
207.3758796756844
 30
0.0
 10
-9.539548585081212
 20
207.2956267984013
 30
0.0
 10
-9.611212154110891
 20
207.244275940407
 30
0.0
 10
-9.646835312499999
 20
207.2187500034139
 30
0.0
  0
SPLINE
  5
F8
330
1B
100
AcDbEntity
 67
     1
  8
0
  6
Continuous
 62
     7
370
    25
100
AcDbSpline
210
0.0
220
0.0
230
1.0
 70
     8
 71
     3
 72
    25
 73
    21
 74
     0
 42
0.000000001
 43
0.00000001
 40
0.0
 40
0.0
 40
0.0
 40
0.0
 40
0.0581491095215538
 40
0.1169787723606946
 40
0.1753529805381076
 40
0.233304464896537
 40
0.2920882634008185
 40
0.3506438064135513
 40
0.4084962522929984
 40
0.4671885358598482
 40
0.525880819426698
 40
0.5837332653061449
 40
0.6422888083188778
 40
0.7010726068231592
 40
0.7590240911815888
 40
0.8173982993590017
 40
0.8762279621981424
 40
0.9343770717196963
 40
0.99252618124125
 40
1.0
 40
1.0
 40
1.0
 40
1.0
 10
11.0
 20
226.75
 30
0.0
 10
10.95938061007534
 20
226.7244741360746
 30
0.0
 10
10.87766643755366
 20
226.6731236639866
 30
0.0
 10
10.22310868084597
 20
226.5928700227117
 30
0.0
 10
9.205634319164343
 20
226.5148104426281
 30
0.0
 10
7.828275507940446
 20
226.4389950652932
 30
0.0
 10
6.150518259469432
 20
226.3589161083518
 30
0.0
 10
4.235764801159174
 20
226.2799382155848
 30
0.0
 10
2.160353342130823
 20
226.2046526061775
 30
0.0
 10
-0.0000012148086843
 20
226.1249999978067
 30
0.0
 10
-2.160348517661873
 20
226.0453474025329
 30
0.0
 10
-4.235781514529824
 20
225.9700617542395
 30
0.0
 10
-6.150455209200454
 20
225.8910840054845
 30
0.0
 10
-7.828510253588378
 20
225.8110045108769
 30
0.0
 10
-9.20476953399247
 20
225.73519111873
 30
0.0
 10
-10.22637457584669
 20
225.6571240807581
 30
0.0
 10
-10.86543476459883
 20
225.5768984201373
 30
0.0
 10
-11.04504950193462
 20
225.4999186637196
 30
0.0
 10
-10.98021433625605
 20
225.4458592950298
 30
0.0
 10
-10.73794826001014
 20
225.4161224390465
 30
0.0
 10
-10.71035648998852
 20
225.4127356978891
 30
0.0
  0
SPLINE
  5
F9
330
1B
100
AcDbEntity
 67
     1
  8
0
  6
Continuous
 62
     7
370
    25
100
AcDbSpline
210
0.0
220
0.0
230
1.0
 70
     8
 71
     3
 72
    25
 73
    21
 74
     0
 42
0.000000001
 43
0.00000001
 40
0.0
 40
0.0
 40
0.0
 40
0.0
 40
0.0406583837361387
 40
0.1005805480648147
 40
0.1600387996704324
 40
0.2190664772267641
 40
0.2789419254928685
 40
0.3385848794285039
 40
0.3975116793029649
 40
0.4572939131453473
 40
0.5170761469877296
 40
0.5760029468621906
 40
0.635645900797826
 40
0.6955213490639304
 40
0.7545490266202621
 40
0.8140072782258798
 40
0.8739294425545557
 40
0.9331584152896921
 40
0.9923873880248283
 40
1.0
 40
1.0
 40
1.0
 40
1.0
 10
10.93429328942717
 20
224.2258204973326
 30
0.0
 10
10.9028824143835
 20
224.2082762513829
 30
0.0
 10
10.82517831656221
 20
224.1648753654926
 30
0.0
 10
10.21832121130399
 20
224.0928405232552
 30
0.0
 10
9.206902003919291
 20
224.014818253855
 30
0.0
 10
7.82793140372811
 20
223.9389929449898
 30
0.0
 10
6.150610650475728
 20
223.8589166776472
 30
0.0
 10
4.23574042773787
 20
223.7799380654005
 30
0.0
 10
2.160359944941124
 20
223.7046526468627
 30
0.0
 10
-0.0000029955947702
 20
223.6249999868338
 30
0.0
 10
-2.160348048290957
 20
223.5453474054251
 30
0.0
 10
-4.235781641211523
 20
223.4700617534589
 30
0.0
 10
-6.150455174919415
 20
223.3910840056957
 30
0.0
 10
-7.828510262641807
 20
223.3110045108211
 30
0.0
 10
-9.204769531562166
 20
223.2351911187449
 30
0.0
 10
-10.22637457650599
 20
223.1571240807541
 30
0.0
 10
-10.86543476442324
 20
223.0768984201383
 30
0.0
 10
-11.04504950198373
 20
222.9999186637193
 30
0.0
 10
-10.98021433625488
 20
222.9458592950298
 30
0.0
 10
-10.73794826001002
 20
222.9161224390465
 30
0.0
 10
-10.71035648998852
 20
222.9127356978891
 30
0.0
  0
SPLINE
  5
FA
330
1B
100
AcDbEntity
 67
     1
  8
0
  6
Continuous
 62
     7
370
    25
100
AcDbSpline
210
0.0
220
0.0
230
1.0
 70
     8
 71
     3
 72
    25
 73
    21
 74
     0
 42
0.000000001
 43
0.00000001
 40
0.0
 40
0.0
 40
0.0
 40
0.0
 40
0.0581491095215538
 40
0.1169787723606946
 40
0.1753529805381076
 40
0.233304464896537
 40
0.2920882634008185
 40
0.3506438064135513
 40
0.4084962522929984
 40
0.4671885358598482
 40
0.525880819426698
 40
0.5837332653061449
 40
0.6422888083188778
 40
0.7010726068231592
 40
0.7590240911815888
 40
0.8173982993590017
 40
0.8762279621981424
 40
0.9343770717196963
 40
0.99252618124125
 40
1.0
 40
1.0
 40
1.0
 40
1.0
 10
11.0
 20
221.75
 30
0.0
 10
10.95938061007534
 20
221.7244741360746
 30
0.0
 10
10.87766643755366
 20
221.6731236639866
 30
0.0
 10
10.22310868084597
 20
221.5928700227117
 30
0.0
 10
9.205634319164343
 20
221.5148104426281
 30
0.0
 10
7.828275507940446
 20
221.4389950652931
 30
0.0
 10
6.150518259469432
 20
221.3589161083519
 30
0.0
 10
4.235764801159174
 20
221.2799382155848
 30
0.0
 10
2.160353342130823
 20
221.2046526061775
 30
0.0
 10
-0.0000012148086843
 20
221.1249999978067
 30
0.0
 10
-2.160348517661873
 20
221.045347402533
 30
0.0
 10
-4.235781514529824
 20
220.9700617542396
 30
0.0
 10
-6.150455209200454
 20
220.8910840054844
 30
0.0
 10
-7.828510253588378
 20
220.811004510877
 30
0.0
 10
-9.20476953399247
 20
220.7351911187299
 30
0.0
 10
-10.22637457584669
 20
220.6571240807581
 30
0.0
 10
-10.86543476459883
 20
220.5768984201372
 30
0.0
 10
-11.04504950193462
 20
220.4999186637196
 30
0.0
 10
-10.98021433625605
 20
220.4458592950297
 30
0.0
 10
-10.73794826001014
 20
220.4161224390466
 30
0.0
 10
-10.71035648998852
 20
220.4127356978892
 30
0.0
  0
SPLINE
  5
FB
330
1B
100
AcDbEntity
 67
     1
  8
0
  6
Continuous
 62
     7
370
    25
100
AcDbSpline
210
0.0
220
0.0
230
1.0
 70
     8
 71
     3
 72
    25
 73
    21
 74
     0
 42
0.000000001
 43
0.00000001
 40
0.0
 40
0.0
 40
0.0
 40
0.0
 40
0.0406583837361391
 40
0.1005805480648151
 40
0.1600387996704328
 40
0.2190664772267644
 40
0.2789419254928688
 40
0.3385848794285041
 40
0.3975116793029651
 40
0.4572939131453475
 40
0.5170761469877299
 40
0.5760029468621907
 40
0.6356459007978262
 40
0.6955213490639305
 40
0.7545490266202622
 40
0.8140072782258798
 40
0.8739294425545558
 40
0.9331584152896921
 40
0.9923873880248283
 40
1.0
 40
1.0
 40
1.0
 40
1.0
 10
10.93429328942717
 20
219.2258204973326
 30
0.0
 10
10.9028824143835
 20
219.2082762513828
 30
0.0
 10
10.82517831656221
 20
219.1648753654926
 30
0.0
 10
10.21832121130399
 20
219.0928405232551
 30
0.0
 10
9.206902003919298
 20
219.0148182538551
 30
0.0
 10
7.82793140372811
 20
218.9389929449899
 30
0.0
 10
6.150610650475726
 20
218.8589166776472
 30
0.0
 10
4.235740427737869
 20
218.7799380654006
 30
0.0
 10
2.160359944941124
 20
218.7046526468626
 30
0.0
 10
-0.0000029955947735
 20
218.6249999868338
 30
0.0
 10
-2.160348048290953
 20
218.5453474054252
 30
0.0
 10
-4.235781641211529
 20
218.4700617534588
 30
0.0
 10
-6.15045517491941
 20
218.3910840056957
 30
0.0
 10
-7.828510262641807
 20
218.3110045108211
 30
0.0
 10
-9.204769531562164
 20
218.235191118745
 30
0.0
 10
-10.22637457650599
 20
218.157124080754
 30
0.0
 10
-10.86543476442324
 20
218.0768984201383
 30
0.0
 10
-11.04504950198373
 20
217.9999186637192
 30
0.0
 10
-10.98021433625488
 20
217.9458592950299
 30
0.0
 10
-10.73794826001002
 20
217.9161224390465
 30
0.0
 10
-10.71035648998852
 20
217.9127356978891
 30
0.0
  0
SPLINE
  5
FC
330
1B
100
AcDbEntity
 67
     1
  8
0
  6
Continuous
 62
     7
370
    25
100
AcDbSpline
210
0.0
220
0.0
230
1.0
 70
     8
 71
     3
 72
    25
 73
    21
 74
     0
 42
0.000000001
 43
0.00000001
 40
0.0
 40
0.0
 40
0.0
 40
0.0
 40
0.0581491095215538
 40
0.1169787723606946
 40
0.1753529805381076
 40
0.233304464896537
 40
0.2920882634008185
 40
0.3506438064135513
 40
0.4084962522929984
 40
0.4671885358598482
 40
0.525880819426698
 40
0.5837332653061449
 40
0.6422888083188778
 40
0.7010726068231592
 40
0.7590240911815888
 40
0.8173982993590017
 40
0.8762279621981424
 40
0.9343770717196963
 40
0.99252618124125
 40
1.0
 40
1.0
 40
1.0
 40
1.0
 10
11.0
 20
216.75
 30
0.0
 10
10.95938061007534
 20
216.7244741360746
 30
0.0
 10
10.87766643755366
 20
216.6731236639866
 30
0.0
 10
10.22310868084597
 20
216.5928700227116
 30
0.0
 10
9.205634319164343
 20
216.5148104426281
 30
0.0
 10
7.828275507940446
 20
216.4389950652932
 30
0.0
 10
6.150518259469432
 20
216.3589161083518
 30
0.0
 10
4.235764801159174
 20
216.2799382155848
 30
0.0
 10
2.160353342130823
 20
216.2046526061775
 30
0.0
 10
-0.0000012148086843
 20
216.1249999978067
 30
0.0
 10
-2.160348517661873
 20
216.0453474025329
 30
0.0
 10
-4.235781514529824
 20
215.9700617542395
 30
0.0
 10
-6.150455209200454
 20
215.8910840054845
 30
0.0
 10
-7.828510253588378
 20
215.8110045108769
 30
0.0
 10
-9.20476953399247
 20
215.7351911187299
 30
0.0
 10
-10.22637457584669
 20
215.6571240807581
 30
0.0
 10
-10.86543476459883
 20
215.5768984201373
 30
0.0
 10
-11.04504950193462
 20
215.4999186637196
 30
0.0
 10
-10.98021433625605
 20
215.4458592950298
 30
0.0
 10
-10.73794826001014
 20
215.4161224390465
 30
0.0
 10
-10.71035648998852
 20
215.4127356978891
 30
0.0
  0
SPLINE
  5
FD
330
1B
100
AcDbEntity
 67
     1
  8
0
  6
Continuous
 62
     7
370
    25
100
AcDbSpline
210
0.0
220
0.0
230
1.0
 70
     8
 71
     3
 72
    25
 73
    21
 74
     0
 42
0.000000001
 43
0.00000001
 40
0.0
 40
0.0
 40
0.0
 40
0.0
 40
0.0406583837361391
 40
0.1005805480648151
 40
0.1600387996704328
 40
0.2190664772267644
 40
0.2789419254928688
 40
0.3385848794285041
 40
0.3975116793029651
 40
0.4572939131453475
 40
0.5170761469877299
 40
0.5760029468621907
 40
0.6356459007978262
 40
0.6955213490639305
 40
0.7545490266202622
 40
0.8140072782258798
 40
0.8739294425545558
 40
0.9331584152896921
 40
0.9923873880248283
 40
1.0
 40
1.0
 40
1.0
 40
1.0
 10
10.93429328942717
 20
214.2258204973326
 30
0.0
 10
10.9028824143835
 20
214.2082762513829
 30
0.0
 10
10.82517831656221
 20
214.1648753654926
 30
0.0
 10
10.21832121130399
 20
214.0928405232551
 30
0.0
 10
9.206902003919298
 20
214.0148182538551
 30
0.0
 10
7.82793140372811
 20
213.9389929449899
 30
0.0
 10
6.150610650475726
 20
213.8589166776471
 30
0.0
 10
4.235740427737869
 20
213.7799380654006
 30
0.0
 10
2.160359944941124
 20
213.7046526468627
 30
0.0
 10
-0.0000029955947735
 20
213.6249999868338
 30
0.0
 10
-2.160348048290953
 20
213.5453474054252
 30
0.0
 10
-4.235781641211529
 20
213.4700617534588
 30
0.0
 10
-6.15045517491941
 20
213.3910840056957
 30
0.0
 10
-7.828510262641807
 20
213.311004510821
 30
0.0
 10
-9.204769531562164
 20
213.235191118745
 30
0.0
 10
-10.22637457650599
 20
213.157124080754
 30
0.0
 10
-10.86543476442324
 20
213.0768984201383
 30
0.0
 10
-11.04504950198373
 20
212.9999186637192
 30
0.0
 10
-10.98021433625488
 20
212.9458592950299
 30
0.0
 10
-10.73794826001002
 20
212.9161224390465
 30
0.0
 10
-10.71035648998852
 20
212.9127356978891
 30
0.0
  0
SPLINE
  5
FE
330
1B
100
AcDbEntity
 67
     1
  8
0
  6
Continuous
 62
     7
370
    25
100
AcDbSpline
210
0.0
220
0.0
230
1.0
 70
     8
 71
     3
 72
    25
 73
    21
 74
     0
 42
0.000000001
 43
0.00000001
 40
0.0
 40
0.0
 40
0.0
 40
0.0
 40
0.0406583837361391
 40
0.1005805480648151
 40
0.1600387996704328
 40
0.2190664772267644
 40
0.2789419254928688
 40
0.3385848794285041
 40
0.3975116793029651
 40
0.4572939131453475
 40
0.5170761469877299
 40
0.5760029468621907
 40
0.6356459007978262
 40
0.6955213490639305
 40
0.7545490266202622
 40
0.8140072782258798
 40
0.8739294425545558
 40
0.9331584152896921
 40
0.9923873880248283
 40
1.0
 40
1.0
 40
1.0
 40
1.0
 10
10.93429328942717
 20
211.7258204973326
 30
0.0
 10
10.9028824143835
 20
211.7082762513828
 30
0.0
 10
10.82517831656221
 20
211.6648753654927
 30
0.0
 10
10.21832121130399
 20
211.5928405232551
 30
0.0
 10
9.206902003919298
 20
211.5148182538551
 30
0.0
 10
7.82793140372811
 20
211.4389929449899
 30
0.0
 10
6.150610650475726
 20
211.3589166776471
 30
0.0
 10
4.235740427737869
 20
211.2799380654006
 30
0.0
 10
2.160359944941124
 20
211.2046526468626
 30
0.0
 10
-0.0000029955947735
 20
211.1249999868338
 30
0.0
 10
-2.160348048290953
 20
211.0453474054252
 30
0.0
 10
-4.235781641211529
 20
210.9700617534589
 30
0.0
 10
-6.15045517491941
 20
210.8910840056957
 30
0.0
 10
-7.828510262641807
 20
210.8110045108211
 30
0.0
 10
-9.204769531562164
 20
210.735191118745
 30
0.0
 10
-10.22637457650599
 20
210.657124080754
 30
0.0
 10
-10.86543476442324
 20
210.5768984201383
 30
0.0
 10
-11.04504950198373
 20
210.4999186637193
 30
0.0
 10
-10.98021433625488
 20
210.4458592950297
 30
0.0
 10
-10.73794826001002
 20
210.4161224390465
 30
0.0
 10
-10.71035648998852
 20
210.4127356978892
 30
0.0
  0
SPLINE
  5
FF
330
1B
100
AcDbEntity
 67
     1
  8
0
  6
Continuous
 62
     7
370
    25
100
AcDbSpline
210
0.0
220
0.0
230
1.0
 70
     8
 71
     3
 72
    23
 73
    19
 74
     0
 42
0.000000001
 43
0.00000001
 40
0.0
 40
0.0
 40
0.0
 40
0.0
 40
0.0435707196869858
 40
0.107785073163157
 40
0.1715022841226266
 40
0.2347580792686275
 40
0.2989223704383283
 40
0.3628375138463419
 40
0.4259852055018553
 40
0.4900496053538605
 40
0.5541140052058657
 40
0.6172616968613791
 40
0.6811768402693927
 40
0.7453411314390934
 40
0.8085969265850944
 40
0.872314137544564
 40
0.9365284910207351
 40
1.0
 40
1.0
 40
1.0
 40
1.0
 10
10.93429328942717
 20
209.2258204973326
 30
0.0
 10
10.9028824143627
 20
209.2082762513828
 30
0.0
 10
10.82517831648998
 20
209.1648753654926
 30
0.0
 10
10.21832121175733
 20
209.0928405232559
 30
0.0
 10
9.206902002260449
 20
209.0148182538522
 30
0.0
 10
7.827931409904397
 20
208.938992945001
 30
0.0
 10
6.150610627089967
 20
208.858916677605
 30
0.0
 10
4.235740514157046
 20
208.7799380655565
 30
0.0
 10
2.160359624747764
 20
208.7046526462846
 30
0.0
 10
-0.0000017807860822
 20
208.624999989027
 30
0.0
 10
-2.160352552566555
 20
208.5453473972929
 30
0.0
 10
-4.23576501426
 20
208.4700617834786
 30
0.0
 10
-6.150518201802809
 20
208.3910838919015
 30
0.0
 10
-7.828275523169472
 20
208.3110049346401
 30
0.0
 10
-9.205634315077726
 20
208.2351895573897
 30
0.0
 10
-10.22310868194902
 20
208.1571299772834
 30
0.0
 10
-10.87766643728073
 20
208.0768763360146
 30
0.0
 10
-10.95938060998472
 20
208.0255258639257
 30
0.0
 10
-11.0
 20
208.0
 30
0.0
  0
LINE
  5
111
330
1B
100
AcDbEntity
 67
     1
  8
0
  6
Continuous
 62
     7
370
    25
100
AcDbLine
 10
11.0
 20
227.0
 30
0.0
 11
10.0
 21
228.0
 31
0.0
  0
LINE
  5
112
330
1B
100
AcDbEntity
 67
     1
  8
0
  6
Continuous
 62
     7
370
    25
100
AcDbLine
 10
-11.0
 20
227.0
 30
0.0
 11
-10.0
 21
228.0
 31
0.0
  0
LINE
  5
113
330
1B
100
AcDbEntity
 67
     1
  8
0
  6
Continuous
 62
     7
370
    25
100
AcDbLine
 10
-11.0
 20
-4.0
 30
0.0
 11
-10.0
 21
-5.0
 31
0.0
  0
LINE
  5
114
330
1B
100
AcDbEntity
 67
     1
  8
0
  6
Continuous
 62
     7
370
    25
100
AcDbLine
 10
11.0
 20
-4.0
 30
0.0
 11
10.0
 21
-5.0
 31
0.0
  0
LINE
  5
115
330
1B
100
AcDbEntity
 67
     1
  8
0
  6
Continuous
 62
     7
370
    25
100
AcDbLine
 10
11.0
 20
226.75
 30
0.0
 11
11.0
 21
227.0
 31
0.0
  0
LINE
  5
116
330
1B
100
AcDbEntity
 67
     1
  8
0
  6
Continuous
 62
     7
370
    25
100
AcDbLine
 10
11.0
 20
224.25
 30
0.0
 11
11.0
 21
224.5625000068
 31
0.0
  0
LINE
  5
117
330
1B
100
AcDbEntity
 67
     1
  8
0
  6
Continuous
 62
     7
370
    25
100
AcDbLine
 10
11.0
 20
221.75
 30
0.0
 11
11.0
 21
222.0625000068
 31
0.0
  0
LINE
  5
118
330
1B
100
AcDbEntity
 67
     1
  8
0
  6
Continuous
 62
     7
370
    25
100
AcDbLine
 10
11.0
 20
219.25
 30
0.0
 11
11.0
 21
219.5625000068
 31
0.0
  0
LINE
  5
119
330
1B
100
AcDbEntity
 67
     1
  8
0
  6
Continuous
 62
     7
370
    25
100
AcDbLine
 10
11.0
 20
216.75
 30
0.0
 11
11.0
 21
217.0625000068
 31
0.0
  0
LINE
  5
11A
330
1B
100
AcDbEntity
 67
     1
  8
0
  6
Continuous
 62
     7
370
    25
100
AcDbLine
 10
11.0
 20
214.25
 30
0.0
 11
11.0
 21
214.5625000068
 31
0.0
  0
LINE
  5
11B
330
1B
100
AcDbEntity
 67
     1
  8
0
  6
Continuous
 62
     7
370
    25
100
AcDbLine
 10
11.0
 20
211.75
 30
0.0
 11
11.0
 21
212.0625000068
 31
0.0
  0
LINE
  5
11C
330
1B
100
AcDbEntity
 67
     1
  8
0
  6
Continuous
 62
     7
370
    25
100
AcDbLine
 10
11.0
 20
209.25
 30
0.0
 11
11.0
 21
209.5625000068
 31
0.0
  0
LINE
  5
11D
330
1B
100
AcDbEntity
 67
     1
  8
0
  6
Continuous
 62
     7
370
    25
100
AcDbLine
 10
11.0
 20
15.0
 30
0.0
 11
11.0
 21
207.0625000068
 31
0.0
  0
LINE
  5
11E
330
1B
100
AcDbEntity
 67
     1
  8
0
  6
Continuous
 62
     7
370
    25
100
AcDbLine
 10
11.0
 20
-0.3125000068
 30
0.0
 11
11.0
 21
0.0
 31
0.0
  0
LINE
  5
11F
330
1B
100
AcDbEntity
 67
     1
  8
0
  6
Continuous
 62
     7
370
    25
100
AcDbLine
 10
11.0
 20
-4.0
 30
0.0
 11
11.0
 21
-2.5
 31
0.0
  0
LINE
  5
120
330
1B
100
AcDbEntity
 67
     1
  8
0
  6
Continuous
 62
     7
370
    25
100
AcDbLine
 10
-11.0
 20
-3.75
 30
0.0
 11
-11.0
 21
-4.0
 31
0.0
  0
LINE
  5
121
330
1B
100
AcDbEntity
 67
     1
  8
0
  6
Continuous
 62
     7
370
    25
100
AcDbLine
 10
-11.0
 20
-1.25
 30
0.0
 11
-11.0
 21
-1.5625000068
 31
0.0
  0
LINE
  5
122
330
1B
100
AcDbEntity
 67
     1
  8
0
  6
Continuous
 62
     7
370
    25
100
AcDbLine
 10
-11.0
 20
208.3125000068
 30
0.0
 11
-11.0
 21
15.0
 31
0.0
  0
LINE
  5
123
330
1B
100
AcDbEntity
 67
     1
  8
0
  6
Continuous
 62
     7
370
    25
100
AcDbLine
 10
-11.0
 20
210.8125000068
 30
0.0
 11
-11.0
 21
210.5
 31
0.0
  0
LINE
  5
124
330
1B
100
AcDbEntity
 67
     1
  8
0
  6
Continuous
 62
     7
370
    25
100
AcDbLine
 10
-11.0
 20
213.3125000068
 30
0.0
 11
-11.0
 21
213.0
 31
0.0
  0
LINE
  5
125
330
1B
100
AcDbEntity
 67
     1
  8
0
  6
Continuous
 62
     7
370
    25
100
AcDbLine
 10
-11.0
 20
215.8125000068
 30
0.0
 11
-11.0
 21
215.5
 31
0.0
  0
LINE
  5
126
330
1B
100
AcDbEntity
 67
     1
  8
0
  6
Continuous
 62
     7
370
    25
100
AcDbLine
 10
-11.0
 20
218.3125000068
 30
0.0
 11
-11.0
 21
218.0
 31
0.0
  0
LINE
  5
127
330
1B
100
AcDbEntity
 67
     1
  8
0
  6
Continuous
 62
     7
370
    25
100
AcDbLine
 10
-11.0
 20
220.8125000068
 30
0.0
 11
-11.0
 21
220.5
 31
0.0
  0
LINE
  5
128
330
1B
100
AcDbEntity
 67
     1
  8
0
  6
Continuous
 62
     7
370
    25
100
AcDbLine
 10
-11.0
 20
223.3125000068
 30
0.0
 11
-11.0
 21
223.0
 31
0.0
  0
LINE
  5
129
330
1B
100
AcDbEntity
 67
     1
  8
0
  6
Continuous
 62
     7
370
    25
100
AcDbLine
 10
-11.0
 20
227.0
 30
0.0
 11
-11.0
 21
225.5
 31
0.0
  0
LINE
  5
12A
330
1B
100
AcDbEntity
 67
     1
  8
0
  6
Continuous
 62
     7
370
    25
100
AcDbLine
 10
9.6468353125
 20
-1.7187500034
 30
0.0
 11
9.6468353125
 21
-1.0937500034
 31
0.0
  0
LINE
  5
12B
330
1B
100
AcDbEntity
 67
     1
  8
0
  6
Continuous
 62
     7
370
    25
100
AcDbLine
 10
-9.6468353125
 20
0.0
 30
0.0
 11
-9.6468353125
 21
-0.4552091457
 31
0.0
  0
LINE
  5
12C
330
1B
100
AcDbEntity
 67
     1
  8
0
  6
Continuous
 62
     7
370
    25
100
AcDbLine
 10
-9.6468353125
 20
-2.3437500034
 30
0.0
 11
-9.6468353125
 21
-2.9552091457
 31
0.0
  0
LINE
  5
12D
330
1B
100
AcDbEntity
 67
     1
  8
0
  6
Continuous
 62
     7
370
    25
100
AcDbLine
 10
-9.6468353125
 20
224.7187500034
 30
0.0
 11
-9.6468353125
 21
224.0937500034
 31
0.0
  0
LINE
  5
12E
330
1B
100
AcDbEntity
 67
     1
  8
0
  6
Continuous
 62
     7
370
    25
100
AcDbLine
 10
-9.6468353125
 20
222.2187500034
 30
0.0
 11
-9.6468353125
 21
221.5937500034
 31
0.0
  0
LINE
  5
12F
330
1B
100
AcDbEntity
 67
     1
  8
0
  6
Continuous
 62
     7
370
    25
100
AcDbLine
 10
-9.6468353125
 20
219.7187500034
 30
0.0
 11
-9.6468353125
 21
219.0937500034
 31
0.0
  0
LINE
  5
130
330
1B
100
AcDbEntity
 67
     1
  8
0
  6
Continuous
 62
     7
370
    25
100
AcDbLine
 10
-9.6468353125
 20
217.2187500034
 30
0.0
 11
-9.6468353125
 21
216.5937500034
 31
0.0
  0
LINE
  5
131
330
1B
100
AcDbEntity
 67
     1
  8
0
  6
Continuous
 62
     7
370
    25
100
AcDbLine
 10
-9.6468353125
 20
214.7187500034
 30
0.0
 11
-9.6468353125
 21
214.0937500034
 31
0.0
  0
LINE
  5
132
330
1B
100
AcDbEntity
 67
     1
  8
0
  6
Continuous
 62
     7
370
    25
100
AcDbLine
 10
-9.6468353125
 20
212.2187500034
 30
0.0
 11
-9.6468353125
 21
211.5937500034
 31
0.0
  0
LINE
  5
133
330
1B
100
AcDbEntity
 67
     1
  8
0
  6
Continuous
 62
     7
370
    25
100
AcDbLine
 10
-9.6468353125
 20
209.7187500034
 30
0.0
 11
-9.6468353125
 21
209.0937500034
 31
0.0
  0
LINE
  5
134
330
1B
100
AcDbEntity
 67
     1
  8
0
  6
Continuous
 62
     7
370
    25
100
AcDbLine
 10
9.6468353125
 20
222.8437500034
 30
0.0
 11
9.6468353125
 21
223.4552091457
 31
0.0
  0
LINE
  5
135
330
1B
100
AcDbEntity
 67
     1
  8
0
  6
Continuous
 62
     7
370
    25
100
AcDbLine
 10
9.6468353125
 20
220.3437500034
 30
0.0
 11
9.6468353125
 21
220.9552091457
 31
0.0
  0
LINE
  5
136
330
1B
100
AcDbEntity
 67
     1
  8
0
  6
Continuous
 62
     7
370
    25
100
AcDbLine
 10
9.6468353125
 20
217.8437500034
 30
0.0
 11
9.6468353125
 21
218.4552091457
 31
0.0
  0
LINE
  5
137
330
1B
100
AcDbEntity
 67
     1
  8
0
  6
Continuous
 62
     7
370
    25
100
AcDbLine
 10
9.6468353125
 20
215.3437500034
 30
0.0
 11
9.6468353125
 21
215.9552091457
 31
0.0
  0
LINE
  5
138
330
1B
100
AcDbEntity
 67
     1
  8
0
  6
Continuous
 62
     7
370
    25
100
AcDbLine
 10
9.6468353125
 20
212.8437500034
 30
0.0
 11
9.6468353125
 21
213.4552091457
 31
0.0
  0
LINE
  5
139
330
1B
100
AcDbEntity
 67
     1
  8
0
  6
Continuous
 62
     7
370
    25
100
AcDbLine
 10
9.6468353125
 20
210.3437500034
 30
0.0
 11
9.6468353125
 21
210.9552091457
 31
0.0
  0
LINE
  5
13A
330
1B
100
AcDbEntity
 67
     1
  8
0
  6
Continuous
 62
     7
370
    25
100
AcDbLine
 10
9.6468353125
 20
207.8437500034
 30
0.0
 11
9.6468353125
 21
208.4552091457
 31
0.0
  0
LINE
  5
13B
330
1B
100
AcDbEntity
 67
     1
  8
0
  6
Continuous
 62
     7
370
    25
100
AcDbLine
 10
9.6468353125
 20
225.3437500034
 30
0.0
 11
9.6468353125
 21
225.9552091457
 31
0.0
  0
LINE
  5
13C
330
1B
100
AcDbEntity
 67
     1
  8
0
  6
Continuous
 62
     7
370
    25
100
AcDbLine
 10
30.0
 20
0.0
 30
0.0
 11
30.0
 21
14.0
 31
0.0
  0
LINE
  5
13D
330
1B
100
AcDbEntity
 67
     1
  8
0
  6
Continuous
 62
     7
370
    25
100
AcDbLine
 10
-30.0
 20
14.0
 30
0.0
 11
-30.0
 21
0.0
 31
0.0
  0
LINE
  5
13E
330
1B
100
AcDbEntity
 67
     1
  8
0
  6
Continuous
 62
     7
370
    25
100
AcDbLine
 10
-11.0
 20
208.0
 30
0.0
 11
-9.6468353125
 21
207.2187500034
 31
0.0
  0
LINE
  5
13F
330
1B
100
AcDbEntity
 67
     1
  8
0
  6
Continuous
 62
     7
370
    25
100
AcDbLine
 10
11.0
 20
227.0
 30
0.0
 11
-11.0
 21
227.0
 31
0.0
  0
LINE
  5
140
330
1B
100
AcDbEntity
 67
     1
  8
0
  6
Continuous
 62
     7
370
    25
100
AcDbLine
 10
-10.0
 20
228.0
 30
0.0
 11
10.0
 21
228.0
 31
0.0
  0
LINE
  5
141
330
1B
100
AcDbEntity
 67
     1
  8
0
  6
Continuous
 62
     7
370
    25
100
AcDbLine
 10
-11.0
 20
-4.0
 30
0.0
 11
11.0
 21
-4.0
 31
0.0
  0
LINE
  5
142
330
1B
100
AcDbEntity
 67
     1
  8
0
  6
Continuous
 62
     7
370
    25
100
AcDbLine
 10
10.0
 20
-5.0
 30
0.0
 11
-10.0
 21
-5.0
 31
0.0
  0
LINE
  5
143
330
1B
100
AcDbEntity
 67
     1
  8
0
  6
Continuous
 62
     7
370
    25
100
AcDbLine
 10
-9.6468353125
 20
207.2187500034
 30
0.0
 11
-9.6468353125
 21
206.5937500034
 31
0.0
  0
LINE
  5
144
330
1B
100
AcDbEntity
 67
     1
  8
0
  6
Continuous
 62
     7
370
    25
100
AcDbLine
 10
-29.0
 20
15.0
 30
0.0
 11
29.0
 21
15.0
 31
0.0
  0
LINE
  5
145
330
1B
100
AcDbEntity
 67
     1
  8
0
  6
Continuous
 62
     7
370
    25
100
AcDbLine
 10
-30.0
 20
0.0
 30
0.0
 11
30.0
 21
0.0
 31
0.0
  0
LINE
  5
146
330
1B
100
AcDbEntity
 67
     1
  8
0
  6
Continuous
 62
     8
370
    25
100
AcDbLine
 10
30.0
 20
14.0
 30
0.0
 11
-30.0
 21
14.0
 31
0.0
  0
ARC
  5
147
330
1B
100
AcDbEntity
 67
     1
  8
0
  6
Continuous
 62
     7
370
    25
100
AcDbCircle
 10
-29.0
 20
14.0
 30
0.0
 40
1.000000000000012
100
AcDbArc
 50
90.0
 51
180.0
  0
ARC
  5
148
330
1B
100
AcDbEntity
 67
     1
  8
0
  6
Continuous
 62
     7
370
    25
100
AcDbCircle
 10
29.0
 20
14.0
 30
0.0
 40
1.000000000000012
100
AcDbArc
 50
0.0
 51
90.0
  0
VIEWPORT
  5
15A
330
1B
100
AcDbEntity
 67
     1
  8
0
100
AcDbViewport
 10
0.0
 20
0.0
 30
0.0
 40
205.6
 41
156.0
 68
     1
 69
     1
 12
0.0
 22
0.0
 13
0.0
 23
0.0
 14
10.0
 24
10.0
 15
10.0
 25
10.0
 16
0.0
 26
0.0
 36
1.0
 17
0.0
 27
0.0
 37
0.0
 42
50.0
 43
0.0
 44
0.0
 45
61.2
 50
0.0
 51
0.0
 72
   100
 90
   557152
  1

281
     0
 71
     1
 74
     0
110
0.0
120
0.0
130
0.0
111
1.0
121
0.0
131
0.0
112
0.0
122
1.0
132
0.0
 79
     0
146
0.0
  0
ENDSEC
  0
SECTION
  2
OBJECTS
  0
DICTIONARY
  5
C
330
0
100
AcDbDictionary
281
     1
  3
ACAD_GROUP
350
D
  3
ACAD_LAYOUT
350
1A
  3
ACAD_MLINESTYLE
350
17
  3
ACAD_PLOTSETTINGS
350
19
  3
ACAD_PLOTSTYLENAME
350
E
  3
ACAD_SCALELIST
350
47
  0
DICTIONARY
  5
D
102
{ACAD_REACTORS
330
C
102
}
330
C
100
AcDbDictionary
281
     1
  0
DICTIONARY
  5
1A
102
{ACAD_REACTORS
330
C
102
}
330
C
100
AcDbDictionary
281
     1
  3
_Bottom
350
26
  3
_Front
350
1E
  3
Model
350
22
  0
DICTIONARY
  5
17
102
{ACAD_REACTORS
330
C
102
}
330
C
100
AcDbDictionary
281
     1
  3
Standard
350
18
  0
DICTIONARY
  5
19
102
{ACAD_REACTORS
330
C
102
}
330
C
100
AcDbDictionary
281
     1
  0
ACDBDICTIONARYWDFLT
  5
E
102
{ACAD_REACTORS
330
C
102
}
330
C
100
AcDbDictionary
281
     1
  3
Normal
350
F
100
AcDbDictionaryWithDefault
340
F
  0
DICTIONARY
  5
47
102
{ACAD_REACTORS
330
C
102
}
330
C
100
AcDbDictionary
281
     1
  3
A0
350
48
  3
A1
350
49
  3
A2
350
4A
  3
A3
350
4B
  3
A4
350
4C
  3
A5
350
4D
  3
A6
350
4E
  3
A7
350
4F
  3
A8
350
50
  3
A9
350
51
  3
B0
350
52
  3
B1
350
53
  3
B2
350
54
  3
B3
350
55
  3
B4
350
56
  3
B5
350
57
  3
B6
350
58
  3
B7
350
59
  3
B8
350
5A
  3
B9
350
5B
  3
C0
350
5C
  3
C1
350
5D
  3
C2
350
5E
  3
C3
350
5F
  3
C4
350
60
  3
C5
350
61
  3
C6
350
62
  3
C7
350
63
  3
C8
350
64
  3
C9
350
65
  3
D0
350
66
  3
D1
350
67
  3
D2
350
68
  0
LAYOUT
  5
26
102
{ACAD_REACTORS
330
1A
102
}
330
1A
100
AcDbPlotSettings
  1

  2
none_device
  4
ISO_A4_(210.00_x_297.00_MM)
  6

 40
7.5
 41
20.0
 42
7.5
 43
20.0
 44
210.0
 45
297.0
 46
0.0
 47
0.0
 48
0.0
 49
0.0
140
0.0
141
0.0
142
1.0
143
1.1948717949
 70
   688
 72
     1
 73
     1
 74
     1
  7

 75
     0
147
0.8369098712
148
30.0
149
5.0
100
AcDbLayout
  1
_Bottom
 70
     1
 71
     2
 10
0.0
 20
0.0
 11
0.0
 21
0.0
 12
0.0
 22
0.0
 32
0.0
 14
0.0
 24
0.0
 34
0.0
 15
0.0
 25
0.0
 35
0.0
146
0.0
 13
0.0
 23
0.0
 33
0.0
 16
1.0
 26
0.0
 36
0.0
 17
0.0
 27
1.0
 37
0.0
 76
     0
330
23
331
15C
  0
LAYOUT
  5
1E
102
{ACAD_REACTORS
330
1A
102
}
330
1A
100
AcDbPlotSettings
  1

  2
none_device
  4
ISO_A4_(210.00_x_297.00_MM)
  6

 40
7.5
 41
20.0
 42
7.5
 43
20.0
 44
210.0
 45
297.0
 46
0.0
 47
0.0
 48
0.0
 49
0.0
140
0.0
141
0.0
142
1.0
143
1.1948717949
 70
   688
 72
     1
 73
     1
 74
     1
  7

 75
     0
147
0.8369098712
148
30.0
149
5.0
100
AcDbLayout
  1
_Front
 70
     1
 71
     1
 10
-53.8974358974
 20
-13.9615384615
 11
300.9794871795
 21
236.9615384615
 12
0.0
 22
0.0
 32
0.0
 14
-30.0
 24
-5.0
 34
0.0
 15
30.0
 25
228.0
 35
0.0
146
0.0
 13
0.0
 23
0.0
 33
0.0
 16
1.0
 26
0.0
 36
0.0
 17
0.0
 27
1.0
 37
0.0
 76
     0
330
1B
331
15A
  0
LAYOUT
  5
22
102
{ACAD_REACTORS
330
1A
102
}
330
1A
100
AcDbPlotSettings
  1

  2
none_device
  4
ANSI_A_(11.00_x_8.50_Inches)
  6

 40
6.35
 41
19.05
 42
6.35000508
 43
19.05000254
 44
279.4
 45
215.9
 46
133.34999746
 47
88.89999873
 48
0.0
 49
0.0
140
0.0
141
0.0
142
0.14025
143
1.0
 70
  1696
 72
     0
 73
     0
 74
     0
  7

 75
     0
147
0.0179189148
148
-1300.4909072572
149
0.0
100
AcDbLayout
  1
Model
 70
     1
 71
     0
 10
0.0
 20
0.0
 11
420.0
 21
297.0
 12
0.0
 22
0.0
 32
0.0
 14
-30.0
 24
-30.0
 34
0.0
 15
30.0
 25
30.0
 35
0.0
146
0.0
 13
0.0
 23
0.0
 33
0.0
 16
1.0
 26
0.0
 36
0.0
 17
0.0
 27
1.0
 37
0.0
 76
     0
330
1F
331
29
  0
MLINESTYLE
  5
18
102
{ACAD_REACTORS
330
17
102
}
330
17
100
AcDbMlineStyle
  2
Standard
 70
     0
  3

 62
   256
 51
90.0
 52
90.0
 71
     2
 49
0.5
 62
   256
  6
BYLAYER
 49
-0.5
 62
   256
  6
BYLAYER
  0
ACDBPLACEHOLDER
  5
F
102
{ACAD_REACTORS
330
E
102
}
330
E
  0
SCALE
  5
48
102
{ACAD_REACTORS
330
47
102
}
330
47
100
AcDbScale
 70
     0
300
1:1
140
1.0
141
1.0
290
     1
  0
SCALE
  5
49
102
{ACAD_REACTORS
330
47
102
}
330
47
100
AcDbScale
 70
     0
300
1:2
140
1.0
141
2.0
290
     0
  0
SCALE
  5
4A
102
{ACAD_REACTORS
330
47
102
}
330
47
100
AcDbScale
 70
     0
300
1:4
140
1.0
141
4.0
290
     0
  0
SCALE
  5
4B
102
{ACAD_REACTORS
330
47
102
}
330
47
100
AcDbScale
 70
     0
300
1:5
140
1.0
141
5.0
290
     0
  0
SCALE
  5
4C
102
{ACAD_REACTORS
330
47
102
}
330
47
100
AcDbScale
 70
     0
300
1:8
140
1.0
141
8.0
290
     0
  0
SCALE
  5
4D
102
{ACAD_REACTORS
330
47
102
}
330
47
100
AcDbScale
 70
     0
300
1:10
140
1.0
141
10.0
290
     0
  0
SCALE
  5
4E
102
{ACAD_REACTORS
330
47
102
}
330
47
100
AcDbScale
 70
     0
300
1:16
140
1.0
141
16.0
290
     0
  0
SCALE
  5
4F
102
{ACAD_REACTORS
330
47
102
}
330
47
100
AcDbScale
 70
     0
300
1:20
140
1.0
141
20.0
290
     0
  0
SCALE
  5
50
102
{ACAD_REACTORS
330
47
102
}
330
47
100
AcDbScale
 70
     0
300
1:30
140
1.0
141
30.0
290
     0
  0
SCALE
  5
51
102
{ACAD_REACTORS
330
47
102
}
330
47
100
AcDbScale
 70
     0
300
1:40
140
1.0
141
40.0
290
     0
  0
SCALE
  5
52
102
{ACAD_REACTORS
330
47
102
}
330
47
100
AcDbScale
 70
     0
300
1:50
140
1.0
141
50.0
290
     0
  0
SCALE
  5
53
102
{ACAD_REACTORS
330
47
102
}
330
47
100
AcDbScale
 70
     0
300
1:100
140
1.0
141
100.0
290
     0
  0
SCALE
  5
54
102
{ACAD_REACTORS
330
47
102
}
330
47
100
AcDbScale
 70
     0
300
2:1
140
2.0
141
1.0
290
     0
  0
SCALE
  5
55
102
{ACAD_REACTORS
330
47
102
}
330
47
100
AcDbScale
 70
     0
300
4:1
140
4.0
141
1.0
290
     0
  0
SCALE
  5
56
102
{ACAD_REACTORS
330
47
102
}
330
47
100
AcDbScale
 70
     0
300
8:1
140
8.0
141
1.0
290
     0
  0
SCALE
  5
57
102
{ACAD_REACTORS
330
47
102
}
330
47
100
AcDbScale
 70
     0
300
10:1
140
10.0
141
1.0
290
     0
  0
SCALE
  5
58
102
{ACAD_REACTORS
330
47
102
}
330
47
100
AcDbScale
 70
     0
300
100:1
140
100.0
141
1.0
290
     0
  0
SCALE
  5
59
102
{ACAD_REACTORS
330
47
102
}
330
47
100
AcDbScale
 70
     0
300
1/128" = 1'-0"
140
0.0078125
141
12.0
290
     0
  0
SCALE
  5
5A
102
{ACAD_REACTORS
330
47
102
}
330
47
100
AcDbScale
 70
     0
300
1/64" = 1'-0"
140
0.015625
141
12.0
290
     0
  0
SCALE
  5
5B
102
{ACAD_REACTORS
330
47
102
}
330
47
100
AcDbScale
 70
     0
300
1/32" = 1'-0"
140
0.03125
141
12.0
290
     0
  0
SCALE
  5
5C
102
{ACAD_REACTORS
330
47
102
}
330
47
100
AcDbScale
 70
     0
300
1/16" = 1'-0"
140
0.0625
141
12.0
290
     0
  0
SCALE
  5
5D
102
{ACAD_REACTORS
330
47
102
}
330
47
100
AcDbScale
 70
     0
300
3/32" = 1'-0"
140
0.09375
141
12.0
290
     0
  0
SCALE
  5
5E
102
{ACAD_REACTORS
330
47
102
}
330
47
100
AcDbScale
 70
     0
300
1/8" = 1'-0"
140
0.125
141
12.0
290
     0
  0
SCALE
  5
5F
102
{ACAD_REACTORS
330
47
102
}
330
47
100
AcDbScale
 70
     0
300
3/16" = 1'-0"
140
0.1875
141
12.0
290
     0
  0
SCALE
  5
60
102
{ACAD_REACTORS
330
47
102
}
330
47
100
AcDbScale
 70
     0
300
1/4" = 1'-0"
140
0.25
141
12.0
290
     0
  0
SCALE
  5
61
102
{ACAD_REACTORS
330
47
102
}
330
47
100
AcDbScale
 70
     0
300
3/8" = 1'-0"
140
0.375
141
12.0
290
     0
  0
SCALE
  5
62
102
{ACAD_REACTORS
330
47
102
}
330
47
100
AcDbScale
 70
     0
300
1/2" = 1'-0"
140
0.5
141
12.0
290
     0
  0
SCALE
  5
63
102
{ACAD_REACTORS
330
47
102
}
330
47
100
AcDbScale
 70
     0
300
3/4" = 1'-0"
140
0.75
141
12.0
290
     0
  0
SCALE
  5
64
102
{ACAD_REACTORS
330
47
102
}
330
47
100
AcDbScale
 70
     0
300
1" = 1'-0"
140
1.0
141
12.0
290
     0
  0
SCALE
  5
65
102
{ACAD_REACTORS
330
47
102
}
330
47
100
AcDbScale
 70
     0
300
1-1/2" = 1'-0"
140
1.5
141
12.0
290
     0
  0
SCALE
  5
66
102
{ACAD_REACTORS
330
47
102
}
330
47
100
AcDbScale
 70
     0
300
3" = 1'-0"
140
3.0
141
12.0
290
     0
  0
SCALE
  5
67
102
{ACAD_REACTORS
330
47
102
}
330
47
100
AcDbScale
 70
     0
300
6" = 1'-0"
140
6.0
141
12.0
290
     0
  0
SCALE
  5
68
102
{ACAD_REACTORS
330
47
102
}
330
47
100
AcDbScale
 70
     0
300
1'-0" = 1'-0"
140
12.0
141
12.0
290
     0
  0
ENDSEC
  0
EOF
