  0
SECTION
  2
HEADER
  9
$ACADVER
  1
AC1015
  9
$ACADMAINTVER
 70
     6
  9
$DWGCODEPAGE
  3
ANSI_1252
  9
$INSBASE
 10
0.0
 20
0.0
 30
0.0
  9
$EXTMIN
 10
-163.6791244222
 20
-26.5
 30
0.0
  9
$EXTMAX
 10
26.5
 20
26.5
 30
0.0
  9
$LIMMIN
 10
0.0
 20
0.0
  9
$LIMMAX
 10
420.0
 20
297.0
  9
$ORTHOMODE
 70
     0
  9
$REGENMODE
 70
     1
  9
$FILLMODE
 70
     1
  9
$QTEXTMODE
 70
     0
  9
$MIRRTEXT
 70
     1
  9
$LTSCALE
 40
1.0
  9
$ATTMODE
 70
     1
  9
$TEXTSIZE
 40
3.5
  9
$TRACEWID
 40
1.0
  9
$TEXTSTYLE
  7
Standard
  9
$CLAYER
  8
0
  9
$CELTYPE
  6
ByLayer
  9
$CECOLOR
 62
   256
  9
$CELTSCALE
 40
1.0
  9
$DISPSILH
 70
     0
  9
$DIMSCALE
 40
1.0
  9
$DIMASZ
 40
3.302
  9
$DIMEXO
 40
1.0
  9
$DIMDLI
 40
3.75
  9
$DIMRND
 40
0.0
  9
$DIMDLE
 40
0.0
  9
$DIMEXE
 40
1.0
  9
$DIMTP
 40
0.0
  9
$DIMTM
 40
0.0
  9
$DIMTXT
 40
3.5
  9
$DIMCEN
 40
2.5
  9
$DIMTSZ
 40
0.0
  9
$DIMTOL
 70
     0
  9
$DIMLIM
 70
     0
  9
$DIMTIH
 70
     1
  9
$DIMTOH
 70
     1
  9
$DIMSE1
 70
     0
  9
$DIMSE2
 70
     0
  9
$DIMTAD
 70
     1
  9
$DIMZIN
 70
     1
  9
$DIMBLK
  1

  9
$DIMASO
 70
     1
  9
$DIMSHO
 70
     1
  9
$DIMPOST
  1

  9
$DIMAPOST
  1

  9
$DIMALT
 70
     0
  9
$DIMALTD
 70
     3
  9
$DIMALTF
 40
0.0393700787
  9
$DIMLFAC
 40
1.0
  9
$DIMTOFL
 70
     1
  9
$DIMTVP
 40
0.0
  9
$DIMTIX
 70
     0
  9
$DIMSOXD
 70
     0
  9
$DIMSAH
 70
     0
  9
$DIMBLK1
  1

  9
$DIMBLK2
  1

  9
$DIMSTYLE
  2
ISO-25
  9
$DIMCLRD
 70
     0
  9
$DIMCLRE
 70
     0
  9
$DIMCLRT
 70
     0
  9
$DIMTFAC
 40
1.0
  9
$DIMGAP
 40
1.524
  9
$DIMJUST
 70
     0
  9
$DIMSD1
 70
     0
  9
$DIMSD2
 70
     0
  9
$DIMTOLJ
 70
     0
  9
$DIMTZIN
 70
     1
  9
$DIMALTZ
 70
     0
  9
$DIMALTTZ
 70
     0
  9
$DIMUPT
 70
     0
  9
$DIMDEC
 70
     2
  9
$DIMTDEC
 70
     2
  9
$DIMALTU
 70
     2
  9
$DIMALTTD
 70
     3
  9
$DIMTXSTY
  7
Standard
  9
$DIMAUNIT
 70
     0
  9
$DIMADEC
 70
     2
  9
$DIMALTRND
 40
0.0
  9
$DIMAZIN
 70
     0
  9
$DIMDSEP
 70
    44
  9
$DIMATFIT
 70
     3
  9
$DIMFRAC
 70
     0
  9
$DIMLDRBLK
  1

  9
$DIMLUNIT
 70
     2
  9
$DIMLWD
 70
    -2
  9
$DIMLWE
 70
    -2
  9
$DIMTMOVE
 70
     0
  9
$LUNITS
 70
     2
  9
$LUPREC
 70
     2
  9
$SKETCHINC
 40
1.0
  9
$FILLETRAD
 40
10.0
  9
$AUNITS
 70
     0
  9
$AUPREC
 70
     2
  9
$MENU
  1
.
  9
$ELEVATION
 40
0.0
  9
$PELEVATION
 40
0.0
  9
$THICKNESS
 40
0.0
  9
$LIMCHECK
 70
     0
  9
$CHAMFERA
 40
0.0
  9
$CHAMFERB
 40
0.0
  9
$CHAMFERC
 40
0.0
  9
$CHAMFERD
 40
0.0
  9
$SKPOLY
 70
     0
  9
$TDCREATE
 40
2459228.619145069
  9
$TDUCREATE
 40
2459228.619145069
  9
$TDUPDATE
 40
2459228.619308345
  9
$TDUUPDATE
 40
2459228.619308345
  9
$TDINDWG
 40
0.0000000116
  9
$TDUSRTIMER
 40
0.0000000116
  9
$USRTIMER
 70
     1
  9
$ANGBASE
 50
0.0
  9
$ANGDIR
 70
     0
  9
$PDMODE
 70
     0
  9
$PDSIZE
 40
-1.0
  9
$PLINEWID
 40
0.0
  9
$SPLFRAME
 70
     0
  9
$SPLINETYPE
 70
     6
  9
$SPLINESEGS
 70
     8
  9
$HANDSEED
  5
9FE
  9
$SURFTAB1
 70
     6
  9
$SURFTAB2
 70
     6
  9
$SURFTYPE
 70
     6
  9
$SURFU
 70
     6
  9
$SURFV
 70
     6
  9
$UCSBASE
  2

  9
$UCSNAME
  2

  9
$UCSORG
 10
0.0
 20
0.0
 30
0.0
  9
$UCSXDIR
 10
1.0
 20
0.0
 30
0.0
  9
$UCSYDIR
 10
0.0
 20
1.0
 30
0.0
  9
$UCSORTHOREF
  2

  9
$UCSORTHOVIEW
 70
     0
  9
$UCSORGTOP
 10
0.0
 20
0.0
 30
0.0
  9
$UCSORGBOTTOM
 10
0.0
 20
0.0
 30
0.0
  9
$UCSORGLEFT
 10
0.0
 20
0.0
 30
0.0
  9
$UCSORGRIGHT
 10
0.0
 20
0.0
 30
0.0
  9
$UCSORGFRONT
 10
0.0
 20
0.0
 30
0.0
  9
$UCSORGBACK
 10
0.0
 20
0.0
 30
0.0
  9
$PUCSBASE
  2

  9
$PUCSNAME
  2

  9
$PUCSORG
 10
0.0
 20
0.0
 30
0.0
  9
$PUCSXDIR
 10
1.0
 20
0.0
 30
0.0
  9
$PUCSYDIR
 10
0.0
 20
1.0
 30
0.0
  9
$PUCSORTHOREF
  2

  9
$PUCSORTHOVIEW
 70
     0
  9
$PUCSORGTOP
 10
0.0
 20
0.0
 30
0.0
  9
$PUCSORGBOTTOM
 10
0.0
 20
0.0
 30
0.0
  9
$PUCSORGLEFT
 10
0.0
 20
0.0
 30
0.0
  9
$PUCSORGRIGHT
 10
0.0
 20
0.0
 30
0.0
  9
$PUCSORGFRONT
 10
0.0
 20
0.0
 30
0.0
  9
$PUCSORGBACK
 10
0.0
 20
0.0
 30
0.0
  9
$USERI1
 70
     0
  9
$USERI2
 70
     0
  9
$USERI3
 70
     0
  9
$USERI4
 70
     0
  9
$USERI5
 70
     0
  9
$USERR1
 40
0.0
  9
$USERR2
 40
0.0
  9
$USERR3
 40
0.0
  9
$USERR4
 40
0.0
  9
$USERR5
 40
0.0
  9
$WORLDVIEW
 70
     1
  9
$SHADEDGE
 70
     3
  9
$SHADEDIF
 70
    70
  9
$TILEMODE
 70
     0
  9
$MAXACTVP
 70
    64
  9
$PINSBASE
 10
0.0
 20
0.0
 30
0.0
  9
$PLIMCHECK
 70
     0
  9
$PEXTMIN
 10
-163.6791244222
 20
-26.5
 30
0.0
  9
$PEXTMAX
 10
26.5
 20
26.5
 30
0.0
  9
$PLIMMIN
 10
0.0
 20
0.0
  9
$PLIMMAX
 10
0.0
 20
0.0
  9
$UNITMODE
 70
     0
  9
$VISRETAIN
 70
     1
  9
$PLINEGEN
 70
     0
  9
$PSLTSCALE
 70
     1
  9
$TREEDEPTH
 70
  3020
  9
$CMLSTYLE
  2
Standard
  9
$CMLJUST
 70
     0
  9
$CMLSCALE
 40
20.0
  9
$PROXYGRAPHICS
 70
     1
  9
$MEASUREMENT
 70
     1
  9
$CELWEIGHT
370
    -1
  9
$ENDCAPS
280
     0
  9
$JOINSTYLE
280
     0
  9
$LWDISPLAY
290
     1
  9
$INSUNITS
 70
     4
  9
$HYPERLINKBASE
  1

  9
$STYLESHEET
  1

  9
$XEDIT
290
     1
  9
$CEPSNTYPE
380
     0
  9
$PSTYLEMODE
290
     1
  9
$FINGERPRINTGUID
  2
{a0fbcbc7-5d69-4084-ab2b-b4c70223b814}
  9
$VERSIONGUID
  2
{FAEB1C32-E019-11D5-929B-00C0DF256EC4}
  9
$EXTNAMES
290
     1
  9
$PSVPSCALE
 40
0.0
  9
$OLESTARTUP
290
     0
  0
ENDSEC
  0
SECTION
  2
CLASSES
  0
CLASS
  1
ACDBDICTIONARYWDFLT
  2
AcDbDictionaryWithDefault
  3
ObjectDBX Classes
 90
        0
280
     0
281
     0
  0
CLASS
  1
VISUALSTYLE
  2
AcDbVisualStyle
  3
ObjectDBX Classes
 90
     4095
280
     0
281
     0
  0
CLASS
  1
MATERIAL
  2
AcDbMaterial
  3
ObjectDBX Classes
 90
     1153
280
     0
281
     0
  0
CLASS
  1
SCALE
  2
AcDbScale
  3
ObjectDBX Classes
 90
     1153
280
     0
281
     0
  0
CLASS
  1
TABLESTYLE
  2
AcDbTableStyle
  3
ObjectDBX Classes
 90
     4095
280
     0
281
     0
  0
CLASS
  1
MLEADERSTYLE
  2
AcDbMLeaderStyle
  3
ACDB_MLEADERSTYLE_CLASS
 90
     4095
280
     0
281
     0
  0
CLASS
  1
SUN
  2
AcDbSun
  3
SCENEOE
 90
     1153
280
     0
281
     0
  0
CLASS
  1
ACDBPLACEHOLDER
  2
AcDbPlaceHolder
  3
ObjectDBX Classes
 90
        0
280
     0
281
     0
  0
CLASS
  1
LAYOUT
  2
AcDbLayout
  3
ObjectDBX Classes
 90
        0
280
     0
281
     0
  0
ENDSEC
  0
SECTION
  2
TABLES
  0
TABLE
  2
VPORT
  5
8
330
0
100
AcDbSymbolTable
 70
     1
  0
VPORT
  5
29
330
8
100
AcDbSymbolTableRecord
100
AcDbViewportTableRecord
  2
*Active
 70
     0
 10
0.0
 20
0.0
 11
1.0
 21
1.0
 12
-68.5895622111
 22
0.0
 13
0.0
 23
0.0
 14
10.0
 24
10.0
 15
10.0
 25
10.0
 16
0.0
 26
0.0
 36
1.0
 17
0.0
 27
0.0
 37
0.0
 40
54.06
 41
3.5882853665
 42
50.0
 43
0.0
 44
0.0
 50
0.0
 51
0.0
 71
     0
 72
   100
 73
     1
 74
     3
 75
     0
 76
     0
 77
     0
 78
     0
281
     0
 65
     1
110
0.0
120
0.0
130
0.0
111
1.0
121
0.0
131
0.0
112
0.0
122
1.0
132
0.0
 79
     0
146
0.0
  0
ENDTAB
  0
TABLE
  2
LTYPE
  5
5
330
0
100
AcDbSymbolTable
 70
     6
  0
LTYPE
  5
14
330
5
100
AcDbSymbolTableRecord
100
AcDbLinetypeTableRecord
  2
ByBlock
 70
     0
  3

 72
    65
 73
     0
 40
0.0
  0
LTYPE
  5
15
330
5
100
AcDbSymbolTableRecord
100
AcDbLinetypeTableRecord
  2
ByLayer
 70
     0
  3

 72
    65
 73
     0
 40
0.0
  0
LTYPE
  5
16
330
5
100
AcDbSymbolTableRecord
100
AcDbLinetypeTableRecord
  2
Continuous
 70
     0
  3
Solid line
 72
    65
 73
     0
 40
0.0
  0
LTYPE
  5
6E
330
5
100
AcDbSymbolTableRecord
100
AcDbLinetypeTableRecord
  2
HIDDEN
 70
     0
  3
Hidden __ __ __ __ __ __ __ __ __ __ __ __ __ __
 72
    65
 73
     2
 40
1.905
 49
1.27
 74
     0
 49
-0.635
 74
     0
  0
LTYPE
  5
6F
330
5
100
AcDbSymbolTableRecord
100
AcDbLinetypeTableRecord
  2
PHANTOM
 70
     0
  3
Phantom ______  __  __  ______  __  __  ______
 72
    65
 73
     6
 40
12.7
 49
6.35
 74
     0
 49
-1.27
 74
     0
 49
1.27
 74
     0
 49
-1.27
 74
     0
 49
1.27
 74
     0
 49
-1.27
 74
     0
  0
LTYPE
  5
70
330
5
100
AcDbSymbolTableRecord
100
AcDbLinetypeTableRecord
  2
CENTER
 70
     0
  3
Center ____ _ ____ _ ____ _ ____ _ ____ _ ____
 72
    65
 73
     4
 40
10.16
 49
6.35
 74
     0
 49
-1.27
 74
     0
 49
1.27
 74
     0
 49
-1.27
 74
     0
  0
LTYPE
  5
71
330
5
100
AcDbSymbolTableRecord
100
AcDbLinetypeTableRecord
  2
CENTERX2
 70
     0
  3
Center (2x) ________  __  ________  __  _____
 72
    65
 73
     4
 40
20.32
 49
12.7
 74
     0
 49
-2.54
 74
     0
 49
2.54
 74
     0
 49
-2.54
 74
     0
  0
LTYPE
  5
72
330
5
100
AcDbSymbolTableRecord
100
AcDbLinetypeTableRecord
  2
DOT2
 70
     0
  3
Dot (.5x) ........................................
 72
    65
 73
     2
 40
0.635
 49
0.0
 74
     0
 49
-0.635
 74
     0
  0
ENDTAB
  0
TABLE
  2
LAYER
  5
2
330
0
100
AcDbSymbolTable
 70
     1
  0
LAYER
  5
10
330
2
100
AcDbSymbolTableRecord
100
AcDbLayerTableRecord
  2
0
 70
     0
 62
     7
  6
Continuous
370
    -3
390
F
  0
ENDTAB
  0
TABLE
  2
STYLE
  5
3
330
0
100
AcDbSymbolTable
 70
     1
  0
STYLE
  5
11
330
3
100
AcDbSymbolTableRecord
100
AcDbTextStyleTableRecord
  2
Standard
 70
     0
 40
0.0
 41
1.0
 50
0.0
 71
     0
 42
3.5
  3
txt
  4

  0
ENDTAB
  0
TABLE
  2
VIEW
  5
6
330
0
100
AcDbSymbolTable
 70
     0
  0
ENDTAB
  0
TABLE
  2
UCS
  5
7
330
0
100
AcDbSymbolTable
 70
     0
  0
ENDTAB
  0
TABLE
  2
APPID
  5
9
330
0
100
AcDbSymbolTable
 70
     1
  0
APPID
  5
12
330
9
100
AcDbSymbolTableRecord
100
AcDbRegAppTableRecord
  2
ACAD
 70
     0
  0
ENDTAB
  0
TABLE
  2
DIMSTYLE
  5
A
330
0
100
AcDbSymbolTable
 70
     1
100
AcDbDimStyleTable
  0
DIMSTYLE
105
27
330
A
100
AcDbSymbolTableRecord
100
AcDbDimStyleTableRecord
  2
ISO-25
 70
     0
 41
2.5
 42
0.625
 43
3.75
 44
1.25
 73
     0
 74
     0
 77
     1
 78
     8
140
2.5
141
2.5
143
0.0393700787
147
0.625
171
     3
172
     1
178
     0
271
     2
272
     2
274
     3
278
    44
283
     0
284
     8
340
11
  0
ENDTAB
  0
TABLE
  2
BLOCK_RECORD
  5
1
330
0
100
AcDbSymbolTable
 70
     1
  0
BLOCK_RECORD
  5
1F
330
1
100
AcDbSymbolTableRecord
100
AcDbBlockTableRecord
  2
*Model_Space
340
22
  0
BLOCK_RECORD
  5
23
330
1
100
AcDbSymbolTableRecord
100
AcDbBlockTableRecord
  2
*Paper_Space
340
26
  0
BLOCK_RECORD
  5
1B
330
1
100
AcDbSymbolTableRecord
100
AcDbBlockTableRecord
  2
*Paper_Space0
340
1E
  0
ENDTAB
  0
ENDSEC
  0
SECTION
  2
BLOCKS
  0
BLOCK
  5
20
330
1F
100
AcDbEntity
  8
0
100
AcDbBlockBegin
  2
*Model_Space
 70
     0
 10
0.0
 20
0.0
 30
0.0
  3
*Model_Space
  1

  0
ENDBLK
  5
21
330
1F
100
AcDbEntity
  8
0
100
AcDbBlockEnd
  0
BLOCK
  5
24
330
23
100
AcDbEntity
 67
     1
  8
0
100
AcDbBlockBegin
  2
*Paper_Space
 70
     0
 10
0.0
 20
0.0
 30
0.0
  3
*Paper_Space
  1

  0
ENDBLK
  5
25
330
23
100
AcDbEntity
 67
     1
  8
0
100
AcDbBlockEnd
  0
BLOCK
  5
1C
330
1B
100
AcDbEntity
  8
0
100
AcDbBlockBegin
  2
*Paper_Space0
 70
     0
 10
0.0
 20
0.0
 30
0.0
  3
*Paper_Space0
  1

  0
SPLINE
  5
D4
330
1B
100
AcDbEntity
  8
0
  6
Continuous
 62
     7
370
    25
100
AcDbSpline
210
0.0
220
0.0
230
1.0
 70
     8
 71
     3
 72
     9
 73
     5
 74
     0
 42
0.000000001
 43
0.00000001
 40
0.0
 40
0.0
 40
0.0
 40
0.0
 40
0.4872039635318111
 40
1.0
 40
1.0
 40
1.0
 40
1.0
 10
234.0253663609824
 20
-1.565508645602031
 30
0.0
 10
234.0328242227963
 20
-1.568405523121564
 30
0.0
 10
234.048131696405
 20
-1.574351446669749
 30
0.0
 10
234.0645434587693
 20
-1.5734959729592
 30
0.0
 10
234.0729593454612
 20
-1.573057289431128
 30
0.0
  0
SPLINE
  5
D5
330
1B
100
AcDbEntity
  8
0
  6
Continuous
 62
     7
370
    25
100
AcDbSpline
210
0.0
220
0.0
230
1.0
 70
     8
 71
     3
 72
     9
 73
     5
 74
     0
 42
0.000000001
 43
0.00000001
 40
0.0
 40
0.0
 40
0.0
 40
0.0
 40
0.7230236732331328
 40
1.0
 40
1.0
 40
1.0
 40
1.0
 10
234.072856558885
 20
1.572666765482668
 30
0.0
 10
234.0608779318443
 20
1.573300585074488
 30
0.0
 10
234.0443105254312
 20
1.574177208641995
 30
0.0
 10
234.0290656569351
 20
1.568209300384065
 30
0.0
 10
234.024843189257
 20
1.566556331076301
 30
0.0
  0
SPLINE
  5
DA
330
1B
100
AcDbEntity
  8
0
  6
Continuous
 62
     7
370
    25
100
AcDbSpline
210
0.0
220
0.0
230
1.0
 70
     8
 71
     3
 72
    12
 73
     8
 74
     0
 42
0.000000001
 43
0.00000001
 40
0.0
 40
0.0
 40
0.0
 40
0.0
 40
0.1703567651720249
 40
0.4114779166356955
 40
0.6681923112718305
 40
0.9389294809746572
 40
1.0
 40
1.0
 40
1.0
 40
1.0
 10
233.6069503319955
 20
1.462352321951868
 30
0.0
 10
233.5913027267965
 20
1.457898440266569
 30
0.0
 10
233.5535076678146
 20
1.447140581868883
 30
0.0
 10
233.5025968406541
 20
1.405464009618108
 30
0.0
 10
233.464915095524
 20
1.342788651636455
 30
0.0
 10
233.4502398420974
 20
1.285398252191523
 30
0.0
 10
233.4573432555344
 20
1.254598698575513
 30
0.0
 10
233.4586506669061
 20
1.248929918770295
 30
0.0
  0
SPLINE
  5
DB
330
1B
100
AcDbEntity
  8
0
  6
Continuous
 62
     7
370
    25
100
AcDbSpline
210
0.0
220
0.0
230
1.0
 70
     8
 71
     3
 72
    12
 73
     8
 74
     0
 42
0.000000001
 43
0.00000001
 40
0.0
 40
0.0
 40
0.0
 40
0.0
 40
0.1909485038250415
 40
0.4400631368580625
 40
0.7028750262616228
 40
0.9517679642568345
 40
1.0
 40
1.0
 40
1.0
 40
1.0
 10
233.4578825149188
 20
-1.248655030650792
 30
0.0
 10
233.4567781444991
 20
-1.266937384536828
 30
0.0
 10
233.4542329938359
 20
-1.309071205117115
 30
0.0
 10
233.4792406013797
 20
-1.374003620358238
 30
0.0
 10
233.5275873192118
 20
-1.428321500541878
 30
0.0
 10
233.5749821112084
 20
-1.458532968745545
 30
0.0
 10
233.6031748237351
 20
-1.461781976977196
 30
0.0
 10
233.6077513219713
 20
-1.462309385626785
 30
0.0
  0
SPLINE
  5
DC
330
1B
100
AcDbEntity
  8
0
  6
Continuous
 62
     7
370
    25
100
AcDbSpline
210
0.0
220
0.0
230
1.0
 70
     8
 71
     3
 72
     9
 73
     5
 74
     0
 42
0.000000001
 43
0.00000001
 40
0.0
 40
0.0
 40
0.0
 40
0.0
 40
0.2818968125683465
 40
1.0
 40
1.0
 40
1.0
 40
1.0
 10
234.1223208204847
 20
-1.5651944699496
 30
0.0
 10
234.1220833420405
 20
-1.570811761614023
 30
0.0
 10
234.1212409116416
 20
-1.590738527061437
 30
0.0
 10
234.117512458643
 20
-1.618354261144334
 30
0.0
 10
234.1148350446604
 20
-1.638185207812528
 30
0.0
  0
SPLINE
  5
DD
330
1B
100
AcDbEntity
  8
0
  6
Continuous
 62
     7
370
    25
100
AcDbSpline
210
0.0
220
0.0
230
1.0
 70
     8
 71
     3
 72
     9
 73
     5
 74
     0
 42
0.000000001
 43
0.00000001
 40
0.0
 40
0.0
 40
0.0
 40
0.0
 40
0.7180820675036128
 40
1.0
 40
1.0
 40
1.0
 40
1.0
 10
234.114835204779
 20
1.638184967038894
 30
0.0
 10
234.117512494855
 20
1.618355072316699
 30
0.0
 10
234.1212408849613
 20
1.590739990949839
 30
0.0
 10
234.1220836675085
 20
1.57081241184956
 30
0.0
 10
234.1223212630218
 20
1.565194469949951
 30
0.0
  0
SPLINE
  5
DE
330
1B
100
AcDbEntity
  8
0
  6
Continuous
 62
     7
370
    25
100
AcDbSpline
210
0.0
220
0.0
230
1.0
 70
     8
 71
     3
 72
    11
 73
     7
 74
     0
 42
0.000000001
 43
0.00000001
 40
0.0
 40
0.0
 40
0.0
 40
0.0
 40
0.2810043532901081
 40
0.6255822553810599
 40
0.9732056848014781
 40
1.0
 40
1.0
 40
1.0
 40
1.0
 10
232.5594336024795
 20
-4.811068069256556
 30
0.0
 10
232.538838609637
 20
-4.812168494834613
 30
0.0
 10
232.4929892769803
 20
-4.81461830284271
 30
0.0
 10
232.4319417321349
 20
-4.852072372548385
 30
0.0
 10
232.3918844394713
 20
-4.890097669283811
 30
0.0
 10
232.3838267686928
 20
-4.915982366850649
 30
0.0
 10
232.3832501406518
 20
-4.917834743655414
 30
0.0
  0
SPLINE
  5
DF
330
1B
100
AcDbEntity
  8
0
  6
Continuous
 62
     7
370
    25
100
AcDbSpline
210
0.0
220
0.0
230
1.0
 70
     8
 71
     3
 72
    11
 73
     7
 74
     0
 42
0.000000001
 43
0.00000001
 40
0.0
 40
0.0
 40
0.0
 40
0.0
 40
0.1214114920022082
 40
0.4657480045796577
 40
0.8131279109823997
 40
1.0
 40
1.0
 40
1.0
 40
1.0
 10
232.3853476618313
 20
4.918317591022389
 30
0.0
 10
232.3886683968723
 20
4.910122104644549
 30
0.0
 10
232.4014071063107
 20
4.878683306190701
 30
0.0
 10
232.4484609174949
 20
4.839550162312568
 30
0.0
 10
232.5073582985536
 20
4.810422645180925
 30
0.0
 10
232.5463729330434
 20
4.812210610829435
 30
0.0
 10
232.5600195760356
 20
4.812836010226524
 30
0.0
  0
SPLINE
  5
E2
330
1B
100
AcDbEntity
  8
0
  6
Continuous
 62
     7
370
    25
100
AcDbSpline
210
0.0
220
0.0
230
1.0
 70
     8
 71
     3
 72
    11
 73
     7
 74
     0
 42
0.000000001
 43
0.00000001
 40
0.0
 40
0.0
 40
0.0
 40
0.0
 40
0.2454898235591254
 40
0.4940211904435551
 40
0.7449731914365022
 40
1.0
 40
1.0
 40
1.0
 40
1.0
 10
232.9728658875609
 20
4.80966229324052
 30
0.0
 10
232.9959821588431
 20
4.807033257293924
 30
0.0
 10
233.0425011048911
 20
4.801742612454856
 30
0.0
 10
233.1238901114661
 20
4.754692434531283
 30
0.0
 10
233.1994344246314
 20
4.684688711308742
 30
0.0
 10
233.2318510373983
 20
4.626467428273597
 30
0.0
 10
233.2481898744054
 20
4.597122349542055
 30
0.0
  0
SPLINE
  5
E3
330
1B
100
AcDbEntity
  8
0
  6
Continuous
 62
     7
370
    25
100
AcDbSpline
210
0.0
220
0.0
230
1.0
 70
     8
 71
     3
 72
    11
 73
     7
 74
     0
 42
0.000000001
 43
0.00000001
 40
0.0
 40
0.0
 40
0.0
 40
0.0
 40
0.2550264347580789
 40
0.5059772776758594
 40
0.7545112028620178
 40
0.9999999999999999
 40
0.9999999999999999
 40
0.9999999999999999
 40
0.9999999999999999
 10
233.2481898386313
 20
-4.597122588820551
 30
0.0
 10
233.2318510648513
 20
-4.626467609202022
 30
0.0
 10
233.1994346281568
 20
-4.684688685538853
 30
0.0
 10
233.1238907547448
 20
-4.75469217913176
 30
0.0
 10
233.0425022736039
 20
-4.801742517953165
 30
0.0
 10
232.9959835583698
 20
-4.807033195343703
 30
0.0
 10
232.9728675701143
 20
-4.809662228321249
 30
0.0
  0
SPLINE
  5
E6
330
1B
100
AcDbEntity
  8
0
  6
Continuous
 62
     7
370
    25
100
AcDbSpline
210
0.0
220
0.0
230
1.0
 70
     8
 71
     3
 72
    11
 73
     7
 74
     0
 42
0.000000001
 43
0.00000001
 40
0.0
 40
0.0
 40
0.0
 40
0.0
 40
0.3196535562174694
 40
0.6214105763135385
 40
0.8340737872760774
 40
0.9999999999999999
 40
0.9999999999999999
 40
0.9999999999999999
 40
0.9999999999999999
 10
231.3544692639276
 20
-7.385882236491848
 30
0.0
 10
231.367141995788
 20
-7.406002226899134
 30
0.0
 10
231.3917779476039
 20
-7.445115743990455
 30
0.0
 10
231.4449837598501
 20
-7.478621485083349
 30
0.0
 10
231.4928870058642
 20
-7.495122523080494
 30
0.0
 10
231.520874856484
 20
-7.495164723703835
 30
0.0
 10
231.5331412267656
 20
-7.495183219174568
 30
0.0
  0
SPLINE
  5
E7
330
1B
100
AcDbEntity
  8
0
  6
Continuous
 62
     7
370
    25
100
AcDbSpline
210
0.0
220
0.0
230
1.0
 70
     8
 71
     3
 72
    13
 73
     9
 74
     0
 42
0.000000001
 43
0.00000001
 40
0.0
 40
0.0
 40
0.0
 40
0.0
 40
0.0393089270646345
 40
0.2223354359303114
 40
0.441335381063521
 40
0.6949233257161754
 40
0.9786876822959589
 40
1.0
 40
1.0
 40
1.0
 40
1.0
 10
231.5334814927615
 20
7.496397423388325
 30
0.0
 10
231.530570046694
 20
7.496504995509031
 30
0.0
 10
231.5141026007742
 20
7.497113434765376
 30
0.0
 10
231.4815712793234
 20
7.491329382620491
 30
0.0
 10
231.4355081882162
 20
7.474195257641377
 30
0.0
 10
231.3912395826715
 20
7.439914439037914
 30
0.0
 10
231.3617060528447
 20
7.407854626421129
 30
0.0
 10
231.35513469297
 20
7.38620771019363
 30
0.0
 10
231.354675625066
 20
7.384695480663019
 30
0.0
  0
SPLINE
  5
ED
330
1B
100
AcDbEntity
  8
0
  6
Continuous
 62
     7
370
    25
100
AcDbSpline
210
0.0
220
0.0
230
1.0
 70
     8
 71
     3
 72
    12
 73
     8
 74
     0
 42
0.000000001
 43
0.00000001
 40
0.0
 40
0.0
 40
0.0
 40
0.0
 40
0.0954338309346801
 40
0.392157565513237
 40
0.6820418086527061
 40
0.9544150245655807
 40
1.0
 40
1.0
 40
1.0
 40
1.0
 10
231.1130513336261
 20
6.892820213718458
 30
0.0
 10
231.1090111400822
 20
6.886147788614466
 30
0.0
 10
231.0924091400483
 20
6.858729398728785
 30
0.0
 10
231.0864286747343
 20
6.800684931234357
 30
0.0
 10
231.1002721028293
 20
6.73212438829737
 30
0.0
 10
231.1246174968029
 20
6.686679428059895
 30
0.0
 10
231.1440282711673
 20
6.669504431336641
 30
0.0
 10
231.1468111517368
 20
6.667042089352627
 30
0.0
  0
SPLINE
  5
EE
330
1B
100
AcDbEntity
  8
0
  6
Continuous
 62
     7
370
    25
100
AcDbSpline
210
0.0
220
0.0
230
1.0
 70
     8
 71
     3
 72
    12
 73
     8
 74
     0
 42
0.000000001
 43
0.00000001
 40
0.0
 40
0.0
 40
0.0
 40
0.0
 40
0.1021381458657325
 40
0.3329220208343854
 40
0.5911686733225092
 40
0.8762850754387501
 40
1.0
 40
1.0
 40
1.0
 40
1.0
 10
231.1469711058112
 20
-6.667577431865661
 30
0.0
 10
231.1410111463652
 20
-6.673401504770794
 30
0.0
 10
231.1215844989941
 20
-6.692385226323879
 30
0.0
 10
231.0993343817056
 20
-6.736568974750116
 30
0.0
 10
231.0871291545459
 20
-6.798345414143673
 30
0.0
 10
231.091166592562
 20
-6.855183613466306
 30
0.0
 10
231.1087358138297
 20
-6.883693451486838
 30
0.0
 10
231.1140523704189
 20
-6.892320707349612
 30
0.0
  0
SPLINE
  5
F3
330
1B
100
AcDbEntity
  8
0
  6
Continuous
 62
     7
370
    25
100
AcDbSpline
210
0.0
220
0.0
230
1.0
 70
     8
 71
     3
 72
    12
 73
     8
 74
     0
 42
0.000000001
 43
0.00000001
 40
0.0
 40
0.0
 40
0.0
 40
0.0
 40
0.1278630587355691
 40
0.255267816550566
 40
0.5065544244888242
 40
0.7542806016156821
 40
1.0
 40
1.0
 40
1.0
 40
1.0
 10
229.1072373908972
 20
8.161794005262234
 30
0.0
 10
229.1227475912087
 20
8.161669760237064
 30
0.0
 10
229.1537123984558
 20
8.16142171551949
 30
0.0
 10
229.2272804755231
 20
8.157949548548187
 30
0.0
 10
229.328938936014
 20
8.149314140428533
 30
0.0
 10
229.4517349716259
 20
8.132264539036075
 30
0.0
 10
229.5142996777655
 20
8.116500360955238
 30
0.0
 10
229.5454548095888
 20
8.10865032734204
 30
0.0
  0
SPLINE
  5
F4
330
1B
100
AcDbEntity
  8
0
  6
Continuous
 62
     7
370
    25
100
AcDbSpline
210
0.0
220
0.0
230
1.0
 70
     8
 71
     3
 72
    12
 73
     8
 74
     0
 42
0.000000001
 43
0.00000001
 40
0.0
 40
0.0
 40
0.0
 40
0.0
 40
0.2457176622875333
 40
0.4934423268204727
 40
0.7447319592805693
 40
0.8721358501464707
 40
0.9999999999999999
 40
0.9999999999999999
 40
0.9999999999999999
 40
0.9999999999999999
 10
229.5454536748597
 20
-8.10865075460109
 30
0.0
 10
229.5142987928971
 20
-8.116500942941762
 30
0.0
 10
229.4517345583836
 20
-8.132265439334653
 30
0.0
 10
229.3289392179944
 20
-8.149314170612493
 30
0.0
 10
229.2272808591713
 20
-8.157950129791638
 30
0.0
 10
229.1537120561305
 20
-8.161421207862551
 30
0.0
 10
229.1227472304774
 20
-8.161669549546076
 30
0.0
 10
229.1072369022109
 20
-8.161793944273077
 30
0.0
  0
SPLINE
  5
F5
330
1B
100
AcDbEntity
  8
0
  6
Continuous
 62
     7
370
    25
100
AcDbSpline
210
0.0
220
0.0
230
1.0
 70
     8
 71
     3
 72
    11
 73
     7
 74
     0
 42
0.000000001
 43
0.00000001
 40
0.0
 40
0.0
 40
0.0
 40
0.0
 40
0.219708624099947
 40
0.479677026755876
 40
0.7397963465171308
 40
0.9999999999999999
 40
0.9999999999999999
 40
0.9999999999999999
 40
0.9999999999999999
 10
226.8612453308973
 20
-8.15663449061536
 30
0.0
 10
226.8391025708267
 20
-8.156762490703024
 30
0.0
 10
226.790759574013
 20
-8.157041945830136
 30
0.0
 10
226.7237583759106
 20
-8.193585423697838
 30
0.0
 10
226.6700703694514
 20
-8.252984989374282
 30
0.0
 10
226.6577288852533
 20
-8.303900192476274
 30
0.0
 10
226.6515571430031
 20
-8.32936192018428
 30
0.0
  0
SPLINE
  5
F6
330
1B
100
AcDbEntity
  8
0
  6
Continuous
 62
     7
370
    25
100
AcDbSpline
210
0.0
220
0.0
230
1.0
 70
     8
 71
     3
 72
    11
 73
     7
 74
     0
 42
0.000000001
 43
0.00000001
 40
0.0
 40
0.0
 40
0.0
 40
0.0
 40
0.2602036535132402
 40
0.5203229733040747
 40
0.7802913759890783
 40
1.0
 40
1.0
 40
1.0
 40
1.0
 10
226.6515571430035
 20
8.329361920180471
 30
0.0
 10
226.6577288852538
 20
8.303900192472476
 30
0.0
 10
226.6700703694524
 20
8.252984989370585
 30
0.0
 10
226.7237583759117
 20
8.193585423695184
 30
0.0
 10
226.7907595740033
 20
8.157041945831631
 30
0.0
 10
226.839102570805
 20
8.156762490703997
 30
0.0
 10
226.8612453308639
 20
8.15663449061613
 30
0.0
  0
SPLINE
  5
FD
330
1B
100
AcDbEntity
  8
0
  6
Continuous
 62
     7
370
    25
100
AcDbSpline
210
0.0
220
0.0
230
1.0
 70
     8
 71
     3
 72
    10
 73
     6
 74
     0
 42
0.000000001
 43
0.00000001
 40
0.0
 40
0.0
 40
0.0
 40
0.0
 40
0.3504641107599435
 40
0.8222769782482306
 40
1.0
 40
1.0
 40
1.0
 40
1.0
 10
223.9624034149651
 20
7.494104034950857
 30
0.0
 10
223.9437511678613
 20
7.493472578702113
 30
0.0
 10
223.8999883033764
 20
7.49199102347243
 30
0.0
 10
223.8486356285223
 20
7.467654525378405
 30
0.0
 10
223.8269313710042
 20
7.440644886581312
 30
0.0
 10
223.8209927519148
 20
7.433254633474497
 30
0.0
  0
SPLINE
  5
FE
330
1B
100
AcDbEntity
  8
0
  6
Continuous
 62
     7
370
    25
100
AcDbSpline
210
0.0
220
0.0
230
1.0
 70
     8
 71
     3
 72
    10
 73
     6
 74
     0
 42
0.000000001
 43
0.00000001
 40
0.0
 40
0.0
 40
0.0
 40
0.0
 40
0.2319476259600973
 40
0.7033429660521959
 40
1.0
 40
1.0
 40
1.0
 40
1.0
 10
223.8211283028663
 20
-7.433128750665155
 30
0.0
 10
223.8292424853385
 20
-7.44247867702556
 30
0.0
 10
223.853847407003
 20
-7.470830788462249
 30
0.0
 10
223.9057496216402
 20
-7.493869063930187
 30
0.0
 10
223.9467217680601
 20
-7.493570178564917
 30
0.0
 10
223.9625470891478
 20
-7.49345473533611
 30
0.0
  0
SPLINE
  5
101
330
1B
100
AcDbEntity
  8
0
  6
Continuous
 62
     7
370
    25
100
AcDbSpline
210
0.0
220
0.0
230
1.0
 70
     8
 71
     3
 72
    13
 73
     9
 74
     0
 42
0.000000001
 43
0.00000001
 40
0.0
 40
0.0
 40
0.0
 40
0.0
 40
0.1288565940784265
 40
0.2570205532724007
 40
0.3842508623042861
 40
0.5102989154119826
 40
0.7572998013273378
 40
1.0
 40
1.0
 40
1.0
 40
1.0
 10
224.7567970524626
 20
7.662991057611713
 30
0.0
 10
224.7448167070125
 20
7.652209004095782
 30
0.0
 10
224.7209204133227
 20
7.630702853169659
 30
0.0
 10
224.6767050658096
 20
7.599108794213654
 30
0.0
 10
224.6287032417696
 20
7.569817986842247
 30
0.0
 10
224.5624062279665
 20
7.536037207481097
 30
0.0
 10
224.4769609641295
 20
7.503499993380817
 30
0.0
 10
224.422188849236
 20
7.498690618216293
 30
0.0
 10
224.3950433035455
 20
7.496307049250128
 30
0.0
  0
SPLINE
  5
102
330
1B
100
AcDbEntity
  8
0
  6
Continuous
 62
     7
370
    25
100
AcDbSpline
210
0.0
220
0.0
230
1.0
 70
     8
 71
     3
 72
    13
 73
     9
 74
     0
 42
0.000000001
 43
0.00000001
 40
0.0
 40
0.0
 40
0.0
 40
0.0
 40
0.2427011472624712
 40
0.4896986783435122
 40
0.6157475755698819
 40
0.7429768598830699
 40
0.8711380905205419
 40
1.0
 40
1.0
 40
1.0
 40
1.0
 10
224.3950428859538
 20
-7.496307199092878
 30
0.0
 10
224.4221885312162
 20
-7.498690758461997
 30
0.0
 10
224.4769603638081
 20
-7.503500071833503
 30
0.0
 10
224.562405774464
 20
-7.536037067349427
 30
0.0
 10
224.6287024652949
 20
-7.569817972072112
 30
0.0
 10
224.6767041708157
 20
-7.59910844300023
 30
0.0
 10
224.7209204352966
 20
-7.630703237790651
 30
0.0
 10
224.7448166601882
 20
-7.652208879137132
 30
0.0
 10
224.7567973447581
 20
-7.662991013411997
 30
0.0
  0
SPLINE
  5
103
330
1B
100
AcDbEntity
  8
0
  6
Continuous
 62
     7
370
    25
100
AcDbSpline
210
0.0
220
0.0
230
1.0
 70
     8
 71
     3
 72
    11
 73
     7
 74
     0
 42
0.000000001
 43
0.00000001
 40
0.0
 40
0.0
 40
0.0
 40
0.0
 40
0.0960915385994143
 40
0.5420038244577137
 40
0.8250678469361808
 40
0.9999999999999999
 40
0.9999999999999999
 40
0.9999999999999999
 40
0.9999999999999999
 10
222.7968230626995
 20
4.868896837841542
 30
0.0
 10
222.7998093552629
 20
4.864873307365428
 30
0.0
 10
222.8166535229592
 20
4.842178604609473
 30
0.0
 10
222.8578350920384
 20
4.82320162452473
 30
0.0
 10
222.9029336700079
 20
4.810417573101559
 30
0.0
 10
222.9268025301688
 20
4.809645835686601
 30
0.0
 10
222.9359192680852
 20
4.809351069715161
 30
0.0
  0
SPLINE
  5
104
330
1B
100
AcDbEntity
  8
0
  6
Continuous
 62
     7
370
    25
100
AcDbSpline
210
0.0
220
0.0
230
1.0
 70
     8
 71
     3
 72
    11
 73
     7
 74
     0
 42
0.000000001
 43
0.00000001
 40
0.0
 40
0.0
 40
0.0
 40
0.0
 40
0.1445410424663738
 40
0.4640284128209252
 40
0.8377399214225087
 40
1.0
 40
1.0
 40
1.0
 40
1.0
 10
222.9362204183289
 20
-4.810235866452219
 30
0.0
 10
222.9286870656294
 20
-4.810071239657931
 30
0.0
 10
222.9045023106513
 20
-4.809542728802071
 30
0.0
 10
222.862248918422
 20
-4.821667276264502
 30
0.0
 10
222.8209128721674
 20
-4.841244135000545
 30
0.0
 10
222.8026351394014
 20
-4.862454334531352
 30
0.0
 10
222.7971017372104
 20
-4.868875511931121
 30
0.0
  0
SPLINE
  5
109
330
1B
100
AcDbEntity
  8
0
  6
Continuous
 62
     7
370
    25
100
AcDbSpline
210
0.0
220
0.0
230
1.0
 70
     8
 71
     3
 72
    11
 73
     7
 74
     0
 42
0.000000001
 43
0.00000001
 40
0.0
 40
0.0
 40
0.0
 40
0.0
 40
0.209195451576092
 40
0.4681964025782383
 40
0.7509160053865026
 40
1.0
 40
1.0
 40
1.0
 40
1.0
 10
222.411303058467
 20
5.444752736926682
 30
0.0
 10
222.4041544550137
 20
5.428573848870925
 30
0.0
 10
222.38815530018
 20
5.392364184041448
 30
0.0
 10
222.3866865165462
 20
5.328067372618243
 30
0.0
 10
222.4043665451493
 20
5.261890002374553
 30
0.0
 10
222.4349321049553
 20
5.228639481097871
 30
0.0
 10
222.449248276886
 20
5.2130657378913
 30
0.0
  0
SPLINE
  5
10A
330
1B
100
AcDbEntity
  8
0
  6
Continuous
 62
     7
370
    25
100
AcDbSpline
210
0.0
220
0.0
230
1.0
 70
     8
 71
     3
 72
    11
 73
     7
 74
     0
 42
0.000000001
 43
0.00000001
 40
0.0
 40
0.0
 40
0.0
 40
0.0
 40
0.1583725954013176
 40
0.4410342819144482
 40
0.7492101583629545
 40
1.0
 40
1.0
 40
1.0
 40
1.0
 10
222.4494545705859
 20
-5.213132161941586
 30
0.0
 10
222.4397999481943
 20
-5.222402010099541
 30
0.0
 10
222.412913860719
 20
-5.248216582471987
 30
0.0
 10
222.3895526651619
 20
-5.308745720611421
 30
0.0
 10
222.3845890010886
 20
-5.381399056586341
 30
0.0
 10
222.4031858264487
 20
-5.425032217427137
 30
0.0
 10
222.4115296205958
 20
-5.444609005668939
 30
0.0
  0
SPLINE
  5
10D
330
1B
100
AcDbEntity
  8
0
  6
Continuous
 62
     7
370
    25
100
AcDbSpline
210
0.0
220
0.0
230
1.0
 70
     8
 71
     3
 72
    12
 73
     8
 74
     0
 42
0.000000001
 43
0.00000001
 40
0.0
 40
0.0
 40
0.0
 40
0.0
 40
0.0214038962117818
 40
0.2494088177628022
 40
0.4954439166110501
 40
0.7506508857185961
 40
1.0
 40
1.0
 40
1.0
 40
1.0
 10
221.4236765965479
 20
1.573385599540405
 30
0.0
 10
221.4216103550617
 20
1.573646899463353
 30
0.0
 10
221.3975334841429
 20
1.576691695804139
 30
0.0
 10
221.3489567314178
 20
1.563143698771139
 30
0.0
 10
221.2874690106234
 20
1.527436882751814
 30
0.0
 10
221.2397334999716
 20
1.468271955686076
 30
0.0
 10
221.2297264949533
 20
1.419711124370618
 30
0.0
 10
221.2247810826987
 20
1.395712602351126
 30
0.0
  0
SPLINE
  5
10E
330
1B
100
AcDbEntity
  8
0
  6
Continuous
 62
     7
370
    25
100
AcDbSpline
210
0.0
220
0.0
230
1.0
 70
     8
 71
     3
 72
    12
 73
     8
 74
     0
 42
0.000000001
 43
0.00000001
 40
0.0
 40
0.0
 40
0.0
 40
0.0
 40
0.056609588860575
 40
0.3035610725720374
 40
0.5597185881815778
 40
0.8233226984155955
 40
1.0
 40
1.0
 40
1.0
 40
1.0
 10
221.2261480397452
 20
-1.39567062335566
 30
0.0
 10
221.2261237254743
 20
-1.401169458473075
 30
0.0
 10
221.2259933435676
 20
-1.430656199495885
 30
0.0
 10
221.2504281630479
 20
-1.482212946144574
 30
0.0
 10
221.2999877842146
 20
-1.537745604328731
 30
0.0
 10
221.362549343081
 20
-1.570524228602471
 30
0.0
 10
221.4055062849065
 20
-1.57131756684951
 30
0.0
 10
221.4227441613245
 20
-1.571635919741474
 30
0.0
  0
SPLINE
  5
10F
330
1B
100
AcDbEntity
  8
0
  6
Continuous
 62
     7
370
    25
100
AcDbSpline
210
0.0
220
0.0
230
1.0
 70
     8
 71
     3
 72
    11
 73
     7
 74
     0
 42
0.000000001
 43
0.00000001
 40
0.0
 40
0.0
 40
0.0
 40
0.0
 40
0.1888124462392954
 40
0.373321322578589
 40
0.7273831260247935
 40
1.0
 40
1.0
 40
1.0
 40
1.0
 10
221.9814232020146
 20
1.79843804257938
 30
0.0
 10
221.9784522056192
 20
1.781092977373598
 30
0.0
 10
221.9725779302427
 20
1.746798190076433
 30
0.0
 10
221.9513244454563
 20
1.684532204742852
 30
0.0
 10
221.917538107504
 20
1.621762041054281
 30
0.0
 10
221.883928175385
 20
1.59712200522412
 30
0.0
 10
221.86930723014
 20
1.586403131605673
 30
0.0
  0
SPLINE
  5
110
330
1B
100
AcDbEntity
  8
0
  6
Continuous
 62
     7
370
    25
100
AcDbSpline
210
0.0
220
0.0
230
1.0
 70
     8
 71
     3
 72
    11
 73
     7
 74
     0
 42
0.000000001
 43
0.00000001
 40
0.0
 40
0.0
 40
0.0
 40
0.0
 40
0.299049232463628
 40
0.6402436731334413
 40
0.8180433574328073
 40
1.0
 40
1.0
 40
1.0
 40
1.0
 10
221.8634344499702
 20
-1.581329068002213
 30
0.0
 10
221.8801143732774
 20
-1.593415590195664
 30
0.0
 10
221.9158249326319
 20
-1.619291996233541
 30
0.0
 10
221.9513428914282
 20
-1.684469863558708
 30
0.0
 10
221.9725743015478
 20
-1.746808397873125
 30
0.0
 10
221.9784509621823
 20
-1.781096187873408
 30
0.0
 10
221.9814232446932
 20
-1.798438179337019
 30
0.0
  0
LWPOLYLINE
  5
11B
330
1B
100
AcDbEntity
  8
0
  6
Continuous
 62
     7
370
    25
100
AcDbPolyline
 90
        3
 70
   128
 43
0.0
 10
296.6
 20
19.1656014317
 10
296.538775607
 20
19.1719532604
 10
295.202665186
 20
19.248649589
  0
LWPOLYLINE
  5
11C
330
1B
100
AcDbEntity
  8
0
  6
Continuous
 62
     7
370
    25
100
AcDbPolyline
 90
        3
 70
   128
 43
0.0
 10
295.202665186
 20
-19.248649589
 10
296.538775607
 20
-19.1719532604
 10
296.6
 20
-19.1656014317
  0
SPLINE
  5
147
330
1B
100
AcDbEntity
  8
0
  6
Continuous
 62
     7
370
    25
100
AcDbSpline
210
0.0
220
0.0
230
1.0
 70
     8
 71
     3
 72
    10
 73
     6
 74
     0
 42
0.000000001
 43
0.00000001
 40
0.0
 40
0.0
 40
0.0
 40
0.0
 40
0.5
 40
0.5
 40
1.0
 40
1.0
 40
1.0
 40
1.0
 10
227.3064374039
 20
-8.08848311431
 30
0.0
 10
227.3776388749999
 20
-8.108675653440997
 30
0.0
 10
227.4167533362334
 20
-8.12597695528833
 30
0.0
 10
227.4146510711333
 20
-8.149877365160334
 30
0.0
 10
227.3730767678002
 20
-8.156298318104
 30
0.0
 10
227.2955480306
 20
-8.156295184667
 30
0.0
  0
SPLINE
  5
149
330
1B
100
AcDbEntity
  8
0
  6
Continuous
 62
     7
370
    25
100
AcDbSpline
210
0.0
220
0.0
230
1.0
 70
     8
 71
     3
 72
    10
 73
     6
 74
     0
 42
0.000000001
 43
0.00000001
 40
0.0
 40
0.0
 40
0.0
 40
0.0
 40
0.5
 40
0.5
 40
1.0
 40
1.0
 40
1.0
 40
1.0
 10
224.7140877678
 20
-6.644110658549
 30
0.0
 10
224.7914406363
 20
-6.644108953090998
 30
0.0
 10
224.8890170758001
 20
-6.670397555746999
 30
0.0
 10
225.0762575821
 20
-6.754945695527
 30
0.0
 10
225.1627270357
 20
-6.81120577853001
 30
0.0
 10
225.2231366494
 20
-6.868113435290001
 30
0.0
  0
SPLINE
  5
14D
330
1B
100
AcDbEntity
  8
0
  6
Continuous
 62
     7
370
    25
100
AcDbSpline
210
0.0
220
0.0
230
1.0
 70
     8
 71
     3
 72
    10
 73
     6
 74
     0
 42
0.000000001
 43
0.00000001
 40
0.0
 40
0.0
 40
0.0
 40
0.0
 40
0.5
 40
0.5
 40
1.0
 40
1.0
 40
1.0
 40
1.0
 10
223.5986400762
 20
-4.57072880836
 30
0.0
 10
223.6388997108
 20
-4.656178307658984
 30
0.0
 10
223.6493039283999
 20
-4.736899908661998
 30
0.0
 10
223.605526923
 20
-4.855285962177001
 30
0.0
 10
223.5517182672
 20
-4.890635701550002
 30
0.0
 10
223.4741913789
 20
-4.890632522249
 30
0.0
  0
SPLINE
  5
14F
330
1B
100
AcDbEntity
  8
0
  6
Continuous
 62
     7
370
    25
100
AcDbSpline
210
0.0
220
0.0
230
1.0
 70
     8
 71
     3
 72
    10
 73
     6
 74
     0
 42
0.000000001
 43
0.00000001
 40
0.0
 40
0.0
 40
0.0
 40
0.0
 40
0.5
 40
0.5
 40
1.0
 40
1.0
 40
1.0
 40
1.0
 10
222.4049155848
 20
-1.239896326684
 30
0.0
 10
222.4822701750001
 20
-1.239892153186
 30
0.0
 10
222.5593760041666
 20
-1.283494586289001
 30
0.0
 10
222.6798351587667
 20
-1.426952243226
 30
0.0
 10
222.7214551311
 20
-1.52381786820702
 30
0.0
 10
222.735708825
 20
-1.624496378521
 30
0.0
  0
SPLINE
  5
153
330
1B
100
AcDbEntity
  8
0
  6
Continuous
 62
     7
370
    25
100
AcDbSpline
210
0.0
220
0.0
230
1.0
 70
     8
 71
     3
 72
    10
 73
     6
 74
     0
 42
0.000000001
 43
0.00000001
 40
0.0
 40
0.0
 40
0.0
 40
0.0
 40
0.5
 40
0.5
 40
1.0
 40
1.0
 40
1.0
 40
1.0
 10
222.7357085955
 20
1.624496443592
 30
0.0
 10
222.7214605674
 20
1.52384514191602
 30
0.0
 10
222.6798534275667
 20
1.426988860855001
 30
0.0
 10
222.5593651089667
 20
1.283466108250001
 30
0.0
 10
222.4824410664
 20
1.239894980345
 30
0.0
 10
222.4049155083
 20
1.239896343119
 30
0.0
  0
SPLINE
  5
155
330
1B
100
AcDbEntity
  8
0
  6
Continuous
 62
     7
370
    25
100
AcDbSpline
210
0.0
220
0.0
230
1.0
 70
     8
 71
     3
 72
    10
 73
     6
 74
     0
 42
0.000000001
 43
0.00000001
 40
0.0
 40
0.0
 40
0.0
 40
0.0
 40
0.5
 40
0.5
 40
1.0
 40
1.0
 40
1.0
 40
1.0
 10
223.4741914411
 20
4.890632457415
 30
0.0
 10
223.5515484829
 20
4.890636654175001
 30
0.0
 10
223.6055224895666
 20
4.855262104577998
 30
0.0
 10
223.6493053388667
 20
4.736930480304999
 30
0.0
 10
223.6389091678
 20
4.656201882841979
 30
0.0
 10
223.598640271
 20
4.570728624872
 30
0.0
  0
SPLINE
  5
159
330
1B
100
AcDbEntity
  8
0
  6
Continuous
 62
     7
370
    25
100
AcDbSpline
210
0.0
220
0.0
230
1.0
 70
     8
 71
     3
 72
    10
 73
     6
 74
     0
 42
0.000000001
 43
0.00000001
 40
0.0
 40
0.0
 40
0.0
 40
0.0
 40
0.5
 40
0.5
 40
1.0
 40
1.0
 40
1.0
 40
1.0
 10
225.2231365197
 20
6.868113710898999
 30
0.0
 10
225.1627448526
 20
6.811220774299011
 30
0.0
 10
225.0762927892666
 20
6.754966909036998
 30
0.0
 10
224.8889930312667
 20
6.670381139311003
 30
0.0
 10
224.7916132474001
 20
6.644111998675
 30
0.0
 10
224.714087722
 20
6.644110746625
 30
0.0
  0
SPLINE
  5
15B
330
1B
100
AcDbEntity
  8
0
  6
Continuous
 62
     7
370
    25
100
AcDbSpline
210
0.0
220
0.0
230
1.0
 70
     8
 71
     3
 72
    10
 73
     6
 74
     0
 42
0.000000001
 43
0.00000001
 40
0.0
 40
0.0
 40
0.0
 40
0.0
 40
0.5
 40
0.5
 40
1.0
 40
1.0
 40
1.0
 40
1.0
 10
227.2955480422
 20
8.156295076543
 30
0.0
 10
227.3729068291001
 20
8.156296838161
 30
0.0
 10
227.4146381087999
 20
8.14987210345666
 30
0.0
 10
227.4167656391
 20
8.125983572493668
 30
0.0
 10
227.3776570140999
 20
8.108681720108997
 30
0.0
 10
227.30643745
 20
8.08848278979
 30
0.0
  0
SPLINE
  5
161
330
1B
100
AcDbEntity
  8
0
  6
Continuous
 62
     7
370
    25
100
AcDbSpline
210
0.0
220
0.0
230
1.0
 70
     8
 71
     3
 72
    14
 73
    10
 74
     0
 42
0.000000001
 43
0.00000001
 40
0.0
 40
0.0
 40
0.0
 40
0.0
 40
0.0840374038380354
 40
0.1672579561224702
 40
0.2511190745227533
 40
0.500787505381961
 40
0.7503718488329731
 40
0.8750668039851892
 40
0.9999999999999999
 40
0.9999999999999999
 40
0.9999999999999999
 40
0.9999999999999999
 10
225.9138456157977
 20
-6.242446774681678
 30
0.0
 10
225.9212494590494
 20
-6.251054516987405
 30
0.0
 10
225.9359851794925
 20
-6.268186333525422
 30
0.0
 10
225.9624915956384
 20
-6.293301363203099
 30
0.0
 10
226.0108301678292
 20
-6.333253527462339
 30
0.0
 10
226.0902961293287
 20
-6.383384842306741
 30
0.0
 10
226.1798656298613
 20
-6.418162637716152
 30
0.0
 10
226.2462494092163
 20
-6.433162871211115
 30
0.0
 10
226.2751892737698
 20
-6.434527614297243
 30
0.0
 10
226.2896730159039
 20
-6.435210637084104
 30
0.0
  0
LWPOLYLINE
  5
17D
330
1B
100
AcDbEntity
  8
0
  6
Continuous
 62
     7
370
    25
100
AcDbPolyline
 90
        3
 70
   128
 43
0.0
 10
232.3896795044
 20
4.9074406219
 10
232.3867440175
 20
4.9106138314
 10
232.3826315868
 20
4.9168026498
  0
SPLINE
  5
180
330
1B
100
AcDbEntity
  8
0
  6
Continuous
 62
     7
370
    25
100
AcDbSpline
210
0.0
220
0.0
230
1.0
 70
     8
 71
     3
 72
    10
 73
     6
 74
     0
 42
0.000000001
 43
0.00000001
 40
0.0
 40
0.0
 40
0.0
 40
0.0
 40
0.5
 40
0.5
 40
1.0
 40
1.0
 40
1.0
 40
1.0
 10
233.0653921967
 20
-4.845363336391999
 30
0.0
 10
233.1031013719999
 20
-4.845366064676002
 30
0.0
 10
233.1500184867666
 20
-4.827740840620996
 30
0.0
 10
233.2329796418667
 20
-4.767514314691002
 30
0.0
 10
233.2684522119
 20
-4.725154256048993
 30
0.0
 10
233.2879287825
 20
-4.68153271125
 30
0.0
  0
SPLINE
  5
181
330
1B
100
AcDbEntity
  8
0
  6
Continuous
 62
     7
370
    25
100
AcDbSpline
210
0.0
220
0.0
230
1.0
 70
     8
 71
     3
 72
    10
 73
     6
 74
     0
 42
0.000000001
 43
0.00000001
 40
0.0
 40
0.0
 40
0.0
 40
0.0
 40
0.5
 40
0.5
 40
1.0
 40
1.0
 40
1.0
 40
1.0
 10
233.2879286792
 20
4.681532711896
 30
0.0
 10
233.2684504082
 20
4.725160631175992
 30
0.0
 10
233.2329852957999
 20
4.767506825434333
 30
0.0
 10
233.1500028137
 20
4.827755683256334
 30
0.0
 10
233.1031968876
 20
4.845365532760001
 30
0.0
 10
233.0653922094
 20
4.845363310699
 30
0.0
  0
LWPOLYLINE
  5
184
330
1B
100
AcDbEntity
  8
0
  6
Continuous
 62
     7
370
    25
100
AcDbPolyline
 90
       13
 70
   128
 43
0.0
 10
233.4818236287
 20
1.25
 10
233.4611841662
 20
1.4056631622
 10
233.1712584921
 20
2.7573074773
 10
232.7004447448
 20
4.0029900124
 10
232.0668360324
 20
5.0948398862
 10
231.2947815826
 20
5.9908979205
 10
230.4139510148
 20
6.6567291073
 10
229.4581941538
 20
7.0667459277
 10
228.4642401998
 20
7.2051916652
 10
227.4702862458
 20
7.0667459277
 10
226.5145293848
 20
6.6567291073
 10
225.633698817
 20
5.9908979205
 10
225.1177251402
 20
5.4329053778
  0
LWPOLYLINE
  5
185
330
1B
100
AcDbEntity
  8
0
  6
Continuous
 62
     7
370
    25
100
AcDbPolyline
 90
       13
 70
   128
 43
0.0
 10
225.1177136651
 20
-5.4328912411
 10
225.633698817
 20
-5.9908979205
 10
226.5145293848
 20
-6.6567291073
 10
227.4702862458
 20
-7.0667459277
 10
228.4642401998
 20
-7.2051916652
 10
229.4581941538
 20
-7.0667459277
 10
230.4139510148
 20
-6.6567291073
 10
231.2947815826
 20
-5.9908979205
 10
232.0668360324
 20
-5.0948398862
 10
232.7004447448
 20
-4.0029900124
 10
233.1712584921
 20
-2.7573074773
 10
233.4611841662
 20
-1.4056631622
 10
233.4811675257
 20
-1.2552558883
  0
LWPOLYLINE
  5
186
330
1B
100
AcDbEntity
  8
0
  6
Continuous
 62
     7
370
    25
100
AcDbPolyline
 90
       32
 70
   128
 43
0.0
 10
232.9099025767
 20
0.0
 10
232.8143707622
 20
1.3285702326
 10
232.5316864024
 20
2.6027486437
 10
232.0734226281
 20
3.7703702196
 10
231.4583408121
 20
4.7836323957
 10
230.7116224764
 20
5.6010520995
 10
229.8638383571
 20
6.1891640722
 10
228.9496968359
 20
6.5238909406
 10
228.006622974
 20
6.5915289473
 10
227.073226326
 20
6.3893089845
 10
226.1877202606
 20
5.9255099612
 10
225.3863574999
 20
5.2191198638
 10
224.7019459296
 20
4.299058386
 10
224.1625054398
 20
3.2029929527
 10
223.7901207875
 20
1.9757966116
 10
223.6000374441
 20
0.6677109251
 10
223.6000374441
 20
-0.6677109251
 10
223.7901207875
 20
-1.9757966116
 10
224.1625054398
 20
-3.2029929527
 10
224.7019459296
 20
-4.299058386
 10
225.3863574999
 20
-5.2191198638
 10
226.1877202606
 20
-5.9255099612
 10
227.073226326
 20
-6.3893089845
 10
228.006622974
 20
-6.5915289473
 10
228.9496968359
 20
-6.5238909406
 10
229.8638383571
 20
-6.1891640722
 10
230.7116224764
 20
-5.6010520995
 10
231.4583408121
 20
-4.7836323957
 10
232.0734226281
 20
-3.7703702196
 10
232.5316864024
 20
-2.6027486437
 10
232.8143707622
 20
-1.3285702326
 10
232.9099025767
 20
0.0
  0
SPLINE
  5
1A2
330
1B
100
AcDbEntity
  8
0
  6
Continuous
 62
     7
370
    25
100
AcDbSpline
210
0.0
220
0.0
230
1.0
 70
     8
 71
     3
 72
    14
 73
    10
 74
     0
 42
0.000000001
 43
0.00000001
 40
0.0
 40
0.0
 40
0.0
 40
0.0
 40
0.084071998466517
 40
0.1673308212258333
 40
0.2512331271464666
 40
0.500982280583291
 40
0.7505458168322883
 40
0.8751610011306212
 40
1.0
 40
1.0
 40
1.0
 40
1.0
 10
230.1521861300999
 20
7.47596147662324
 30
0.0
 10
230.1618273728362
 20
7.474885545741675
 30
0.0
 10
230.1810166046152
 20
7.472744090783087
 30
0.0
 10
230.2139775690038
 20
7.469324222680008
 30
0.0
 10
230.2724963734438
 20
7.463568908467453
 30
0.0
 10
230.3644705352375
 20
7.455420436284796
 30
0.0
 10
230.4625336777259
 20
7.449046295519466
 30
0.0
 10
230.532545462464
 20
7.4461989900696
 30
0.0
 10
230.5618065355089
 20
7.445935867109582
 30
0.0
 10
230.5764501987996
 20
7.445804187590356
 30
0.0
  0
SPLINE
  5
1A4
330
1B
100
AcDbEntity
  8
0
  6
Continuous
 62
     7
370
    25
100
AcDbSpline
210
0.0
220
0.0
230
1.0
 70
     8
 71
     3
 72
    14
 73
    10
 74
     0
 42
0.000000001
 43
0.00000001
 40
0.0
 40
0.0
 40
0.0
 40
0.0
 40
0.083548696263114
 40
0.1662851068771417
 40
0.2496801483560378
 40
0.4992432277979117
 40
0.7489919240877791
 40
0.8743748659852402
 40
0.9999999999999999
 40
0.9999999999999999
 40
0.9999999999999999
 40
0.9999999999999999
 10
230.5764501987996
 20
-7.445804187590358
 30
0.0
 10
230.566837825611
 20
-7.44586206475768
 30
0.0
 10
230.547706533628
 20
-7.44597725639303
 30
0.0
 10
230.5148465625406
 20
-7.446933086515536
 30
0.0
 10
230.4563347380752
 20
-7.449427235235668
 30
0.0
 10
230.3642614087376
 20
-7.455442931076665
 30
0.0
 10
230.2662682159126
 20
-7.4641255814748
 30
0.0
 10
230.1962213457057
 20
-7.471087735382235
 30
0.0
 10
230.1668739741775
 20
-7.474335851531196
 30
0.0
 10
230.1521861300999
 20
-7.475961476623241
 30
0.0
  0
LWPOLYLINE
  5
3B6
330
1B
100
AcDbEntity
  8
0
  6
Continuous
 62
     7
370
    25
100
AcDbPolyline
 90
        3
 70
   128
 43
0.0
 10
231.1631577172
 20
-6.9456914455
 10
230.8128838993
 20
-6.8654969628
 10
230.3412509713
 20
-6.6983914532
  0
LWPOLYLINE
  5
3F8
330
1B
100
AcDbEntity
  8
0
  6
Continuous
 62
     7
370
    25
100
AcDbPolyline
 90
        9
 70
   128
 43
0.0
 10
226.7548639733
 20
-9.1427441177
 10
226.7276866467
 20
-9.1389457336
 10
226.7023789522
 20
-9.127696551
 10
226.6799134502
 20
-9.1094288699
 10
226.6611534774
 20
-9.0848447068
 10
226.6468199691
 20
-9.0548888174
 10
226.6374637539
 20
-9.0207123897
 10
226.633444386
 20
-8.9836288047
 10
226.6349163273
 20
-8.9450631638
  0
LWPOLYLINE
  5
3FB
330
1B
100
AcDbEntity
  8
0
  6
Continuous
 62
     7
370
    25
100
AcDbPolyline
 90
        9
 70
   128
 43
0.0
 10
226.7548639733
 20
9.1427441177
 10
226.7276866467
 20
9.1389457336
 10
226.7023789522
 20
9.127696551
 10
226.6799134502
 20
9.1094288699
 10
226.6611534774
 20
9.0848447068
 10
226.6468199691
 20
9.0548888174
 10
226.6374637539
 20
9.0207123897
 10
226.633444386
 20
8.9836288047
 10
226.6349163273
 20
8.9450631638
  0
SPLINE
  5
40E
330
1B
100
AcDbEntity
  8
0
  6
Continuous
 62
     7
370
    25
100
AcDbSpline
210
0.0
220
0.0
230
1.0
 70
     8
 71
     3
 72
    10
 73
     6
 74
     0
 42
0.000000001
 43
0.00000001
 40
0.0
 40
0.0
 40
0.0
 40
0.0
 40
0.5
 40
0.5
 40
1.0
 40
1.0
 40
1.0
 40
1.0
 10
229.2832449657733
 20
-8.910333631858895
 30
0.0
 10
229.3204668043036
 20
-8.910336557460967
 30
0.0
 10
229.3727002914141
 20
-8.907690226620893
 30
0.0
 10
229.4767860307595
 20
-8.896131460884595
 30
0.0
 10
229.5279272871024
 20
-8.886932396959503
 30
0.0
 10
229.5639349252974
 20
-8.875602387913057
 30
0.0
  0
SPLINE
  5
40F
330
1B
100
AcDbEntity
  8
0
  6
Continuous
 62
     7
370
    25
100
AcDbSpline
210
0.0
220
0.0
230
1.0
 70
     8
 71
     3
 72
    10
 73
     6
 74
     0
 42
0.000000001
 43
0.00000001
 40
0.0
 40
0.0
 40
0.0
 40
0.0
 40
0.5
 40
0.5
 40
1.0
 40
1.0
 40
1.0
 40
1.0
 10
229.2095532393
 20
-8.319294326445
 30
0.0
 10
229.2472605992999
 20
-8.31929779575
 30
0.0
 10
229.3001133741333
 20
-8.31665740893033
 30
0.0
 10
229.4040950747333
 20
-8.305115303263333
 30
0.0
 10
229.4546666382
 20
-8.295924173242998
 30
0.0
 10
229.4902467924
 20
-8.284564645079
 30
0.0
  0
SPLINE
  5
410
330
1B
100
AcDbEntity
  8
0
  6
Continuous
 62
     7
370
    25
100
AcDbSpline
210
0.0
220
0.0
230
1.0
 70
     8
 71
     3
 72
    10
 73
     6
 74
     0
 42
0.000000001
 43
0.00000001
 40
0.0
 40
0.0
 40
0.0
 40
0.0
 40
0.5
 40
0.5
 40
1.0
 40
1.0
 40
1.0
 40
1.0
 10
229.2832452376
 20
8.910333564065
 30
0.0
 10
229.3198044742
 20
8.910336688708998
 30
0.0
 10
229.3709750592666
 20
8.90781174105066
 30
0.0
 10
229.4749899429667
 20
8.89640049357067
 30
0.0
 10
229.5272680345001
 20
8.887141948444997
 30
0.0
 10
229.5639385792
 20
8.875603892852
 30
0.0
  0
SPLINE
  5
411
330
1B
100
AcDbEntity
  8
0
  6
Continuous
 62
     7
370
    25
100
AcDbSpline
210
0.0
220
0.0
230
1.0
 70
     8
 71
     3
 72
    10
 73
     6
 74
     0
 42
0.000000001
 43
0.00000001
 40
0.0
 40
0.0
 40
0.0
 40
0.0
 40
0.5
 40
0.5
 40
1.0
 40
1.0
 40
1.0
 40
1.0
 10
229.4902466888
 20
8.28456464519
 30
0.0
 10
229.4546622524
 20
8.295926614391
 30
0.0
 10
229.4041034276333
 20
8.305113577424663
 30
0.0
 10
229.3000924154333
 20
8.31666061255367
 30
0.0
 10
229.2473562245001
 20
8.319297952953997
 30
0.0
 10
229.2095532611
 20
8.319294320998
 30
0.0
  0
LWPOLYLINE
  5
426
330
1B
100
AcDbEntity
  8
0
  6
Continuous
 62
     7
370
    25
100
AcDbPolyline
 90
        3
 70
   128
 43
0.0
 10
226.8612639241
 20
-8.1546559603
 10
226.8440170006
 20
-8.154204757
 10
226.8278497381
 20
-8.1564989713
  0
LWPOLYLINE
  5
427
330
1B
100
AcDbEntity
  8
0
  6
Continuous
 62
     7
370
    25
100
AcDbPolyline
 90
        3
 70
   128
 43
0.0
 10
226.8612639241
 20
8.1546559603
 10
226.8440170006
 20
8.154204757
 10
226.8278497379
 20
8.1564989714
  0
SPLINE
  5
435
330
1B
100
AcDbEntity
  8
0
  6
Continuous
 62
     7
370
    25
100
AcDbSpline
210
0.0
220
0.0
230
1.0
 70
     8
 71
     3
 72
    10
 73
     6
 74
     0
 42
0.000000001
 43
0.00000001
 40
0.0
 40
0.0
 40
0.0
 40
0.0
 40
0.5
 40
0.5
 40
1.0
 40
1.0
 40
1.0
 40
1.0
 10
224.7599491005964
 20
-7.526230870826823
 30
0.0
 10
224.7415229131218
 20
-7.565254519154412
 30
0.0
 10
224.7335572282739
 20
-7.611077929809214
 30
0.0
 10
224.7579567076576
 20
-7.676150920562856
 30
0.0
 10
224.7893565506439
 20
-7.692548158776583
 30
0.0
 10
224.8228433205467
 20
-7.692545787030235
 30
0.0
  0
SPLINE
  5
436
330
1B
100
AcDbEntity
  8
0
  6
Continuous
 62
     7
370
    25
100
AcDbSpline
210
0.0
220
0.0
230
1.0
 70
     8
 71
     3
 72
    10
 73
     6
 74
     0
 42
0.000000001
 43
0.00000001
 40
0.0
 40
0.0
 40
0.0
 40
0.0
 40
0.5
 40
0.5
 40
1.0
 40
1.0
 40
1.0
 40
1.0
 10
224.7599534316086
 20
7.526230785910373
 30
0.0
 10
224.7391249726074
 20
7.570341813943471
 30
0.0
 10
224.7340484792358
 20
7.612649497565648
 30
0.0
 10
224.7576343867455
 20
7.675031911688762
 30
0.0
 10
224.7853325499675
 20
7.69255632806863
 30
0.0
 10
224.8228387641194
 20
7.692556328115414
 30
0.0
  0
LWPOLYLINE
  5
46D
330
1B
100
AcDbEntity
  8
0
  6
Continuous
 62
     7
370
    25
100
AcDbPolyline
 90
        3
 70
   128
 43
0.0
 10
223.8315949676
 20
7.4460450425
 10
223.8311688946
 20
7.4457806397
 10
223.8185142963
 20
7.4355300724
  0
LWPOLYLINE
  5
470
330
1B
100
AcDbEntity
  8
0
  6
Continuous
 62
     7
370
    25
100
AcDbPolyline
 90
        3
 70
   128
 43
0.0
 10
223.8330196023
 20
-7.4468987173
 10
223.8311688946
 20
-7.4457806397
 10
223.8185101592
 20
-7.4355257683
  0
SPLINE
  5
473
330
1B
100
AcDbEntity
  8
0
  6
Continuous
 62
     7
370
    25
100
AcDbSpline
210
0.0
220
0.0
230
1.0
 70
     8
 71
     3
 72
    10
 73
     6
 74
     0
 42
0.000000001
 43
0.00000001
 40
0.0
 40
0.0
 40
0.0
 40
0.0
 40
0.5
 40
0.5
 40
1.0
 40
1.0
 40
1.0
 40
1.0
 10
224.5026861371175
 20
-7.411515156731484
 30
0.0
 10
224.539905623368
 20
-7.41152026215722
 30
0.0
 10
224.5889713120216
 20
-7.424982133505444
 30
0.0
 10
224.6836518255687
 20
-7.4686523488553
 30
0.0
 10
224.7288287093027
 20
-7.498215054764169
 30
0.0
 10
224.7599495942534
 20
-7.52622948274607
 30
0.0
  0
SPLINE
  5
474
330
1B
100
AcDbEntity
  8
0
  6
Continuous
 62
     7
370
    25
100
AcDbSpline
210
0.0
220
0.0
230
1.0
 70
     8
 71
     3
 72
    10
 73
     6
 74
     0
 42
0.000000001
 43
0.00000001
 40
0.0
 40
0.0
 40
0.0
 40
0.0
 40
0.5
 40
0.5
 40
1.0
 40
1.0
 40
1.0
 40
1.0
 10
224.7460978703
 20
-6.919895529440001
 30
0.0
 10
224.7838035760999
 20
-6.919897707493998
 30
0.0
 10
224.8333610779
 20
-6.933788860699666
 30
0.0
 10
224.9278643386
 20
-6.977692384256668
 30
0.0
 10
224.9725280386
 20
-7.007054222164009
 30
0.0
 10
225.0033641374
 20
-7.034610968172999
 30
0.0
  0
SPLINE
  5
475
330
1B
100
AcDbEntity
  8
0
  6
Continuous
 62
     7
370
    25
100
AcDbSpline
210
0.0
220
0.0
230
1.0
 70
     8
 71
     3
 72
    10
 73
     6
 74
     0
 42
0.000000001
 43
0.00000001
 40
0.0
 40
0.0
 40
0.0
 40
0.0
 40
0.5
 40
0.5
 40
1.0
 40
1.0
 40
1.0
 40
1.0
 10
224.5026863632
 20
7.411515380651
 30
0.0
 10
224.5392437143
 20
7.41151869353
 30
0.0
 10
224.5873688345
 20
7.424441508656335
 30
0.0
 10
224.6820499964001
 20
7.467720075585333
 30
0.0
 10
224.7282560634
 20
7.497709808862005
 30
0.0
 10
224.7599524257
 20
7.526230785867
 30
0.0
  0
SPLINE
  5
476
330
1B
100
AcDbEntity
  8
0
  6
Continuous
 62
     7
370
    25
100
AcDbSpline
210
0.0
220
0.0
230
1.0
 70
     8
 71
     3
 72
    10
 73
     6
 74
     0
 42
0.000000001
 43
0.00000001
 40
0.0
 40
0.0
 40
0.0
 40
0.0
 40
0.5
 40
0.5
 40
1.0
 40
1.0
 40
1.0
 40
1.0
 10
225.003364034
 20
7.03461096771
 30
0.0
 10
224.9725237939999
 20
7.007051299368005
 30
0.0
 10
224.9278717183666
 20
6.977697432810666
 30
0.0
 10
224.8333422011667
 20
6.933778548670666
 30
0.0
 10
224.7838989345
 20
6.919898461731998
 30
0.0
 10
224.7460978884
 20
6.91989554743
 30
0.0
  0
LWPOLYLINE
  5
47F
330
1B
100
AcDbEntity
  8
0
  6
Continuous
 62
     7
370
    25
100
AcDbPolyline
 90
        3
 70
   128
 43
0.0
 10
222.7864310852
 20
4.8779123491
 10
222.7900189207
 20
4.872973522
 10
222.7952373411
 20
4.8671501618
  0
LWPOLYLINE
  5
481
330
1B
100
AcDbEntity
  8
0
  6
Continuous
 62
     7
370
    25
100
AcDbPolyline
 90
        3
 70
   128
 43
0.0
 10
222.795263356
 20
-4.8671243388
 10
222.7900189206
 20
-4.872973522
 10
222.7864416447
 20
-4.8778963826
  0
LWPOLYLINE
  5
482
330
1B
100
AcDbEntity
  8
0
  6
Continuous
 62
     7
370
    25
100
AcDbPolyline
 90
        3
 70
   128
 43
0.0
 10
222.4388033778
 20
-5.2221482523
 10
222.4423912138
 20
-5.2172094243
 10
222.4476501983
 20
-5.2113458115
  0
LWPOLYLINE
  5
483
330
1B
100
AcDbEntity
  8
0
  6
Continuous
 62
     7
370
    25
100
AcDbPolyline
 90
        3
 70
   128
 43
0.0
 10
222.4476113446
 20
5.2113843655
 10
222.4423912137
 20
5.2172094243
 10
222.4388139383
 20
5.222132284
  0
SPLINE
  5
4A2
330
1B
100
AcDbEntity
  8
0
  6
Continuous
 62
     7
370
    25
100
AcDbSpline
210
0.0
220
0.0
230
1.0
 70
     8
 71
     3
 72
    10
 73
     6
 74
     0
 42
0.000000001
 43
0.00000001
 40
0.0
 40
0.0
 40
0.0
 40
0.0
 40
0.5
 40
0.5
 40
1.0
 40
1.0
 40
1.0
 40
1.0
 10
222.0377043994433
 20
-1.768093908086944
 30
0.0
 10
222.0051633675427
 20
-1.777261353093128
 30
0.0
 10
221.9806233627626
 20
-1.788026210336251
 30
0.0
 10
221.9814859443305
 20
-1.803313215208004
 30
0.0
 10
222.0069549013462
 20
-1.807165288223097
 30
0.0
 10
222.0404425216354
 20
-1.807164756548666
 30
0.0
  0
SPLINE
  5
4A7
330
1B
100
AcDbEntity
  8
0
  6
Continuous
 62
     7
370
    25
100
AcDbSpline
210
0.0
220
0.0
230
1.0
 70
     8
 71
     3
 72
     9
 73
     5
 74
     0
 42
0.000000001
 43
0.00000001
 40
0.0
 40
0.0
 40
0.0
 40
0.0
 40
0.5042161904057898
 40
1.0
 40
1.0
 40
1.0
 40
1.0
 10
222.0404340293345
 20
1.80716765315684
 30
0.0
 10
222.0235816038934
 20
1.806638060058328
 30
0.0
 10
221.990158588604
 20
1.805587730638946
 30
0.0
 10
221.9842507021443
 20
1.799087524070085
 30
0.0
 10
221.9813216676887
 20
1.795864826894226
 30
0.0
  0
SPLINE
  5
4A8
330
1B
100
AcDbEntity
  8
0
  6
Continuous
 62
     7
370
    25
100
AcDbSpline
210
0.0
220
0.0
230
1.0
 70
     8
 71
     3
 72
    10
 73
     6
 74
     0
 42
0.000000001
 43
0.00000001
 40
0.0
 40
0.0
 40
0.0
 40
0.0
 40
0.5
 40
0.5
 40
1.0
 40
1.0
 40
1.0
 40
1.0
 10
222.4556357211
 20
1.663877591373
 30
0.0
 10
222.447610953
 20
1.613540365431009
 30
0.0
 10
222.4264059948999
 20
1.562840766191666
 30
0.0
 10
222.3663138667
 20
1.489183049466667
 30
0.0
 10
222.3274577629001
 20
1.466916301874001
 30
0.0
 10
222.2896577137
 20
1.466915812382
 30
0.0
  0
SPLINE
  5
4A9
330
1B
100
AcDbEntity
  8
0
  6
Continuous
 62
     7
370
    25
100
AcDbSpline
210
0.0
220
0.0
230
1.0
 70
     8
 71
     3
 72
    10
 73
     6
 74
     0
 42
0.000000001
 43
0.00000001
 40
0.0
 40
0.0
 40
0.0
 40
0.0
 40
0.5
 40
0.5
 40
1.0
 40
1.0
 40
1.0
 40
1.0
 10
222.2896577098
 20
-1.466915781494
 30
0.0
 10
222.3273628917999
 20
-1.466915392421
 30
0.0
 10
222.3663245134665
 20
-1.489200836501667
 30
0.0
 10
222.4264026904668
 20
-1.562831900619667
 30
0.0
 10
222.4476124159999
 20
-1.61354694003301
 30
0.0
 10
222.4556358242
 20
-1.663877592135
 30
0.0
  0
LWPOLYLINE
  5
4AA
330
1B
100
AcDbEntity
  8
0
  6
Continuous
 62
     7
370
    25
100
AcDbPolyline
 90
        4
 70
   128
 43
0.0
 10
221.3917607838
 20
1.5692595356
 10
221.3915366653
 20
1.5691877004
 10
221.4194325689
 20
1.5741102465
 10
221.4233018095
 20
1.5741698831
  0
LWPOLYLINE
  5
4AB
330
1B
100
AcDbEntity
  8
0
  6
Continuous
 62
     7
370
    25
100
AcDbPolyline
 90
        3
 70
   128
 43
0.0
 10
221.3988265791
 20
-1.5712496924
 10
221.4194325689
 20
-1.5741102465
 10
221.4228066783
 20
-1.574170606
  0
SPLINE
  5
4AC
330
1B
100
AcDbEntity
  8
0
  6
Continuous
 62
     7
370
    25
100
AcDbSpline
210
0.0
220
0.0
230
1.0
 70
     8
 71
     3
 72
    10
 73
     6
 74
     0
 42
0.000000001
 43
0.00000001
 40
0.0
 40
0.0
 40
0.0
 40
0.0
 40
0.5
 40
0.5
 40
1.0
 40
1.0
 40
1.0
 40
1.0
 10
221.8717298090743
 20
-1.571131620513788
 30
0.0
 10
221.9089465421251
 20
-1.571135915086711
 30
0.0
 10
221.9477181578839
 20
-1.592820206968371
 30
0.0
 10
222.0081336819686
 20
-1.666137983526196
 30
0.0
 10
222.0297122324416
 20
-1.717145027083702
 30
0.0
 10
222.0377054425517
 20
-1.768093420119056
 30
0.0
  0
SPLINE
  5
4AD
330
1B
100
AcDbEntity
  8
0
  6
Continuous
 62
     7
370
    25
100
AcDbSpline
210
0.0
220
0.0
230
1.0
 70
     8
 71
     3
 72
    10
 73
     6
 74
     0
 42
0.000000001
 43
0.00000001
 40
0.0
 40
0.0
 40
0.0
 40
0.0
 40
0.5
 40
0.5
 40
1.0
 40
1.0
 40
1.0
 40
1.0
 10
221.871729857
 20
1.571132004989
 30
0.0
 10
221.9082857807
 20
1.57113356546
 30
0.0
 10
221.9465335506334
 20
1.591934133537666
 30
0.0
 10
222.0072698673333
 20
1.664550517327667
 30
0.0
 10
222.0295582255999
 20
1.71622094998401
 30
0.0
 10
222.0377077934
 20
1.768093758071
 30
0.0
  0
CIRCLE
  5
4B1
330
1B
100
AcDbEntity
  8
0
  6
Continuous
 62
     7
370
    25
100
AcDbCircle
 10
314.1
 20
0.0
 30
0.0
 40
4.151873444254932
  0
CIRCLE
  5
4B2
330
1B
100
AcDbEntity
  8
0
  6
Continuous
 62
     7
370
    25
100
AcDbCircle
 10
314.1
 20
0.0
 30
0.0
 40
4.350000000000136
  0
LWPOLYLINE
  5
4B3
330
1B
100
AcDbEntity
  8
0
  6
Continuous
 62
     7
370
    25
100
AcDbPolyline
 90
        9
 70
   128
 43
0.0
 10
308.7499999997
 20
-0.0000003032
 10
308.9450956302
 20
-0.0000004207
 10
309.1326946642
 20
-0.0000005097
 10
309.305587337
 20
-0.0000005666
 10
309.4571290757
 20
-0.0000005893
 10
309.5814958616
 20
-0.000000577
 10
309.673908058
 20
-0.00000053
 10
309.7308140997
 20
-0.0000004503
 10
309.7500269863
 20
-0.0000003408
  0
LWPOLYLINE
  5
4B4
330
1B
100
AcDbEntity
  8
0
  6
Continuous
 62
     7
370
    25
100
AcDbPolyline
 90
        9
 70
   128
 43
0.0
 10
319.4500000004
 20
0.0000003101
 10
319.2549036743
 20
0.0000004341
 10
319.0673038696
 20
0.0000005285
 10
318.894410438
 20
0.0000005898
 10
318.7428680344
 20
0.0000006155
 10
318.6185007492
 20
0.0000006048
 10
318.5260882764
 20
0.0000005579
 10
318.4691822201
 20
0.0000004767
 10
318.4499695985
 20
0.0000003643
  0
SPLINE
  5
4B5
330
1B
100
AcDbEntity
  8
0
  6
Continuous
 62
     7
370
    25
100
AcDbSpline
210
0.0
220
0.0
230
1.0
 70
     8
 71
     3
 72
    33
 73
    29
 74
     0
 42
0.000000001
 43
0.00000001
 40
0.0
 40
0.0
 40
0.0
 40
0.0
 40
0.0121561923449454
 40
0.0240950477920689
 40
0.0358145143599039
 40
0.0473126994602042
 40
0.0585879372918163
 40
0.0872754863127755
 40
0.1182173960755644
 40
0.1474006675161038
 40
0.1793881338451383
 40
0.2420291704905409
 40
0.305999451775759
 40
0.3706457197662235
 40
0.4371547956890329
 40
0.5000405672532379
 40
0.5629268591684844
 40
0.6294351800950926
 40
0.6940809932786758
 40
0.7580483642781618
 40
0.8206863110857456
 40
0.8526407304709598
 40
0.8818663297846083
 40
0.9128630359861092
 40
0.9414961609152718
 40
0.9603541835598832
 40
0.9798583942807861
 40
1.0
 40
1.0
 40
1.0
 40
1.0
 10
319.4500000003113
 20
0.0000000007002238
 30
0.0
 10
319.4492029686234
 20
-0.0667469834064877
 30
0.0
 10
319.4476231551367
 20
-0.1990476024154008
 30
0.0
 10
319.4352161901788
 20
-0.3953555602135416
 30
0.0
 10
319.415946752588
 20
-0.5874032512815313
 30
0.0
 10
319.3895287866474
 20
-0.7748936599352693
 30
0.0
 10
319.3393149510338
 20
-1.052760633596621
 30
0.0
 10
319.24428148395
 20
-1.43037794553074
 30
0.0
 10
319.0796774077799
 20
-1.888871203915813
 30
0.0
 10
318.863082738711
 20
-2.344479654908056
 30
0.0
 10
318.5127628730422
 20
-2.924010486481071
 30
0.0
 10
317.953955132147
 20
-3.592027272438315
 30
0.0
 10
317.1355586486991
 20
-4.248719237905854
 30
0.0
 10
316.1840626536209
 20
-4.743994045334563
 30
0.0
 10
315.1566668681535
 20
-5.043886052083558
 30
0.0
 10
314.0993839103833
 20
-5.141519709070614
 30
0.0
 10
313.0421274219681
 20
-5.04365499367897
 30
0.0
 10
312.0148057611143
 20
-4.743537793666836
 30
0.0
 10
311.063438588338
 20
-4.248068888390024
 30
0.0
 10
310.2452258288181
 20
-3.591209536363262
 30
0.0
 10
309.6866847651319
 20
-2.923246665327189
 30
0.0
 10
309.3364475280043
 20
-2.343628105550487
 30
0.0
 10
309.1197954872134
 20
-1.887651431935134
 30
0.0
 10
308.9553160494773
 20
-1.428865112328234
 30
0.0
 10
308.8500950170598
 20
-1.010868554560565
 30
0.0
 10
308.7898153492741
 20
-0.6480777449881455
 30
0.0
 10
308.7564386514962
 20
-0.3283199274407298
 30
0.0
 10
308.7521690978285
 20
-0.1106067172712778
 30
0.0
 10
308.7499999996917
 20
0.0000000007344147
 30
0.0
  0
SPLINE
  5
4B6
330
1B
100
AcDbEntity
  8
0
  6
Continuous
 62
     7
370
    25
100
AcDbSpline
210
0.0
220
0.0
230
1.0
 70
     8
 71
     3
 72
    33
 73
    29
 74
     0
 42
0.000000001
 43
0.00000001
 40
0.0
 40
0.0
 40
0.0
 40
0.0
 40
0.0121463834522204
 40
0.0240788067177555
 40
0.0357952379102095
 40
0.0472938101919697
 40
0.0585728898040075
 40
0.0872444796350718
 40
0.1182030723298768
 40
0.1473898116134103
 40
0.1793766807809533
 40
0.2420182478704386
 40
0.3059903160592295
 40
0.3706399910759007
 40
0.4371528690620032
 40
0.5000416361663745
 40
0.5629324617108025
 40
0.629443135515328
 40
0.6940920953128614
 40
0.7580614559629935
 40
0.820699864947307
 40
0.8526508597837495
 40
0.8818817261363626
 40
0.9128955568897564
 40
0.9415115689561789
 40
0.9603737715722998
 40
0.9798728052935766
 40
1.0
 40
1.0
 40
1.0
 40
1.0
 10
308.7499999996505
 20
-0.0000000006803171
 30
0.0
 10
308.7507958602744
 20
0.0666930982083942
 30
0.0
 10
308.7523735623297
 20
0.198904488032076
 30
0.0
 10
308.7647639564617
 20
0.3951072979467668
 30
0.0
 10
308.784016184987
 20
0.5871066376658103
 30
0.0
 10
308.8104227529971
 20
0.7746053135188802
 30
0.0
 10
308.8606106608095
 20
1.052411609851033
 30
0.0
 10
308.9556251409676
 20
1.43005875668288
 30
0.0
 10
309.1202033291413
 20
1.88858748849491
 30
0.0
 10
309.3368218286052
 20
2.344303151067519
 30
0.0
 10
309.6871285983037
 20
2.923864282973264
 30
0.0
 10
310.2459204327252
 20
3.591906866642208
 30
0.0
 10
311.0643216316453
 20
4.24864278607003
 30
0.0
 10
312.0158496371458
 20
4.743963788206957
 30
0.0
 10
313.0432970107312
 20
5.043881472398662
 30
0.0
 10
314.1006422516407
 20
5.141524232463875
 30
0.0
 10
315.1579526744935
 20
5.04364186087136
 30
0.0
 10
316.1853214635362
 20
4.743489785032465
 30
0.0
 10
317.1367113454183
 20
4.24797448439876
 30
0.0
 10
317.9549218979235
 20
3.591063851917324
 30
0.0
 10
318.5134351124705
 20
2.923084490225177
 30
0.0
 10
318.8636542735347
 20
2.343439786319345
 30
0.0
 10
319.0803279252
 20
1.887358301497754
 30
0.0
 10
319.2447815952746
 20
1.42853018665481
 30
0.0
 10
319.349979318976
 20
1.010504984923589
 30
0.0
 10
319.4102225450905
 20
0.6478086056599276
 30
0.0
 10
319.4435694867119
 20
0.3281330251549264
 30
0.0
 10
319.4478339620976
 20
0.1105275131061479
 30
0.0
 10
319.4500000003457
 20
-0.0000000007143472
 30
0.0
  0
LWPOLYLINE
  5
4BA
330
1B
100
AcDbEntity
  8
0
  6
Continuous
 62
     7
370
    25
100
AcDbPolyline
 90
        3
 70
   128
 43
0.0
 10
227.8199390899
 20
-10.9999998679
 10
227.8187337522
 20
-11.0
 10
227.712667735
 20
-10.9989772252
  0
LWPOLYLINE
  5
4BC
330
1B
100
AcDbEntity
  8
0
  6
Continuous
 62
     7
370
    25
100
AcDbPolyline
 90
       41
 70
   128
 43
0.0
 10
235.1726442765
 20
0.0
 10
235.0794937375
 20
-1.6738487759
 10
234.8023357958
 20
-3.3064818398
 10
234.3479949999
 20
-4.8576983472
 10
233.7276587279
 20
-6.2893021995
 10
232.9566017178
 20
-7.5660425587
 10
232.053809952
 20
-8.6564818398
 10
231.0415131601
 20
-9.5337698088
 10
229.9446374486
 20
-10.1763047244
 10
228.7901915379
 20
-10.5682652444
 10
227.6066017178
 20
-10.7
 10
226.4230118977
 20
-10.5682652444
 10
225.268565987
 20
-10.1763047244
 10
224.1716902755
 20
-9.5337698088
 10
223.1593934836
 20
-8.6564818398
 10
222.2566017178
 20
-7.5660425587
 10
221.4855447077
 20
-6.2893021995
 10
220.8652084357
 20
-4.8576983472
 10
220.4108676398
 20
-3.3064818398
 10
220.1337096981
 20
-1.6738487759
 10
220.0405591591
 20
0.0
 10
220.1337096981
 20
1.6738487759
 10
220.4108676398
 20
3.3064818398
 10
220.8652084357
 20
4.8576983472
 10
221.4855447077
 20
6.2893021995
 10
222.2566017178
 20
7.5660425587
 10
223.1593934836
 20
8.6564818398
 10
224.1716902755
 20
9.5337698088
 10
225.268565987
 20
10.1763047244
 10
226.4230118977
 20
10.5682652444
 10
227.6066017178
 20
10.7
 10
228.7901915379
 20
10.5682652444
 10
229.9446374486
 20
10.1763047244
 10
231.0415131601
 20
9.5337698088
 10
232.053809952
 20
8.6564818398
 10
232.9566017178
 20
7.5660425587
 10
233.7276587279
 20
6.2893021995
 10
234.3479949999
 20
4.8576983472
 10
234.8023357958
 20
3.3064818398
 10
235.0794937375
 20
1.6738487759
 10
235.1726442765
 20
0.0
  0
LWPOLYLINE
  5
4BD
330
1B
100
AcDbEntity
  8
0
  6
Continuous
 62
     7
370
    25
100
AcDbPolyline
 90
       39
 70
   128
 43
0.0
 10
220.8006989489
 20
0.0
 10
220.8935225918
 20
1.5842229315
 10
221.1694615336
 20
3.1252323911
 10
221.6209888793
 20
4.580993658
 10
222.2357881398
 20
5.9117973596
 10
222.9970891941
 20
7.0813426402
 10
223.884125734
 20
8.0577273533
 10
224.8727017149
 20
8.8143182691
 10
225.9358513611
 20
9.3304775597
 10
227.0445747218
 20
9.5921257452
 10
228.1686287138
 20
9.5921257452
 10
229.2773520745
 20
9.3304775597
 10
230.3405017207
 20
8.8143182691
 10
231.3290777016
 20
8.0577273533
 10
232.2161142415
 20
7.0813426402
 10
232.9774152958
 20
5.9117973596
 10
233.5922145563
 20
4.580993658
 10
234.043741902
 20
3.1252323911
 10
234.3196808438
 20
1.5842229315
 10
234.4125044867
 20
0.0
 10
234.3196808438
 20
-1.5842229315
 10
234.043741902
 20
-3.1252323911
 10
233.5922145563
 20
-4.580993658
 10
232.9774152958
 20
-5.9117973596
 10
232.2161142415
 20
-7.0813426402
 10
231.3290777016
 20
-8.0577273533
 10
230.3405017207
 20
-8.8143182691
 10
229.2773520745
 20
-9.3304775597
 10
228.1686287138
 20
-9.5921257452
 10
227.0445747218
 20
-9.5921257452
 10
225.9358513611
 20
-9.3304775597
 10
224.8727017149
 20
-8.8143182691
 10
223.884125734
 20
-8.0577273533
 10
222.9970891941
 20
-7.0813426402
 10
222.2357881398
 20
-5.9117973596
 10
221.6209888793
 20
-4.580993658
 10
221.1694615336
 20
-3.1252323911
 10
220.8935225918
 20
-1.5842229315
 10
220.8006989489
 20
0.0
  0
LWPOLYLINE
  5
4BE
330
1B
100
AcDbEntity
  8
0
  6
Continuous
 62
     7
370
    25
100
AcDbPolyline
 90
       10
 70
   128
 43
0.0
 10
227.7850738273
 20
9.3749996934
 10
228.6253955538
 20
9.2990665806
 10
229.7245374811
 20
8.9640631382
 10
230.7678357963
 20
8.3711799202
 10
231.7252767064
 20
7.5374730972
 10
232.5693163795
 20
6.4869268967
 10
233.2756733312
 20
5.24976362
 10
233.8240269578
 20
3.8615742023
 10
234.1986021239
 20
2.3622943255
 10
234.3079313491
 20
1.6586268332
  0
LWPOLYLINE
  5
4BF
330
1B
100
AcDbEntity
  8
0
  6
Continuous
 62
     7
370
    25
100
AcDbPolyline
 90
       10
 70
   128
 43
0.0
 10
234.3030462241
 20
-1.696610818
 10
234.1986021239
 20
-2.3622943255
 10
233.8240269578
 20
-3.8615742023
 10
233.2756733312
 20
-5.24976362
 10
232.5693163795
 20
-6.4869268967
 10
231.7252767064
 20
-7.5374730972
 10
230.7678357963
 20
-8.3711799202
 10
229.7245374811
 20
-8.9640631382
 10
228.6253955538
 20
-9.2990665806
 10
227.784567962
 20
-9.3749998491
  0
LWPOLYLINE
  5
4C0
330
1B
100
AcDbEntity
  8
0
  6
Continuous
 62
     7
370
    25
100
AcDbPolyline
 90
       43
 70
   128
 43
0.0
 10
236.091883092
 20
0.0
 10
235.9971095098
 20
1.7885071941
 10
235.7149058485
 20
3.5370620929
 10
235.2515760714
 20
5.2066048694
 10
234.6174702002
 20
6.7598406968
 10
233.8267531122
 20
8.1620728533
 10
232.8970881205
 20
9.3819777896
 10
231.8492424049
 20
10.3923048454
 10
230.7066231071
 20
11.1704849837
 10
229.4947544541
 20
11.6991349462
 10
228.240707589
 20
11.9664455662
 10
226.9724958466
 20
11.9664455662
 10
225.7184489815
 20
11.6991349462
 10
224.5065803285
 20
11.1704849837
 10
223.3639610307
 20
10.3923048454
 10
222.3161153151
 20
9.3819777896
 10
221.3864503234
 20
8.1620728533
 10
220.5957332354
 20
6.7598406968
 10
219.9616273642
 20
5.2066048694
 10
219.4982975871
 20
3.5370620929
 10
219.2160939258
 20
1.7885071941
 10
219.1213203436
 20
0.0
 10
219.2160939258
 20
-1.7885071941
 10
219.4982975871
 20
-3.5370620929
 10
219.9616273642
 20
-5.2066048694
 10
220.5957332354
 20
-6.7598406968
 10
221.3864503234
 20
-8.1620728533
 10
222.3161153151
 20
-9.3819777896
 10
223.3639610307
 20
-10.3923048454
 10
224.5065803285
 20
-11.1704849837
 10
225.7184489815
 20
-11.6991349462
 10
226.9724958466
 20
-11.9664455662
 10
228.240707589
 20
-11.9664455662
 10
229.4947544541
 20
-11.6991349462
 10
230.7066231071
 20
-11.1704849837
 10
231.8492424049
 20
-10.3923048454
 10
232.8970881205
 20
-9.3819777896
 10
233.8267531122
 20
-8.1620728533
 10
234.6174702002
 20
-6.7598406968
 10
235.2515760714
 20
-5.2066048694
 10
235.7149058485
 20
-3.5370620929
 10
235.9971095098
 20
-1.7885071941
 10
236.091883092
 20
0.0
  0
LWPOLYLINE
  5
4C1
330
1B
100
AcDbEntity
  8
0
  6
Continuous
 62
     7
370
    25
100
AcDbPolyline
 90
       41
 70
   128
 43
0.0
 10
219.8284271247
 20
0.0
 10
219.9241893611
 20
1.7207791154
 10
220.2091180862
 20
3.3991869381
 10
220.6761974091
 20
4.9938954971
 10
221.3139262868
 20
6.4656377752
 10
222.1066017178
 20
7.7781745931
 10
223.0347054022
 20
8.8991869381
 10
224.0753843472
 20
9.8010717661
 10
225.2030135833
 20
10.4616216792
 10
226.3898271363
 20
10.8645717465
 10
227.6066017178
 20
11.0
 10
228.8233762993
 20
10.8645717465
 10
230.0101898523
 20
10.4616216792
 10
231.1378190884
 20
9.8010717661
 10
232.1784980334
 20
8.8991869381
 10
233.1066017178
 20
7.7781745931
 10
233.8992771488
 20
6.4656377752
 10
234.5370060265
 20
4.9938954971
 10
235.0040853494
 20
3.3991869381
 10
235.2890140745
 20
1.7207791154
 10
235.3847763109
 20
0.0
 10
235.2890140745
 20
-1.7207791154
 10
235.0040853494
 20
-3.3991869381
 10
234.5370060265
 20
-4.9938954971
 10
233.8992771488
 20
-6.4656377752
 10
233.1066017178
 20
-7.7781745931
 10
232.1784980334
 20
-8.8991869381
 10
231.1378190884
 20
-9.8010717661
 10
230.0101898523
 20
-10.4616216792
 10
228.8233762993
 20
-10.8645717465
 10
227.6066017178
 20
-11.0
 10
226.3898271363
 20
-10.8645717465
 10
225.2030135833
 20
-10.4616216792
 10
224.0753843472
 20
-9.8010717661
 10
223.0347054022
 20
-8.8991869381
 10
222.1066017178
 20
-7.7781745931
 10
221.3139262868
 20
-6.4656377752
 10
220.6761974091
 20
-4.9938954971
 10
220.2091180862
 20
-3.3991869381
 10
219.9241893611
 20
-1.7207791154
 10
219.8284271247
 20
0.0
  0
SPLINE
  5
4D3
330
1B
100
AcDbEntity
  8
0
  6
Continuous
 62
     8
370
    25
100
AcDbSpline
210
0.0
220
0.0
230
1.0
 70
     8
 71
     3
 72
     9
 73
     5
 74
     0
 42
0.000000001
 43
0.00000001
 40
0.0
 40
0.0
 40
0.0
 40
0.0
 40
0.3627997926455547
 40
1.0
 40
1.0
 40
1.0
 40
1.0
 10
234.1640879389338
 20
1.565194469949948
 30
0.0
 10
234.1677738832533
 20
1.576004356043518
 30
0.0
 10
234.1779336032813
 20
1.60580008997915
 30
0.0
 10
234.1741746862877
 20
1.641273761369467
 30
0.0
 10
234.1717795036
 20
1.663877592135
 30
0.0
  0
SPLINE
  5
4D4
330
1B
100
AcDbEntity
  8
0
  6
Continuous
 62
     8
370
    25
100
AcDbSpline
210
0.0
220
0.0
230
1.0
 70
     8
 71
     3
 72
     9
 73
     5
 74
     0
 42
0.000000001
 43
0.00000001
 40
0.0
 40
0.0
 40
0.0
 40
0.0
 40
0.8062035176597644
 40
1.0
 40
1.0
 40
1.0
 40
1.0
 10
234.1717803386
 20
-1.663877592707
 30
0.0
 10
234.1751285085518
 20
-1.634384198005992
 30
0.0
 10
234.1792815169156
 20
-1.597801134232441
 30
0.0
 10
234.1661543808294
 20
-1.570487714595853
 30
0.0
 10
234.1636103880327
 20
-1.5651944699496
 30
0.0
  0
LWPOLYLINE
  5
4D9
330
1B
100
AcDbEntity
  8
0
  6
Continuous
 62
     8
370
    25
100
AcDbPolyline
 90
        6
 70
   128
 43
0.0
 10
234.115155093
 20
1.6361029276
 10
234.1151620498
 20
1.6360308691
 10
234.1185853802
 20
1.6419985624
 10
234.1294877064
 20
1.6488070545
 10
234.1474500582
 20
1.6561946989
 10
234.1717795036
 20
1.6638775921
  0
LWPOLYLINE
  5
4E8
330
1B
100
AcDbEntity
  8
0
  6
Continuous
 62
     8
370
    25
100
AcDbPolyline
 90
        3
 70
   128
 43
0.0
 10
226.4560696352
 20
-6.5698141519
 10
225.5859418925
 20
-5.9241336719
 10
225.0494216339
 20
-5.3490000375
  0
LWPOLYLINE
  5
4E9
330
1B
100
AcDbEntity
  8
0
  6
Continuous
 62
     8
370
    25
100
AcDbPolyline
 90
       24
 70
   128
 43
0.0
 10
225.0361486788
 20
5.332617568
 10
225.5221423741
 20
5.8638464898
 10
226.3851794085
 20
6.5282876186
 10
227.3232928758
 20
6.9418503154
 10
228.3004316016
 20
7.0886415975
 10
229.2790446925
 20
6.9630203585
 10
230.2215245964
 20
6.5698141519
 10
231.0916523391
 20
5.9241336719
 10
231.8559893993
 20
5.0507920572
 10
232.4851627325
 20
3.9833513363
 10
232.9549935604
 20
2.7628326573
 10
233.2474265478
 20
1.4361398688
 10
233.3512236588
 20
0.0542570305
 10
233.2623960288
 20
-1.329710875
 10
232.9843572538
 20
-2.6625787374
 10
232.5277922079
 20
-3.893125192
 10
231.9102464298
 20
-4.9740610288
 10
231.1554518575
 20
-5.8638464898
 10
230.2924148231
 20
-6.5282876186
 10
229.3543013558
 20
-6.9418503154
 10
228.37716263
 20
-7.0886415975
 10
227.3985495391
 20
-6.9630203585
 10
226.4560696352
 20
-6.5698141519
 10
226.4560696352
 20
-6.5698141519
  0
LWPOLYLINE
  5
4EA
330
1B
100
AcDbEntity
  8
0
  6
Continuous
 62
     8
370
    25
100
AcDbPolyline
 90
        3
 70
   128
 43
0.0
 10
226.4268976497
 20
-6.33731686
 10
225.5875626113
 20
-5.7144861836
 10
224.8761333905
 20
-4.9077971089
  0
LWPOLYLINE
  5
4EB
330
1B
100
AcDbEntity
  8
0
  6
Continuous
 62
     8
370
    25
100
AcDbPolyline
 90
       24
 70
   128
 43
0.0
 10
224.872019215
 20
4.9021455634
 10
225.5260208759
 20
5.6563324875
 10
226.3585161372
 20
6.2972598974
 10
227.2634309728
 20
6.6961871411
 10
228.205990013
 20
6.8377836681
 10
229.1499712425
 20
6.7166080035
 10
230.0590979921
 20
6.33731686
 10
230.8984330305
 20
5.7144861836
 10
231.635721183
 20
4.8720510079
 10
232.2426288794
 20
3.8423856442
 10
232.6958329973
 20
2.6650595551
 10
232.9779171564
 20
1.3853167218
 10
233.0780410209
 20
0.0523369438
 10
232.9923568868
 20
-1.2826541136
 10
232.7241575472
 20
-2.5683534927
 10
232.2837497523
 20
-3.7553524874
 10
231.6880581269
 20
-4.7980353921
 10
230.9599747659
 20
-5.6563324875
 10
230.1274795046
 20
-6.2972598974
 10
229.222564669
 20
-6.6961871411
 10
228.2800056288
 20
-6.8377836681
 10
227.3360243993
 20
-6.7166080035
 10
226.4268976497
 20
-6.33731686
 10
226.4268976497
 20
-6.33731686
  0
LWPOLYLINE
  5
4ED
330
1B
100
AcDbEntity
  8
0
  6
Continuous
 62
     8
370
    25
100
AcDbPolyline
 90
        6
 70
   128
 43
0.0
 10
231.3920479709
 20
-7.2968002117
 10
231.3721649886
 20
-7.319180054
 10
231.3584808415
 20
-7.3406998516
 10
231.3515214038
 20
-7.3605326106
 10
231.3515541227
 20
-7.3779161692
 10
231.3527533829
 20
-7.3820599271
  0
LWPOLYLINE
  5
4F0
330
1B
100
AcDbEntity
  8
0
  6
Continuous
 62
     8
370
    25
100
AcDbPolyline
 90
        6
 70
   128
 43
0.0
 10
231.1486364301
 20
6.805180394
 10
231.1287534477
 20
6.8275602363
 10
231.1150693006
 20
6.8490800338
 10
231.1081098629
 20
6.8689127928
 10
231.1081425819
 20
6.8862963515
 10
231.1093418421
 20
6.8904401096
  0
LWPOLYLINE
  5
4FF
330
1B
100
AcDbEntity
  8
0
  6
Continuous
 62
     8
370
    25
100
AcDbPolyline
 90
        6
 70
   128
 43
0.0
 10
226.6515567266
 20
-8.3293662577
 10
226.651548866
 20
-8.3294663552
 10
226.6550662324
 20
-8.3347291643
 10
226.6660759333
 20
-8.3407334599
 10
226.6841548721
 20
-8.3472485003
 10
226.7086082851
 20
-8.354023916
  0
LWPOLYLINE
  5
501
330
1B
100
AcDbEntity
  8
0
  6
Continuous
 62
     8
370
    25
100
AcDbPolyline
 90
        6
 70
   128
 43
0.0
 10
226.7086082851
 20
8.354023916
 10
226.684154872
 20
8.3472485002
 10
226.6660759333
 20
8.3407334599
 10
226.6550662324
 20
8.3347291643
 10
226.651548866
 20
8.3294663552
 10
226.6515574891
 20
8.3293583637
  0
LWPOLYLINE
  5
502
330
1B
100
AcDbEntity
  8
0
  6
Continuous
 62
     8
370
    25
100
AcDbPolyline
 90
        6
 70
   128
 43
0.0
 10
226.577860254
 20
8.9204576869
 10
226.5778569083
 20
8.920505603
 10
226.5813742747
 20
8.9257684121
 10
226.5923839756
 20
8.9317727077
 10
226.6104629143
 20
8.938287748
 10
226.6349163273
 20
8.9450631638
  0
LWPOLYLINE
  5
503
330
1B
100
AcDbEntity
  8
0
  6
Continuous
 62
     8
370
    25
100
AcDbPolyline
 90
        6
 70
   128
 43
0.0
 10
226.6349163273
 20
-8.9450631638
 10
226.6104629142
 20
-8.938287748
 10
226.5923839755
 20
-8.9317727076
 10
226.5813742746
 20
-8.9257684121
 10
226.5778569082
 20
-8.920505603
 10
226.5778609875
 20
-8.9204484428
  0
SPLINE
  5
522
330
1B
100
AcDbEntity
  8
0
  6
Continuous
 62
     8
370
    25
100
AcDbSpline
210
0.0
220
0.0
230
1.0
 70
     8
 71
     3
 72
    10
 73
     6
 74
     0
 42
0.000000001
 43
0.00000001
 40
0.0
 40
0.0
 40
0.0
 40
0.0
 40
0.4634286659375969
 40
0.930628431915008
 40
1.0
 40
1.0
 40
1.0
 40
1.0
 10
223.3394873802
 20
-4.681532710761
 30
0.0
 10
223.3476738504834
 20
-4.705440175238058
 30
0.0
 10
223.3641134075562
 20
-4.753449648567325
 30
0.0
 10
223.3605680564784
 20
-4.798617355699983
 30
0.0
 10
223.3467864657532
 20
-4.811459746995667
 30
0.0
 10
223.3450046885717
 20
-4.813120098128102
 30
0.0
  0
SPLINE
  5
523
330
1B
100
AcDbEntity
  8
0
  6
Continuous
 62
     8
370
    25
100
AcDbSpline
210
0.0
220
0.0
230
1.0
 70
     8
 71
     3
 72
    10
 73
     6
 74
     0
 42
0.000000001
 43
0.00000001
 40
0.0
 40
0.0
 40
0.0
 40
0.0
 40
0.2724990746660946
 40
0.6370885371477194
 40
1.0
 40
1.0
 40
1.0
 40
1.0
 10
223.3425688353333
 20
4.811653028027862
 30
0.0
 10
223.3485322174453
 20
4.803943565547228
 30
0.0
 10
223.3624742918939
 20
4.785919246822472
 30
0.0
 10
223.3603682376064
 20
4.738488930822133
 30
0.0
 10
223.3464363980198
 20
4.70048890175866
 30
0.0
 10
223.3394865453
 20
4.681532711250001
 30
0.0
  0
SPLINE
  5
52A
330
1B
100
AcDbEntity
  8
0
  6
Continuous
 62
     8
370
    25
100
AcDbSpline
210
0.0
220
0.0
230
1.0
 70
     8
 71
     3
 72
    10
 73
     6
 74
     0
 42
0.000000001
 43
0.00000001
 40
0.0
 40
0.0
 40
0.0
 40
0.0
 40
0.0082925292818962
 40
0.5041462646409054
 40
1.0
 40
1.0
 40
1.0
 40
1.0
 10
221.9813216676887
 20
1.795864826894226
 30
0.0
 10
221.9812322957801
 20
1.795817799463003
 30
0.0
 10
221.9757989096162
 20
1.792958755740535
 30
0.0
 10
221.9916510148333
 20
1.783105944910579
 30
0.0
 10
222.0223562044088
 20
1.77309782027481
 30
0.0
 10
222.0377087991965
 20
1.768093757956925
 30
0.0
  0
LWPOLYLINE
  5
538
330
1B
100
AcDbEntity
  8
0
  6
Continuous
 62
     8
370
    25
100
AcDbPolyline
 90
       11
 70
   128
 43
0.0
 10
227.784567962
 20
-9.3749998491
 10
227.5020303264
 20
-9.3665528082
 10
226.3867589712
 20
-9.1645803651
 10
225.3116658145
 20
-8.6989596309
 10
224.3076793291
 20
-7.9830856662
 10
223.4036823781
 20
-7.0375528617
 10
222.6256813079
 20
-5.8895624746
 10
221.9960577929
 20
-4.5721400983
 10
221.5329249552
 20
-3.1231855757
 10
221.2496062832
 20
-1.5843826905
 10
221.2285422158
 20
-1.3995963177
  0
LWPOLYLINE
  5
539
330
1B
100
AcDbEntity
  8
0
  6
Continuous
 62
     8
370
    25
100
AcDbPolyline
 90
       23
 70
   128
 43
0.0
 10
241.747235434
 20
11.999999812
 10
242.3828432127
 20
11.9664455662
 10
243.6368900778
 20
11.6991349462
 10
244.8487587308
 20
11.1704849837
 10
245.9913780286
 20
10.3923048454
 10
247.0392237442
 20
9.3819777896
 10
247.9688887359
 20
8.1620728533
 10
248.7596058239
 20
6.7598406968
 10
249.3937116951
 20
5.2066048694
 10
249.8570414722
 20
3.5370620929
 10
250.1392451335
 20
1.7885071941
 10
250.2340187157
 20
0.0
 10
250.1392451335
 20
-1.7885071941
 10
249.8570414722
 20
-3.5370620929
 10
249.3937116951
 20
-5.2066048694
 10
248.7596058239
 20
-6.7598406968
 10
247.9688887359
 20
-8.1620728533
 10
247.0392237442
 20
-9.3819777896
 10
245.9913780286
 20
-10.3923048454
 10
244.8487587308
 20
-11.1704849837
 10
243.6368900778
 20
-11.6991349462
 10
242.3828432127
 20
-11.9664455662
 10
241.7476523873
 20
-11.9999999019
  0
LINE
  5
53A
330
1B
100
AcDbEntity
  8
0
  6
Continuous
 62
     7
370
    25
100
AcDbLine
 10
228.5965512119
 20
9.25
 30
0.0
 11
227.7480230744
 21
9.25
 31
0.0
  0
LINE
  5
53B
330
1B
100
AcDbEntity
  8
0
  6
Continuous
 62
     7
370
    25
100
AcDbLine
 10
227.7480230744
 20
-9.25
 30
0.0
 11
228.5965512119
 21
-9.25
 31
0.0
  0
LINE
  5
53C
330
1B
100
AcDbEntity
  8
0
  6
Continuous
 62
     7
370
    25
100
AcDbLine
 10
233.9873321424
 20
1.5498812877
 30
0.0
 11
233.5694042823
 21
1.4456651216
 31
0.0
  0
LINE
  5
53D
330
1B
100
AcDbEntity
  8
0
  6
Continuous
 62
     7
370
    25
100
AcDbLine
 10
233.5694042827
 20
-1.4456651238
 30
0.0
 11
233.9873321428
 21
-1.5498812899
 31
0.0
  0
LINE
  5
53E
330
1B
100
AcDbEntity
  8
0
  6
Continuous
 62
     7
370
    25
100
AcDbLine
 10
232.5496677759
 20
4.8097292896
 30
0.0
 11
232.9739318448
 21
4.8097292896
 31
0.0
  0
LINE
  5
53F
330
1B
100
AcDbEntity
  8
0
  6
Continuous
 62
     7
370
    25
100
AcDbLine
 10
232.9739317441
 20
-4.8097292896
 30
0.0
 11
232.549667776
 21
-4.8097292897
 31
0.0
  0
LINE
  5
540
330
1B
100
AcDbEntity
  8
0
  6
Continuous
 62
     7
370
    25
100
AcDbLine
 10
225.1177517069
 20
5.4329381063
 30
0.0
 11
225.0463444642
 21
5.345212306
 31
0.0
  0
LINE
  5
541
330
1B
100
AcDbEntity
  8
0
  6
Continuous
 62
     7
370
    25
100
AcDbLine
 10
225.0463444642
 20
-5.345212306
 30
0.0
 11
225.1177517069
 21
-5.4329381063
 31
0.0
  0
LINE
  5
542
330
1B
100
AcDbEntity
  8
0
  6
Continuous
 62
     7
370
    25
100
AcDbLine
 10
231.3527635232
 20
7.3820880841
 30
0.0
 11
231.1093519823
 21
6.8904682663
 31
0.0
  0
LINE
  5
543
330
1B
100
AcDbEntity
  8
0
  6
Continuous
 62
     7
370
    25
100
AcDbLine
 10
231.1093519838
 20
-6.8904682651
 30
0.0
 11
231.3527635246
 21
-7.3820880829
 31
0.0
  0
LINE
  5
544
330
1B
100
AcDbEntity
  8
0
  6
Continuous
 62
     7
370
    25
100
AcDbLine
 10
229.7279220614
 20
7.5
 30
0.0
 11
229.1622366364
 21
7.5
 31
0.0
  0
LINE
  5
545
330
1B
100
AcDbEntity
  8
0
  6
Continuous
 62
     7
370
    25
100
AcDbLine
 10
229.1622366364
 20
-7.5
 30
0.0
 11
229.7279220614
 21
-7.5
 31
0.0
  0
LINE
  5
546
330
1B
100
AcDbEntity
  8
0
  6
Continuous
 62
     7
370
    25
100
AcDbLine
 10
231.5231519068
 20
-7.4962672558
 30
0.0
 11
231.6711863853
 21
-7.4962672558
 31
0.0
  0
LINE
  5
547
330
1B
100
AcDbEntity
  8
0
  6
Continuous
 62
     7
370
    25
100
AcDbLine
 10
228.6881699037
 20
8.1631150838
 30
0.0
 11
229.1124339725
 21
8.1631150837
 31
0.0
  0
LINE
  5
548
330
1B
100
AcDbEntity
  8
0
  6
Continuous
 62
     7
370
    25
100
AcDbLine
 10
229.1124338452
 20
-8.1631150838
 30
0.0
 11
228.6881699038
 21
-8.1631150838
 31
0.0
  0
LINE
  5
549
330
1B
100
AcDbEntity
  8
0
  6
Continuous
 62
     7
370
    25
100
AcDbLine
 10
226.5778606616
 20
8.920452516
 30
0.0
 11
226.6515526194
 21
8.3294132682
 31
0.0
  0
LINE
  5
54A
330
1B
100
AcDbEntity
  8
0
  6
Continuous
 62
     7
370
    25
100
AcDbLine
 10
226.6515526171
 20
-8.3294132677
 30
0.0
 11
226.5778606594
 21
-8.9204525155
 31
0.0
  0
LINE
  5
54B
330
1B
100
AcDbEntity
  8
0
  6
Continuous
 62
     7
370
    25
100
AcDbLine
 10
227.232140313
 20
-8.1631150838
 30
0.0
 11
226.8078762442
 21
-8.1631150838
 31
0.0
  0
LINE
  5
54C
330
1B
100
AcDbEntity
  8
0
  6
Continuous
 62
     7
370
    25
100
AcDbLine
 10
226.8108488895
 20
8.1631150838
 30
0.0
 11
227.2321401857
 21
8.1631150838
 31
0.0
  0
LINE
  5
54D
330
1B
100
AcDbEntity
  8
0
  6
Continuous
 62
     7
370
    25
100
AcDbLine
 10
229.215790027
 20
-7.407500588
 30
0.0
 11
229.215790027
 21
-8.158001513
 31
0.0
  0
LINE
  5
54E
330
1B
100
AcDbEntity
  8
0
  6
Continuous
 62
     7
370
    25
100
AcDbLine
 10
229.215790027
 20
8.1580013231
 30
0.0
 11
229.215790027
 21
7.407500588
 31
0.0
  0
LINE
  5
54F
330
1B
100
AcDbEntity
  8
0
  6
Continuous
 62
     7
370
    25
100
AcDbLine
 10
223.972894241
 20
-7.4962672558
 30
0.0
 11
224.3971583099
 21
-7.4962672558
 31
0.0
  0
LINE
  5
550
330
1B
100
AcDbEntity
  8
0
  6
Continuous
 62
     7
370
    25
100
AcDbLine
 10
224.3971583779
 20
7.4962672558
 30
0.0
 11
223.9728942412
 21
7.4962672558
 31
0.0
  0
LINE
  5
551
330
1B
100
AcDbEntity
  8
0
  6
Continuous
 62
     7
370
    25
100
AcDbLine
 10
222.7864583289
 20
-4.8778711762
 30
0.0
 11
222.438830622
 21
-5.2221070786
 31
0.0
  0
LINE
  5
552
330
1B
100
AcDbEntity
  8
0
  6
Continuous
 62
     7
370
    25
100
AcDbLine
 10
222.4388306212
 20
5.2221070764
 30
0.0
 11
222.7864583281
 21
4.8778711741
 31
0.0
  0
LINE
  5
553
330
1B
100
AcDbEntity
  8
0
  6
Continuous
 62
     7
370
    25
100
AcDbLine
 10
223.3685187071
 20
-4.8097292896
 30
0.0
 11
222.9463783719
 21
-4.8097292896
 31
0.0
  0
LINE
  5
554
330
1B
100
AcDbEntity
  8
0
  6
Continuous
 62
     7
370
    25
100
AcDbLine
 10
222.9463783719
 20
4.8097292896
 30
0.0
 11
223.3685186953
 21
4.8097292896
 31
0.0
  0
LINE
  5
555
330
1B
100
AcDbEntity
  8
0
  6
Continuous
 62
     7
370
    25
100
AcDbLine
 10
223.367473444
 20
-4.8102177302
 30
0.0
 11
223.3696182662
 21
-4.8097870747
 31
0.0
  0
LINE
  5
556
330
1B
100
AcDbEntity
  8
0
  6
Continuous
 62
     7
370
    25
100
AcDbLine
 10
223.3696185419
 20
4.8097872196
 30
0.0
 11
223.367473181
 21
4.8102179689
 31
0.0
  0
LINE
  5
557
330
1B
100
AcDbEntity
  8
0
  6
Continuous
 62
     7
370
    25
100
AcDbLine
 10
-0.9
 20
26.5
 30
0.0
 11
-6.1
 21
26.5
 31
0.0
  0
LINE
  5
558
330
1B
100
AcDbEntity
  8
0
  6
Continuous
 62
     7
370
    25
100
AcDbLine
 10
-6.0
 20
-26.5
 30
0.0
 11
-1.0
 21
-26.5
 31
0.0
  0
LINE
  5
559
330
1B
100
AcDbEntity
  8
0
  6
Continuous
 62
     7
370
    25
100
AcDbLine
 10
296.6
 20
-21.25
 30
0.0
 11
322.8
 21
-21.25
 31
0.0
  0
LINE
  5
55A
330
1B
100
AcDbEntity
  8
0
  6
Continuous
 62
     7
370
    25
100
AcDbLine
 10
322.8
 20
21.25
 30
0.0
 11
296.6
 21
21.25
 31
0.0
  0
LINE
  5
55B
330
1B
100
AcDbEntity
  8
0
  6
Continuous
 62
     7
370
    25
100
AcDbLine
 10
252.0
 20
12.0
 30
0.0
 11
227.6066017178
 21
12.0
 31
0.0
  0
LINE
  5
55C
330
1B
100
AcDbEntity
  8
0
  6
Continuous
 62
     7
370
    25
100
AcDbLine
 10
227.6066017178
 20
-12.0
 30
0.0
 11
252.0
 21
-12.0
 31
0.0
  0
LINE
  5
55D
330
1B
100
AcDbEntity
  8
0
  6
Continuous
 62
     7
370
    25
100
AcDbLine
 10
0.1614869603
 20
19.7614869603
 30
0.0
 11
-0.0479603956
 21
19.5520396044
 31
0.0
  0
LINE
  5
55E
330
1B
100
AcDbEntity
  8
0
  6
Continuous
 62
     7
370
    25
100
AcDbLine
 10
-0.0479603956
 20
-19.5520396044
 30
0.0
 11
0.1348027832
 21
-19.7348027832
 31
0.0
  0
LINE
  5
55F
330
1B
100
AcDbEntity
  8
0
  6
Continuous
 62
     7
370
    25
100
AcDbLine
 10
294.8385130397
 20
-19.7614869603
 30
0.0
 11
295.0699673109
 21
-19.530032689
 31
0.0
  0
LINE
  5
560
330
1B
100
AcDbEntity
  8
0
  6
Continuous
 62
     7
370
    25
100
AcDbLine
 10
295.0699673109
 20
19.530032689
 30
0.0
 11
294.8651972168
 21
19.7348027832
 31
0.0
  0
LINE
  5
561
330
1B
100
AcDbEntity
  8
0
  6
Continuous
 62
     7
370
    25
100
AcDbLine
 10
0.0
 20
-21.0
 30
0.0
 11
295.0
 21
-21.0
 31
0.0
  0
LINE
  5
562
330
1B
100
AcDbEntity
  8
0
  6
Continuous
 62
     7
370
    25
100
AcDbLine
 10
295.0
 20
21.0
 30
0.0
 11
0.0
 21
21.0
 31
0.0
  0
LINE
  5
563
330
1B
100
AcDbEntity
  8
0
  6
Continuous
 62
     7
370
    25
100
AcDbLine
 10
228.9198154245
 20
-9.2386958223
 30
0.0
 11
228.5961148531
 21
-9.2499999794
 31
0.0
  0
LINE
  5
564
330
1B
100
AcDbEntity
  8
0
  6
Continuous
 62
     7
370
    25
100
AcDbLine
 10
229.1654462837
 20
-9.1427444874
 30
0.0
 11
228.7411821748
 21
-9.1427441177
 31
0.0
  0
LINE
  5
565
330
1B
100
AcDbEntity
  8
0
  6
Continuous
 62
     7
370
    25
100
AcDbLine
 10
228.7411821748
 20
9.1427441177
 30
0.0
 11
229.1654462988
 21
9.1427446272
 31
0.0
  0
LINE
  5
566
330
1B
100
AcDbEntity
  8
0
  6
Continuous
 62
     7
370
    25
100
AcDbLine
 10
233.931716539
 20
1.3741706575
 30
0.0
 11
233.513788679
 21
1.2699544915
 31
0.0
  0
LINE
  5
567
330
1B
100
AcDbEntity
  8
0
  6
Continuous
 62
     7
370
    25
100
AcDbLine
 10
233.513788679
 20
-1.2699544915
 30
0.0
 11
233.931716539
 21
-1.3741706575
 31
0.0
  0
LINE
  5
568
330
1B
100
AcDbEntity
  8
0
  6
Continuous
 62
     7
370
    25
100
AcDbLine
 10
227.2955480306
 20
-8.1562951847
 30
0.0
 11
226.8712839237
 21
-8.1562955393
 31
0.0
  0
LINE
  5
569
330
1B
100
AcDbEntity
  8
0
  6
Continuous
 62
     7
370
    25
100
AcDbLine
 10
224.2898235029
 20
-6.6441110355
 30
0.0
 11
224.7140877678
 21
-6.6441106585
 31
0.0
  0
LINE
  5
56A
330
1B
100
AcDbEntity
  8
0
  6
Continuous
 62
     7
370
    25
100
AcDbLine
 10
223.4741913789
 20
-4.8906325222
 30
0.0
 11
223.0499271059
 21
-4.8906327349
 31
0.0
  0
LINE
  5
56B
330
1B
100
AcDbEntity
  8
0
  6
Continuous
 62
     7
370
    25
100
AcDbLine
 10
221.9806511888
 20
-1.239896397
 30
0.0
 11
222.4049155848
 21
-1.2398963267
 31
0.0
  0
LINE
  5
56C
330
1B
100
AcDbEntity
  8
0
  6
Continuous
 62
     7
370
    25
100
AcDbLine
 10
222.4049155083
 20
1.2398963431
 30
0.0
 11
221.9806511888
 21
1.239896397
 31
0.0
  0
LINE
  5
56D
330
1B
100
AcDbEntity
  8
0
  6
Continuous
 62
     7
370
    25
100
AcDbLine
 10
223.0499271059
 20
4.8906327349
 30
0.0
 11
223.4741914411
 21
4.8906324574
 31
0.0
  0
LINE
  5
56E
330
1B
100
AcDbEntity
  8
0
  6
Continuous
 62
     7
370
    25
100
AcDbLine
 10
224.714087722
 20
6.6441107466
 30
0.0
 11
224.2898235029
 21
6.6441110355
 31
0.0
  0
LINE
  5
56F
330
1B
100
AcDbEntity
  8
0
  6
Continuous
 62
     7
370
    25
100
AcDbLine
 10
226.8712839237
 20
8.1562955393
 30
0.0
 11
227.2955480422
 21
8.1562950765
 31
0.0
  0
LINE
  5
570
330
1B
100
AcDbEntity
  8
0
  6
Continuous
 62
     7
370
    25
100
AcDbLine
 10
232.4185909216
 20
5.0091935285
 30
0.0
 11
232.7662186285
 21
5.3534294308
 31
0.0
  0
LINE
  5
571
330
1B
100
AcDbEntity
  8
0
  6
Continuous
 62
     7
370
    25
100
AcDbLine
 10
232.6411282352
 20
4.8453631196
 30
0.0
 11
232.9887559422
 21
5.1895990219
 31
0.0
  0
LINE
  5
572
330
1B
100
AcDbEntity
  8
0
  6
Continuous
 62
     7
370
    25
100
AcDbLine
 10
232.9887559421
 20
-5.1895990219
 30
0.0
 11
232.6411282353
 21
-4.8453631196
 31
0.0
  0
LINE
  5
573
330
1B
100
AcDbEntity
  8
0
  6
Continuous
 62
     7
370
    25
100
AcDbLine
 10
232.7662186285
 20
-5.3534294308
 30
0.0
 11
232.4185909216
 21
-5.0091935285
 31
0.0
  0
LINE
  5
574
330
1B
100
AcDbEntity
  8
0
  6
Continuous
 62
     7
370
    25
100
AcDbLine
 10
231.3920479709
 20
7.2968002117
 30
0.0
 11
231.1486364301
 21
6.805180394
 31
0.0
  0
LINE
  5
575
330
1B
100
AcDbEntity
  8
0
  6
Continuous
 62
     7
370
    25
100
AcDbLine
 10
231.1486364301
 20
-6.805180394
 30
0.0
 11
231.3920479709
 21
-7.2968002117
 31
0.0
  0
LINE
  5
576
330
1B
100
AcDbEntity
  8
0
  6
Continuous
 62
     7
370
    25
100
AcDbLine
 10
232.6411282353
 20
-4.8453631196
 30
0.0
 11
233.0653921967
 21
-4.8453633364
 31
0.0
  0
LINE
  5
577
330
1B
100
AcDbEntity
  8
0
  6
Continuous
 62
     7
370
    25
100
AcDbLine
 10
233.0653922094
 20
4.8453633107
 30
0.0
 11
232.6411282352
 21
4.8453631196
 31
0.0
  0
LINE
  5
578
330
1B
100
AcDbEntity
  8
0
  6
Continuous
 62
     7
370
    25
100
AcDbLine
 10
232.549599361
 20
-4.8097364095
 30
0.0
 11
232.5597533153
 21
-4.8091938638
 31
0.0
  0
LINE
  5
579
330
1B
100
AcDbEntity
  8
0
  6
Continuous
 62
     7
370
    25
100
AcDbLine
 10
232.549599361
 20
4.8097364095
 30
0.0
 11
232.5601299065
 21
4.8091935977
 31
0.0
  0
LINE
  5
57A
330
1B
100
AcDbEntity
  8
0
  6
Continuous
 62
     7
370
    25
100
AcDbLine
 10
225.7098034781
 20
-4.6157322553
 30
0.0
 11
225.2607592704
 21
-4.6157322553
 31
0.0
  0
LINE
  5
57B
330
1B
100
AcDbEntity
  8
0
  6
Continuous
 62
     7
370
    25
100
AcDbLine
 10
226.5625793292
 20
-5.4493420673
 30
0.0
 11
225.9636183379
 21
-5.4493420673
 31
0.0
  0
LINE
  5
57C
330
1B
100
AcDbEntity
  8
0
  6
Continuous
 62
     7
370
    25
100
AcDbLine
 10
227.3245628862
 20
-6.0658129743
 30
0.0
 11
226.7572696995
 21
-6.0658129743
 31
0.0
  0
LINE
  5
57D
330
1B
100
AcDbEntity
  8
0
  6
Continuous
 62
     7
370
    25
100
AcDbLine
 10
228.5641543403
 20
-6.5843539531
 30
0.0
 11
228.275394692
 21
-6.5843539531
 31
0.0
  0
LINE
  5
57E
330
1B
100
AcDbEntity
  8
0
  6
Continuous
 62
     7
370
    25
100
AcDbLine
 10
227.3262825945
 20
6.0647694939
 30
0.0
 11
226.7555499912
 21
6.0647694939
 31
0.0
  0
LINE
  5
57F
330
1B
100
AcDbEntity
  8
0
  6
Continuous
 62
     7
370
    25
100
AcDbLine
 10
226.5625793292
 20
5.4493420673
 30
0.0
 11
225.9636183379
 21
5.4493420673
 31
0.0
  0
LINE
  5
580
330
1B
100
AcDbEntity
  8
0
  6
Continuous
 62
     7
370
    25
100
AcDbLine
 10
225.7111527025
 20
4.6137812783
 30
0.0
 11
225.259410046
 21
4.6137812783
 31
0.0
  0
LINE
  5
581
330
1B
100
AcDbEntity
  8
0
  6
Continuous
 62
     7
370
    25
100
AcDbLine
 10
225.0110317459
 20
2.8988421765
 30
0.0
 11
224.403896084
 21
2.8988421765
 31
0.0
  0
LINE
  5
582
330
1B
100
AcDbEntity
  8
0
  6
Continuous
 62
     7
370
    25
100
AcDbLine
 10
225.0100475659
 20
-2.9016873259
 30
0.0
 11
224.404880264
 21
-2.9016873259
 31
0.0
  0
LINE
  5
583
330
1B
100
AcDbEntity
  8
0
  6
Continuous
 62
     7
370
    25
100
AcDbLine
 10
231.5333114406
 20
-7.4968000871
 30
0.0
 11
231.5230797639
 21
-7.4962597664
 31
0.0
  0
LINE
  5
584
330
1B
100
AcDbEntity
  8
0
  6
Continuous
 62
     7
370
    25
100
AcDbLine
 10
231.3527533829
 20
-7.3820599271
 30
0.0
 11
231.3542478953
 21
-7.3855677418
 31
0.0
  0
LINE
  5
585
330
1B
100
AcDbEntity
  8
0
  6
Continuous
 62
     7
370
    25
100
AcDbLine
 10
231.5334550081
 20
7.4968002107
 30
0.0
 11
231.5230797639
 21
7.4962597664
 31
0.0
  0
LINE
  5
586
330
1B
100
AcDbEntity
  8
0
  6
Continuous
 62
     7
370
    25
100
AcDbLine
 10
231.3541893619
 20
7.3854491754
 30
0.0
 11
231.352749644
 21
7.3820495259
 31
0.0
  0
LINE
  5
587
330
1B
100
AcDbEntity
  8
0
  6
Continuous
 62
     7
370
    25
100
AcDbLine
 10
231.1093418421
 20
6.8904401096
 30
0.0
 11
231.1108580596
 21
6.8939915875
 31
0.0
  0
LINE
  5
588
330
1B
100
AcDbEntity
  8
0
  6
Continuous
 62
     7
370
    25
100
AcDbLine
 10
231.1108625624
 20
-6.8940006252
 30
0.0
 11
231.109338103
 21
-6.8904297078
 31
0.0
  0
LINE
  5
589
330
1B
100
AcDbEntity
  8
0
  6
Continuous
 62
     7
370
    25
100
AcDbLine
 10
230.682516216
 20
7.4458041876
 30
0.0
 11
230.5764501988
 21
7.4458041876
 31
0.0
  0
LINE
  5
58A
330
1B
100
AcDbEntity
  8
0
  6
Continuous
 62
     7
370
    25
100
AcDbLine
 10
230.3563102753
 20
-0.5
 30
0.0
 11
230.5604344205
 21
0.0
 31
0.0
  0
LINE
  5
58B
330
1B
100
AcDbEntity
  8
0
  6
Continuous
 62
     7
370
    25
100
AcDbLine
 10
230.5604344205
 20
0.0
 30
0.0
 11
230.3563102753
 21
0.5
 31
0.0
  0
LINE
  5
58C
330
1B
100
AcDbEntity
  8
0
  6
Continuous
 62
     7
370
    25
100
AcDbLine
 10
230.3563102753
 20
0.5
 30
0.0
 11
229.9480619848
 21
0.5
 31
0.0
  0
LINE
  5
58D
330
1B
100
AcDbEntity
  8
0
  6
Continuous
 62
     7
370
    25
100
AcDbLine
 10
229.9480619848
 20
0.5
 30
0.0
 11
229.7439378396
 21
0.0
 31
0.0
  0
LINE
  5
58E
330
1B
100
AcDbEntity
  8
0
  6
Continuous
 62
     7
370
    25
100
AcDbLine
 10
229.7439378396
 20
0.0
 30
0.0
 11
229.9480619848
 21
-0.5
 31
0.0
  0
LINE
  5
58F
330
1B
100
AcDbEntity
  8
0
  6
Continuous
 62
     7
370
    25
100
AcDbLine
 10
229.9480619848
 20
-0.5
 30
0.0
 11
230.3563102753
 21
-0.5
 31
0.0
  0
LINE
  5
590
330
1B
100
AcDbEntity
  8
0
  6
Continuous
 62
     7
370
    25
100
AcDbLine
 10
230.3563102753
 20
-5.565767665
 30
0.0
 11
230.5604344205
 21
-5.065767665
 31
0.0
  0
LINE
  5
591
330
1B
100
AcDbEntity
  8
0
  6
Continuous
 62
     7
370
    25
100
AcDbLine
 10
230.5604344205
 20
-5.065767665
 30
0.0
 11
230.3563102753
 21
-4.565767665
 31
0.0
  0
LINE
  5
592
330
1B
100
AcDbEntity
  8
0
  6
Continuous
 62
     7
370
    25
100
AcDbLine
 10
230.3563102753
 20
-4.565767665
 30
0.0
 11
229.9480619848
 21
-4.565767665
 31
0.0
  0
LINE
  5
593
330
1B
100
AcDbEntity
  8
0
  6
Continuous
 62
     7
370
    25
100
AcDbLine
 10
229.9480619848
 20
-4.565767665
 30
0.0
 11
229.7439378396
 21
-5.065767665
 31
0.0
  0
LINE
  5
594
330
1B
100
AcDbEntity
  8
0
  6
Continuous
 62
     7
370
    25
100
AcDbLine
 10
229.7439378396
 20
-5.065767665
 30
0.0
 11
229.9480619848
 21
-5.565767665
 31
0.0
  0
LINE
  5
595
330
1B
100
AcDbEntity
  8
0
  6
Continuous
 62
     7
370
    25
100
AcDbLine
 10
229.9480619848
 20
-5.565767665
 30
0.0
 11
230.3563102753
 21
-5.565767665
 31
0.0
  0
LINE
  5
596
330
1B
100
AcDbEntity
  8
0
  6
Continuous
 62
     7
370
    25
100
AcDbLine
 10
228.8006753567
 20
-5.565767665
 30
0.0
 11
229.0047995019
 21
-5.065767665
 31
0.0
  0
LINE
  5
597
330
1B
100
AcDbEntity
  8
0
  6
Continuous
 62
     7
370
    25
100
AcDbLine
 10
229.0047995019
 20
-5.065767665
 30
0.0
 11
228.8006753567
 21
-4.565767665
 31
0.0
  0
LINE
  5
598
330
1B
100
AcDbEntity
  8
0
  6
Continuous
 62
     7
370
    25
100
AcDbLine
 10
228.8006753567
 20
-4.565767665
 30
0.0
 11
228.3924270662
 21
-4.565767665
 31
0.0
  0
LINE
  5
599
330
1B
100
AcDbEntity
  8
0
  6
Continuous
 62
     7
370
    25
100
AcDbLine
 10
228.3924270662
 20
-4.565767665
 30
0.0
 11
228.188302921
 21
-5.065767665
 31
0.0
  0
LINE
  5
59A
330
1B
100
AcDbEntity
  8
0
  6
Continuous
 62
     7
370
    25
100
AcDbLine
 10
228.188302921
 20
-5.065767665
 30
0.0
 11
228.3924270662
 21
-5.565767665
 31
0.0
  0
LINE
  5
59B
330
1B
100
AcDbEntity
  8
0
  6
Continuous
 62
     7
370
    25
100
AcDbLine
 10
228.3924270662
 20
-5.565767665
 30
0.0
 11
228.8006753567
 21
-5.565767665
 31
0.0
  0
LINE
  5
59C
330
1B
100
AcDbEntity
  8
0
  6
Continuous
 62
     7
370
    25
100
AcDbLine
 10
227.2450404381
 20
-5.565767665
 30
0.0
 11
227.4491645833
 21
-5.065767665
 31
0.0
  0
LINE
  5
59D
330
1B
100
AcDbEntity
  8
0
  6
Continuous
 62
     7
370
    25
100
AcDbLine
 10
227.4491645833
 20
-5.065767665
 30
0.0
 11
227.2450404381
 21
-4.565767665
 31
0.0
  0
LINE
  5
59E
330
1B
100
AcDbEntity
  8
0
  6
Continuous
 62
     7
370
    25
100
AcDbLine
 10
227.2450404381
 20
-4.565767665
 30
0.0
 11
226.8367921476
 21
-4.565767665
 31
0.0
  0
LINE
  5
59F
330
1B
100
AcDbEntity
  8
0
  6
Continuous
 62
     7
370
    25
100
AcDbLine
 10
226.8367921476
 20
-4.565767665
 30
0.0
 11
226.6326680024
 21
-5.065767665
 31
0.0
  0
LINE
  5
5A0
330
1B
100
AcDbEntity
  8
0
  6
Continuous
 62
     7
370
    25
100
AcDbLine
 10
226.6326680024
 20
-5.065767665
 30
0.0
 11
226.8367921476
 21
-5.565767665
 31
0.0
  0
LINE
  5
5A1
330
1B
100
AcDbEntity
  8
0
  6
Continuous
 62
     7
370
    25
100
AcDbLine
 10
226.8367921476
 20
-5.565767665
 30
0.0
 11
227.2450404381
 21
-5.565767665
 31
0.0
  0
LINE
  5
5A2
330
1B
100
AcDbEntity
  8
0
  6
Continuous
 62
     7
370
    25
100
AcDbLine
 10
226.4672229788
 20
-3.6605117767
 30
0.0
 11
226.671347124
 21
-3.1605117767
 31
0.0
  0
LINE
  5
5A3
330
1B
100
AcDbEntity
  8
0
  6
Continuous
 62
     7
370
    25
100
AcDbLine
 10
226.671347124
 20
-3.1605117767
 30
0.0
 11
226.4672229788
 21
-2.6605117767
 31
0.0
  0
LINE
  5
5A4
330
1B
100
AcDbEntity
  8
0
  6
Continuous
 62
     7
370
    25
100
AcDbLine
 10
226.4672229788
 20
-2.6605117767
 30
0.0
 11
226.0589746883
 21
-2.6605117767
 31
0.0
  0
LINE
  5
5A5
330
1B
100
AcDbEntity
  8
0
  6
Continuous
 62
     7
370
    25
100
AcDbLine
 10
226.0589746883
 20
-2.6605117767
 30
0.0
 11
225.8548505431
 21
-3.1605117767
 31
0.0
  0
LINE
  5
5A6
330
1B
100
AcDbEntity
  8
0
  6
Continuous
 62
     7
370
    25
100
AcDbLine
 10
225.8548505431
 20
-3.1605117767
 30
0.0
 11
226.0589746883
 21
-3.6605117767
 31
0.0
  0
LINE
  5
5A7
330
1B
100
AcDbEntity
  8
0
  6
Continuous
 62
     7
370
    25
100
AcDbLine
 10
226.0589746883
 20
-3.6605117767
 30
0.0
 11
226.4672229788
 21
-3.6605117767
 31
0.0
  0
LINE
  5
5A8
330
1B
100
AcDbEntity
  8
0
  6
Continuous
 62
     7
370
    25
100
AcDbLine
 10
225.6894055195
 20
-1.7552558883
 30
0.0
 11
225.8935296647
 21
-1.2552558883
 31
0.0
  0
LINE
  5
5A9
330
1B
100
AcDbEntity
  8
0
  6
Continuous
 62
     7
370
    25
100
AcDbLine
 10
225.8935296647
 20
-1.2552558883
 30
0.0
 11
225.6894055195
 21
-0.7552558883
 31
0.0
  0
LINE
  5
5AA
330
1B
100
AcDbEntity
  8
0
  6
Continuous
 62
     7
370
    25
100
AcDbLine
 10
225.6894055195
 20
-0.7552558883
 30
0.0
 11
225.281157229
 21
-0.7552558883
 31
0.0
  0
LINE
  5
5AB
330
1B
100
AcDbEntity
  8
0
  6
Continuous
 62
     7
370
    25
100
AcDbLine
 10
225.281157229
 20
-0.7552558883
 30
0.0
 11
225.0770330838
 21
-1.2552558883
 31
0.0
  0
LINE
  5
5AC
330
1B
100
AcDbEntity
  8
0
  6
Continuous
 62
     7
370
    25
100
AcDbLine
 10
225.0770330838
 20
-1.2552558883
 30
0.0
 11
225.281157229
 21
-1.7552558883
 31
0.0
  0
LINE
  5
5AD
330
1B
100
AcDbEntity
  8
0
  6
Continuous
 62
     7
370
    25
100
AcDbLine
 10
225.281157229
 20
-1.7552558883
 30
0.0
 11
225.6894055195
 21
-1.7552558883
 31
0.0
  0
LINE
  5
5AE
330
1B
100
AcDbEntity
  8
0
  6
Continuous
 62
     7
370
    25
100
AcDbLine
 10
224.9115880602
 20
0.15
 30
0.0
 11
225.1157122054
 21
0.65
 31
0.0
  0
LINE
  5
5AF
330
1B
100
AcDbEntity
  8
0
  6
Continuous
 62
     7
370
    25
100
AcDbLine
 10
225.1157122054
 20
0.65
 30
0.0
 11
224.9115880602
 21
1.15
 31
0.0
  0
LINE
  5
5B0
330
1B
100
AcDbEntity
  8
0
  6
Continuous
 62
     7
370
    25
100
AcDbLine
 10
224.9115880602
 20
1.15
 30
0.0
 11
224.5033397697
 21
1.15
 31
0.0
  0
LINE
  5
5B1
330
1B
100
AcDbEntity
  8
0
  6
Continuous
 62
     7
370
    25
100
AcDbLine
 10
224.5033397697
 20
1.15
 30
0.0
 11
224.2992156245
 21
0.65
 31
0.0
  0
LINE
  5
5B2
330
1B
100
AcDbEntity
  8
0
  6
Continuous
 62
     7
370
    25
100
AcDbLine
 10
224.2992156245
 20
0.65
 30
0.0
 11
224.5033397697
 21
0.15
 31
0.0
  0
LINE
  5
5B3
330
1B
100
AcDbEntity
  8
0
  6
Continuous
 62
     7
370
    25
100
AcDbLine
 10
224.5033397697
 20
0.15
 30
0.0
 11
224.9115880602
 21
0.15
 31
0.0
  0
LINE
  5
5B4
330
1B
100
AcDbEntity
  8
0
  6
Continuous
 62
     7
370
    25
100
AcDbLine
 10
225.6894055195
 20
2.0552558883
 30
0.0
 11
225.8935296647
 21
2.5552558883
 31
0.0
  0
LINE
  5
5B5
330
1B
100
AcDbEntity
  8
0
  6
Continuous
 62
     7
370
    25
100
AcDbLine
 10
225.8935296647
 20
2.5552558883
 30
0.0
 11
225.6894055195
 21
3.0552558883
 31
0.0
  0
LINE
  5
5B6
330
1B
100
AcDbEntity
  8
0
  6
Continuous
 62
     7
370
    25
100
AcDbLine
 10
225.6894055195
 20
3.0552558883
 30
0.0
 11
225.281157229
 21
3.0552558883
 31
0.0
  0
LINE
  5
5B7
330
1B
100
AcDbEntity
  8
0
  6
Continuous
 62
     7
370
    25
100
AcDbLine
 10
225.281157229
 20
3.0552558883
 30
0.0
 11
225.0770330838
 21
2.5552558883
 31
0.0
  0
LINE
  5
5B8
330
1B
100
AcDbEntity
  8
0
  6
Continuous
 62
     7
370
    25
100
AcDbLine
 10
225.0770330838
 20
2.5552558883
 30
0.0
 11
225.281157229
 21
2.0552558883
 31
0.0
  0
LINE
  5
5B9
330
1B
100
AcDbEntity
  8
0
  6
Continuous
 62
     7
370
    25
100
AcDbLine
 10
225.281157229
 20
2.0552558883
 30
0.0
 11
225.6894055195
 21
2.0552558883
 31
0.0
  0
LINE
  5
5BA
330
1B
100
AcDbEntity
  8
0
  6
Continuous
 62
     7
370
    25
100
AcDbLine
 10
226.4672229788
 20
3.9605117767
 30
0.0
 11
226.671347124
 21
4.4605117767
 31
0.0
  0
LINE
  5
5BB
330
1B
100
AcDbEntity
  8
0
  6
Continuous
 62
     7
370
    25
100
AcDbLine
 10
226.671347124
 20
4.4605117767
 30
0.0
 11
226.4672229788
 21
4.9605117767
 31
0.0
  0
LINE
  5
5BC
330
1B
100
AcDbEntity
  8
0
  6
Continuous
 62
     7
370
    25
100
AcDbLine
 10
226.4672229788
 20
4.9605117767
 30
0.0
 11
226.0589746883
 21
4.9605117767
 31
0.0
  0
LINE
  5
5BD
330
1B
100
AcDbEntity
  8
0
  6
Continuous
 62
     7
370
    25
100
AcDbLine
 10
226.0589746883
 20
4.9605117767
 30
0.0
 11
225.8548505431
 21
4.4605117767
 31
0.0
  0
LINE
  5
5BE
330
1B
100
AcDbEntity
  8
0
  6
Continuous
 62
     7
370
    25
100
AcDbLine
 10
225.8548505431
 20
4.4605117767
 30
0.0
 11
226.0589746883
 21
3.9605117767
 31
0.0
  0
LINE
  5
5BF
330
1B
100
AcDbEntity
  8
0
  6
Continuous
 62
     7
370
    25
100
AcDbLine
 10
226.0589746883
 20
3.9605117767
 30
0.0
 11
226.4672229788
 21
3.9605117767
 31
0.0
  0
LINE
  5
5C0
330
1B
100
AcDbEntity
  8
0
  6
Continuous
 62
     7
370
    25
100
AcDbLine
 10
231.9119451939
 20
-1.7552558883
 30
0.0
 11
232.1160693391
 21
-1.2552558883
 31
0.0
  0
LINE
  5
5C1
330
1B
100
AcDbEntity
  8
0
  6
Continuous
 62
     7
370
    25
100
AcDbLine
 10
232.1160693391
 20
-1.2552558883
 30
0.0
 11
231.9119451939
 21
-0.7552558883
 31
0.0
  0
LINE
  5
5C2
330
1B
100
AcDbEntity
  8
0
  6
Continuous
 62
     7
370
    25
100
AcDbLine
 10
231.9119451939
 20
-0.7552558883
 30
0.0
 11
231.5036969034
 21
-0.7552558883
 31
0.0
  0
LINE
  5
5C3
330
1B
100
AcDbEntity
  8
0
  6
Continuous
 62
     7
370
    25
100
AcDbLine
 10
231.5036969034
 20
-0.7552558883
 30
0.0
 11
231.2995727582
 21
-1.2552558883
 31
0.0
  0
LINE
  5
5C4
330
1B
100
AcDbEntity
  8
0
  6
Continuous
 62
     7
370
    25
100
AcDbLine
 10
231.2995727582
 20
-1.2552558883
 30
0.0
 11
231.5036969034
 21
-1.7552558883
 31
0.0
  0
LINE
  5
5C5
330
1B
100
AcDbEntity
  8
0
  6
Continuous
 62
     7
370
    25
100
AcDbLine
 10
231.5036969034
 20
-1.7552558883
 30
0.0
 11
231.9119451939
 21
-1.7552558883
 31
0.0
  0
LINE
  5
5C6
330
1B
100
AcDbEntity
  8
0
  6
Continuous
 62
     7
370
    25
100
AcDbLine
 10
231.1341277346
 20
-3.6605117767
 30
0.0
 11
231.3382518798
 21
-3.1605117767
 31
0.0
  0
LINE
  5
5C7
330
1B
100
AcDbEntity
  8
0
  6
Continuous
 62
     7
370
    25
100
AcDbLine
 10
231.3382518798
 20
-3.1605117767
 30
0.0
 11
231.1341277346
 21
-2.6605117767
 31
0.0
  0
LINE
  5
5C8
330
1B
100
AcDbEntity
  8
0
  6
Continuous
 62
     7
370
    25
100
AcDbLine
 10
231.1341277346
 20
-2.6605117767
 30
0.0
 11
230.7258794441
 21
-2.6605117767
 31
0.0
  0
LINE
  5
5C9
330
1B
100
AcDbEntity
  8
0
  6
Continuous
 62
     7
370
    25
100
AcDbLine
 10
230.7258794441
 20
-2.6605117767
 30
0.0
 11
230.5217552989
 21
-3.1605117767
 31
0.0
  0
LINE
  5
5CA
330
1B
100
AcDbEntity
  8
0
  6
Continuous
 62
     7
370
    25
100
AcDbLine
 10
230.5217552989
 20
-3.1605117767
 30
0.0
 11
230.7258794441
 21
-3.6605117767
 31
0.0
  0
LINE
  5
5CB
330
1B
100
AcDbEntity
  8
0
  6
Continuous
 62
     7
370
    25
100
AcDbLine
 10
230.7258794441
 20
-3.6605117767
 30
0.0
 11
231.1341277346
 21
-3.6605117767
 31
0.0
  0
LINE
  5
5CC
330
1B
100
AcDbEntity
  8
0
  6
Continuous
 62
     7
370
    25
100
AcDbLine
 10
229.578492816
 20
-3.6605117767
 30
0.0
 11
229.7826169612
 21
-3.1605117767
 31
0.0
  0
LINE
  5
5CD
330
1B
100
AcDbEntity
  8
0
  6
Continuous
 62
     7
370
    25
100
AcDbLine
 10
229.7826169612
 20
-3.1605117767
 30
0.0
 11
229.578492816
 21
-2.6605117767
 31
0.0
  0
LINE
  5
5CE
330
1B
100
AcDbEntity
  8
0
  6
Continuous
 62
     7
370
    25
100
AcDbLine
 10
229.578492816
 20
-2.6605117767
 30
0.0
 11
229.1702445255
 21
-2.6605117767
 31
0.0
  0
LINE
  5
5CF
330
1B
100
AcDbEntity
  8
0
  6
Continuous
 62
     7
370
    25
100
AcDbLine
 10
229.1702445255
 20
-2.6605117767
 30
0.0
 11
228.9661203803
 21
-3.1605117767
 31
0.0
  0
LINE
  5
5D0
330
1B
100
AcDbEntity
  8
0
  6
Continuous
 62
     7
370
    25
100
AcDbLine
 10
228.9661203803
 20
-3.1605117767
 30
0.0
 11
229.1702445255
 21
-3.6605117767
 31
0.0
  0
LINE
  5
5D1
330
1B
100
AcDbEntity
  8
0
  6
Continuous
 62
     7
370
    25
100
AcDbLine
 10
229.1702445255
 20
-3.6605117767
 30
0.0
 11
229.578492816
 21
-3.6605117767
 31
0.0
  0
LINE
  5
5D2
330
1B
100
AcDbEntity
  8
0
  6
Continuous
 62
     7
370
    25
100
AcDbLine
 10
228.0228578974
 20
-3.6605117767
 30
0.0
 11
228.2269820426
 21
-3.1605117767
 31
0.0
  0
LINE
  5
5D3
330
1B
100
AcDbEntity
  8
0
  6
Continuous
 62
     7
370
    25
100
AcDbLine
 10
228.2269820426
 20
-3.1605117767
 30
0.0
 11
228.0228578974
 21
-2.6605117767
 31
0.0
  0
LINE
  5
5D4
330
1B
100
AcDbEntity
  8
0
  6
Continuous
 62
     7
370
    25
100
AcDbLine
 10
228.0228578974
 20
-2.6605117767
 30
0.0
 11
227.6146096069
 21
-2.6605117767
 31
0.0
  0
LINE
  5
5D5
330
1B
100
AcDbEntity
  8
0
  6
Continuous
 62
     7
370
    25
100
AcDbLine
 10
227.6146096069
 20
-2.6605117767
 30
0.0
 11
227.4104854617
 21
-3.1605117767
 31
0.0
  0
LINE
  5
5D6
330
1B
100
AcDbEntity
  8
0
  6
Continuous
 62
     7
370
    25
100
AcDbLine
 10
227.4104854617
 20
-3.1605117767
 30
0.0
 11
227.6146096069
 21
-3.6605117767
 31
0.0
  0
LINE
  5
5D7
330
1B
100
AcDbEntity
  8
0
  6
Continuous
 62
     7
370
    25
100
AcDbLine
 10
227.6146096069
 20
-3.6605117767
 30
0.0
 11
228.0228578974
 21
-3.6605117767
 31
0.0
  0
LINE
  5
5D8
330
1B
100
AcDbEntity
  8
0
  6
Continuous
 62
     7
370
    25
100
AcDbLine
 10
227.2450404381
 20
-1.7552558883
 30
0.0
 11
227.4491645833
 21
-1.2552558883
 31
0.0
  0
LINE
  5
5D9
330
1B
100
AcDbEntity
  8
0
  6
Continuous
 62
     7
370
    25
100
AcDbLine
 10
227.4491645833
 20
-1.2552558883
 30
0.0
 11
227.2450404381
 21
-0.7552558883
 31
0.0
  0
LINE
  5
5DA
330
1B
100
AcDbEntity
  8
0
  6
Continuous
 62
     7
370
    25
100
AcDbLine
 10
227.2450404381
 20
-0.7552558883
 30
0.0
 11
226.8367921476
 21
-0.7552558883
 31
0.0
  0
LINE
  5
5DB
330
1B
100
AcDbEntity
  8
0
  6
Continuous
 62
     7
370
    25
100
AcDbLine
 10
226.8367921476
 20
-0.7552558883
 30
0.0
 11
226.6326680024
 21
-1.2552558883
 31
0.0
  0
LINE
  5
5DC
330
1B
100
AcDbEntity
  8
0
  6
Continuous
 62
     7
370
    25
100
AcDbLine
 10
226.6326680024
 20
-1.2552558883
 30
0.0
 11
226.8367921476
 21
-1.7552558883
 31
0.0
  0
LINE
  5
5DD
330
1B
100
AcDbEntity
  8
0
  6
Continuous
 62
     7
370
    25
100
AcDbLine
 10
226.8367921476
 20
-1.7552558883
 30
0.0
 11
227.2450404381
 21
-1.7552558883
 31
0.0
  0
LINE
  5
5DE
330
1B
100
AcDbEntity
  8
0
  6
Continuous
 62
     7
370
    25
100
AcDbLine
 10
226.4672229788
 20
0.15
 30
0.0
 11
226.671347124
 21
0.65
 31
0.0
  0
LINE
  5
5DF
330
1B
100
AcDbEntity
  8
0
  6
Continuous
 62
     7
370
    25
100
AcDbLine
 10
226.671347124
 20
0.65
 30
0.0
 11
226.4672229788
 21
1.15
 31
0.0
  0
LINE
  5
5E0
330
1B
100
AcDbEntity
  8
0
  6
Continuous
 62
     7
370
    25
100
AcDbLine
 10
226.4672229788
 20
1.15
 30
0.0
 11
226.0589746883
 21
1.15
 31
0.0
  0
LINE
  5
5E1
330
1B
100
AcDbEntity
  8
0
  6
Continuous
 62
     7
370
    25
100
AcDbLine
 10
226.0589746883
 20
1.15
 30
0.0
 11
225.8548505431
 21
0.65
 31
0.0
  0
LINE
  5
5E2
330
1B
100
AcDbEntity
  8
0
  6
Continuous
 62
     7
370
    25
100
AcDbLine
 10
225.8548505431
 20
0.65
 30
0.0
 11
226.0589746883
 21
0.15
 31
0.0
  0
LINE
  5
5E3
330
1B
100
AcDbEntity
  8
0
  6
Continuous
 62
     7
370
    25
100
AcDbLine
 10
226.0589746883
 20
0.15
 30
0.0
 11
226.4672229788
 21
0.15
 31
0.0
  0
LINE
  5
5E4
330
1B
100
AcDbEntity
  8
0
  6
Continuous
 62
     7
370
    25
100
AcDbLine
 10
227.2450404381
 20
2.0552558883
 30
0.0
 11
227.4491645833
 21
2.5552558883
 31
0.0
  0
LINE
  5
5E5
330
1B
100
AcDbEntity
  8
0
  6
Continuous
 62
     7
370
    25
100
AcDbLine
 10
227.4491645833
 20
2.5552558883
 30
0.0
 11
227.2450404381
 21
3.0552558883
 31
0.0
  0
LINE
  5
5E6
330
1B
100
AcDbEntity
  8
0
  6
Continuous
 62
     7
370
    25
100
AcDbLine
 10
227.2450404381
 20
3.0552558883
 30
0.0
 11
226.8367921476
 21
3.0552558883
 31
0.0
  0
LINE
  5
5E7
330
1B
100
AcDbEntity
  8
0
  6
Continuous
 62
     7
370
    25
100
AcDbLine
 10
226.8367921476
 20
3.0552558883
 30
0.0
 11
226.6326680024
 21
2.5552558883
 31
0.0
  0
LINE
  5
5E8
330
1B
100
AcDbEntity
  8
0
  6
Continuous
 62
     7
370
    25
100
AcDbLine
 10
226.6326680024
 20
2.5552558883
 30
0.0
 11
226.8367921476
 21
2.0552558883
 31
0.0
  0
LINE
  5
5E9
330
1B
100
AcDbEntity
  8
0
  6
Continuous
 62
     7
370
    25
100
AcDbLine
 10
226.8367921476
 20
2.0552558883
 30
0.0
 11
227.2450404381
 21
2.0552558883
 31
0.0
  0
LINE
  5
5EA
330
1B
100
AcDbEntity
  8
0
  6
Continuous
 62
     7
370
    25
100
AcDbLine
 10
228.0228578974
 20
3.9605117767
 30
0.0
 11
228.2269820426
 21
4.4605117767
 31
0.0
  0
LINE
  5
5EB
330
1B
100
AcDbEntity
  8
0
  6
Continuous
 62
     7
370
    25
100
AcDbLine
 10
228.2269820426
 20
4.4605117767
 30
0.0
 11
228.0228578974
 21
4.9605117767
 31
0.0
  0
LINE
  5
5EC
330
1B
100
AcDbEntity
  8
0
  6
Continuous
 62
     7
370
    25
100
AcDbLine
 10
228.0228578974
 20
4.9605117767
 30
0.0
 11
227.6146096069
 21
4.9605117767
 31
0.0
  0
LINE
  5
5ED
330
1B
100
AcDbEntity
  8
0
  6
Continuous
 62
     7
370
    25
100
AcDbLine
 10
227.6146096069
 20
4.9605117767
 30
0.0
 11
227.4104854617
 21
4.4605117767
 31
0.0
  0
LINE
  5
5EE
330
1B
100
AcDbEntity
  8
0
  6
Continuous
 62
     7
370
    25
100
AcDbLine
 10
227.4104854617
 20
4.4605117767
 30
0.0
 11
227.6146096069
 21
3.9605117767
 31
0.0
  0
LINE
  5
5EF
330
1B
100
AcDbEntity
  8
0
  6
Continuous
 62
     7
370
    25
100
AcDbLine
 10
227.6146096069
 20
3.9605117767
 30
0.0
 11
228.0228578974
 21
3.9605117767
 31
0.0
  0
LINE
  5
5F0
330
1B
100
AcDbEntity
  8
0
  6
Continuous
 62
     7
370
    25
100
AcDbLine
 10
229.578492816
 20
3.9605117767
 30
0.0
 11
229.7826169612
 21
4.4605117767
 31
0.0
  0
LINE
  5
5F1
330
1B
100
AcDbEntity
  8
0
  6
Continuous
 62
     7
370
    25
100
AcDbLine
 10
229.7826169612
 20
4.4605117767
 30
0.0
 11
229.578492816
 21
4.9605117767
 31
0.0
  0
LINE
  5
5F2
330
1B
100
AcDbEntity
  8
0
  6
Continuous
 62
     7
370
    25
100
AcDbLine
 10
229.578492816
 20
4.9605117767
 30
0.0
 11
229.1702445255
 21
4.9605117767
 31
0.0
  0
LINE
  5
5F3
330
1B
100
AcDbEntity
  8
0
  6
Continuous
 62
     7
370
    25
100
AcDbLine
 10
229.1702445255
 20
4.9605117767
 30
0.0
 11
228.9661203803
 21
4.4605117767
 31
0.0
  0
LINE
  5
5F4
330
1B
100
AcDbEntity
  8
0
  6
Continuous
 62
     7
370
    25
100
AcDbLine
 10
228.9661203803
 20
4.4605117767
 30
0.0
 11
229.1702445255
 21
3.9605117767
 31
0.0
  0
LINE
  5
5F5
330
1B
100
AcDbEntity
  8
0
  6
Continuous
 62
     7
370
    25
100
AcDbLine
 10
229.1702445255
 20
3.9605117767
 30
0.0
 11
229.578492816
 21
3.9605117767
 31
0.0
  0
LINE
  5
5F6
330
1B
100
AcDbEntity
  8
0
  6
Continuous
 62
     7
370
    25
100
AcDbLine
 10
231.1341277346
 20
3.9605117767
 30
0.0
 11
231.3382518798
 21
4.4605117767
 31
0.0
  0
LINE
  5
5F7
330
1B
100
AcDbEntity
  8
0
  6
Continuous
 62
     7
370
    25
100
AcDbLine
 10
231.3382518798
 20
4.4605117767
 30
0.0
 11
231.1341277346
 21
4.9605117767
 31
0.0
  0
LINE
  5
5F8
330
1B
100
AcDbEntity
  8
0
  6
Continuous
 62
     7
370
    25
100
AcDbLine
 10
231.1341277346
 20
4.9605117767
 30
0.0
 11
230.7258794441
 21
4.9605117767
 31
0.0
  0
LINE
  5
5F9
330
1B
100
AcDbEntity
  8
0
  6
Continuous
 62
     7
370
    25
100
AcDbLine
 10
230.7258794441
 20
4.9605117767
 30
0.0
 11
230.5217552989
 21
4.4605117767
 31
0.0
  0
LINE
  5
5FA
330
1B
100
AcDbEntity
  8
0
  6
Continuous
 62
     7
370
    25
100
AcDbLine
 10
230.5217552989
 20
4.4605117767
 30
0.0
 11
230.7258794441
 21
3.9605117767
 31
0.0
  0
LINE
  5
5FB
330
1B
100
AcDbEntity
  8
0
  6
Continuous
 62
     7
370
    25
100
AcDbLine
 10
230.7258794441
 20
3.9605117767
 30
0.0
 11
231.1341277346
 21
3.9605117767
 31
0.0
  0
LINE
  5
5FC
330
1B
100
AcDbEntity
  8
0
  6
Continuous
 62
     7
370
    25
100
AcDbLine
 10
231.9119451939
 20
2.0552558883
 30
0.0
 11
232.1160693391
 21
2.5552558883
 31
0.0
  0
LINE
  5
5FD
330
1B
100
AcDbEntity
  8
0
  6
Continuous
 62
     7
370
    25
100
AcDbLine
 10
232.1160693391
 20
2.5552558883
 30
0.0
 11
231.9119451939
 21
3.0552558883
 31
0.0
  0
LINE
  5
5FE
330
1B
100
AcDbEntity
  8
0
  6
Continuous
 62
     7
370
    25
100
AcDbLine
 10
231.9119451939
 20
3.0552558883
 30
0.0
 11
231.5036969034
 21
3.0552558883
 31
0.0
  0
LINE
  5
5FF
330
1B
100
AcDbEntity
  8
0
  6
Continuous
 62
     7
370
    25
100
AcDbLine
 10
231.5036969034
 20
3.0552558883
 30
0.0
 11
231.2995727582
 21
2.5552558883
 31
0.0
  0
LINE
  5
600
330
1B
100
AcDbEntity
  8
0
  6
Continuous
 62
     7
370
    25
100
AcDbLine
 10
231.2995727582
 20
2.5552558883
 30
0.0
 11
231.5036969034
 21
2.0552558883
 31
0.0
  0
LINE
  5
601
330
1B
100
AcDbEntity
  8
0
  6
Continuous
 62
     7
370
    25
100
AcDbLine
 10
231.5036969034
 20
2.0552558883
 30
0.0
 11
231.9119451939
 21
2.0552558883
 31
0.0
  0
LINE
  5
602
330
1B
100
AcDbEntity
  8
0
  6
Continuous
 62
     7
370
    25
100
AcDbLine
 10
232.6897626532
 20
1.15
 30
0.0
 11
232.2815143628
 21
1.15
 31
0.0
  0
LINE
  5
603
330
1B
100
AcDbEntity
  8
0
  6
Continuous
 62
     7
370
    25
100
AcDbLine
 10
232.2815143628
 20
1.15
 30
0.0
 11
232.0773902175
 21
0.65
 31
0.0
  0
LINE
  5
604
330
1B
100
AcDbEntity
  8
0
  6
Continuous
 62
     7
370
    25
100
AcDbLine
 10
232.0773902175
 20
0.65
 30
0.0
 11
232.2815143628
 21
0.15
 31
0.0
  0
LINE
  5
605
330
1B
100
AcDbEntity
  8
0
  6
Continuous
 62
     7
370
    25
100
AcDbLine
 10
232.2815143628
 20
0.15
 30
0.0
 11
232.6897626532
 21
0.15
 31
0.0
  0
LINE
  5
606
330
1B
100
AcDbEntity
  8
0
  6
Continuous
 62
     7
370
    25
100
AcDbLine
 10
230.3563102753
 20
-1.7552558883
 30
0.0
 11
230.5604344205
 21
-1.2552558883
 31
0.0
  0
LINE
  5
607
330
1B
100
AcDbEntity
  8
0
  6
Continuous
 62
     7
370
    25
100
AcDbLine
 10
230.5604344205
 20
-1.2552558883
 30
0.0
 11
230.3563102753
 21
-0.7552558883
 31
0.0
  0
LINE
  5
608
330
1B
100
AcDbEntity
  8
0
  6
Continuous
 62
     7
370
    25
100
AcDbLine
 10
230.3563102753
 20
-0.7552558883
 30
0.0
 11
229.9480619848
 21
-0.7552558883
 31
0.0
  0
LINE
  5
609
330
1B
100
AcDbEntity
  8
0
  6
Continuous
 62
     7
370
    25
100
AcDbLine
 10
229.9480619848
 20
-0.7552558883
 30
0.0
 11
229.7439378396
 21
-1.2552558883
 31
0.0
  0
LINE
  5
60A
330
1B
100
AcDbEntity
  8
0
  6
Continuous
 62
     7
370
    25
100
AcDbLine
 10
229.7439378396
 20
-1.2552558883
 30
0.0
 11
229.9480619848
 21
-1.7552558883
 31
0.0
  0
LINE
  5
60B
330
1B
100
AcDbEntity
  8
0
  6
Continuous
 62
     7
370
    25
100
AcDbLine
 10
229.9480619848
 20
-1.7552558883
 30
0.0
 11
230.3563102753
 21
-1.7552558883
 31
0.0
  0
LINE
  5
60C
330
1B
100
AcDbEntity
  8
0
  6
Continuous
 62
     7
370
    25
100
AcDbLine
 10
228.8006753567
 20
-1.7552558883
 30
0.0
 11
229.0047995019
 21
-1.2552558883
 31
0.0
  0
LINE
  5
60D
330
1B
100
AcDbEntity
  8
0
  6
Continuous
 62
     7
370
    25
100
AcDbLine
 10
229.0047995019
 20
-1.2552558883
 30
0.0
 11
228.8006753567
 21
-0.7552558883
 31
0.0
  0
LINE
  5
60E
330
1B
100
AcDbEntity
  8
0
  6
Continuous
 62
     7
370
    25
100
AcDbLine
 10
228.8006753567
 20
-0.7552558883
 30
0.0
 11
228.3924270662
 21
-0.7552558883
 31
0.0
  0
LINE
  5
60F
330
1B
100
AcDbEntity
  8
0
  6
Continuous
 62
     7
370
    25
100
AcDbLine
 10
228.3924270662
 20
-0.7552558883
 30
0.0
 11
228.188302921
 21
-1.2552558883
 31
0.0
  0
LINE
  5
610
330
1B
100
AcDbEntity
  8
0
  6
Continuous
 62
     7
370
    25
100
AcDbLine
 10
228.188302921
 20
-1.2552558883
 30
0.0
 11
228.3924270662
 21
-1.7552558883
 31
0.0
  0
LINE
  5
611
330
1B
100
AcDbEntity
  8
0
  6
Continuous
 62
     7
370
    25
100
AcDbLine
 10
228.3924270662
 20
-1.7552558883
 30
0.0
 11
228.8006753567
 21
-1.7552558883
 31
0.0
  0
LINE
  5
612
330
1B
100
AcDbEntity
  8
0
  6
Continuous
 62
     7
370
    25
100
AcDbLine
 10
228.0228578974
 20
0.15
 30
0.0
 11
228.2269820426
 21
0.65
 31
0.0
  0
LINE
  5
613
330
1B
100
AcDbEntity
  8
0
  6
Continuous
 62
     7
370
    25
100
AcDbLine
 10
228.2269820426
 20
0.65
 30
0.0
 11
228.0228578974
 21
1.15
 31
0.0
  0
LINE
  5
614
330
1B
100
AcDbEntity
  8
0
  6
Continuous
 62
     7
370
    25
100
AcDbLine
 10
228.0228578974
 20
1.15
 30
0.0
 11
227.6146096069
 21
1.15
 31
0.0
  0
LINE
  5
615
330
1B
100
AcDbEntity
  8
0
  6
Continuous
 62
     7
370
    25
100
AcDbLine
 10
227.6146096069
 20
1.15
 30
0.0
 11
227.4104854617
 21
0.65
 31
0.0
  0
LINE
  5
616
330
1B
100
AcDbEntity
  8
0
  6
Continuous
 62
     7
370
    25
100
AcDbLine
 10
227.4104854617
 20
0.65
 30
0.0
 11
227.6146096069
 21
0.15
 31
0.0
  0
LINE
  5
617
330
1B
100
AcDbEntity
  8
0
  6
Continuous
 62
     7
370
    25
100
AcDbLine
 10
227.6146096069
 20
0.15
 30
0.0
 11
228.0228578974
 21
0.15
 31
0.0
  0
LINE
  5
618
330
1B
100
AcDbEntity
  8
0
  6
Continuous
 62
     7
370
    25
100
AcDbLine
 10
228.8006753567
 20
2.0552558883
 30
0.0
 11
229.0047995019
 21
2.5552558883
 31
0.0
  0
LINE
  5
619
330
1B
100
AcDbEntity
  8
0
  6
Continuous
 62
     7
370
    25
100
AcDbLine
 10
229.0047995019
 20
2.5552558883
 30
0.0
 11
228.8006753567
 21
3.0552558883
 31
0.0
  0
LINE
  5
61A
330
1B
100
AcDbEntity
  8
0
  6
Continuous
 62
     7
370
    25
100
AcDbLine
 10
228.8006753567
 20
3.0552558883
 30
0.0
 11
228.3924270662
 21
3.0552558883
 31
0.0
  0
LINE
  5
61B
330
1B
100
AcDbEntity
  8
0
  6
Continuous
 62
     7
370
    25
100
AcDbLine
 10
228.3924270662
 20
3.0552558883
 30
0.0
 11
228.188302921
 21
2.5552558883
 31
0.0
  0
LINE
  5
61C
330
1B
100
AcDbEntity
  8
0
  6
Continuous
 62
     7
370
    25
100
AcDbLine
 10
228.188302921
 20
2.5552558883
 30
0.0
 11
228.3924270662
 21
2.0552558883
 31
0.0
  0
LINE
  5
61D
330
1B
100
AcDbEntity
  8
0
  6
Continuous
 62
     7
370
    25
100
AcDbLine
 10
228.3924270662
 20
2.0552558883
 30
0.0
 11
228.8006753567
 21
2.0552558883
 31
0.0
  0
LINE
  5
61E
330
1B
100
AcDbEntity
  8
0
  6
Continuous
 62
     7
370
    25
100
AcDbLine
 10
230.3563102753
 20
2.0552558883
 30
0.0
 11
230.5604344205
 21
2.5552558883
 31
0.0
  0
LINE
  5
61F
330
1B
100
AcDbEntity
  8
0
  6
Continuous
 62
     7
370
    25
100
AcDbLine
 10
230.5604344205
 20
2.5552558883
 30
0.0
 11
230.3563102753
 21
3.0552558883
 31
0.0
  0
LINE
  5
620
330
1B
100
AcDbEntity
  8
0
  6
Continuous
 62
     7
370
    25
100
AcDbLine
 10
230.3563102753
 20
3.0552558883
 30
0.0
 11
229.9480619848
 21
3.0552558883
 31
0.0
  0
LINE
  5
621
330
1B
100
AcDbEntity
  8
0
  6
Continuous
 62
     7
370
    25
100
AcDbLine
 10
229.9480619848
 20
3.0552558883
 30
0.0
 11
229.7439378396
 21
2.5552558883
 31
0.0
  0
LINE
  5
622
330
1B
100
AcDbEntity
  8
0
  6
Continuous
 62
     7
370
    25
100
AcDbLine
 10
229.7439378396
 20
2.5552558883
 30
0.0
 11
229.9480619848
 21
2.0552558883
 31
0.0
  0
LINE
  5
623
330
1B
100
AcDbEntity
  8
0
  6
Continuous
 62
     7
370
    25
100
AcDbLine
 10
229.9480619848
 20
2.0552558883
 30
0.0
 11
230.3563102753
 21
2.0552558883
 31
0.0
  0
LINE
  5
624
330
1B
100
AcDbEntity
  8
0
  6
Continuous
 62
     7
370
    25
100
AcDbLine
 10
231.1341277346
 20
0.15
 30
0.0
 11
231.3382518798
 21
0.65
 31
0.0
  0
LINE
  5
625
330
1B
100
AcDbEntity
  8
0
  6
Continuous
 62
     7
370
    25
100
AcDbLine
 10
231.3382518798
 20
0.65
 30
0.0
 11
231.1341277346
 21
1.15
 31
0.0
  0
LINE
  5
626
330
1B
100
AcDbEntity
  8
0
  6
Continuous
 62
     7
370
    25
100
AcDbLine
 10
231.1341277346
 20
1.15
 30
0.0
 11
230.7258794441
 21
1.15
 31
0.0
  0
LINE
  5
627
330
1B
100
AcDbEntity
  8
0
  6
Continuous
 62
     7
370
    25
100
AcDbLine
 10
230.7258794441
 20
1.15
 30
0.0
 11
230.5217552989
 21
0.65
 31
0.0
  0
LINE
  5
628
330
1B
100
AcDbEntity
  8
0
  6
Continuous
 62
     7
370
    25
100
AcDbLine
 10
230.5217552989
 20
0.65
 30
0.0
 11
230.7258794441
 21
0.15
 31
0.0
  0
LINE
  5
629
330
1B
100
AcDbEntity
  8
0
  6
Continuous
 62
     7
370
    25
100
AcDbLine
 10
230.7258794441
 20
0.15
 30
0.0
 11
231.1341277346
 21
0.15
 31
0.0
  0
LINE
  5
62A
330
1B
100
AcDbEntity
  8
0
  6
Continuous
 62
     7
370
    25
100
AcDbLine
 10
229.578492816
 20
0.15
 30
0.0
 11
229.7826169612
 21
0.65
 31
0.0
  0
LINE
  5
62B
330
1B
100
AcDbEntity
  8
0
  6
Continuous
 62
     7
370
    25
100
AcDbLine
 10
229.7826169612
 20
0.65
 30
0.0
 11
229.578492816
 21
1.15
 31
0.0
  0
LINE
  5
62C
330
1B
100
AcDbEntity
  8
0
  6
Continuous
 62
     7
370
    25
100
AcDbLine
 10
229.578492816
 20
1.15
 30
0.0
 11
229.1702445255
 21
1.15
 31
0.0
  0
LINE
  5
62D
330
1B
100
AcDbEntity
  8
0
  6
Continuous
 62
     7
370
    25
100
AcDbLine
 10
229.1702445255
 20
1.15
 30
0.0
 11
228.9661203803
 21
0.65
 31
0.0
  0
LINE
  5
62E
330
1B
100
AcDbEntity
  8
0
  6
Continuous
 62
     7
370
    25
100
AcDbLine
 10
228.9661203803
 20
0.65
 30
0.0
 11
229.1702445255
 21
0.15
 31
0.0
  0
LINE
  5
62F
330
1B
100
AcDbEntity
  8
0
  6
Continuous
 62
     7
370
    25
100
AcDbLine
 10
229.1702445255
 20
0.15
 30
0.0
 11
229.578492816
 21
0.15
 31
0.0
  0
LINE
  5
630
330
1B
100
AcDbEntity
  8
0
  6
Continuous
 62
     7
370
    25
100
AcDbLine
 10
232.8878728468
 20
-0.6405247755
 30
0.0
 11
232.6897626532
 21
-0.1552558883
 31
0.0
  0
LINE
  5
631
330
1B
100
AcDbEntity
  8
0
  6
Continuous
 62
     7
370
    25
100
AcDbLine
 10
232.6897626532
 20
-0.1552558883
 30
0.0
 11
232.2815143628
 21
-0.1552558883
 31
0.0
  0
LINE
  5
632
330
1B
100
AcDbEntity
  8
0
  6
Continuous
 62
     7
370
    25
100
AcDbLine
 10
232.2815143628
 20
-0.1552558883
 30
0.0
 11
232.0773902175
 21
-0.6552558883
 31
0.0
  0
LINE
  5
633
330
1B
100
AcDbEntity
  8
0
  6
Continuous
 62
     7
370
    25
100
AcDbLine
 10
232.0773902175
 20
-0.6552558883
 30
0.0
 11
232.2815143628
 21
-1.1552558883
 31
0.0
  0
LINE
  5
634
330
1B
100
AcDbEntity
  8
0
  6
Continuous
 62
     7
370
    25
100
AcDbLine
 10
232.2815143628
 20
-1.1552558883
 30
0.0
 11
232.6897626532
 21
-1.1552558883
 31
0.0
  0
LINE
  5
635
330
1B
100
AcDbEntity
  8
0
  6
Continuous
 62
     7
370
    25
100
AcDbLine
 10
231.9119451939
 20
-3.0605117767
 30
0.0
 11
232.1160693391
 21
-2.5605117767
 31
0.0
  0
LINE
  5
636
330
1B
100
AcDbEntity
  8
0
  6
Continuous
 62
     7
370
    25
100
AcDbLine
 10
232.1160693391
 20
-2.5605117767
 30
0.0
 11
231.9119451939
 21
-2.0605117767
 31
0.0
  0
LINE
  5
637
330
1B
100
AcDbEntity
  8
0
  6
Continuous
 62
     7
370
    25
100
AcDbLine
 10
231.9119451939
 20
-2.0605117767
 30
0.0
 11
231.5036969034
 21
-2.0605117767
 31
0.0
  0
LINE
  5
638
330
1B
100
AcDbEntity
  8
0
  6
Continuous
 62
     7
370
    25
100
AcDbLine
 10
231.5036969034
 20
-2.0605117767
 30
0.0
 11
231.2995727582
 21
-2.5605117767
 31
0.0
  0
LINE
  5
639
330
1B
100
AcDbEntity
  8
0
  6
Continuous
 62
     7
370
    25
100
AcDbLine
 10
231.2995727582
 20
-2.5605117767
 30
0.0
 11
231.5036969034
 21
-3.0605117767
 31
0.0
  0
LINE
  5
63A
330
1B
100
AcDbEntity
  8
0
  6
Continuous
 62
     7
370
    25
100
AcDbLine
 10
231.5036969034
 20
-3.0605117767
 30
0.0
 11
231.9119451939
 21
-3.0605117767
 31
0.0
  0
LINE
  5
63B
330
1B
100
AcDbEntity
  8
0
  6
Continuous
 62
     7
370
    25
100
AcDbLine
 10
231.1341277346
 20
-4.965767665
 30
0.0
 11
231.3382518798
 21
-4.465767665
 31
0.0
  0
LINE
  5
63C
330
1B
100
AcDbEntity
  8
0
  6
Continuous
 62
     7
370
    25
100
AcDbLine
 10
231.3382518798
 20
-4.465767665
 30
0.0
 11
231.1341277346
 21
-3.965767665
 31
0.0
  0
LINE
  5
63D
330
1B
100
AcDbEntity
  8
0
  6
Continuous
 62
     7
370
    25
100
AcDbLine
 10
231.1341277346
 20
-3.965767665
 30
0.0
 11
230.7258794441
 21
-3.965767665
 31
0.0
  0
LINE
  5
63E
330
1B
100
AcDbEntity
  8
0
  6
Continuous
 62
     7
370
    25
100
AcDbLine
 10
230.7258794441
 20
-3.965767665
 30
0.0
 11
230.5217552989
 21
-4.465767665
 31
0.0
  0
LINE
  5
63F
330
1B
100
AcDbEntity
  8
0
  6
Continuous
 62
     7
370
    25
100
AcDbLine
 10
230.5217552989
 20
-4.465767665
 30
0.0
 11
230.7258794441
 21
-4.965767665
 31
0.0
  0
LINE
  5
640
330
1B
100
AcDbEntity
  8
0
  6
Continuous
 62
     7
370
    25
100
AcDbLine
 10
230.7258794441
 20
-4.965767665
 30
0.0
 11
231.1341277346
 21
-4.965767665
 31
0.0
  0
LINE
  5
641
330
1B
100
AcDbEntity
  8
0
  6
Continuous
 62
     7
370
    25
100
AcDbLine
 10
229.578492816
 20
-4.965767665
 30
0.0
 11
229.7826169612
 21
-4.465767665
 31
0.0
  0
LINE
  5
642
330
1B
100
AcDbEntity
  8
0
  6
Continuous
 62
     7
370
    25
100
AcDbLine
 10
229.7826169612
 20
-4.465767665
 30
0.0
 11
229.578492816
 21
-3.965767665
 31
0.0
  0
LINE
  5
643
330
1B
100
AcDbEntity
  8
0
  6
Continuous
 62
     7
370
    25
100
AcDbLine
 10
229.578492816
 20
-3.965767665
 30
0.0
 11
229.1702445255
 21
-3.965767665
 31
0.0
  0
LINE
  5
644
330
1B
100
AcDbEntity
  8
0
  6
Continuous
 62
     7
370
    25
100
AcDbLine
 10
229.1702445255
 20
-3.965767665
 30
0.0
 11
228.9661203803
 21
-4.465767665
 31
0.0
  0
LINE
  5
645
330
1B
100
AcDbEntity
  8
0
  6
Continuous
 62
     7
370
    25
100
AcDbLine
 10
228.9661203803
 20
-4.465767665
 30
0.0
 11
229.1702445255
 21
-4.965767665
 31
0.0
  0
LINE
  5
646
330
1B
100
AcDbEntity
  8
0
  6
Continuous
 62
     7
370
    25
100
AcDbLine
 10
229.1702445255
 20
-4.965767665
 30
0.0
 11
229.578492816
 21
-4.965767665
 31
0.0
  0
LINE
  5
647
330
1B
100
AcDbEntity
  8
0
  6
Continuous
 62
     7
370
    25
100
AcDbLine
 10
228.0228578974
 20
-4.965767665
 30
0.0
 11
228.2269820426
 21
-4.465767665
 31
0.0
  0
LINE
  5
648
330
1B
100
AcDbEntity
  8
0
  6
Continuous
 62
     7
370
    25
100
AcDbLine
 10
228.2269820426
 20
-4.465767665
 30
0.0
 11
228.0228578974
 21
-3.965767665
 31
0.0
  0
LINE
  5
649
330
1B
100
AcDbEntity
  8
0
  6
Continuous
 62
     7
370
    25
100
AcDbLine
 10
228.0228578974
 20
-3.965767665
 30
0.0
 11
227.6146096069
 21
-3.965767665
 31
0.0
  0
LINE
  5
64A
330
1B
100
AcDbEntity
  8
0
  6
Continuous
 62
     7
370
    25
100
AcDbLine
 10
227.6146096069
 20
-3.965767665
 30
0.0
 11
227.4104854617
 21
-4.465767665
 31
0.0
  0
LINE
  5
64B
330
1B
100
AcDbEntity
  8
0
  6
Continuous
 62
     7
370
    25
100
AcDbLine
 10
227.4104854617
 20
-4.465767665
 30
0.0
 11
227.6146096069
 21
-4.965767665
 31
0.0
  0
LINE
  5
64C
330
1B
100
AcDbEntity
  8
0
  6
Continuous
 62
     7
370
    25
100
AcDbLine
 10
227.6146096069
 20
-4.965767665
 30
0.0
 11
228.0228578974
 21
-4.965767665
 31
0.0
  0
LINE
  5
64D
330
1B
100
AcDbEntity
  8
0
  6
Continuous
 62
     7
370
    25
100
AcDbLine
 10
226.4672229788
 20
-4.965767665
 30
0.0
 11
226.671347124
 21
-4.465767665
 31
0.0
  0
LINE
  5
64E
330
1B
100
AcDbEntity
  8
0
  6
Continuous
 62
     7
370
    25
100
AcDbLine
 10
226.671347124
 20
-4.465767665
 30
0.0
 11
226.4672229788
 21
-3.965767665
 31
0.0
  0
LINE
  5
64F
330
1B
100
AcDbEntity
  8
0
  6
Continuous
 62
     7
370
    25
100
AcDbLine
 10
226.4672229788
 20
-3.965767665
 30
0.0
 11
226.0589746883
 21
-3.965767665
 31
0.0
  0
LINE
  5
650
330
1B
100
AcDbEntity
  8
0
  6
Continuous
 62
     7
370
    25
100
AcDbLine
 10
226.0589746883
 20
-3.965767665
 30
0.0
 11
225.8548505431
 21
-4.465767665
 31
0.0
  0
LINE
  5
651
330
1B
100
AcDbEntity
  8
0
  6
Continuous
 62
     7
370
    25
100
AcDbLine
 10
225.8548505431
 20
-4.465767665
 30
0.0
 11
226.0589746883
 21
-4.965767665
 31
0.0
  0
LINE
  5
652
330
1B
100
AcDbEntity
  8
0
  6
Continuous
 62
     7
370
    25
100
AcDbLine
 10
226.0589746883
 20
-4.965767665
 30
0.0
 11
226.4672229788
 21
-4.965767665
 31
0.0
  0
LINE
  5
653
330
1B
100
AcDbEntity
  8
0
  6
Continuous
 62
     7
370
    25
100
AcDbLine
 10
225.6894055195
 20
-3.0605117767
 30
0.0
 11
225.8935296647
 21
-2.5605117767
 31
0.0
  0
LINE
  5
654
330
1B
100
AcDbEntity
  8
0
  6
Continuous
 62
     7
370
    25
100
AcDbLine
 10
225.8935296647
 20
-2.5605117767
 30
0.0
 11
225.6894055195
 21
-2.0605117767
 31
0.0
  0
LINE
  5
655
330
1B
100
AcDbEntity
  8
0
  6
Continuous
 62
     7
370
    25
100
AcDbLine
 10
225.6894055195
 20
-2.0605117767
 30
0.0
 11
225.281157229
 21
-2.0605117767
 31
0.0
  0
LINE
  5
656
330
1B
100
AcDbEntity
  8
0
  6
Continuous
 62
     7
370
    25
100
AcDbLine
 10
225.281157229
 20
-2.0605117767
 30
0.0
 11
225.0770330838
 21
-2.5605117767
 31
0.0
  0
LINE
  5
657
330
1B
100
AcDbEntity
  8
0
  6
Continuous
 62
     7
370
    25
100
AcDbLine
 10
225.0770330838
 20
-2.5605117767
 30
0.0
 11
225.281157229
 21
-3.0605117767
 31
0.0
  0
LINE
  5
658
330
1B
100
AcDbEntity
  8
0
  6
Continuous
 62
     7
370
    25
100
AcDbLine
 10
225.281157229
 20
-3.0605117767
 30
0.0
 11
225.6894055195
 21
-3.0605117767
 31
0.0
  0
LINE
  5
659
330
1B
100
AcDbEntity
  8
0
  6
Continuous
 62
     7
370
    25
100
AcDbLine
 10
224.9115880602
 20
-1.1552558883
 30
0.0
 11
225.1157122054
 21
-0.6552558883
 31
0.0
  0
LINE
  5
65A
330
1B
100
AcDbEntity
  8
0
  6
Continuous
 62
     7
370
    25
100
AcDbLine
 10
225.1157122054
 20
-0.6552558883
 30
0.0
 11
224.9115880602
 21
-0.1552558883
 31
0.0
  0
LINE
  5
65B
330
1B
100
AcDbEntity
  8
0
  6
Continuous
 62
     7
370
    25
100
AcDbLine
 10
224.9115880602
 20
-0.1552558883
 30
0.0
 11
224.5033397697
 21
-0.1552558883
 31
0.0
  0
LINE
  5
65C
330
1B
100
AcDbEntity
  8
0
  6
Continuous
 62
     7
370
    25
100
AcDbLine
 10
224.5033397697
 20
-0.1552558883
 30
0.0
 11
224.2992156245
 21
-0.6552558883
 31
0.0
  0
LINE
  5
65D
330
1B
100
AcDbEntity
  8
0
  6
Continuous
 62
     7
370
    25
100
AcDbLine
 10
224.2992156245
 20
-0.6552558883
 30
0.0
 11
224.5033397697
 21
-1.1552558883
 31
0.0
  0
LINE
  5
65E
330
1B
100
AcDbEntity
  8
0
  6
Continuous
 62
     7
370
    25
100
AcDbLine
 10
224.5033397697
 20
-1.1552558883
 30
0.0
 11
224.9115880602
 21
-1.1552558883
 31
0.0
  0
LINE
  5
65F
330
1B
100
AcDbEntity
  8
0
  6
Continuous
 62
     7
370
    25
100
AcDbLine
 10
231.1341277346
 20
-1.1552558883
 30
0.0
 11
231.3382518798
 21
-0.6552558883
 31
0.0
  0
LINE
  5
660
330
1B
100
AcDbEntity
  8
0
  6
Continuous
 62
     7
370
    25
100
AcDbLine
 10
231.3382518798
 20
-0.6552558883
 30
0.0
 11
231.1341277346
 21
-0.1552558883
 31
0.0
  0
LINE
  5
661
330
1B
100
AcDbEntity
  8
0
  6
Continuous
 62
     7
370
    25
100
AcDbLine
 10
231.1341277346
 20
-0.1552558883
 30
0.0
 11
230.7258794441
 21
-0.1552558883
 31
0.0
  0
LINE
  5
662
330
1B
100
AcDbEntity
  8
0
  6
Continuous
 62
     7
370
    25
100
AcDbLine
 10
230.7258794441
 20
-0.1552558883
 30
0.0
 11
230.5217552989
 21
-0.6552558883
 31
0.0
  0
LINE
  5
663
330
1B
100
AcDbEntity
  8
0
  6
Continuous
 62
     7
370
    25
100
AcDbLine
 10
230.5217552989
 20
-0.6552558883
 30
0.0
 11
230.7258794441
 21
-1.1552558883
 31
0.0
  0
LINE
  5
664
330
1B
100
AcDbEntity
  8
0
  6
Continuous
 62
     7
370
    25
100
AcDbLine
 10
230.7258794441
 20
-1.1552558883
 30
0.0
 11
231.1341277346
 21
-1.1552558883
 31
0.0
  0
LINE
  5
665
330
1B
100
AcDbEntity
  8
0
  6
Continuous
 62
     7
370
    25
100
AcDbLine
 10
230.3563102753
 20
-3.0605117767
 30
0.0
 11
230.5604344205
 21
-2.5605117767
 31
0.0
  0
LINE
  5
666
330
1B
100
AcDbEntity
  8
0
  6
Continuous
 62
     7
370
    25
100
AcDbLine
 10
230.5604344205
 20
-2.5605117767
 30
0.0
 11
230.3563102753
 21
-2.0605117767
 31
0.0
  0
LINE
  5
667
330
1B
100
AcDbEntity
  8
0
  6
Continuous
 62
     7
370
    25
100
AcDbLine
 10
230.3563102753
 20
-2.0605117767
 30
0.0
 11
229.9480619848
 21
-2.0605117767
 31
0.0
  0
LINE
  5
668
330
1B
100
AcDbEntity
  8
0
  6
Continuous
 62
     7
370
    25
100
AcDbLine
 10
229.9480619848
 20
-2.0605117767
 30
0.0
 11
229.7439378396
 21
-2.5605117767
 31
0.0
  0
LINE
  5
669
330
1B
100
AcDbEntity
  8
0
  6
Continuous
 62
     7
370
    25
100
AcDbLine
 10
229.7439378396
 20
-2.5605117767
 30
0.0
 11
229.9480619848
 21
-3.0605117767
 31
0.0
  0
LINE
  5
66A
330
1B
100
AcDbEntity
  8
0
  6
Continuous
 62
     7
370
    25
100
AcDbLine
 10
229.9480619848
 20
-3.0605117767
 30
0.0
 11
230.3563102753
 21
-3.0605117767
 31
0.0
  0
LINE
  5
66B
330
1B
100
AcDbEntity
  8
0
  6
Continuous
 62
     7
370
    25
100
AcDbLine
 10
227.2450404381
 20
-3.0605117767
 30
0.0
 11
227.4491645833
 21
-2.5605117767
 31
0.0
  0
LINE
  5
66C
330
1B
100
AcDbEntity
  8
0
  6
Continuous
 62
     7
370
    25
100
AcDbLine
 10
227.4491645833
 20
-2.5605117767
 30
0.0
 11
227.2450404381
 21
-2.0605117767
 31
0.0
  0
LINE
  5
66D
330
1B
100
AcDbEntity
  8
0
  6
Continuous
 62
     7
370
    25
100
AcDbLine
 10
227.2450404381
 20
-2.0605117767
 30
0.0
 11
226.8367921476
 21
-2.0605117767
 31
0.0
  0
LINE
  5
66E
330
1B
100
AcDbEntity
  8
0
  6
Continuous
 62
     7
370
    25
100
AcDbLine
 10
226.8367921476
 20
-2.0605117767
 30
0.0
 11
226.6326680024
 21
-2.5605117767
 31
0.0
  0
LINE
  5
66F
330
1B
100
AcDbEntity
  8
0
  6
Continuous
 62
     7
370
    25
100
AcDbLine
 10
226.6326680024
 20
-2.5605117767
 30
0.0
 11
226.8367921476
 21
-3.0605117767
 31
0.0
  0
LINE
  5
670
330
1B
100
AcDbEntity
  8
0
  6
Continuous
 62
     7
370
    25
100
AcDbLine
 10
226.8367921476
 20
-3.0605117767
 30
0.0
 11
227.2450404381
 21
-3.0605117767
 31
0.0
  0
LINE
  5
671
330
1B
100
AcDbEntity
  8
0
  6
Continuous
 62
     7
370
    25
100
AcDbLine
 10
226.671347124
 20
-0.6552558883
 30
0.0
 11
226.4672229788
 21
-0.1552558883
 31
0.0
  0
LINE
  5
672
330
1B
100
AcDbEntity
  8
0
  6
Continuous
 62
     7
370
    25
100
AcDbLine
 10
226.4672229788
 20
-0.1552558883
 30
0.0
 11
226.0589746883
 21
-0.1552558883
 31
0.0
  0
LINE
  5
673
330
1B
100
AcDbEntity
  8
0
  6
Continuous
 62
     7
370
    25
100
AcDbLine
 10
226.0589746883
 20
-0.1552558883
 30
0.0
 11
225.8548505431
 21
-0.6552558883
 31
0.0
  0
LINE
  5
674
330
1B
100
AcDbEntity
  8
0
  6
Continuous
 62
     7
370
    25
100
AcDbLine
 10
225.8548505431
 20
-0.6552558883
 30
0.0
 11
226.0589746883
 21
-1.1552558883
 31
0.0
  0
LINE
  5
675
330
1B
100
AcDbEntity
  8
0
  6
Continuous
 62
     7
370
    25
100
AcDbLine
 10
226.0589746883
 20
-1.1552558883
 30
0.0
 11
226.4672229788
 21
-1.1552558883
 31
0.0
  0
LINE
  5
676
330
1B
100
AcDbEntity
  8
0
  6
Continuous
 62
     7
370
    25
100
AcDbLine
 10
226.4672229788
 20
-1.1552558883
 30
0.0
 11
226.671347124
 21
-0.6552558883
 31
0.0
  0
LINE
  5
677
330
1B
100
AcDbEntity
  8
0
  6
Continuous
 62
     7
370
    25
100
AcDbLine
 10
225.6894055195
 20
0.75
 30
0.0
 11
225.8935296647
 21
1.25
 31
0.0
  0
LINE
  5
678
330
1B
100
AcDbEntity
  8
0
  6
Continuous
 62
     7
370
    25
100
AcDbLine
 10
225.8935296647
 20
1.25
 30
0.0
 11
225.6894055195
 21
1.75
 31
0.0
  0
LINE
  5
679
330
1B
100
AcDbEntity
  8
0
  6
Continuous
 62
     7
370
    25
100
AcDbLine
 10
225.6894055195
 20
1.75
 30
0.0
 11
225.281157229
 21
1.75
 31
0.0
  0
LINE
  5
67A
330
1B
100
AcDbEntity
  8
0
  6
Continuous
 62
     7
370
    25
100
AcDbLine
 10
225.281157229
 20
1.75
 30
0.0
 11
225.0770330838
 21
1.25
 31
0.0
  0
LINE
  5
67B
330
1B
100
AcDbEntity
  8
0
  6
Continuous
 62
     7
370
    25
100
AcDbLine
 10
225.0770330838
 20
1.25
 30
0.0
 11
225.281157229
 21
0.75
 31
0.0
  0
LINE
  5
67C
330
1B
100
AcDbEntity
  8
0
  6
Continuous
 62
     7
370
    25
100
AcDbLine
 10
225.281157229
 20
0.75
 30
0.0
 11
225.6894055195
 21
0.75
 31
0.0
  0
LINE
  5
67D
330
1B
100
AcDbEntity
  8
0
  6
Continuous
 62
     7
370
    25
100
AcDbLine
 10
226.4672229788
 20
2.6552558883
 30
0.0
 11
226.671347124
 21
3.1552558883
 31
0.0
  0
LINE
  5
67E
330
1B
100
AcDbEntity
  8
0
  6
Continuous
 62
     7
370
    25
100
AcDbLine
 10
226.671347124
 20
3.1552558883
 30
0.0
 11
226.4672229788
 21
3.6552558883
 31
0.0
  0
LINE
  5
67F
330
1B
100
AcDbEntity
  8
0
  6
Continuous
 62
     7
370
    25
100
AcDbLine
 10
226.4672229788
 20
3.6552558883
 30
0.0
 11
226.0589746883
 21
3.6552558883
 31
0.0
  0
LINE
  5
680
330
1B
100
AcDbEntity
  8
0
  6
Continuous
 62
     7
370
    25
100
AcDbLine
 10
226.0589746883
 20
3.6552558883
 30
0.0
 11
225.8548505431
 21
3.1552558883
 31
0.0
  0
LINE
  5
681
330
1B
100
AcDbEntity
  8
0
  6
Continuous
 62
     7
370
    25
100
AcDbLine
 10
225.8548505431
 20
3.1552558883
 30
0.0
 11
226.0589746883
 21
2.6552558883
 31
0.0
  0
LINE
  5
682
330
1B
100
AcDbEntity
  8
0
  6
Continuous
 62
     7
370
    25
100
AcDbLine
 10
226.0589746883
 20
2.6552558883
 30
0.0
 11
226.4672229788
 21
2.6552558883
 31
0.0
  0
LINE
  5
683
330
1B
100
AcDbEntity
  8
0
  6
Continuous
 62
     7
370
    25
100
AcDbLine
 10
227.2450404381
 20
4.5605117767
 30
0.0
 11
227.4491645833
 21
5.0605117767
 31
0.0
  0
LINE
  5
684
330
1B
100
AcDbEntity
  8
0
  6
Continuous
 62
     7
370
    25
100
AcDbLine
 10
227.4491645833
 20
5.0605117767
 30
0.0
 11
227.2450404381
 21
5.5605117767
 31
0.0
  0
LINE
  5
685
330
1B
100
AcDbEntity
  8
0
  6
Continuous
 62
     7
370
    25
100
AcDbLine
 10
227.2450404381
 20
5.5605117767
 30
0.0
 11
226.8367921476
 21
5.5605117767
 31
0.0
  0
LINE
  5
686
330
1B
100
AcDbEntity
  8
0
  6
Continuous
 62
     7
370
    25
100
AcDbLine
 10
226.8367921476
 20
5.5605117767
 30
0.0
 11
226.6326680024
 21
5.0605117767
 31
0.0
  0
LINE
  5
687
330
1B
100
AcDbEntity
  8
0
  6
Continuous
 62
     7
370
    25
100
AcDbLine
 10
226.6326680024
 20
5.0605117767
 30
0.0
 11
226.8367921476
 21
4.5605117767
 31
0.0
  0
LINE
  5
688
330
1B
100
AcDbEntity
  8
0
  6
Continuous
 62
     7
370
    25
100
AcDbLine
 10
226.8367921476
 20
4.5605117767
 30
0.0
 11
227.2450404381
 21
4.5605117767
 31
0.0
  0
LINE
  5
689
330
1B
100
AcDbEntity
  8
0
  6
Continuous
 62
     7
370
    25
100
AcDbLine
 10
228.8006753567
 20
4.5605117767
 30
0.0
 11
229.0047995019
 21
5.0605117767
 31
0.0
  0
LINE
  5
68A
330
1B
100
AcDbEntity
  8
0
  6
Continuous
 62
     7
370
    25
100
AcDbLine
 10
229.0047995019
 20
5.0605117767
 30
0.0
 11
228.8006753567
 21
5.5605117767
 31
0.0
  0
LINE
  5
68B
330
1B
100
AcDbEntity
  8
0
  6
Continuous
 62
     7
370
    25
100
AcDbLine
 10
228.8006753567
 20
5.5605117767
 30
0.0
 11
228.3924270662
 21
5.5605117767
 31
0.0
  0
LINE
  5
68C
330
1B
100
AcDbEntity
  8
0
  6
Continuous
 62
     7
370
    25
100
AcDbLine
 10
228.3924270662
 20
5.5605117767
 30
0.0
 11
228.188302921
 21
5.0605117767
 31
0.0
  0
LINE
  5
68D
330
1B
100
AcDbEntity
  8
0
  6
Continuous
 62
     7
370
    25
100
AcDbLine
 10
228.188302921
 20
5.0605117767
 30
0.0
 11
228.3924270662
 21
4.5605117767
 31
0.0
  0
LINE
  5
68E
330
1B
100
AcDbEntity
  8
0
  6
Continuous
 62
     7
370
    25
100
AcDbLine
 10
228.3924270662
 20
4.5605117767
 30
0.0
 11
228.8006753567
 21
4.5605117767
 31
0.0
  0
LINE
  5
68F
330
1B
100
AcDbEntity
  8
0
  6
Continuous
 62
     7
370
    25
100
AcDbLine
 10
230.3563102753
 20
4.5605117767
 30
0.0
 11
230.5604344205
 21
5.0605117767
 31
0.0
  0
LINE
  5
690
330
1B
100
AcDbEntity
  8
0
  6
Continuous
 62
     7
370
    25
100
AcDbLine
 10
230.5604344205
 20
5.0605117767
 30
0.0
 11
230.3563102753
 21
5.5605117767
 31
0.0
  0
LINE
  5
691
330
1B
100
AcDbEntity
  8
0
  6
Continuous
 62
     7
370
    25
100
AcDbLine
 10
230.3563102753
 20
5.5605117767
 30
0.0
 11
229.9480619848
 21
5.5605117767
 31
0.0
  0
LINE
  5
692
330
1B
100
AcDbEntity
  8
0
  6
Continuous
 62
     7
370
    25
100
AcDbLine
 10
229.9480619848
 20
5.5605117767
 30
0.0
 11
229.7439378396
 21
5.0605117767
 31
0.0
  0
LINE
  5
693
330
1B
100
AcDbEntity
  8
0
  6
Continuous
 62
     7
370
    25
100
AcDbLine
 10
229.7439378396
 20
5.0605117767
 30
0.0
 11
229.9480619848
 21
4.5605117767
 31
0.0
  0
LINE
  5
694
330
1B
100
AcDbEntity
  8
0
  6
Continuous
 62
     7
370
    25
100
AcDbLine
 10
229.9480619848
 20
4.5605117767
 30
0.0
 11
230.3563102753
 21
4.5605117767
 31
0.0
  0
LINE
  5
695
330
1B
100
AcDbEntity
  8
0
  6
Continuous
 62
     7
370
    25
100
AcDbLine
 10
231.1341277346
 20
2.6552558883
 30
0.0
 11
231.3382518798
 21
3.1552558883
 31
0.0
  0
LINE
  5
696
330
1B
100
AcDbEntity
  8
0
  6
Continuous
 62
     7
370
    25
100
AcDbLine
 10
231.3382518798
 20
3.1552558883
 30
0.0
 11
231.1341277346
 21
3.6552558883
 31
0.0
  0
LINE
  5
697
330
1B
100
AcDbEntity
  8
0
  6
Continuous
 62
     7
370
    25
100
AcDbLine
 10
231.1341277346
 20
3.6552558883
 30
0.0
 11
230.7258794441
 21
3.6552558883
 31
0.0
  0
LINE
  5
698
330
1B
100
AcDbEntity
  8
0
  6
Continuous
 62
     7
370
    25
100
AcDbLine
 10
230.7258794441
 20
3.6552558883
 30
0.0
 11
230.5217552989
 21
3.1552558883
 31
0.0
  0
LINE
  5
699
330
1B
100
AcDbEntity
  8
0
  6
Continuous
 62
     7
370
    25
100
AcDbLine
 10
230.5217552989
 20
3.1552558883
 30
0.0
 11
230.7258794441
 21
2.6552558883
 31
0.0
  0
LINE
  5
69A
330
1B
100
AcDbEntity
  8
0
  6
Continuous
 62
     7
370
    25
100
AcDbLine
 10
230.7258794441
 20
2.6552558883
 30
0.0
 11
231.1341277346
 21
2.6552558883
 31
0.0
  0
LINE
  5
69B
330
1B
100
AcDbEntity
  8
0
  6
Continuous
 62
     7
370
    25
100
AcDbLine
 10
231.9119451939
 20
0.75
 30
0.0
 11
232.1160693391
 21
1.25
 31
0.0
  0
LINE
  5
69C
330
1B
100
AcDbEntity
  8
0
  6
Continuous
 62
     7
370
    25
100
AcDbLine
 10
232.1160693391
 20
1.25
 30
0.0
 11
231.9119451939
 21
1.75
 31
0.0
  0
LINE
  5
69D
330
1B
100
AcDbEntity
  8
0
  6
Continuous
 62
     7
370
    25
100
AcDbLine
 10
231.9119451939
 20
1.75
 30
0.0
 11
231.5036969034
 21
1.75
 31
0.0
  0
LINE
  5
69E
330
1B
100
AcDbEntity
  8
0
  6
Continuous
 62
     7
370
    25
100
AcDbLine
 10
231.5036969034
 20
1.75
 30
0.0
 11
231.2995727582
 21
1.25
 31
0.0
  0
LINE
  5
69F
330
1B
100
AcDbEntity
  8
0
  6
Continuous
 62
     7
370
    25
100
AcDbLine
 10
231.2995727582
 20
1.25
 30
0.0
 11
231.5036969034
 21
0.75
 31
0.0
  0
LINE
  5
6A0
330
1B
100
AcDbEntity
  8
0
  6
Continuous
 62
     7
370
    25
100
AcDbLine
 10
231.5036969034
 20
0.75
 30
0.0
 11
231.9119451939
 21
0.75
 31
0.0
  0
LINE
  5
6A1
330
1B
100
AcDbEntity
  8
0
  6
Continuous
 62
     7
370
    25
100
AcDbLine
 10
229.578492816
 20
-1.1552558883
 30
0.0
 11
229.7826169612
 21
-0.6552558883
 31
0.0
  0
LINE
  5
6A2
330
1B
100
AcDbEntity
  8
0
  6
Continuous
 62
     7
370
    25
100
AcDbLine
 10
229.7826169612
 20
-0.6552558883
 30
0.0
 11
229.578492816
 21
-0.1552558883
 31
0.0
  0
LINE
  5
6A3
330
1B
100
AcDbEntity
  8
0
  6
Continuous
 62
     7
370
    25
100
AcDbLine
 10
229.578492816
 20
-0.1552558883
 30
0.0
 11
229.1702445255
 21
-0.1552558883
 31
0.0
  0
LINE
  5
6A4
330
1B
100
AcDbEntity
  8
0
  6
Continuous
 62
     7
370
    25
100
AcDbLine
 10
229.1702445255
 20
-0.1552558883
 30
0.0
 11
228.9661203803
 21
-0.6552558883
 31
0.0
  0
LINE
  5
6A5
330
1B
100
AcDbEntity
  8
0
  6
Continuous
 62
     7
370
    25
100
AcDbLine
 10
228.9661203803
 20
-0.6552558883
 30
0.0
 11
229.1702445255
 21
-1.1552558883
 31
0.0
  0
LINE
  5
6A6
330
1B
100
AcDbEntity
  8
0
  6
Continuous
 62
     7
370
    25
100
AcDbLine
 10
229.1702445255
 20
-1.1552558883
 30
0.0
 11
229.578492816
 21
-1.1552558883
 31
0.0
  0
LINE
  5
6A7
330
1B
100
AcDbEntity
  8
0
  6
Continuous
 62
     7
370
    25
100
AcDbLine
 10
228.0228578974
 20
-1.1552558883
 30
0.0
 11
228.2269820426
 21
-0.6552558883
 31
0.0
  0
LINE
  5
6A8
330
1B
100
AcDbEntity
  8
0
  6
Continuous
 62
     7
370
    25
100
AcDbLine
 10
228.2269820426
 20
-0.6552558883
 30
0.0
 11
228.0228578974
 21
-0.1552558883
 31
0.0
  0
LINE
  5
6A9
330
1B
100
AcDbEntity
  8
0
  6
Continuous
 62
     7
370
    25
100
AcDbLine
 10
228.0228578974
 20
-0.1552558883
 30
0.0
 11
227.6146096069
 21
-0.1552558883
 31
0.0
  0
LINE
  5
6AA
330
1B
100
AcDbEntity
  8
0
  6
Continuous
 62
     7
370
    25
100
AcDbLine
 10
227.6146096069
 20
-0.1552558883
 30
0.0
 11
227.4104854617
 21
-0.6552558883
 31
0.0
  0
LINE
  5
6AB
330
1B
100
AcDbEntity
  8
0
  6
Continuous
 62
     7
370
    25
100
AcDbLine
 10
227.4104854617
 20
-0.6552558883
 30
0.0
 11
227.6146096069
 21
-1.1552558883
 31
0.0
  0
LINE
  5
6AC
330
1B
100
AcDbEntity
  8
0
  6
Continuous
 62
     7
370
    25
100
AcDbLine
 10
227.6146096069
 20
-1.1552558883
 30
0.0
 11
228.0228578974
 21
-1.1552558883
 31
0.0
  0
LINE
  5
6AD
330
1B
100
AcDbEntity
  8
0
  6
Continuous
 62
     7
370
    25
100
AcDbLine
 10
228.2269820426
 20
3.1552558883
 30
0.0
 11
228.0228578974
 21
3.6552558883
 31
0.0
  0
LINE
  5
6AE
330
1B
100
AcDbEntity
  8
0
  6
Continuous
 62
     7
370
    25
100
AcDbLine
 10
228.0228578974
 20
3.6552558883
 30
0.0
 11
227.6146096069
 21
3.6552558883
 31
0.0
  0
LINE
  5
6AF
330
1B
100
AcDbEntity
  8
0
  6
Continuous
 62
     7
370
    25
100
AcDbLine
 10
227.6146096069
 20
3.6552558883
 30
0.0
 11
227.4104854617
 21
3.1552558883
 31
0.0
  0
LINE
  5
6B0
330
1B
100
AcDbEntity
  8
0
  6
Continuous
 62
     7
370
    25
100
AcDbLine
 10
227.4104854617
 20
3.1552558883
 30
0.0
 11
227.6146096069
 21
2.6552558883
 31
0.0
  0
LINE
  5
6B1
330
1B
100
AcDbEntity
  8
0
  6
Continuous
 62
     7
370
    25
100
AcDbLine
 10
227.6146096069
 20
2.6552558883
 30
0.0
 11
228.0228578974
 21
2.6552558883
 31
0.0
  0
LINE
  5
6B2
330
1B
100
AcDbEntity
  8
0
  6
Continuous
 62
     7
370
    25
100
AcDbLine
 10
228.0228578974
 20
2.6552558883
 30
0.0
 11
228.2269820426
 21
3.1552558883
 31
0.0
  0
LINE
  5
6B3
330
1B
100
AcDbEntity
  8
0
  6
Continuous
 62
     7
370
    25
100
AcDbLine
 10
229.578492816
 20
2.6552558883
 30
0.0
 11
229.7826169612
 21
3.1552558883
 31
0.0
  0
LINE
  5
6B4
330
1B
100
AcDbEntity
  8
0
  6
Continuous
 62
     7
370
    25
100
AcDbLine
 10
229.7826169612
 20
3.1552558883
 30
0.0
 11
229.578492816
 21
3.6552558883
 31
0.0
  0
LINE
  5
6B5
330
1B
100
AcDbEntity
  8
0
  6
Continuous
 62
     7
370
    25
100
AcDbLine
 10
229.578492816
 20
3.6552558883
 30
0.0
 11
229.1702445255
 21
3.6552558883
 31
0.0
  0
LINE
  5
6B6
330
1B
100
AcDbEntity
  8
0
  6
Continuous
 62
     7
370
    25
100
AcDbLine
 10
229.1702445255
 20
3.6552558883
 30
0.0
 11
228.9661203803
 21
3.1552558883
 31
0.0
  0
LINE
  5
6B7
330
1B
100
AcDbEntity
  8
0
  6
Continuous
 62
     7
370
    25
100
AcDbLine
 10
228.9661203803
 20
3.1552558883
 30
0.0
 11
229.1702445255
 21
2.6552558883
 31
0.0
  0
LINE
  5
6B8
330
1B
100
AcDbEntity
  8
0
  6
Continuous
 62
     7
370
    25
100
AcDbLine
 10
229.1702445255
 20
2.6552558883
 30
0.0
 11
229.578492816
 21
2.6552558883
 31
0.0
  0
LINE
  5
6B9
330
1B
100
AcDbEntity
  8
0
  6
Continuous
 62
     7
370
    25
100
AcDbLine
 10
228.8006753567
 20
0.75
 30
0.0
 11
229.0047995019
 21
1.25
 31
0.0
  0
LINE
  5
6BA
330
1B
100
AcDbEntity
  8
0
  6
Continuous
 62
     7
370
    25
100
AcDbLine
 10
229.0047995019
 20
1.25
 30
0.0
 11
228.8006753567
 21
1.75
 31
0.0
  0
LINE
  5
6BB
330
1B
100
AcDbEntity
  8
0
  6
Continuous
 62
     7
370
    25
100
AcDbLine
 10
228.8006753567
 20
1.75
 30
0.0
 11
228.3924270662
 21
1.75
 31
0.0
  0
LINE
  5
6BC
330
1B
100
AcDbEntity
  8
0
  6
Continuous
 62
     7
370
    25
100
AcDbLine
 10
228.3924270662
 20
1.75
 30
0.0
 11
228.188302921
 21
1.25
 31
0.0
  0
LINE
  5
6BD
330
1B
100
AcDbEntity
  8
0
  6
Continuous
 62
     7
370
    25
100
AcDbLine
 10
228.188302921
 20
1.25
 30
0.0
 11
228.3924270662
 21
0.75
 31
0.0
  0
LINE
  5
6BE
330
1B
100
AcDbEntity
  8
0
  6
Continuous
 62
     7
370
    25
100
AcDbLine
 10
228.3924270662
 20
0.75
 30
0.0
 11
228.8006753567
 21
0.75
 31
0.0
  0
LINE
  5
6BF
330
1B
100
AcDbEntity
  8
0
  6
Continuous
 62
     7
370
    25
100
AcDbLine
 10
232.6897626532
 20
-1.4052558883
 30
0.0
 11
232.2815143628
 21
-1.4052558883
 31
0.0
  0
LINE
  5
6C0
330
1B
100
AcDbEntity
  8
0
  6
Continuous
 62
     7
370
    25
100
AcDbLine
 10
232.2815143628
 20
-1.4052558883
 30
0.0
 11
232.0773902175
 21
-1.9052558883
 31
0.0
  0
LINE
  5
6C1
330
1B
100
AcDbEntity
  8
0
  6
Continuous
 62
     7
370
    25
100
AcDbLine
 10
232.0773902175
 20
-1.9052558883
 30
0.0
 11
232.2815143628
 21
-2.4052558883
 31
0.0
  0
LINE
  5
6C2
330
1B
100
AcDbEntity
  8
0
  6
Continuous
 62
     7
370
    25
100
AcDbLine
 10
231.9119451939
 20
-3.3105117767
 30
0.0
 11
231.5036969034
 21
-3.3105117767
 31
0.0
  0
LINE
  5
6C3
330
1B
100
AcDbEntity
  8
0
  6
Continuous
 62
     7
370
    25
100
AcDbLine
 10
231.5036969034
 20
-3.3105117767
 30
0.0
 11
231.2995727582
 21
-3.8105117767
 31
0.0
  0
LINE
  5
6C4
330
1B
100
AcDbEntity
  8
0
  6
Continuous
 62
     7
370
    25
100
AcDbLine
 10
231.2995727582
 20
-3.8105117767
 30
0.0
 11
231.5036969034
 21
-4.3105117767
 31
0.0
  0
LINE
  5
6C5
330
1B
100
AcDbEntity
  8
0
  6
Continuous
 62
     7
370
    25
100
AcDbLine
 10
229.578492816
 20
-6.215767665
 30
0.0
 11
229.7826169612
 21
-5.715767665
 31
0.0
  0
LINE
  5
6C6
330
1B
100
AcDbEntity
  8
0
  6
Continuous
 62
     7
370
    25
100
AcDbLine
 10
229.7826169612
 20
-5.715767665
 30
0.0
 11
229.578492816
 21
-5.215767665
 31
0.0
  0
LINE
  5
6C7
330
1B
100
AcDbEntity
  8
0
  6
Continuous
 62
     7
370
    25
100
AcDbLine
 10
229.578492816
 20
-5.215767665
 30
0.0
 11
229.1702445255
 21
-5.215767665
 31
0.0
  0
LINE
  5
6C8
330
1B
100
AcDbEntity
  8
0
  6
Continuous
 62
     7
370
    25
100
AcDbLine
 10
229.1702445255
 20
-5.215767665
 30
0.0
 11
228.9661203803
 21
-5.715767665
 31
0.0
  0
LINE
  5
6C9
330
1B
100
AcDbEntity
  8
0
  6
Continuous
 62
     7
370
    25
100
AcDbLine
 10
228.9661203803
 20
-5.715767665
 30
0.0
 11
229.1702445255
 21
-6.215767665
 31
0.0
  0
LINE
  5
6CA
330
1B
100
AcDbEntity
  8
0
  6
Continuous
 62
     7
370
    25
100
AcDbLine
 10
228.0228578974
 20
-6.215767665
 30
0.0
 11
228.2269820426
 21
-5.715767665
 31
0.0
  0
LINE
  5
6CB
330
1B
100
AcDbEntity
  8
0
  6
Continuous
 62
     7
370
    25
100
AcDbLine
 10
228.2269820426
 20
-5.715767665
 30
0.0
 11
228.0228578974
 21
-5.215767665
 31
0.0
  0
LINE
  5
6CC
330
1B
100
AcDbEntity
  8
0
  6
Continuous
 62
     7
370
    25
100
AcDbLine
 10
228.0228578974
 20
-5.215767665
 30
0.0
 11
227.6146096069
 21
-5.215767665
 31
0.0
  0
LINE
  5
6CD
330
1B
100
AcDbEntity
  8
0
  6
Continuous
 62
     7
370
    25
100
AcDbLine
 10
227.6146096069
 20
-5.215767665
 30
0.0
 11
227.4104854617
 21
-5.715767665
 31
0.0
  0
LINE
  5
6CE
330
1B
100
AcDbEntity
  8
0
  6
Continuous
 62
     7
370
    25
100
AcDbLine
 10
227.4104854617
 20
-5.715767665
 30
0.0
 11
227.6146096069
 21
-6.215767665
 31
0.0
  0
LINE
  5
6CF
330
1B
100
AcDbEntity
  8
0
  6
Continuous
 62
     7
370
    25
100
AcDbLine
 10
227.6146096069
 20
-6.215767665
 30
0.0
 11
228.0228578974
 21
-6.215767665
 31
0.0
  0
LINE
  5
6D0
330
1B
100
AcDbEntity
  8
0
  6
Continuous
 62
     7
370
    25
100
AcDbLine
 10
225.6894055195
 20
-4.3105117767
 30
0.0
 11
225.8935296647
 21
-3.8105117767
 31
0.0
  0
LINE
  5
6D1
330
1B
100
AcDbEntity
  8
0
  6
Continuous
 62
     7
370
    25
100
AcDbLine
 10
225.8935296647
 20
-3.8105117767
 30
0.0
 11
225.6894055195
 21
-3.3105117767
 31
0.0
  0
LINE
  5
6D2
330
1B
100
AcDbEntity
  8
0
  6
Continuous
 62
     7
370
    25
100
AcDbLine
 10
225.6894055195
 20
-3.3105117767
 30
0.0
 11
225.281157229
 21
-3.3105117767
 31
0.0
  0
LINE
  5
6D3
330
1B
100
AcDbEntity
  8
0
  6
Continuous
 62
     7
370
    25
100
AcDbLine
 10
225.281157229
 20
-3.3105117767
 30
0.0
 11
225.0770330838
 21
-3.8105117767
 31
0.0
  0
LINE
  5
6D4
330
1B
100
AcDbEntity
  8
0
  6
Continuous
 62
     7
370
    25
100
AcDbLine
 10
225.0770330838
 20
-3.8105117767
 30
0.0
 11
225.281157229
 21
-4.3105117767
 31
0.0
  0
LINE
  5
6D5
330
1B
100
AcDbEntity
  8
0
  6
Continuous
 62
     7
370
    25
100
AcDbLine
 10
225.281157229
 20
-4.3105117767
 30
0.0
 11
225.6894055195
 21
-4.3105117767
 31
0.0
  0
LINE
  5
6D6
330
1B
100
AcDbEntity
  8
0
  6
Continuous
 62
     7
370
    25
100
AcDbLine
 10
224.9115880602
 20
-2.4052558883
 30
0.0
 11
225.1157122054
 21
-1.9052558883
 31
0.0
  0
LINE
  5
6D7
330
1B
100
AcDbEntity
  8
0
  6
Continuous
 62
     7
370
    25
100
AcDbLine
 10
225.1157122054
 20
-1.9052558883
 30
0.0
 11
224.9115880602
 21
-1.4052558883
 31
0.0
  0
LINE
  5
6D8
330
1B
100
AcDbEntity
  8
0
  6
Continuous
 62
     7
370
    25
100
AcDbLine
 10
224.9115880602
 20
-1.4052558883
 30
0.0
 11
224.5033397697
 21
-1.4052558883
 31
0.0
  0
LINE
  5
6D9
330
1B
100
AcDbEntity
  8
0
  6
Continuous
 62
     7
370
    25
100
AcDbLine
 10
224.5033397697
 20
-1.4052558883
 30
0.0
 11
224.2992156245
 21
-1.9052558883
 31
0.0
  0
LINE
  5
6DA
330
1B
100
AcDbEntity
  8
0
  6
Continuous
 62
     7
370
    25
100
AcDbLine
 10
224.2992156245
 20
-1.9052558883
 30
0.0
 11
224.5033397697
 21
-2.4052558883
 31
0.0
  0
LINE
  5
6DB
330
1B
100
AcDbEntity
  8
0
  6
Continuous
 62
     7
370
    25
100
AcDbLine
 10
224.5033397697
 20
-2.4052558883
 30
0.0
 11
224.9115880602
 21
-2.4052558883
 31
0.0
  0
LINE
  5
6DC
330
1B
100
AcDbEntity
  8
0
  6
Continuous
 62
     7
370
    25
100
AcDbLine
 10
224.9115880602
 20
1.4052558883
 30
0.0
 11
225.1157122054
 21
1.9052558883
 31
0.0
  0
LINE
  5
6DD
330
1B
100
AcDbEntity
  8
0
  6
Continuous
 62
     7
370
    25
100
AcDbLine
 10
225.1157122054
 20
1.9052558883
 30
0.0
 11
224.9115880602
 21
2.4052558883
 31
0.0
  0
LINE
  5
6DE
330
1B
100
AcDbEntity
  8
0
  6
Continuous
 62
     7
370
    25
100
AcDbLine
 10
224.9115880602
 20
2.4052558883
 30
0.0
 11
224.5033397697
 21
2.4052558883
 31
0.0
  0
LINE
  5
6DF
330
1B
100
AcDbEntity
  8
0
  6
Continuous
 62
     7
370
    25
100
AcDbLine
 10
224.5033397697
 20
2.4052558883
 30
0.0
 11
224.2992156245
 21
1.9052558883
 31
0.0
  0
LINE
  5
6E0
330
1B
100
AcDbEntity
  8
0
  6
Continuous
 62
     7
370
    25
100
AcDbLine
 10
224.2992156245
 20
1.9052558883
 30
0.0
 11
224.5033397697
 21
1.4052558883
 31
0.0
  0
LINE
  5
6E1
330
1B
100
AcDbEntity
  8
0
  6
Continuous
 62
     7
370
    25
100
AcDbLine
 10
224.9115880602
 20
1.4052558883
 30
0.0
 11
224.5033397697
 21
1.4052558883
 31
0.0
  0
LINE
  5
6E2
330
1B
100
AcDbEntity
  8
0
  6
Continuous
 62
     7
370
    25
100
AcDbLine
 10
225.6894055195
 20
3.3105117767
 30
0.0
 11
225.8935296647
 21
3.8105117767
 31
0.0
  0
LINE
  5
6E3
330
1B
100
AcDbEntity
  8
0
  6
Continuous
 62
     7
370
    25
100
AcDbLine
 10
225.8935296647
 20
3.8105117767
 30
0.0
 11
225.6894055195
 21
4.3105117767
 31
0.0
  0
LINE
  5
6E4
330
1B
100
AcDbEntity
  8
0
  6
Continuous
 62
     7
370
    25
100
AcDbLine
 10
225.6894055195
 20
4.3105117767
 30
0.0
 11
225.281157229
 21
4.3105117767
 31
0.0
  0
LINE
  5
6E5
330
1B
100
AcDbEntity
  8
0
  6
Continuous
 62
     7
370
    25
100
AcDbLine
 10
225.281157229
 20
4.3105117767
 30
0.0
 11
225.0770330838
 21
3.8105117767
 31
0.0
  0
LINE
  5
6E6
330
1B
100
AcDbEntity
  8
0
  6
Continuous
 62
     7
370
    25
100
AcDbLine
 10
225.0770330838
 20
3.8105117767
 30
0.0
 11
225.281157229
 21
3.3105117767
 31
0.0
  0
LINE
  5
6E7
330
1B
100
AcDbEntity
  8
0
  6
Continuous
 62
     7
370
    25
100
AcDbLine
 10
225.281157229
 20
3.3105117767
 30
0.0
 11
225.6894055195
 21
3.3105117767
 31
0.0
  0
LINE
  5
6E8
330
1B
100
AcDbEntity
  8
0
  6
Continuous
 62
     7
370
    25
100
AcDbLine
 10
228.0228578974
 20
5.215767665
 30
0.0
 11
228.2269820426
 21
5.715767665
 31
0.0
  0
LINE
  5
6E9
330
1B
100
AcDbEntity
  8
0
  6
Continuous
 62
     7
370
    25
100
AcDbLine
 10
228.2269820426
 20
5.715767665
 30
0.0
 11
228.0228578974
 21
6.215767665
 31
0.0
  0
LINE
  5
6EA
330
1B
100
AcDbEntity
  8
0
  6
Continuous
 62
     7
370
    25
100
AcDbLine
 10
228.0228578974
 20
6.215767665
 30
0.0
 11
227.6146096069
 21
6.215767665
 31
0.0
  0
LINE
  5
6EB
330
1B
100
AcDbEntity
  8
0
  6
Continuous
 62
     7
370
    25
100
AcDbLine
 10
227.6146096069
 20
6.215767665
 30
0.0
 11
227.4104854617
 21
5.715767665
 31
0.0
  0
LINE
  5
6EC
330
1B
100
AcDbEntity
  8
0
  6
Continuous
 62
     7
370
    25
100
AcDbLine
 10
227.4104854617
 20
5.715767665
 30
0.0
 11
227.6146096069
 21
5.215767665
 31
0.0
  0
LINE
  5
6ED
330
1B
100
AcDbEntity
  8
0
  6
Continuous
 62
     7
370
    25
100
AcDbLine
 10
227.6146096069
 20
5.215767665
 30
0.0
 11
228.0228578974
 21
5.215767665
 31
0.0
  0
LINE
  5
6EE
330
1B
100
AcDbEntity
  8
0
  6
Continuous
 62
     7
370
    25
100
AcDbLine
 10
229.578492816
 20
5.215767665
 30
0.0
 11
229.7826169612
 21
5.715767665
 31
0.0
  0
LINE
  5
6EF
330
1B
100
AcDbEntity
  8
0
  6
Continuous
 62
     7
370
    25
100
AcDbLine
 10
229.7826169612
 20
5.715767665
 30
0.0
 11
229.578492816
 21
6.215767665
 31
0.0
  0
LINE
  5
6F0
330
1B
100
AcDbEntity
  8
0
  6
Continuous
 62
     7
370
    25
100
AcDbLine
 10
229.1702445255
 20
6.215767665
 30
0.0
 11
228.9661203803
 21
5.715767665
 31
0.0
  0
LINE
  5
6F1
330
1B
100
AcDbEntity
  8
0
  6
Continuous
 62
     7
370
    25
100
AcDbLine
 10
228.9661203803
 20
5.715767665
 30
0.0
 11
229.1702445255
 21
5.215767665
 31
0.0
  0
LINE
  5
6F2
330
1B
100
AcDbEntity
  8
0
  6
Continuous
 62
     7
370
    25
100
AcDbLine
 10
229.1702445255
 20
5.215767665
 30
0.0
 11
229.578492816
 21
5.215767665
 31
0.0
  0
LINE
  5
6F3
330
1B
100
AcDbEntity
  8
0
  6
Continuous
 62
     7
370
    25
100
AcDbLine
 10
231.5036969034
 20
4.3105117767
 30
0.0
 11
231.2995727582
 21
3.8105117767
 31
0.0
  0
LINE
  5
6F4
330
1B
100
AcDbEntity
  8
0
  6
Continuous
 62
     7
370
    25
100
AcDbLine
 10
231.2995727582
 20
3.8105117767
 30
0.0
 11
231.5036969034
 21
3.3105117767
 31
0.0
  0
LINE
  5
6F5
330
1B
100
AcDbEntity
  8
0
  6
Continuous
 62
     7
370
    25
100
AcDbLine
 10
231.5036969034
 20
3.3105117767
 30
0.0
 11
231.9119451939
 21
3.3105117767
 31
0.0
  0
LINE
  5
6F6
330
1B
100
AcDbEntity
  8
0
  6
Continuous
 62
     7
370
    25
100
AcDbLine
 10
232.5889582505
 20
2.4052558883
 30
0.0
 11
232.2815143628
 21
2.4052558883
 31
0.0
  0
LINE
  5
6F7
330
1B
100
AcDbEntity
  8
0
  6
Continuous
 62
     7
370
    25
100
AcDbLine
 10
232.2815143628
 20
2.4052558883
 30
0.0
 11
232.0773902175
 21
1.9052558883
 31
0.0
  0
LINE
  5
6F8
330
1B
100
AcDbEntity
  8
0
  6
Continuous
 62
     7
370
    25
100
AcDbLine
 10
232.0773902175
 20
1.9052558883
 30
0.0
 11
232.2815143628
 21
1.4052558883
 31
0.0
  0
LINE
  5
6F9
330
1B
100
AcDbEntity
  8
0
  6
Continuous
 62
     7
370
    25
100
AcDbLine
 10
232.2815143628
 20
1.4052558883
 30
0.0
 11
232.6897626532
 21
1.4052558883
 31
0.0
  0
LINE
  5
6FA
330
1B
100
AcDbEntity
  8
0
  6
Continuous
 62
     7
370
    25
100
AcDbLine
 10
231.1341277346
 20
-2.4052558883
 30
0.0
 11
231.3382518798
 21
-1.9052558883
 31
0.0
  0
LINE
  5
6FB
330
1B
100
AcDbEntity
  8
0
  6
Continuous
 62
     7
370
    25
100
AcDbLine
 10
231.3382518798
 20
-1.9052558883
 30
0.0
 11
231.1341277346
 21
-1.4052558883
 31
0.0
  0
LINE
  5
6FC
330
1B
100
AcDbEntity
  8
0
  6
Continuous
 62
     7
370
    25
100
AcDbLine
 10
231.1341277346
 20
-1.4052558883
 30
0.0
 11
230.7258794441
 21
-1.4052558883
 31
0.0
  0
LINE
  5
6FD
330
1B
100
AcDbEntity
  8
0
  6
Continuous
 62
     7
370
    25
100
AcDbLine
 10
230.7258794441
 20
-1.4052558883
 30
0.0
 11
230.5217552989
 21
-1.9052558883
 31
0.0
  0
LINE
  5
6FE
330
1B
100
AcDbEntity
  8
0
  6
Continuous
 62
     7
370
    25
100
AcDbLine
 10
230.5217552989
 20
-1.9052558883
 30
0.0
 11
230.7258794441
 21
-2.4052558883
 31
0.0
  0
LINE
  5
6FF
330
1B
100
AcDbEntity
  8
0
  6
Continuous
 62
     7
370
    25
100
AcDbLine
 10
230.7258794441
 20
-2.4052558883
 30
0.0
 11
231.1341277346
 21
-2.4052558883
 31
0.0
  0
LINE
  5
700
330
1B
100
AcDbEntity
  8
0
  6
Continuous
 62
     7
370
    25
100
AcDbLine
 10
230.3563102753
 20
-4.3105117767
 30
0.0
 11
230.5604344205
 21
-3.8105117767
 31
0.0
  0
LINE
  5
701
330
1B
100
AcDbEntity
  8
0
  6
Continuous
 62
     7
370
    25
100
AcDbLine
 10
230.5604344205
 20
-3.8105117767
 30
0.0
 11
230.3563102753
 21
-3.3105117767
 31
0.0
  0
LINE
  5
702
330
1B
100
AcDbEntity
  8
0
  6
Continuous
 62
     7
370
    25
100
AcDbLine
 10
230.3563102753
 20
-3.3105117767
 30
0.0
 11
229.9480619848
 21
-3.3105117767
 31
0.0
  0
LINE
  5
703
330
1B
100
AcDbEntity
  8
0
  6
Continuous
 62
     7
370
    25
100
AcDbLine
 10
229.9480619848
 20
-3.3105117767
 30
0.0
 11
229.7439378396
 21
-3.8105117767
 31
0.0
  0
LINE
  5
704
330
1B
100
AcDbEntity
  8
0
  6
Continuous
 62
     7
370
    25
100
AcDbLine
 10
229.7439378396
 20
-3.8105117767
 30
0.0
 11
229.9480619848
 21
-4.3105117767
 31
0.0
  0
LINE
  5
705
330
1B
100
AcDbEntity
  8
0
  6
Continuous
 62
     7
370
    25
100
AcDbLine
 10
229.9480619848
 20
-4.3105117767
 30
0.0
 11
230.3563102753
 21
-4.3105117767
 31
0.0
  0
LINE
  5
706
330
1B
100
AcDbEntity
  8
0
  6
Continuous
 62
     7
370
    25
100
AcDbLine
 10
228.8006753567
 20
-4.3105117767
 30
0.0
 11
229.0047995019
 21
-3.8105117767
 31
0.0
  0
LINE
  5
707
330
1B
100
AcDbEntity
  8
0
  6
Continuous
 62
     7
370
    25
100
AcDbLine
 10
229.0047995019
 20
-3.8105117767
 30
0.0
 11
228.8006753567
 21
-3.3105117767
 31
0.0
  0
LINE
  5
708
330
1B
100
AcDbEntity
  8
0
  6
Continuous
 62
     7
370
    25
100
AcDbLine
 10
228.8006753567
 20
-3.3105117767
 30
0.0
 11
228.3924270662
 21
-3.3105117767
 31
0.0
  0
LINE
  5
709
330
1B
100
AcDbEntity
  8
0
  6
Continuous
 62
     7
370
    25
100
AcDbLine
 10
228.3924270662
 20
-3.3105117767
 30
0.0
 11
228.188302921
 21
-3.8105117767
 31
0.0
  0
LINE
  5
70A
330
1B
100
AcDbEntity
  8
0
  6
Continuous
 62
     7
370
    25
100
AcDbLine
 10
228.188302921
 20
-3.8105117767
 30
0.0
 11
228.3924270662
 21
-4.3105117767
 31
0.0
  0
LINE
  5
70B
330
1B
100
AcDbEntity
  8
0
  6
Continuous
 62
     7
370
    25
100
AcDbLine
 10
228.3924270662
 20
-4.3105117767
 30
0.0
 11
228.8006753567
 21
-4.3105117767
 31
0.0
  0
LINE
  5
70C
330
1B
100
AcDbEntity
  8
0
  6
Continuous
 62
     7
370
    25
100
AcDbLine
 10
227.2450404381
 20
-4.3105117767
 30
0.0
 11
227.4491645833
 21
-3.8105117767
 31
0.0
  0
LINE
  5
70D
330
1B
100
AcDbEntity
  8
0
  6
Continuous
 62
     7
370
    25
100
AcDbLine
 10
227.4491645833
 20
-3.8105117767
 30
0.0
 11
227.2450404381
 21
-3.3105117767
 31
0.0
  0
LINE
  5
70E
330
1B
100
AcDbEntity
  8
0
  6
Continuous
 62
     7
370
    25
100
AcDbLine
 10
227.2450404381
 20
-3.3105117767
 30
0.0
 11
226.8367921476
 21
-3.3105117767
 31
0.0
  0
LINE
  5
70F
330
1B
100
AcDbEntity
  8
0
  6
Continuous
 62
     7
370
    25
100
AcDbLine
 10
226.8367921476
 20
-3.3105117767
 30
0.0
 11
226.6326680024
 21
-3.8105117767
 31
0.0
  0
LINE
  5
710
330
1B
100
AcDbEntity
  8
0
  6
Continuous
 62
     7
370
    25
100
AcDbLine
 10
226.6326680024
 20
-3.8105117767
 30
0.0
 11
226.8367921476
 21
-4.3105117767
 31
0.0
  0
LINE
  5
711
330
1B
100
AcDbEntity
  8
0
  6
Continuous
 62
     7
370
    25
100
AcDbLine
 10
226.8367921476
 20
-4.3105117767
 30
0.0
 11
227.2450404381
 21
-4.3105117767
 31
0.0
  0
LINE
  5
712
330
1B
100
AcDbEntity
  8
0
  6
Continuous
 62
     7
370
    25
100
AcDbLine
 10
226.4672229788
 20
-2.4052558883
 30
0.0
 11
226.671347124
 21
-1.9052558883
 31
0.0
  0
LINE
  5
713
330
1B
100
AcDbEntity
  8
0
  6
Continuous
 62
     7
370
    25
100
AcDbLine
 10
226.671347124
 20
-1.9052558883
 30
0.0
 11
226.4672229788
 21
-1.4052558883
 31
0.0
  0
LINE
  5
714
330
1B
100
AcDbEntity
  8
0
  6
Continuous
 62
     7
370
    25
100
AcDbLine
 10
226.4672229788
 20
-1.4052558883
 30
0.0
 11
226.0589746883
 21
-1.4052558883
 31
0.0
  0
LINE
  5
715
330
1B
100
AcDbEntity
  8
0
  6
Continuous
 62
     7
370
    25
100
AcDbLine
 10
226.0589746883
 20
-1.4052558883
 30
0.0
 11
225.8548505431
 21
-1.9052558883
 31
0.0
  0
LINE
  5
716
330
1B
100
AcDbEntity
  8
0
  6
Continuous
 62
     7
370
    25
100
AcDbLine
 10
225.8548505431
 20
-1.9052558883
 30
0.0
 11
226.0589746883
 21
-2.4052558883
 31
0.0
  0
LINE
  5
717
330
1B
100
AcDbEntity
  8
0
  6
Continuous
 62
     7
370
    25
100
AcDbLine
 10
226.0589746883
 20
-2.4052558883
 30
0.0
 11
226.4672229788
 21
-2.4052558883
 31
0.0
  0
LINE
  5
718
330
1B
100
AcDbEntity
  8
0
  6
Continuous
 62
     7
370
    25
100
AcDbLine
 10
225.6894055195
 20
-0.5
 30
0.0
 11
225.8935296647
 21
0.0
 31
0.0
  0
LINE
  5
719
330
1B
100
AcDbEntity
  8
0
  6
Continuous
 62
     7
370
    25
100
AcDbLine
 10
225.8935296647
 20
0.0
 30
0.0
 11
225.6894055195
 21
0.5
 31
0.0
  0
LINE
  5
71A
330
1B
100
AcDbEntity
  8
0
  6
Continuous
 62
     7
370
    25
100
AcDbLine
 10
225.6894055195
 20
0.5
 30
0.0
 11
225.281157229
 21
0.5
 31
0.0
  0
LINE
  5
71B
330
1B
100
AcDbEntity
  8
0
  6
Continuous
 62
     7
370
    25
100
AcDbLine
 10
225.281157229
 20
0.5
 30
0.0
 11
225.0770330838
 21
0.0
 31
0.0
  0
LINE
  5
71C
330
1B
100
AcDbEntity
  8
0
  6
Continuous
 62
     7
370
    25
100
AcDbLine
 10
225.0770330838
 20
0.0
 30
0.0
 11
225.281157229
 21
-0.5
 31
0.0
  0
LINE
  5
71D
330
1B
100
AcDbEntity
  8
0
  6
Continuous
 62
     7
370
    25
100
AcDbLine
 10
225.281157229
 20
-0.5
 30
0.0
 11
225.6894055195
 21
-0.5
 31
0.0
  0
LINE
  5
71E
330
1B
100
AcDbEntity
  8
0
  6
Continuous
 62
     7
370
    25
100
AcDbLine
 10
226.4672229788
 20
1.4052558883
 30
0.0
 11
226.671347124
 21
1.9052558883
 31
0.0
  0
LINE
  5
71F
330
1B
100
AcDbEntity
  8
0
  6
Continuous
 62
     7
370
    25
100
AcDbLine
 10
226.671347124
 20
1.9052558883
 30
0.0
 11
226.4672229788
 21
2.4052558883
 31
0.0
  0
LINE
  5
720
330
1B
100
AcDbEntity
  8
0
  6
Continuous
 62
     7
370
    25
100
AcDbLine
 10
226.4672229788
 20
2.4052558883
 30
0.0
 11
226.0589746883
 21
2.4052558883
 31
0.0
  0
LINE
  5
721
330
1B
100
AcDbEntity
  8
0
  6
Continuous
 62
     7
370
    25
100
AcDbLine
 10
226.0589746883
 20
2.4052558883
 30
0.0
 11
225.8548505431
 21
1.9052558883
 31
0.0
  0
LINE
  5
722
330
1B
100
AcDbEntity
  8
0
  6
Continuous
 62
     7
370
    25
100
AcDbLine
 10
225.8548505431
 20
1.9052558883
 30
0.0
 11
226.0589746883
 21
1.4052558883
 31
0.0
  0
LINE
  5
723
330
1B
100
AcDbEntity
  8
0
  6
Continuous
 62
     7
370
    25
100
AcDbLine
 10
226.0589746883
 20
1.4052558883
 30
0.0
 11
226.4672229788
 21
1.4052558883
 31
0.0
  0
LINE
  5
724
330
1B
100
AcDbEntity
  8
0
  6
Continuous
 62
     7
370
    25
100
AcDbLine
 10
227.2450404381
 20
3.3105117767
 30
0.0
 11
227.4491645833
 21
3.8105117767
 31
0.0
  0
LINE
  5
725
330
1B
100
AcDbEntity
  8
0
  6
Continuous
 62
     7
370
    25
100
AcDbLine
 10
227.4491645833
 20
3.8105117767
 30
0.0
 11
227.2450404381
 21
4.3105117767
 31
0.0
  0
LINE
  5
726
330
1B
100
AcDbEntity
  8
0
  6
Continuous
 62
     7
370
    25
100
AcDbLine
 10
227.2450404381
 20
4.3105117767
 30
0.0
 11
226.8367921476
 21
4.3105117767
 31
0.0
  0
LINE
  5
727
330
1B
100
AcDbEntity
  8
0
  6
Continuous
 62
     7
370
    25
100
AcDbLine
 10
226.8367921476
 20
4.3105117767
 30
0.0
 11
226.6326680024
 21
3.8105117767
 31
0.0
  0
LINE
  5
728
330
1B
100
AcDbEntity
  8
0
  6
Continuous
 62
     7
370
    25
100
AcDbLine
 10
226.6326680024
 20
3.8105117767
 30
0.0
 11
226.8367921476
 21
3.3105117767
 31
0.0
  0
LINE
  5
729
330
1B
100
AcDbEntity
  8
0
  6
Continuous
 62
     7
370
    25
100
AcDbLine
 10
226.8367921476
 20
3.3105117767
 30
0.0
 11
227.2450404381
 21
3.3105117767
 31
0.0
  0
LINE
  5
72A
330
1B
100
AcDbEntity
  8
0
  6
Continuous
 62
     7
370
    25
100
AcDbLine
 10
228.8006753567
 20
3.3105117767
 30
0.0
 11
229.0047995019
 21
3.8105117767
 31
0.0
  0
LINE
  5
72B
330
1B
100
AcDbEntity
  8
0
  6
Continuous
 62
     7
370
    25
100
AcDbLine
 10
229.0047995019
 20
3.8105117767
 30
0.0
 11
228.8006753567
 21
4.3105117767
 31
0.0
  0
LINE
  5
72C
330
1B
100
AcDbEntity
  8
0
  6
Continuous
 62
     7
370
    25
100
AcDbLine
 10
228.8006753567
 20
4.3105117767
 30
0.0
 11
228.3924270662
 21
4.3105117767
 31
0.0
  0
LINE
  5
72D
330
1B
100
AcDbEntity
  8
0
  6
Continuous
 62
     7
370
    25
100
AcDbLine
 10
228.3924270662
 20
4.3105117767
 30
0.0
 11
228.188302921
 21
3.8105117767
 31
0.0
  0
LINE
  5
72E
330
1B
100
AcDbEntity
  8
0
  6
Continuous
 62
     7
370
    25
100
AcDbLine
 10
228.188302921
 20
3.8105117767
 30
0.0
 11
228.3924270662
 21
3.3105117767
 31
0.0
  0
LINE
  5
72F
330
1B
100
AcDbEntity
  8
0
  6
Continuous
 62
     7
370
    25
100
AcDbLine
 10
228.3924270662
 20
3.3105117767
 30
0.0
 11
228.8006753567
 21
3.3105117767
 31
0.0
  0
LINE
  5
730
330
1B
100
AcDbEntity
  8
0
  6
Continuous
 62
     7
370
    25
100
AcDbLine
 10
230.3563102753
 20
3.3105117767
 30
0.0
 11
230.5604344205
 21
3.8105117767
 31
0.0
  0
LINE
  5
731
330
1B
100
AcDbEntity
  8
0
  6
Continuous
 62
     7
370
    25
100
AcDbLine
 10
230.5604344205
 20
3.8105117767
 30
0.0
 11
230.3563102753
 21
4.3105117767
 31
0.0
  0
LINE
  5
732
330
1B
100
AcDbEntity
  8
0
  6
Continuous
 62
     7
370
    25
100
AcDbLine
 10
230.3563102753
 20
4.3105117767
 30
0.0
 11
229.9480619848
 21
4.3105117767
 31
0.0
  0
LINE
  5
733
330
1B
100
AcDbEntity
  8
0
  6
Continuous
 62
     7
370
    25
100
AcDbLine
 10
229.9480619848
 20
4.3105117767
 30
0.0
 11
229.7439378396
 21
3.8105117767
 31
0.0
  0
LINE
  5
734
330
1B
100
AcDbEntity
  8
0
  6
Continuous
 62
     7
370
    25
100
AcDbLine
 10
229.7439378396
 20
3.8105117767
 30
0.0
 11
229.9480619848
 21
3.3105117767
 31
0.0
  0
LINE
  5
735
330
1B
100
AcDbEntity
  8
0
  6
Continuous
 62
     7
370
    25
100
AcDbLine
 10
229.9480619848
 20
3.3105117767
 30
0.0
 11
230.3563102753
 21
3.3105117767
 31
0.0
  0
LINE
  5
736
330
1B
100
AcDbEntity
  8
0
  6
Continuous
 62
     7
370
    25
100
AcDbLine
 10
231.1341277346
 20
1.4052558883
 30
0.0
 11
231.3382518798
 21
1.9052558883
 31
0.0
  0
LINE
  5
737
330
1B
100
AcDbEntity
  8
0
  6
Continuous
 62
     7
370
    25
100
AcDbLine
 10
231.3382518798
 20
1.9052558883
 30
0.0
 11
231.1341277346
 21
2.4052558883
 31
0.0
  0
LINE
  5
738
330
1B
100
AcDbEntity
  8
0
  6
Continuous
 62
     7
370
    25
100
AcDbLine
 10
231.1341277346
 20
2.4052558883
 30
0.0
 11
230.7258794441
 21
2.4052558883
 31
0.0
  0
LINE
  5
739
330
1B
100
AcDbEntity
  8
0
  6
Continuous
 62
     7
370
    25
100
AcDbLine
 10
230.7258794441
 20
2.4052558883
 30
0.0
 11
230.5217552989
 21
1.9052558883
 31
0.0
  0
LINE
  5
73A
330
1B
100
AcDbEntity
  8
0
  6
Continuous
 62
     7
370
    25
100
AcDbLine
 10
230.5217552989
 20
1.9052558883
 30
0.0
 11
230.7258794441
 21
1.4052558883
 31
0.0
  0
LINE
  5
73B
330
1B
100
AcDbEntity
  8
0
  6
Continuous
 62
     7
370
    25
100
AcDbLine
 10
230.7258794441
 20
1.4052558883
 30
0.0
 11
231.1341277346
 21
1.4052558883
 31
0.0
  0
LINE
  5
73C
330
1B
100
AcDbEntity
  8
0
  6
Continuous
 62
     7
370
    25
100
AcDbLine
 10
231.9119451939
 20
-0.5
 30
0.0
 11
232.1160693391
 21
0.0
 31
0.0
  0
LINE
  5
73D
330
1B
100
AcDbEntity
  8
0
  6
Continuous
 62
     7
370
    25
100
AcDbLine
 10
232.1160693391
 20
0.0
 30
0.0
 11
231.9119451939
 21
0.5
 31
0.0
  0
LINE
  5
73E
330
1B
100
AcDbEntity
  8
0
  6
Continuous
 62
     7
370
    25
100
AcDbLine
 10
231.9119451939
 20
0.5
 30
0.0
 11
231.5036969034
 21
0.5
 31
0.0
  0
LINE
  5
73F
330
1B
100
AcDbEntity
  8
0
  6
Continuous
 62
     7
370
    25
100
AcDbLine
 10
231.5036969034
 20
0.5
 30
0.0
 11
231.2995727582
 21
0.0
 31
0.0
  0
LINE
  5
740
330
1B
100
AcDbEntity
  8
0
  6
Continuous
 62
     7
370
    25
100
AcDbLine
 10
231.2995727582
 20
0.0
 30
0.0
 11
231.5036969034
 21
-0.5
 31
0.0
  0
LINE
  5
741
330
1B
100
AcDbEntity
  8
0
  6
Continuous
 62
     7
370
    25
100
AcDbLine
 10
231.5036969034
 20
-0.5
 30
0.0
 11
231.9119451939
 21
-0.5
 31
0.0
  0
LINE
  5
742
330
1B
100
AcDbEntity
  8
0
  6
Continuous
 62
     7
370
    25
100
AcDbLine
 10
229.578492816
 20
-2.4052558883
 30
0.0
 11
229.7826169612
 21
-1.9052558883
 31
0.0
  0
LINE
  5
743
330
1B
100
AcDbEntity
  8
0
  6
Continuous
 62
     7
370
    25
100
AcDbLine
 10
229.7826169612
 20
-1.9052558883
 30
0.0
 11
229.578492816
 21
-1.4052558883
 31
0.0
  0
LINE
  5
744
330
1B
100
AcDbEntity
  8
0
  6
Continuous
 62
     7
370
    25
100
AcDbLine
 10
229.578492816
 20
-1.4052558883
 30
0.0
 11
229.1702445255
 21
-1.4052558883
 31
0.0
  0
LINE
  5
745
330
1B
100
AcDbEntity
  8
0
  6
Continuous
 62
     7
370
    25
100
AcDbLine
 10
229.1702445255
 20
-1.4052558883
 30
0.0
 11
228.9661203803
 21
-1.9052558883
 31
0.0
  0
LINE
  5
746
330
1B
100
AcDbEntity
  8
0
  6
Continuous
 62
     7
370
    25
100
AcDbLine
 10
228.9661203803
 20
-1.9052558883
 30
0.0
 11
229.1702445255
 21
-2.4052558883
 31
0.0
  0
LINE
  5
747
330
1B
100
AcDbEntity
  8
0
  6
Continuous
 62
     7
370
    25
100
AcDbLine
 10
229.1702445255
 20
-2.4052558883
 30
0.0
 11
229.578492816
 21
-2.4052558883
 31
0.0
  0
LINE
  5
748
330
1B
100
AcDbEntity
  8
0
  6
Continuous
 62
     7
370
    25
100
AcDbLine
 10
228.0228578974
 20
-2.4052558883
 30
0.0
 11
228.2269820426
 21
-1.9052558883
 31
0.0
  0
LINE
  5
749
330
1B
100
AcDbEntity
  8
0
  6
Continuous
 62
     7
370
    25
100
AcDbLine
 10
228.2269820426
 20
-1.9052558883
 30
0.0
 11
228.0228578974
 21
-1.4052558883
 31
0.0
  0
LINE
  5
74A
330
1B
100
AcDbEntity
  8
0
  6
Continuous
 62
     7
370
    25
100
AcDbLine
 10
228.0228578974
 20
-1.4052558883
 30
0.0
 11
227.6146096069
 21
-1.4052558883
 31
0.0
  0
LINE
  5
74B
330
1B
100
AcDbEntity
  8
0
  6
Continuous
 62
     7
370
    25
100
AcDbLine
 10
227.6146096069
 20
-1.4052558883
 30
0.0
 11
227.4104854617
 21
-1.9052558883
 31
0.0
  0
LINE
  5
74C
330
1B
100
AcDbEntity
  8
0
  6
Continuous
 62
     7
370
    25
100
AcDbLine
 10
227.4104854617
 20
-1.9052558883
 30
0.0
 11
227.6146096069
 21
-2.4052558883
 31
0.0
  0
LINE
  5
74D
330
1B
100
AcDbEntity
  8
0
  6
Continuous
 62
     7
370
    25
100
AcDbLine
 10
227.6146096069
 20
-2.4052558883
 30
0.0
 11
228.0228578974
 21
-2.4052558883
 31
0.0
  0
LINE
  5
74E
330
1B
100
AcDbEntity
  8
0
  6
Continuous
 62
     7
370
    25
100
AcDbLine
 10
227.2450404381
 20
-0.5
 30
0.0
 11
227.4491645833
 21
0.0
 31
0.0
  0
LINE
  5
74F
330
1B
100
AcDbEntity
  8
0
  6
Continuous
 62
     7
370
    25
100
AcDbLine
 10
227.4491645833
 20
0.0
 30
0.0
 11
227.2450404381
 21
0.5
 31
0.0
  0
LINE
  5
750
330
1B
100
AcDbEntity
  8
0
  6
Continuous
 62
     7
370
    25
100
AcDbLine
 10
227.2450404381
 20
0.5
 30
0.0
 11
226.8367921476
 21
0.5
 31
0.0
  0
LINE
  5
751
330
1B
100
AcDbEntity
  8
0
  6
Continuous
 62
     7
370
    25
100
AcDbLine
 10
226.8367921476
 20
0.5
 30
0.0
 11
226.6326680024
 21
0.0
 31
0.0
  0
LINE
  5
752
330
1B
100
AcDbEntity
  8
0
  6
Continuous
 62
     7
370
    25
100
AcDbLine
 10
226.6326680024
 20
0.0
 30
0.0
 11
226.8367921476
 21
-0.5
 31
0.0
  0
LINE
  5
753
330
1B
100
AcDbEntity
  8
0
  6
Continuous
 62
     7
370
    25
100
AcDbLine
 10
226.8367921476
 20
-0.5
 30
0.0
 11
227.2450404381
 21
-0.5
 31
0.0
  0
LINE
  5
754
330
1B
100
AcDbEntity
  8
0
  6
Continuous
 62
     7
370
    25
100
AcDbLine
 10
228.0228578974
 20
1.4052558883
 30
0.0
 11
228.2269820426
 21
1.9052558883
 31
0.0
  0
LINE
  5
755
330
1B
100
AcDbEntity
  8
0
  6
Continuous
 62
     7
370
    25
100
AcDbLine
 10
228.2269820426
 20
1.9052558883
 30
0.0
 11
228.0228578974
 21
2.4052558883
 31
0.0
  0
LINE
  5
756
330
1B
100
AcDbEntity
  8
0
  6
Continuous
 62
     7
370
    25
100
AcDbLine
 10
228.0228578974
 20
2.4052558883
 30
0.0
 11
227.6146096069
 21
2.4052558883
 31
0.0
  0
LINE
  5
757
330
1B
100
AcDbEntity
  8
0
  6
Continuous
 62
     7
370
    25
100
AcDbLine
 10
227.6146096069
 20
2.4052558883
 30
0.0
 11
227.4104854617
 21
1.9052558883
 31
0.0
  0
LINE
  5
758
330
1B
100
AcDbEntity
  8
0
  6
Continuous
 62
     7
370
    25
100
AcDbLine
 10
227.4104854617
 20
1.9052558883
 30
0.0
 11
227.6146096069
 21
1.4052558883
 31
0.0
  0
LINE
  5
759
330
1B
100
AcDbEntity
  8
0
  6
Continuous
 62
     7
370
    25
100
AcDbLine
 10
227.6146096069
 20
1.4052558883
 30
0.0
 11
228.0228578974
 21
1.4052558883
 31
0.0
  0
LINE
  5
75A
330
1B
100
AcDbEntity
  8
0
  6
Continuous
 62
     7
370
    25
100
AcDbLine
 10
229.578492816
 20
1.4052558883
 30
0.0
 11
229.7826169612
 21
1.9052558883
 31
0.0
  0
LINE
  5
75B
330
1B
100
AcDbEntity
  8
0
  6
Continuous
 62
     7
370
    25
100
AcDbLine
 10
229.7826169612
 20
1.9052558883
 30
0.0
 11
229.578492816
 21
2.4052558883
 31
0.0
  0
LINE
  5
75C
330
1B
100
AcDbEntity
  8
0
  6
Continuous
 62
     7
370
    25
100
AcDbLine
 10
229.578492816
 20
2.4052558883
 30
0.0
 11
229.1702445255
 21
2.4052558883
 31
0.0
  0
LINE
  5
75D
330
1B
100
AcDbEntity
  8
0
  6
Continuous
 62
     7
370
    25
100
AcDbLine
 10
229.1702445255
 20
2.4052558883
 30
0.0
 11
228.9661203803
 21
1.9052558883
 31
0.0
  0
LINE
  5
75E
330
1B
100
AcDbEntity
  8
0
  6
Continuous
 62
     7
370
    25
100
AcDbLine
 10
228.9661203803
 20
1.9052558883
 30
0.0
 11
229.1702445255
 21
1.4052558883
 31
0.0
  0
LINE
  5
75F
330
1B
100
AcDbEntity
  8
0
  6
Continuous
 62
     7
370
    25
100
AcDbLine
 10
229.1702445255
 20
1.4052558883
 30
0.0
 11
229.578492816
 21
1.4052558883
 31
0.0
  0
LINE
  5
760
330
1B
100
AcDbEntity
  8
0
  6
Continuous
 62
     7
370
    25
100
AcDbLine
 10
229.0047995019
 20
-6.3710235533
 30
0.0
 11
228.8006753567
 21
-5.8710235533
 31
0.0
  0
LINE
  5
761
330
1B
100
AcDbEntity
  8
0
  6
Continuous
 62
     7
370
    25
100
AcDbLine
 10
228.8006753567
 20
-5.8710235533
 30
0.0
 11
228.3924270662
 21
-5.8710235533
 31
0.0
  0
LINE
  5
762
330
1B
100
AcDbEntity
  8
0
  6
Continuous
 62
     7
370
    25
100
AcDbLine
 10
228.3924270662
 20
-5.8710235533
 30
0.0
 11
228.188302921
 21
-6.3710235533
 31
0.0
  0
LINE
  5
763
330
1B
100
AcDbEntity
  8
0
  6
Continuous
 62
     7
370
    25
100
AcDbLine
 10
228.275394692
 20
-6.5843539531
 30
0.0
 11
228.188302921
 21
-6.3710235533
 31
0.0
  0
LINE
  5
764
330
1B
100
AcDbEntity
  8
0
  6
Continuous
 62
     7
370
    25
100
AcDbLine
 10
227.4491645833
 20
-6.3710235533
 30
0.0
 11
227.2450404381
 21
-5.8710235533
 31
0.0
  0
LINE
  5
765
330
1B
100
AcDbEntity
  8
0
  6
Continuous
 62
     7
370
    25
100
AcDbLine
 10
227.2450404381
 20
-5.8710235533
 30
0.0
 11
226.8367921476
 21
-5.8710235533
 31
0.0
  0
LINE
  5
766
330
1B
100
AcDbEntity
  8
0
  6
Continuous
 62
     7
370
    25
100
AcDbLine
 10
226.8367921476
 20
-5.8710235533
 30
0.0
 11
226.7572696995
 21
-6.0658129743
 31
0.0
  0
LINE
  5
767
330
1B
100
AcDbEntity
  8
0
  6
Continuous
 62
     7
370
    25
100
AcDbLine
 10
226.5759907736
 20
-5.9493420673
 30
0.0
 11
226.671347124
 21
-5.715767665
 31
0.0
  0
LINE
  5
768
330
1B
100
AcDbEntity
  8
0
  6
Continuous
 62
     7
370
    25
100
AcDbLine
 10
226.671347124
 20
-5.715767665
 30
0.0
 11
226.4672229788
 21
-5.215767665
 31
0.0
  0
LINE
  5
769
330
1B
100
AcDbEntity
  8
0
  6
Continuous
 62
     7
370
    25
100
AcDbLine
 10
226.4672229788
 20
-5.215767665
 30
0.0
 11
226.0589746883
 21
-5.215767665
 31
0.0
  0
LINE
  5
76A
330
1B
100
AcDbEntity
  8
0
  6
Continuous
 62
     7
370
    25
100
AcDbLine
 10
226.0589746883
 20
-5.215767665
 30
0.0
 11
225.9636183379
 21
-5.4493420673
 31
0.0
  0
LINE
  5
76B
330
1B
100
AcDbEntity
  8
0
  6
Continuous
 62
     7
370
    25
100
AcDbLine
 10
225.8031541547
 20
-5.2871415497
 30
0.0
 11
225.8935296647
 21
-5.065767665
 31
0.0
  0
LINE
  5
76C
330
1B
100
AcDbEntity
  8
0
  6
Continuous
 62
     7
370
    25
100
AcDbLine
 10
225.8935296647
 20
-5.065767665
 30
0.0
 11
225.6894055195
 21
-4.565767665
 31
0.0
  0
LINE
  5
76D
330
1B
100
AcDbEntity
  8
0
  6
Continuous
 62
     7
370
    25
100
AcDbLine
 10
225.6894055195
 20
-4.565767665
 30
0.0
 11
225.281157229
 21
-4.565767665
 31
0.0
  0
LINE
  5
76E
330
1B
100
AcDbEntity
  8
0
  6
Continuous
 62
     7
370
    25
100
AcDbLine
 10
225.281157229
 20
-4.565767665
 30
0.0
 11
225.2607592704
 21
-4.6157322553
 31
0.0
  0
LINE
  5
76F
330
1B
100
AcDbEntity
  8
0
  6
Continuous
 62
     7
370
    25
100
AcDbLine
 10
224.7132115706
 20
-3.6605117767
 30
0.0
 11
224.9115880602
 21
-3.6605117767
 31
0.0
  0
LINE
  5
770
330
1B
100
AcDbEntity
  8
0
  6
Continuous
 62
     7
370
    25
100
AcDbLine
 10
224.9115880602
 20
-3.6605117767
 30
0.0
 11
225.1157122054
 21
-3.1605117767
 31
0.0
  0
LINE
  5
771
330
1B
100
AcDbEntity
  8
0
  6
Continuous
 62
     7
370
    25
100
AcDbLine
 10
225.1157122054
 20
-3.1605117767
 30
0.0
 11
224.9115880602
 21
-2.6605117767
 31
0.0
  0
LINE
  5
772
330
1B
100
AcDbEntity
  8
0
  6
Continuous
 62
     7
370
    25
100
AcDbLine
 10
224.9115880602
 20
-2.6605117767
 30
0.0
 11
224.5033397697
 21
-2.6605117767
 31
0.0
  0
LINE
  5
773
330
1B
100
AcDbEntity
  8
0
  6
Continuous
 62
     7
370
    25
100
AcDbLine
 10
224.5033397697
 20
-2.6605117767
 30
0.0
 11
224.404880264
 21
-2.9016873259
 31
0.0
  0
LINE
  5
774
330
1B
100
AcDbEntity
  8
0
  6
Continuous
 62
     7
370
    25
100
AcDbLine
 10
224.0977137635
 20
-1.7552558883
 30
0.0
 11
224.1337706009
 21
-1.7552558883
 31
0.0
  0
LINE
  5
775
330
1B
100
AcDbEntity
  8
0
  6
Continuous
 62
     7
370
    25
100
AcDbLine
 10
224.1337706009
 20
-1.7552558883
 30
0.0
 11
224.3378947461
 21
-1.2552558883
 31
0.0
  0
LINE
  5
776
330
1B
100
AcDbEntity
  8
0
  6
Continuous
 62
     7
370
    25
100
AcDbLine
 10
224.3378947461
 20
-1.2552558883
 30
0.0
 11
224.1337706009
 21
-0.7552558883
 31
0.0
  0
LINE
  5
777
330
1B
100
AcDbEntity
  8
0
  6
Continuous
 62
     7
370
    25
100
AcDbLine
 10
223.9603033458
 20
-0.7552558883
 30
0.0
 11
224.1337706009
 21
-0.7552558883
 31
0.0
  0
LINE
  5
778
330
1B
100
AcDbEntity
  8
0
  6
Continuous
 62
     7
370
    25
100
AcDbLine
 10
223.9430579
 20
-0.5
 30
0.0
 11
224.1337706009
 21
-0.5
 31
0.0
  0
LINE
  5
779
330
1B
100
AcDbEntity
  8
0
  6
Continuous
 62
     7
370
    25
100
AcDbLine
 10
224.1337706009
 20
-0.5
 30
0.0
 11
224.3378947461
 21
0.0
 31
0.0
  0
LINE
  5
77A
330
1B
100
AcDbEntity
  8
0
  6
Continuous
 62
     7
370
    25
100
AcDbLine
 10
224.3378947461
 20
0.0
 30
0.0
 11
224.1337706009
 21
0.5
 31
0.0
  0
LINE
  5
77B
330
1B
100
AcDbEntity
  8
0
  6
Continuous
 62
     7
370
    25
100
AcDbLine
 10
224.1337706009
 20
0.5
 30
0.0
 11
223.9430579
 21
0.5
 31
0.0
  0
LINE
  5
77C
330
1B
100
AcDbEntity
  8
0
  6
Continuous
 62
     7
370
    25
100
AcDbLine
 10
223.9598767566
 20
0.75
 30
0.0
 11
224.1337706009
 21
0.75
 31
0.0
  0
LINE
  5
77D
330
1B
100
AcDbEntity
  8
0
  6
Continuous
 62
     7
370
    25
100
AcDbLine
 10
224.1337706009
 20
0.75
 30
0.0
 11
224.3378947461
 21
1.25
 31
0.0
  0
LINE
  5
77E
330
1B
100
AcDbEntity
  8
0
  6
Continuous
 62
     7
370
    25
100
AcDbLine
 10
224.3378947461
 20
1.25
 30
0.0
 11
224.1337706009
 21
1.75
 31
0.0
  0
LINE
  5
77F
330
1B
100
AcDbEntity
  8
0
  6
Continuous
 62
     7
370
    25
100
AcDbLine
 10
224.0966901025
 20
1.75
 30
0.0
 11
224.1337706009
 21
1.75
 31
0.0
  0
LINE
  5
780
330
1B
100
AcDbEntity
  8
0
  6
Continuous
 62
     7
370
    25
100
AcDbLine
 10
224.403896084
 20
2.8988421765
 30
0.0
 11
224.5033397697
 21
2.6552558883
 31
0.0
  0
LINE
  5
781
330
1B
100
AcDbEntity
  8
0
  6
Continuous
 62
     7
370
    25
100
AcDbLine
 10
224.5033397697
 20
2.6552558883
 30
0.0
 11
224.9115880602
 21
2.6552558883
 31
0.0
  0
LINE
  5
782
330
1B
100
AcDbEntity
  8
0
  6
Continuous
 62
     7
370
    25
100
AcDbLine
 10
224.9115880602
 20
2.6552558883
 30
0.0
 11
225.1157122054
 21
3.1552558883
 31
0.0
  0
LINE
  5
783
330
1B
100
AcDbEntity
  8
0
  6
Continuous
 62
     7
370
    25
100
AcDbLine
 10
225.1157122054
 20
3.1552558883
 30
0.0
 11
224.9115880602
 21
3.6552558883
 31
0.0
  0
LINE
  5
784
330
1B
100
AcDbEntity
  8
0
  6
Continuous
 62
     7
370
    25
100
AcDbLine
 10
224.9115880602
 20
3.6552558883
 30
0.0
 11
224.7107369859
 21
3.6552558883
 31
0.0
  0
LINE
  5
785
330
1B
100
AcDbEntity
  8
0
  6
Continuous
 62
     7
370
    25
100
AcDbLine
 10
225.259410046
 20
4.6137812783
 30
0.0
 11
225.281157229
 21
4.5605117767
 31
0.0
  0
LINE
  5
786
330
1B
100
AcDbEntity
  8
0
  6
Continuous
 62
     7
370
    25
100
AcDbLine
 10
225.281157229
 20
4.5605117767
 30
0.0
 11
225.6894055195
 21
4.5605117767
 31
0.0
  0
LINE
  5
787
330
1B
100
AcDbEntity
  8
0
  6
Continuous
 62
     7
370
    25
100
AcDbLine
 10
225.6894055195
 20
4.5605117767
 30
0.0
 11
225.8935296647
 21
5.0605117767
 31
0.0
  0
LINE
  5
788
330
1B
100
AcDbEntity
  8
0
  6
Continuous
 62
     7
370
    25
100
AcDbLine
 10
225.8935296647
 20
5.0605117767
 30
0.0
 11
225.8016553019
 21
5.285557086
 31
0.0
  0
LINE
  5
789
330
1B
100
AcDbEntity
  8
0
  6
Continuous
 62
     7
370
    25
100
AcDbLine
 10
225.9636183379
 20
5.4493420673
 30
0.0
 11
226.0589746883
 21
5.215767665
 31
0.0
  0
LINE
  5
78A
330
1B
100
AcDbEntity
  8
0
  6
Continuous
 62
     7
370
    25
100
AcDbLine
 10
226.0589746883
 20
5.215767665
 30
0.0
 11
226.4672229788
 21
5.215767665
 31
0.0
  0
LINE
  5
78B
330
1B
100
AcDbEntity
  8
0
  6
Continuous
 62
     7
370
    25
100
AcDbLine
 10
226.4672229788
 20
5.215767665
 30
0.0
 11
226.671347124
 21
5.715767665
 31
0.0
  0
LINE
  5
78C
330
1B
100
AcDbEntity
  8
0
  6
Continuous
 62
     7
370
    25
100
AcDbLine
 10
226.671347124
 20
5.715767665
 30
0.0
 11
226.5759907736
 21
5.9493420673
 31
0.0
  0
LINE
  5
78D
330
1B
100
AcDbEntity
  8
0
  6
Continuous
 62
     7
370
    25
100
AcDbLine
 10
226.7555499912
 20
6.0647694939
 30
0.0
 11
226.8367921476
 21
5.865767665
 31
0.0
  0
LINE
  5
78E
330
1B
100
AcDbEntity
  8
0
  6
Continuous
 62
     7
370
    25
100
AcDbLine
 10
226.8367921476
 20
5.865767665
 30
0.0
 11
227.2450404381
 21
5.865767665
 31
0.0
  0
LINE
  5
78F
330
1B
100
AcDbEntity
  8
0
  6
Continuous
 62
     7
370
    25
100
AcDbLine
 10
227.2450404381
 20
5.865767665
 30
0.0
 11
227.4491645833
 21
6.365767665
 31
0.0
  0
LINE
  5
790
330
1B
100
AcDbEntity
  8
0
  6
Continuous
 62
     7
370
    25
100
AcDbLine
 10
228.188302921
 20
6.365767665
 30
0.0
 11
228.3924270662
 21
5.865767665
 31
0.0
  0
LINE
  5
791
330
1B
100
AcDbEntity
  8
0
  6
Continuous
 62
     7
370
    25
100
AcDbLine
 10
228.3924270662
 20
5.865767665
 30
0.0
 11
228.8006753567
 21
5.865767665
 31
0.0
  0
LINE
  5
792
330
1B
100
AcDbEntity
  8
0
  6
Continuous
 62
     7
370
    25
100
AcDbLine
 10
228.8006753567
 20
5.865767665
 30
0.0
 11
229.0047995019
 21
6.365767665
 31
0.0
  0
LINE
  5
793
330
1B
100
AcDbEntity
  8
0
  6
Continuous
 62
     7
370
    25
100
AcDbLine
 10
232.0773902175
 20
3.1552558883
 30
0.0
 11
232.2815143628
 21
2.6552558883
 31
0.0
  0
LINE
  5
794
330
1B
100
AcDbEntity
  8
0
  6
Continuous
 62
     7
370
    25
100
AcDbLine
 10
234.1199919938
 20
1.75
 30
0.0
 11
234.0470957099
 21
1.5714413003
 31
0.0
  0
LINE
  5
795
330
1B
100
AcDbEntity
  8
0
  6
Continuous
 62
     7
370
    25
100
AcDbLine
 10
233.4065214005
 20
1.75
 30
0.0
 11
234.1199919938
 21
1.75
 31
0.0
  0
LINE
  5
796
330
1B
100
AcDbEntity
  8
0
  6
Continuous
 62
     7
370
    25
100
AcDbLine
 10
234.0450386516
 20
-1.5716584455
 30
0.0
 11
234.1199919938
 21
-1.7552558883
 31
0.0
  0
LINE
  5
797
330
1B
100
AcDbEntity
  8
0
  6
Continuous
 62
     7
370
    25
100
AcDbLine
 10
233.4055893931
 20
-1.7552558883
 30
0.0
 11
234.1199919938
 21
-1.7552558883
 31
0.0
  0
LINE
  5
798
330
1B
100
AcDbEntity
  8
0
  6
Continuous
 62
     7
370
    25
100
AcDbLine
 10
229.5639384793
 20
-8.875603893
 30
0.0
 11
229.4902467924
 21
-8.2845646451
 31
0.0
  0
LINE
  5
799
330
1B
100
AcDbEntity
  8
0
  6
Continuous
 62
     7
370
    25
100
AcDbLine
 10
229.4902466888
 20
8.2845646452
 30
0.0
 11
229.5639385792
 21
8.8756038929
 31
0.0
  0
LINE
  5
79A
330
1B
100
AcDbEntity
  8
0
  6
Continuous
 62
     7
370
    25
100
AcDbLine
 10
233.0445866502
 20
3.1552558883
 30
0.0
 11
233.1380503893
 21
3.1552558883
 31
0.0
  0
LINE
  5
79B
330
1B
100
AcDbEntity
  8
0
  6
Continuous
 62
     7
370
    25
100
AcDbLine
 10
233.1380503893
 20
3.1552558883
 30
0.0
 11
233.3421745345
 21
2.6552558883
 31
0.0
  0
LINE
  5
79C
330
1B
100
AcDbEntity
  8
0
  6
Continuous
 62
     7
370
    25
100
AcDbLine
 10
233.2005047142
 20
2.6552558883
 30
0.0
 11
233.3421745345
 21
2.6552558883
 31
0.0
  0
LINE
  5
79D
330
1B
100
AcDbEntity
  8
0
  6
Continuous
 62
     7
370
    25
100
AcDbLine
 10
232.0773902175
 20
-0.6552558883
 30
0.0
 11
232.8868453486
 21
-0.6552558883
 31
0.0
  0
LINE
  5
79E
330
1B
100
AcDbEntity
  8
0
  6
Continuous
 62
     7
370
    25
100
AcDbLine
 10
233.0427744763
 20
-3.1605117767
 30
0.0
 11
233.1380503893
 21
-3.1605117767
 31
0.0
  0
LINE
  5
79F
330
1B
100
AcDbEntity
  8
0
  6
Continuous
 62
     7
370
    25
100
AcDbLine
 10
232.8526021075
 20
-3.6605117767
 30
0.0
 11
233.3421745345
 21
-3.6605117767
 31
0.0
  0
LINE
  5
7A0
330
1B
100
AcDbEntity
  8
0
  6
Continuous
 62
     7
370
    25
100
AcDbLine
 10
233.1380503893
 20
-3.1605117767
 30
0.0
 11
233.3421745345
 21
-3.6605117767
 31
0.0
  0
LINE
  5
7A1
330
1B
100
AcDbEntity
  8
0
  6
Continuous
 62
     7
370
    25
100
AcDbLine
 10
232.0773902175
 20
-1.9052558883
 30
0.0
 11
232.7112189434
 21
-1.9052558883
 31
0.0
  0
LINE
  5
7A2
330
1B
100
AcDbEntity
  8
0
  6
Continuous
 62
     7
370
    25
100
AcDbLine
 10
232.0773902175
 20
0.65
 30
0.0
 11
232.8872146548
 21
0.65
 31
0.0
  0
LINE
  5
7A3
330
1B
100
AcDbEntity
  8
0
  6
Continuous
 62
     7
370
    25
100
AcDbLine
 10
232.8547920628
 20
3.6552558883
 30
0.0
 11
233.3421745345
 21
3.6552558883
 31
0.0
  0
LINE
  5
7A4
330
1B
100
AcDbEntity
  8
0
  6
Continuous
 62
     7
370
    25
100
AcDbLine
 10
233.3421745345
 20
3.6552558883
 30
0.0
 11
233.1380503893
 21
3.1552558883
 31
0.0
  0
LINE
  5
7A5
330
1B
100
AcDbEntity
  8
0
  6
Continuous
 62
     7
370
    25
100
AcDbLine
 10
233.2949859066
 20
-2.2896678284
 30
0.0
 11
233.3421745345
 21
-2.4052558883
 31
0.0
  0
LINE
  5
7A6
330
1B
100
AcDbEntity
  8
0
  6
Continuous
 62
     7
370
    25
100
AcDbLine
 10
233.2668192488
 20
-2.4052558883
 30
0.0
 11
233.3421745345
 21
-2.4052558883
 31
0.0
  0
LINE
  5
7A7
330
1B
100
AcDbEntity
  8
0
  6
Continuous
 62
     7
370
    25
100
AcDbLine
 10
232.0773902175
 20
1.9052558883
 30
0.0
 11
232.7112189434
 21
1.9052558883
 31
0.0
  0
LINE
  5
7A8
330
1B
100
AcDbEntity
  8
0
  6
Continuous
 62
     7
370
    25
100
AcDbLine
 10
233.3421745345
 20
2.4052558883
 30
0.0
 11
233.2949859066
 21
2.2896678284
 31
0.0
  0
LINE
  5
7A9
330
1B
100
AcDbEntity
  8
0
  6
Continuous
 62
     7
370
    25
100
AcDbLine
 10
233.2668192488
 20
2.4052558883
 30
0.0
 11
233.3421745345
 21
2.4052558883
 31
0.0
  0
LINE
  5
7AA
330
1B
100
AcDbEntity
  8
0
  6
Continuous
 62
     7
370
    25
100
AcDbLine
 10
233.3421745345
 20
-2.6605117767
 30
0.0
 11
233.1380503893
 21
-3.1605117767
 31
0.0
  0
LINE
  5
7AB
330
1B
100
AcDbEntity
  8
0
  6
Continuous
 62
     7
370
    25
100
AcDbLine
 10
233.1990297421
 20
-2.6605117767
 30
0.0
 11
233.3421745345
 21
-2.6605117767
 31
0.0
  0
LINE
  5
7AC
330
1B
100
AcDbEntity
  8
0
  6
Continuous
 62
     7
370
    25
100
AcDbLine
 10
231.2995727582
 20
0.0
 30
0.0
 11
232.1160693391
 21
0.0
 31
0.0
  0
LINE
  5
7AD
330
1B
100
AcDbEntity
  8
0
  6
Continuous
 62
     7
370
    25
100
AcDbLine
 10
231.2995727582
 20
1.25
 30
0.0
 11
232.1160693391
 21
1.25
 31
0.0
  0
LINE
  5
7AE
330
1B
100
AcDbEntity
  8
0
  6
Continuous
 62
     7
370
    25
100
AcDbLine
 10
231.2995727582
 20
-3.8105117767
 30
0.0
 11
232.0535095976
 21
-3.8105117767
 31
0.0
  0
LINE
  5
7AF
330
1B
100
AcDbEntity
  8
0
  6
Continuous
 62
     7
370
    25
100
AcDbLine
 10
232.5467807787
 20
-4.3105117767
 30
0.0
 11
232.5643570752
 21
-4.3105117767
 31
0.0
  0
LINE
  5
7B0
330
1B
100
AcDbEntity
  8
0
  6
Continuous
 62
     7
370
    25
100
AcDbLine
 10
232.5566776501
 20
-4.2917011037
 30
0.0
 11
232.5643570752
 21
-4.3105117767
 31
0.0
  0
LINE
  5
7B1
330
1B
100
AcDbEntity
  8
0
  6
Continuous
 62
     7
370
    25
100
AcDbLine
 10
231.2995727582
 20
-1.2552558883
 30
0.0
 11
232.1160693391
 21
-1.2552558883
 31
0.0
  0
LINE
  5
7B2
330
1B
100
AcDbEntity
  8
0
  6
Continuous
 62
     7
370
    25
100
AcDbLine
 10
231.2995727582
 20
-2.5605117767
 30
0.0
 11
232.1160693391
 21
-2.5605117767
 31
0.0
  0
LINE
  5
7B3
330
1B
100
AcDbEntity
  8
0
  6
Continuous
 62
     7
370
    25
100
AcDbLine
 10
231.2995727582
 20
3.8105117767
 30
0.0
 11
232.0535095976
 21
3.8105117767
 31
0.0
  0
LINE
  5
7B4
330
1B
100
AcDbEntity
  8
0
  6
Continuous
 62
     7
370
    25
100
AcDbLine
 10
232.5467807787
 20
4.3105117767
 30
0.0
 11
232.5643570752
 21
4.3105117767
 31
0.0
  0
LINE
  5
7B5
330
1B
100
AcDbEntity
  8
0
  6
Continuous
 62
     7
370
    25
100
AcDbLine
 10
232.5643570752
 20
4.3105117767
 30
0.0
 11
232.5566776501
 21
4.2917011037
 31
0.0
  0
LINE
  5
7B6
330
1B
100
AcDbEntity
  8
0
  6
Continuous
 62
     7
370
    25
100
AcDbLine
 10
231.2995727582
 20
2.5552558883
 30
0.0
 11
232.1160693391
 21
2.5552558883
 31
0.0
  0
LINE
  5
7B7
330
1B
100
AcDbEntity
  8
0
  6
Continuous
 62
     7
370
    25
100
AcDbLine
 10
232.0909472111
 20
5.0605117767
 30
0.0
 11
232.3552847639
 21
5.0605117767
 31
0.0
  0
LINE
  5
7B8
330
1B
100
AcDbEntity
  8
0
  6
Continuous
 62
     7
370
    25
100
AcDbLine
 10
232.4086361781
 20
4.5605117767
 30
0.0
 11
232.5643570752
 21
4.5605117767
 31
0.0
  0
LINE
  5
7B9
330
1B
100
AcDbEntity
  8
0
  6
Continuous
 62
     7
370
    25
100
AcDbLine
 10
232.4489877889
 20
4.8431076602
 30
0.0
 11
232.5643570752
 21
4.5605117767
 31
0.0
  0
LINE
  5
7BA
330
1B
100
AcDbEntity
  8
0
  6
Continuous
 62
     7
370
    25
100
AcDbLine
 10
232.0872765574
 20
-5.065767665
 30
0.0
 11
232.352395885
 21
-5.065767665
 31
0.0
  0
LINE
  5
7BB
330
1B
100
AcDbEntity
  8
0
  6
Continuous
 62
     7
370
    25
100
AcDbLine
 10
232.4055948249
 20
-4.565767665
 30
0.0
 11
232.5643570752
 21
-4.565767665
 31
0.0
  0
LINE
  5
7BC
330
1B
100
AcDbEntity
  8
0
  6
Continuous
 62
     7
370
    25
100
AcDbLine
 10
232.5643570752
 20
-4.565767665
 30
0.0
 11
232.4502723861
 21
-4.8452169407
 31
0.0
  0
LINE
  5
7BD
330
1B
100
AcDbEntity
  8
0
  6
Continuous
 62
     7
370
    25
100
AcDbLine
 10
231.5662385019
 20
-5.715767665
 30
0.0
 11
231.5824154707
 21
-5.715767665
 31
0.0
  0
LINE
  5
7BE
330
1B
100
AcDbEntity
  8
0
  6
Continuous
 62
     7
370
    25
100
AcDbLine
 10
231.5954628358
 20
-5.6838082779
 30
0.0
 11
231.5824154707
 21
-5.715767665
 31
0.0
  0
LINE
  5
7BF
330
1B
100
AcDbEntity
  8
0
  6
Continuous
 62
     7
370
    25
100
AcDbLine
 10
230.5217552989
 20
1.9052558883
 30
0.0
 11
231.3382518798
 21
1.9052558883
 31
0.0
  0
LINE
  5
7C0
330
1B
100
AcDbEntity
  8
0
  6
Continuous
 62
     7
370
    25
100
AcDbLine
 10
230.5217552989
 20
3.1552558883
 30
0.0
 11
231.3382518798
 21
3.1552558883
 31
0.0
  0
LINE
  5
7C1
330
1B
100
AcDbEntity
  8
0
  6
Continuous
 62
     7
370
    25
100
AcDbLine
 10
230.5217552989
 20
-1.9052558883
 30
0.0
 11
231.3382518798
 21
-1.9052558883
 31
0.0
  0
LINE
  5
7C2
330
1B
100
AcDbEntity
  8
0
  6
Continuous
 62
     7
370
    25
100
AcDbLine
 10
231.5662385019
 20
5.715767665
 30
0.0
 11
231.5824154707
 21
5.715767665
 31
0.0
  0
LINE
  5
7C3
330
1B
100
AcDbEntity
  8
0
  6
Continuous
 62
     7
370
    25
100
AcDbLine
 10
231.5824154707
 20
5.715767665
 30
0.0
 11
231.5954628358
 21
5.6838082779
 31
0.0
  0
LINE
  5
7C4
330
1B
100
AcDbEntity
  8
0
  6
Continuous
 62
     7
370
    25
100
AcDbLine
 10
230.5217552989
 20
0.65
 30
0.0
 11
231.3382518798
 21
0.65
 31
0.0
  0
LINE
  5
7C5
330
1B
100
AcDbEntity
  8
0
  6
Continuous
 62
     7
370
    25
100
AcDbLine
 10
230.5217552989
 20
-4.465767665
 30
0.0
 11
231.3382518798
 21
-4.465767665
 31
0.0
  0
LINE
  5
7C6
330
1B
100
AcDbEntity
  8
0
  6
Continuous
 62
     7
370
    25
100
AcDbLine
 10
230.5217552989
 20
4.4605117767
 30
0.0
 11
231.3382518798
 21
4.4605117767
 31
0.0
  0
LINE
  5
7C7
330
1B
100
AcDbEntity
  8
0
  6
Continuous
 62
     7
370
    25
100
AcDbLine
 10
230.5217552989
 20
-3.1605117767
 30
0.0
 11
231.3382518798
 21
-3.1605117767
 31
0.0
  0
LINE
  5
7C8
330
1B
100
AcDbEntity
  8
0
  6
Continuous
 62
     7
370
    25
100
AcDbLine
 10
230.5217552989
 20
-0.6552558883
 30
0.0
 11
231.3382518798
 21
-0.6552558883
 31
0.0
  0
LINE
  5
7C9
330
1B
100
AcDbEntity
  8
0
  6
Continuous
 62
     7
370
    25
100
AcDbLine
 10
228.8589813124
 20
-8.9103335282
 30
0.0
 11
228.7852893548
 21
-8.3192942805
 31
0.0
  0
LINE
  5
7CA
330
1B
100
AcDbEntity
  8
0
  6
Continuous
 62
     7
370
    25
100
AcDbLine
 10
228.5782871083
 20
-8.9450631638
 30
0.0
 11
228.5045951505
 21
-8.354023916
 31
0.0
  0
LINE
  5
7CB
330
1B
100
AcDbEntity
  8
0
  6
Continuous
 62
     7
370
    25
100
AcDbLine
 10
228.5045951505
 20
8.354023916
 30
0.0
 11
228.5782871083
 21
8.9450631638
 31
0.0
  0
LINE
  5
7CC
330
1B
100
AcDbEntity
  8
0
  6
Continuous
 62
     7
370
    25
100
AcDbLine
 10
228.7852893547
 20
8.3192942805
 30
0.0
 11
228.8589813126
 21
8.9103335282
 31
0.0
  0
LINE
  5
7CD
330
1B
100
AcDbEntity
  8
0
  6
Continuous
 62
     7
370
    25
100
AcDbLine
 10
231.6777718211
 20
5.9493420673
 30
0.0
 11
231.5824154707
 21
5.715767665
 31
0.0
  0
LINE
  5
7CE
330
1B
100
AcDbEntity
  8
0
  6
Continuous
 62
     7
370
    25
100
AcDbLine
 10
231.5824154707
 20
-5.715767665
 30
0.0
 11
231.6777718211
 21
-5.9493420673
 31
0.0
  0
LINE
  5
7CF
330
1B
100
AcDbEntity
  8
0
  6
Continuous
 62
     7
370
    25
100
AcDbLine
 10
229.2832452774
 20
-8.9103335541
 30
0.0
 11
228.8589813124
 21
-8.9103335282
 31
0.0
  0
LINE
  5
7D0
330
1B
100
AcDbEntity
  8
0
  6
Continuous
 62
     7
370
    25
100
AcDbLine
 10
226.7086082851
 20
-8.354023916
 30
0.0
 11
226.6349163273
 21
-8.9450631638
 31
0.0
  0
LINE
  5
7D1
330
1B
100
AcDbEntity
  8
0
  6
Continuous
 62
     7
370
    25
100
AcDbLine
 10
226.6349163273
 20
8.9450631638
 30
0.0
 11
226.7086082851
 21
8.354023916
 31
0.0
  0
LINE
  5
7D2
330
1B
100
AcDbEntity
  8
0
  6
Continuous
 62
     7
370
    25
100
AcDbLine
 10
228.8589813126
 20
8.9103335282
 30
0.0
 11
229.2832452376
 21
8.9103335641
 31
0.0
  0
LINE
  5
7D3
330
1B
100
AcDbEntity
  8
0
  6
Continuous
 62
     7
370
    25
100
AcDbLine
 10
229.2832452774
 20
-8.9103335541
 30
0.0
 11
229.2095532393
 21
-8.3192943264
 31
0.0
  0
LINE
  5
7D4
330
1B
100
AcDbEntity
  8
0
  6
Continuous
 62
     7
370
    25
100
AcDbLine
 10
228.7852893548
 20
-8.3192942805
 30
0.0
 11
229.2095532393
 21
-8.3192943264
 31
0.0
  0
LINE
  5
7D5
330
1B
100
AcDbEntity
  8
0
  6
Continuous
 62
     7
370
    25
100
AcDbLine
 10
229.2095532611
 20
8.319294321
 30
0.0
 11
229.2832452376
 21
8.9103335641
 31
0.0
  0
LINE
  5
7D6
330
1B
100
AcDbEntity
  8
0
  6
Continuous
 62
     7
370
    25
100
AcDbLine
 10
229.2095532611
 20
8.319294321
 30
0.0
 11
228.7852893547
 21
8.3192942805
 31
0.0
  0
LINE
  5
7D7
330
1B
100
AcDbEntity
  8
0
  6
Continuous
 62
     7
370
    25
100
AcDbLine
 10
229.1094487939
 20
8.1618476914
 30
0.0
 11
229.1123727445
 21
8.1630880666
 31
0.0
  0
LINE
  5
7D8
330
1B
100
AcDbEntity
  8
0
  6
Continuous
 62
     7
370
    25
100
AcDbLine
 10
229.1094482773
 20
-8.1618476285
 30
0.0
 11
229.1123725754
 21
-8.1630881848
 31
0.0
  0
LINE
  5
7D9
330
1B
100
AcDbEntity
  8
0
  6
Continuous
 62
     7
370
    25
100
AcDbLine
 10
229.7439378396
 20
-1.2552558883
 30
0.0
 11
230.5604344205
 21
-1.2552558883
 31
0.0
  0
LINE
  5
7DA
330
1B
100
AcDbEntity
  8
0
  6
Continuous
 62
     7
370
    25
100
AcDbLine
 10
229.7439378396
 20
-5.065767665
 30
0.0
 11
230.5604344205
 21
-5.065767665
 31
0.0
  0
LINE
  5
7DB
330
1B
100
AcDbEntity
  8
0
  6
Continuous
 62
     7
370
    25
100
AcDbLine
 10
229.7439378396
 20
-2.5605117767
 30
0.0
 11
230.5604344205
 21
-2.5605117767
 31
0.0
  0
LINE
  5
7DC
330
1B
100
AcDbEntity
  8
0
  6
Continuous
 62
     7
370
    25
100
AcDbLine
 10
229.7439378396
 20
3.8105117767
 30
0.0
 11
230.5604344205
 21
3.8105117767
 31
0.0
  0
LINE
  5
7DD
330
1B
100
AcDbEntity
  8
0
  6
Continuous
 62
     7
370
    25
100
AcDbLine
 10
229.7439378396
 20
0.0
 30
0.0
 11
230.5604344205
 21
0.0
 31
0.0
  0
LINE
  5
7DE
330
1B
100
AcDbEntity
  8
0
  6
Continuous
 62
     7
370
    25
100
AcDbLine
 10
229.7439378396
 20
5.0605117767
 30
0.0
 11
230.5604344205
 21
5.0605117767
 31
0.0
  0
LINE
  5
7DF
330
1B
100
AcDbEntity
  8
0
  6
Continuous
 62
     7
370
    25
100
AcDbLine
 10
229.7439378396
 20
2.5552558883
 30
0.0
 11
230.5604344205
 21
2.5552558883
 31
0.0
  0
LINE
  5
7E0
330
1B
100
AcDbEntity
  8
0
  6
Continuous
 62
     7
370
    25
100
AcDbLine
 10
229.7439378396
 20
-3.8105117767
 30
0.0
 11
230.5604344205
 21
-3.8105117767
 31
0.0
  0
LINE
  5
7E1
330
1B
100
AcDbEntity
  8
0
  6
Continuous
 62
     7
370
    25
100
AcDbLine
 10
230.8158626164
 20
6.3933601994
 30
0.0
 11
230.8153586386
 21
6.3921257111
 31
0.0
  0
LINE
  5
7E2
330
1B
100
AcDbEntity
  8
0
  6
Continuous
 62
     7
370
    25
100
AcDbLine
 10
230.8137083301
 20
-6.3933391856
 30
0.0
 11
230.8139932797
 21
-6.3940371666
 31
0.0
  0
LINE
  5
7E3
330
1B
100
AcDbEntity
  8
0
  6
Continuous
 62
     7
370
    25
100
AcDbLine
 10
228.9661203803
 20
5.715767665
 30
0.0
 11
229.7826169612
 21
5.715767665
 31
0.0
  0
LINE
  5
7E4
330
1B
100
AcDbEntity
  8
0
  6
Continuous
 62
     7
370
    25
100
AcDbLine
 10
228.9661203803
 20
1.9052558883
 30
0.0
 11
229.7826169612
 21
1.9052558883
 31
0.0
  0
LINE
  5
7E5
330
1B
100
AcDbEntity
  8
0
  6
Continuous
 62
     7
370
    25
100
AcDbLine
 10
228.9661203803
 20
0.65
 30
0.0
 11
229.7826169612
 21
0.65
 31
0.0
  0
LINE
  5
7E6
330
1B
100
AcDbEntity
  8
0
  6
Continuous
 62
     7
370
    25
100
AcDbLine
 10
228.9661203803
 20
-3.1605117767
 30
0.0
 11
229.7826169612
 21
-3.1605117767
 31
0.0
  0
LINE
  5
7E7
330
1B
100
AcDbEntity
  8
0
  6
Continuous
 62
     7
370
    25
100
AcDbLine
 10
228.9661203803
 20
-1.9052558883
 30
0.0
 11
229.7826169612
 21
-1.9052558883
 31
0.0
  0
LINE
  5
7E8
330
1B
100
AcDbEntity
  8
0
  6
Continuous
 62
     7
370
    25
100
AcDbLine
 10
228.9661203803
 20
-4.465767665
 30
0.0
 11
229.7826169612
 21
-4.465767665
 31
0.0
  0
LINE
  5
7E9
330
1B
100
AcDbEntity
  8
0
  6
Continuous
 62
     7
370
    25
100
AcDbLine
 10
228.9661203803
 20
3.1552558883
 30
0.0
 11
229.7826169612
 21
3.1552558883
 31
0.0
  0
LINE
  5
7EA
330
1B
100
AcDbEntity
  8
0
  6
Continuous
 62
     7
370
    25
100
AcDbLine
 10
228.9661203803
 20
-5.715767665
 30
0.0
 11
229.7826169612
 21
-5.715767665
 31
0.0
  0
LINE
  5
7EB
330
1B
100
AcDbEntity
  8
0
  6
Continuous
 62
     7
370
    25
100
AcDbLine
 10
228.9661203803
 20
4.4605117767
 30
0.0
 11
229.7826169612
 21
4.4605117767
 31
0.0
  0
LINE
  5
7EC
330
1B
100
AcDbEntity
  8
0
  6
Continuous
 62
     7
370
    25
100
AcDbLine
 10
228.9661203803
 20
-0.6552558883
 30
0.0
 11
229.7826169612
 21
-0.6552558883
 31
0.0
  0
LINE
  5
7ED
330
1B
100
AcDbEntity
  8
0
  6
Continuous
 62
     7
370
    25
100
AcDbLine
 10
228.188302921
 20
2.5552558883
 30
0.0
 11
229.0047995019
 21
2.5552558883
 31
0.0
  0
LINE
  5
7EE
330
1B
100
AcDbEntity
  8
0
  6
Continuous
 62
     7
370
    25
100
AcDbLine
 10
228.188302921
 20
-6.3710235533
 30
0.0
 11
229.0047995019
 21
-6.3710235533
 31
0.0
  0
LINE
  5
7EF
330
1B
100
AcDbEntity
  8
0
  6
Continuous
 62
     7
370
    25
100
AcDbLine
 10
228.188302921
 20
3.8105117767
 30
0.0
 11
229.0047995019
 21
3.8105117767
 31
0.0
  0
LINE
  5
7F0
330
1B
100
AcDbEntity
  8
0
  6
Continuous
 62
     7
370
    25
100
AcDbLine
 10
228.188302921
 20
5.0605117767
 30
0.0
 11
229.0047995019
 21
5.0605117767
 31
0.0
  0
LINE
  5
7F1
330
1B
100
AcDbEntity
  8
0
  6
Continuous
 62
     7
370
    25
100
AcDbLine
 10
228.188302921
 20
1.25
 30
0.0
 11
229.0047995019
 21
1.25
 31
0.0
  0
LINE
  5
7F2
330
1B
100
AcDbEntity
  8
0
  6
Continuous
 62
     7
370
    25
100
AcDbLine
 10
228.188302921
 20
-5.065767665
 30
0.0
 11
229.0047995019
 21
-5.065767665
 31
0.0
  0
LINE
  5
7F3
330
1B
100
AcDbEntity
  8
0
  6
Continuous
 62
     7
370
    25
100
AcDbLine
 10
228.188302921
 20
-3.8105117767
 30
0.0
 11
229.0047995019
 21
-3.8105117767
 31
0.0
  0
LINE
  5
7F4
330
1B
100
AcDbEntity
  8
0
  6
Continuous
 62
     7
370
    25
100
AcDbLine
 10
228.188302921
 20
-1.2552558883
 30
0.0
 11
229.0047995019
 21
-1.2552558883
 31
0.0
  0
LINE
  5
7F5
330
1B
100
AcDbEntity
  8
0
  6
Continuous
 62
     7
370
    25
100
AcDbLine
 10
224.7599523259
 20
-7.5262307854
 30
0.0
 11
225.0033641374
 21
-7.0346109682
 31
0.0
  0
LINE
  5
7F6
330
1B
100
AcDbEntity
  8
0
  6
Continuous
 62
     7
370
    25
100
AcDbLine
 10
225.003364034
 20
7.0346109677
 30
0.0
 11
224.7599524257
 21
7.5262307859
 31
0.0
  0
LINE
  5
7F7
330
1B
100
AcDbEntity
  8
0
  6
Continuous
 62
     7
370
    25
100
AcDbLine
 10
227.4104854617
 20
0.65
 30
0.0
 11
228.2269820426
 21
0.65
 31
0.0
  0
LINE
  5
7F8
330
1B
100
AcDbEntity
  8
0
  6
Continuous
 62
     7
370
    25
100
AcDbLine
 10
227.4104854617
 20
-3.1605117767
 30
0.0
 11
228.2269820426
 21
-3.1605117767
 31
0.0
  0
LINE
  5
7F9
330
1B
100
AcDbEntity
  8
0
  6
Continuous
 62
     7
370
    25
100
AcDbLine
 10
227.4104854617
 20
5.715767665
 30
0.0
 11
228.2269820426
 21
5.715767665
 31
0.0
  0
LINE
  5
7FA
330
1B
100
AcDbEntity
  8
0
  6
Continuous
 62
     7
370
    25
100
AcDbLine
 10
227.4104854617
 20
4.4605117767
 30
0.0
 11
228.2269820426
 21
4.4605117767
 31
0.0
  0
LINE
  5
7FB
330
1B
100
AcDbEntity
  8
0
  6
Continuous
 62
     7
370
    25
100
AcDbLine
 10
227.4104854617
 20
1.9052558883
 30
0.0
 11
228.2269820426
 21
1.9052558883
 31
0.0
  0
LINE
  5
7FC
330
1B
100
AcDbEntity
  8
0
  6
Continuous
 62
     7
370
    25
100
AcDbLine
 10
227.4104854617
 20
-4.465767665
 30
0.0
 11
228.2269820426
 21
-4.465767665
 31
0.0
  0
LINE
  5
7FD
330
1B
100
AcDbEntity
  8
0
  6
Continuous
 62
     7
370
    25
100
AcDbLine
 10
227.4104854617
 20
-5.715767665
 30
0.0
 11
228.2269820426
 21
-5.715767665
 31
0.0
  0
LINE
  5
7FE
330
1B
100
AcDbEntity
  8
0
  6
Continuous
 62
     7
370
    25
100
AcDbLine
 10
227.4104854617
 20
-1.9052558883
 30
0.0
 11
228.2269820426
 21
-1.9052558883
 31
0.0
  0
LINE
  5
7FF
330
1B
100
AcDbEntity
  8
0
  6
Continuous
 62
     7
370
    25
100
AcDbLine
 10
227.4104854617
 20
-0.6552558883
 30
0.0
 11
228.2269820426
 21
-0.6552558883
 31
0.0
  0
LINE
  5
800
330
1B
100
AcDbEntity
  8
0
  6
Continuous
 62
     7
370
    25
100
AcDbLine
 10
227.4104854617
 20
3.1552558883
 30
0.0
 11
228.2269820426
 21
3.1552558883
 31
0.0
  0
LINE
  5
801
330
1B
100
AcDbEntity
  8
0
  6
Continuous
 62
     7
370
    25
100
AcDbLine
 10
226.6326680024
 20
-1.2552558883
 30
0.0
 11
227.4491645833
 21
-1.2552558883
 31
0.0
  0
LINE
  5
802
330
1B
100
AcDbEntity
  8
0
  6
Continuous
 62
     7
370
    25
100
AcDbLine
 10
226.6326680024
 20
-2.5605117767
 30
0.0
 11
227.4491645833
 21
-2.5605117767
 31
0.0
  0
LINE
  5
803
330
1B
100
AcDbEntity
  8
0
  6
Continuous
 62
     7
370
    25
100
AcDbLine
 10
226.6326680024
 20
5.0605117767
 30
0.0
 11
227.4491645833
 21
5.0605117767
 31
0.0
  0
LINE
  5
804
330
1B
100
AcDbEntity
  8
0
  6
Continuous
 62
     7
370
    25
100
AcDbLine
 10
226.6326680024
 20
-5.065767665
 30
0.0
 11
227.4491645833
 21
-5.065767665
 31
0.0
  0
LINE
  5
805
330
1B
100
AcDbEntity
  8
0
  6
Continuous
 62
     7
370
    25
100
AcDbLine
 10
226.6326680024
 20
-3.8105117767
 30
0.0
 11
227.4491645833
 21
-3.8105117767
 31
0.0
  0
LINE
  5
806
330
1B
100
AcDbEntity
  8
0
  6
Continuous
 62
     7
370
    25
100
AcDbLine
 10
226.6326680024
 20
3.8105117767
 30
0.0
 11
227.4491645833
 21
3.8105117767
 31
0.0
  0
LINE
  5
807
330
1B
100
AcDbEntity
  8
0
  6
Continuous
 62
     7
370
    25
100
AcDbLine
 10
226.6326680024
 20
0.0
 30
0.0
 11
227.4491645833
 21
0.0
 31
0.0
  0
LINE
  5
808
330
1B
100
AcDbEntity
  8
0
  6
Continuous
 62
     7
370
    25
100
AcDbLine
 10
226.6326680024
 20
2.5552558883
 30
0.0
 11
227.4491645833
 21
2.5552558883
 31
0.0
  0
LINE
  5
809
330
1B
100
AcDbEntity
  8
0
  6
Continuous
 62
     7
370
    25
100
AcDbLine
 10
224.0784224138
 20
-7.411515499
 30
0.0
 11
224.3218339548
 21
-6.9198956812
 31
0.0
  0
LINE
  5
80A
330
1B
100
AcDbEntity
  8
0
  6
Continuous
 62
     7
370
    25
100
AcDbLine
 10
223.8211554647
 20
-7.2968002117
 30
0.0
 11
224.0645670055
 21
-6.805180394
 31
0.0
  0
LINE
  5
80B
330
1B
100
AcDbEntity
  8
0
  6
Continuous
 62
     7
370
    25
100
AcDbLine
 10
224.0645670055
 20
6.805180394
 30
0.0
 11
223.8211554647
 21
7.2968002117
 31
0.0
  0
LINE
  5
80C
330
1B
100
AcDbEntity
  8
0
  6
Continuous
 62
     7
370
    25
100
AcDbLine
 10
224.3218339547
 20
6.9198956812
 30
0.0
 11
224.078422414
 21
7.411515499
 31
0.0
  0
LINE
  5
80D
330
1B
100
AcDbEntity
  8
0
  6
Continuous
 62
     7
370
    25
100
AcDbLine
 10
225.8548505431
 20
4.4605117767
 30
0.0
 11
226.671347124
 21
4.4605117767
 31
0.0
  0
LINE
  5
80E
330
1B
100
AcDbEntity
  8
0
  6
Continuous
 62
     7
370
    25
100
AcDbLine
 10
225.8548505431
 20
-4.465767665
 30
0.0
 11
226.671347124
 21
-4.465767665
 31
0.0
  0
LINE
  5
80F
330
1B
100
AcDbEntity
  8
0
  6
Continuous
 62
     7
370
    25
100
AcDbLine
 10
225.8548505431
 20
-1.9052558883
 30
0.0
 11
226.671347124
 21
-1.9052558883
 31
0.0
  0
LINE
  5
810
330
1B
100
AcDbEntity
  8
0
  6
Continuous
 62
     7
370
    25
100
AcDbLine
 10
225.8548505431
 20
-0.6552558883
 30
0.0
 11
226.671347124
 21
-0.6552558883
 31
0.0
  0
LINE
  5
811
330
1B
100
AcDbEntity
  8
0
  6
Continuous
 62
     7
370
    25
100
AcDbLine
 10
225.8548505431
 20
-3.1605117767
 30
0.0
 11
226.671347124
 21
-3.1605117767
 31
0.0
  0
LINE
  5
812
330
1B
100
AcDbEntity
  8
0
  6
Continuous
 62
     7
370
    25
100
AcDbLine
 10
225.8548505431
 20
1.9052558883
 30
0.0
 11
226.671347124
 21
1.9052558883
 31
0.0
  0
LINE
  5
813
330
1B
100
AcDbEntity
  8
0
  6
Continuous
 62
     7
370
    25
100
AcDbLine
 10
225.8548505431
 20
0.65
 30
0.0
 11
226.671347124
 21
0.65
 31
0.0
  0
LINE
  5
814
330
1B
100
AcDbEntity
  8
0
  6
Continuous
 62
     7
370
    25
100
AcDbLine
 10
225.8548505431
 20
3.1552558883
 30
0.0
 11
226.671347124
 21
3.1552558883
 31
0.0
  0
LINE
  5
815
330
1B
100
AcDbEntity
  8
0
  6
Continuous
 62
     7
370
    25
100
AcDbLine
 10
224.7460978884
 20
6.9198955474
 30
0.0
 11
224.3218339547
 21
6.9198956812
 31
0.0
  0
LINE
  5
816
330
1B
100
AcDbEntity
  8
0
  6
Continuous
 62
     7
370
    25
100
AcDbLine
 10
224.3218339548
 20
-6.9198956812
 30
0.0
 11
224.7460978703
 21
-6.9198955294
 31
0.0
  0
LINE
  5
817
330
1B
100
AcDbEntity
  8
0
  6
Continuous
 62
     7
370
    25
100
AcDbLine
 10
222.4469848071
 20
5.3534294308
 30
0.0
 11
222.794612514
 21
5.0091935285
 31
0.0
  0
LINE
  5
818
330
1B
100
AcDbEntity
  8
0
  6
Continuous
 62
     7
370
    25
100
AcDbLine
 10
222.794612514
 20
-5.0091935285
 30
0.0
 11
222.4469848071
 21
-5.3534294308
 31
0.0
  0
LINE
  5
819
330
1B
100
AcDbEntity
  8
0
  6
Continuous
 62
     7
370
    25
100
AcDbLine
 10
224.078422414
 20
7.411515499
 30
0.0
 11
224.5026863632
 21
7.4115153807
 31
0.0
  0
LINE
  5
81A
330
1B
100
AcDbEntity
  8
0
  6
Continuous
 62
     7
370
    25
100
AcDbLine
 10
224.7460978884
 20
6.9198955474
 30
0.0
 11
224.5026863632
 21
7.4115153807
 31
0.0
  0
LINE
  5
81B
330
1B
100
AcDbEntity
  8
0
  6
Continuous
 62
     7
370
    25
100
AcDbLine
 10
224.5026863963
 20
-7.4115154134
 30
0.0
 11
224.7460978703
 21
-6.9198955294
 31
0.0
  0
LINE
  5
81C
330
1B
100
AcDbEntity
  8
0
  6
Continuous
 62
     7
370
    25
100
AcDbLine
 10
224.5026863963
 20
-7.4115154134
 30
0.0
 11
224.0784224138
 21
-7.411515499
 31
0.0
  0
LINE
  5
81D
330
1B
100
AcDbEntity
  8
0
  6
Continuous
 62
     7
370
    25
100
AcDbLine
 10
223.9624578482
 20
7.4968001409
 30
0.0
 11
223.9729663841
 21
7.4962597664
 31
0.0
  0
LINE
  5
81E
330
1B
100
AcDbEntity
  8
0
  6
Continuous
 62
     7
370
    25
100
AcDbLine
 10
223.9625153605
 20
-7.4968001928
 30
0.0
 11
223.9729663842
 21
-7.4962597664
 31
0.0
  0
LINE
  5
81F
330
1B
100
AcDbEntity
  8
0
  6
Continuous
 62
     7
370
    25
100
AcDbLine
 10
225.0770330838
 20
3.8105117767
 30
0.0
 11
225.8935296647
 21
3.8105117767
 31
0.0
  0
LINE
  5
820
330
1B
100
AcDbEntity
  8
0
  6
Continuous
 62
     7
370
    25
100
AcDbLine
 10
225.0770330838
 20
-1.2552558883
 30
0.0
 11
225.8935296647
 21
-1.2552558883
 31
0.0
  0
LINE
  5
821
330
1B
100
AcDbEntity
  8
0
  6
Continuous
 62
     7
370
    25
100
AcDbLine
 10
225.0770330838
 20
2.5552558883
 30
0.0
 11
225.8935296647
 21
2.5552558883
 31
0.0
  0
LINE
  5
822
330
1B
100
AcDbEntity
  8
0
  6
Continuous
 62
     7
370
    25
100
AcDbLine
 10
225.0770330838
 20
0.0
 30
0.0
 11
225.8935296647
 21
0.0
 31
0.0
  0
LINE
  5
823
330
1B
100
AcDbEntity
  8
0
  6
Continuous
 62
     7
370
    25
100
AcDbLine
 10
225.0770330838
 20
-2.5605117767
 30
0.0
 11
225.8935296647
 21
-2.5605117767
 31
0.0
  0
LINE
  5
824
330
1B
100
AcDbEntity
  8
0
  6
Continuous
 62
     7
370
    25
100
AcDbLine
 10
225.0770330838
 20
-3.8105117767
 30
0.0
 11
225.8935296647
 21
-3.8105117767
 31
0.0
  0
LINE
  5
825
330
1B
100
AcDbEntity
  8
0
  6
Continuous
 62
     7
370
    25
100
AcDbLine
 10
225.0770330838
 20
1.25
 30
0.0
 11
225.8935296647
 21
1.25
 31
0.0
  0
LINE
  5
826
330
1B
100
AcDbEntity
  8
0
  6
Continuous
 62
     7
370
    25
100
AcDbLine
 10
222.9464467871
 20
4.8097364095
 30
0.0
 11
222.9360245069
 21
4.8091935289
 31
0.0
  0
LINE
  5
827
330
1B
100
AcDbEntity
  8
0
  6
Continuous
 62
     7
370
    25
100
AcDbLine
 10
222.9464467871
 20
-4.8097364095
 30
0.0
 11
222.9361345981
 21
-4.8091935792
 31
0.0
  0
LINE
  5
828
330
1B
100
AcDbEntity
  8
0
  6
Continuous
 62
     7
370
    25
100
AcDbLine
 10
224.2992156245
 20
1.9052558883
 30
0.0
 11
225.1157122054
 21
1.9052558883
 31
0.0
  0
LINE
  5
829
330
1B
100
AcDbEntity
  8
0
  6
Continuous
 62
     7
370
    25
100
AcDbLine
 10
224.2992156245
 20
-1.9052558883
 30
0.0
 11
225.1157122054
 21
-1.9052558883
 31
0.0
  0
LINE
  5
82A
330
1B
100
AcDbEntity
  8
0
  6
Continuous
 62
     7
370
    25
100
AcDbLine
 10
224.2992156245
 20
0.65
 30
0.0
 11
225.1157122054
 21
0.65
 31
0.0
  0
LINE
  5
82B
330
1B
100
AcDbEntity
  8
0
  6
Continuous
 62
     7
370
    25
100
AcDbLine
 10
224.2992156245
 20
-0.6552558883
 30
0.0
 11
225.1157122054
 21
-0.6552558883
 31
0.0
  0
LINE
  5
82C
330
1B
100
AcDbEntity
  8
0
  6
Continuous
 62
     7
370
    25
100
AcDbLine
 10
222.037707694
 20
-1.7680937572
 30
0.0
 11
222.4556358242
 21
-1.6638775921
 31
0.0
  0
LINE
  5
82D
330
1B
100
AcDbEntity
  8
0
  6
Continuous
 62
     7
370
    25
100
AcDbLine
 10
222.4556357211
 20
1.6638775914
 30
0.0
 11
222.0377077934
 21
1.7680937581
 31
0.0
  0
LINE
  5
82E
330
1B
100
AcDbEntity
  8
0
  6
Continuous
 62
     7
370
    25
100
AcDbLine
 10
221.4474658134
 20
-1.5711322081
 30
0.0
 11
221.8653936736
 21
-1.4669160421
 31
0.0
  0
LINE
  5
82F
330
1B
100
AcDbEntity
  8
0
  6
Continuous
 62
     7
370
    25
100
AcDbLine
 10
221.2814868965
 20
-1.3741706575
 30
0.0
 11
221.6994147566
 21
-1.2699544915
 31
0.0
  0
LINE
  5
830
330
1B
100
AcDbEntity
  8
0
  6
Continuous
 62
     7
370
    25
100
AcDbLine
 10
221.6994147566
 20
1.2699544915
 30
0.0
 11
221.2814868965
 21
1.3741706575
 31
0.0
  0
LINE
  5
831
330
1B
100
AcDbEntity
  8
0
  6
Continuous
 62
     7
370
    25
100
AcDbLine
 10
221.8653936734
 20
1.4669160421
 30
0.0
 11
221.4474658136
 21
1.5711322081
 31
0.0
  0
LINE
  5
832
330
1B
100
AcDbEntity
  8
0
  6
Continuous
 62
     7
370
    25
100
AcDbLine
 10
222.2896577137
 20
1.4669158124
 30
0.0
 11
221.8653936734
 21
1.4669160421
 31
0.0
  0
LINE
  5
833
330
1B
100
AcDbEntity
  8
0
  6
Continuous
 62
     7
370
    25
100
AcDbLine
 10
221.8653936736
 20
-1.4669160421
 30
0.0
 11
222.2896577098
 21
-1.4669157815
 31
0.0
  0
LINE
  5
834
330
1B
100
AcDbEntity
  8
0
  6
Continuous
 62
     7
370
    25
100
AcDbLine
 10
221.4474658136
 20
1.5711322081
 30
0.0
 11
221.871729857
 21
1.571132005
 31
0.0
  0
LINE
  5
835
330
1B
100
AcDbEntity
  8
0
  6
Continuous
 62
     7
370
    25
100
AcDbLine
 10
222.2896577137
 20
1.4669158124
 30
0.0
 11
221.871729857
 21
1.571132005
 31
0.0
  0
LINE
  5
836
330
1B
100
AcDbEntity
  8
0
  6
Continuous
 62
     7
370
    25
100
AcDbLine
 10
221.871729864
 20
-1.5711320612
 30
0.0
 11
222.2896577098
 21
-1.4669157815
 31
0.0
  0
LINE
  5
837
330
1B
100
AcDbEntity
  8
0
  6
Continuous
 62
     7
370
    25
100
AcDbLine
 10
221.871729864
 20
-1.5711320612
 30
0.0
 11
221.4474658134
 21
-1.5711322081
 31
0.0
  0
LINE
  5
838
330
1B
100
AcDbEntity
  8
0
  6
Continuous
 62
     7
370
    25
100
AcDbLine
 10
-6.0
 20
26.4999999674
 30
0.0
 11
-6.0
 21
-26.4999999657
 31
0.0
  0
LINE
  5
839
330
1B
100
AcDbEntity
  8
0
  6
Continuous
 62
     7
370
    25
100
AcDbLine
 10
0.0
 20
-25.4999999899
 30
0.0
 11
0.0
 21
25.4999999899
 31
0.0
  0
LINE
  5
83A
330
1B
100
AcDbEntity
  8
0
  6
Continuous
 62
     7
370
    25
100
AcDbLine
 10
296.6
 20
-21.25
 30
0.0
 11
296.6
 21
21.25
 31
0.0
  0
LINE
  5
83B
330
1B
100
AcDbEntity
  8
0
  6
Continuous
 62
     7
370
    25
100
AcDbLine
 10
323.6
 20
20.45
 30
0.0
 11
323.6
 21
-20.45
 31
0.0
  0
LINE
  5
83C
330
1B
100
AcDbEntity
  8
0
  6
Continuous
 62
     7
370
    25
100
AcDbLine
 10
227.712667735
 20
10.9989772252
 30
0.0
 11
227.8169245664
 21
10.9999997024
 31
0.0
  0
LINE
  5
83D
330
1B
100
AcDbEntity
  8
0
  6
Continuous
 62
     7
370
    25
100
AcDbLine
 10
295.0
 20
20.9999999951
 30
0.0
 11
295.0
 21
-21.0
 31
0.0
  0
LINE
  5
83E
330
1B
100
AcDbEntity
  8
0
  6
Continuous
 62
     8
370
    25
100
AcDbLine
 10
231.6171255979
 20
-7.458055465
 30
0.0
 11
231.8000954188
 21
-7.4580556442
 31
0.0
  0
LINE
  5
83F
330
1B
100
AcDbEntity
  8
0
  6
Continuous
 62
     8
370
    25
100
AcDbLine
 10
233.0216646678
 20
5.4717372635
 30
0.0
 11
233.1662547437
 21
5.4717373674
 31
0.0
  0
LINE
  5
840
330
1B
100
AcDbEntity
  8
0
  6
Continuous
 62
     8
370
    25
100
AcDbLine
 10
231.8000954644
 20
7.4580555951
 30
0.0
 11
231.6171255979
 21
7.458055465
 31
0.0
  0
LINE
  5
841
330
1B
100
AcDbEntity
  8
0
  6
Continuous
 62
     8
370
    25
100
AcDbLine
 10
233.2879286792
 20
4.6815327119
 30
0.0
 11
233.4569474283
 21
4.8489023768
 31
0.0
  0
LINE
  5
842
330
1B
100
AcDbEntity
  8
0
  6
Continuous
 62
     8
370
    25
100
AcDbLine
 10
233.3041884102
 20
-5.1895991128
 30
0.0
 11
232.9887559421
 21
-5.1895990219
 31
0.0
  0
LINE
  5
843
330
1B
100
AcDbEntity
  8
0
  6
Continuous
 62
     8
370
    25
100
AcDbLine
 10
232.9887559422
 20
5.1895990219
 30
0.0
 11
233.3041883939
 21
5.1895991476
 31
0.0
  0
LINE
  5
844
330
1B
100
AcDbEntity
  8
0
  6
Continuous
 62
     8
370
    25
100
AcDbLine
 10
233.3385123346
 20
-5.1158185296
 30
0.0
 11
233.0653921967
 21
-4.8453633364
 31
0.0
  0
LINE
  5
845
330
1B
100
AcDbEntity
  8
0
  6
Continuous
 62
     8
370
    25
100
AcDbLine
 10
233.0653922094
 20
4.8453633107
 30
0.0
 11
233.3385123199
 21
5.1158185616
 31
0.0
  0
LINE
  5
846
330
1B
100
AcDbEntity
  8
0
  6
Continuous
 62
     8
370
    25
100
AcDbLine
 10
226.8712839237
 20
-8.1562955393
 30
0.0
 11
226.8612639241
 21
-8.1546559603
 31
0.0
  0
LINE
  5
847
330
1B
100
AcDbEntity
  8
0
  6
Continuous
 62
     8
370
    25
100
AcDbLine
 10
226.8712839237
 20
8.1562955393
 30
0.0
 11
226.8612639241
 21
8.1546559603
 31
0.0
  0
LINE
  5
848
330
1B
100
AcDbEntity
  8
0
  6
Continuous
 62
     8
370
    25
100
AcDbLine
 10
230.1521861301
 20
-7.8931932701
 30
0.0
 11
230.1521861301
 21
-7.4759614766
 31
0.0
  0
LINE
  5
849
330
1B
100
AcDbEntity
  8
0
  6
Continuous
 62
     8
370
    25
100
AcDbLine
 10
230.1521861301
 20
7.4759614766
 30
0.0
 11
230.1521861301
 21
7.8931932701
 31
0.0
  0
LINE
  5
84A
330
1B
100
AcDbEntity
  8
0
  6
Continuous
 62
     8
370
    25
100
AcDbLine
 10
229.3036579926
 20
-7.4759614766
 30
0.0
 11
229.3036579926
 21
-7.4973328591
 31
0.0
  0
LINE
  5
84B
330
1B
100
AcDbEntity
  8
0
  6
Continuous
 62
     8
370
    25
100
AcDbLine
 10
229.3036579926
 20
-7.5
 30
0.0
 11
229.3036579926
 21
-8.1503832928
 31
0.0
  0
LINE
  5
84C
330
1B
100
AcDbEntity
  8
0
  6
Continuous
 62
     8
370
    25
100
AcDbLine
 10
229.3036579926
 20
8.1503830339
 30
0.0
 11
229.3036579926
 21
7.5
 31
0.0
  0
LINE
  5
84D
330
1B
100
AcDbEntity
  8
0
  6
Continuous
 62
     8
370
    25
100
AcDbLine
 10
229.3036579926
 20
7.4973328591
 30
0.0
 11
229.3036579926
 21
7.4759614766
 31
0.0
  0
LINE
  5
84E
330
1B
100
AcDbEntity
  8
0
  6
Continuous
 62
     8
370
    25
100
AcDbLine
 10
225.9138456158
 20
-6.2424467747
 30
0.0
 11
225.916085554
 21
-6.2392790237
 31
0.0
  0
LINE
  5
84F
330
1B
100
AcDbEntity
  8
0
  6
Continuous
 62
     8
370
    25
100
AcDbLine
 10
225.916085554
 20
6.2392790237
 30
0.0
 11
225.9138456158
 21
6.2424467747
 31
0.0
  0
LINE
  5
850
330
1B
100
AcDbEntity
  8
0
  6
Continuous
 62
     8
370
    25
100
AcDbLine
 10
223.2100267279
 20
4.8097292896
 30
0.0
 11
223.3394865453
 21
4.6815327113
 31
0.0
  0
LINE
  5
851
330
1B
100
AcDbEntity
  8
0
  6
Continuous
 62
     8
370
    25
100
AcDbLine
 10
223.3394864426
 20
-4.6815327119
 30
0.0
 11
223.2100267005
 21
-4.8097292896
 31
0.0
  0
LINE
  5
852
330
1B
100
AcDbEntity
  8
0
  6
Continuous
 62
     8
370
    25
100
AcDbLine
 10
221.4233018095
 20
1.5741698831
 30
0.0
 11
221.4474658136
 21
1.5711322081
 31
0.0
  0
LINE
  5
853
330
1B
100
AcDbEntity
  8
0
  6
Continuous
 62
     8
370
    25
100
AcDbLine
 10
221.4228066783
 20
-1.574170606
 30
0.0
 11
221.4474658134
 21
-1.5711322081
 31
0.0
  0
LINE
  5
854
330
1B
100
AcDbEntity
  8
0
  6
Continuous
 62
     8
370
    25
100
AcDbLine
 10
-1.0
 20
-26.4999999657
 30
0.0
 11
-1.0
 21
26.4999999674
 31
0.0
  0
LINE
  5
855
330
1B
100
AcDbEntity
  8
0
  6
Continuous
 62
     8
370
    25
100
AcDbLine
 10
322.8
 20
-21.2499999178
 30
0.0
 11
322.8
 21
21.25
 31
0.0
  0
LINE
  5
856
330
1B
100
AcDbEntity
  8
0
  6
Continuous
 62
     8
370
    25
100
AcDbLine
 10
295.202665186
 20
19.248649589
 30
0.0
 11
295.202665186
 21
-19.248649589
 31
0.0
  0
ARC
  5
857
330
1B
100
AcDbEntity
  8
0
  6
Continuous
 62
     7
370
    25
100
AcDbCircle
 10
228.6460150953
 20
-8.354012505
 30
0.0
 40
0.1999885019696454
100
AcDbArc
 50
90.0526423495
 51
102.1712906946
  0
ARC
  5
858
330
1B
100
AcDbEntity
  8
0
  6
Continuous
 62
     7
370
    25
100
AcDbCircle
 10
228.6460150953
 20
8.354012505
 30
0.0
 40
0.1999885019699977
100
AcDbArc
 50
257.8287093055
 51
269.9473576506
  0
ARC
  5
859
330
1B
100
AcDbEntity
  8
0
  6
Continuous
 62
     7
370
    25
100
AcDbCircle
 10
-1.0
 20
25.5
 30
0.0
 40
1.000000000000245
100
AcDbArc
 50
359.9999997107
 51
90.0
  0
ARC
  5
85A
330
1B
100
AcDbEntity
  8
0
  6
Continuous
 62
     7
370
    25
100
AcDbCircle
 10
-1.0
 20
-25.5
 30
0.0
 40
0.999999999999858
100
AcDbArc
 50
270.0
 51
0.0000002894
  0
ARC
  5
85B
330
1B
100
AcDbEntity
  8
0
  6
Continuous
 62
     7
370
    25
100
AcDbCircle
 10
322.8
 20
-20.45
 30
0.0
 40
0.8000000000016598
100
AcDbArc
 50
270.0000000001
 51
359.9999999999
  0
ARC
  5
85C
330
1B
100
AcDbEntity
  8
0
  6
Continuous
 62
     7
370
    25
100
AcDbCircle
 10
322.8
 20
20.45
 30
0.0
 40
0.7999999999971124
100
AcDbArc
 50
359.9999999998
 51
90.0000000002
  0
ARC
  5
85D
330
1B
100
AcDbEntity
  8
0
  6
Continuous
 62
     7
370
    25
100
AcDbCircle
 10
295.2
 20
19.0486673478
 30
0.0
 40
0.1999999999990889
100
AcDbArc
 50
89.2364578532
 51
180.0000000002
  0
ARC
  5
85E
330
1B
100
AcDbEntity
  8
0
  6
Continuous
 62
     7
370
    25
100
AcDbCircle
 10
295.2
 20
-19.0486673478
 30
0.0
 40
0.2000000000017532
100
AcDbArc
 50
180.0000000006
 51
270.7635421461
  0
ARC
  5
85F
330
1B
100
AcDbEntity
  8
0
  6
Continuous
 62
     7
370
    25
100
AcDbCircle
 10
234.2376684415
 20
-0.1417435105
 30
0.0
 40
1.546480627555773
100
AcDbArc
 50
90.9169684626
 51
101.4105318897
  0
ARC
  5
860
330
1B
100
AcDbEntity
  8
0
  6
Continuous
 62
     7
370
    25
100
AcDbCircle
 10
234.2376684415
 20
0.1417435105
 30
0.0
 40
1.546480627607764
100
AcDbArc
 50
258.5894681107
 51
269.0830315375
  0
ARC
  5
861
330
1B
100
AcDbEntity
  8
0
  6
Continuous
 62
     7
370
    25
100
AcDbCircle
 10
221.2505785732
 20
0.0
 30
0.0
 40
12.75537553756213
100
AcDbArc
 50
353.8153696675
 51
6.1846303325
  0
ARC
  5
862
330
1B
100
AcDbEntity
  8
0
  6
Continuous
 62
     7
370
    25
100
AcDbCircle
 10
234.072813377
 20
-1.4704137317
 30
0.0
 40
0.1037571442405136
100
AcDbArc
 50
270.1284245276
 51
293.9666818325
  0
ARC
  5
863
330
1B
100
AcDbEntity
  8
0
  6
Continuous
 62
     7
370
    25
100
AcDbCircle
 10
234.049448271
 20
-1.4705343867
 30
0.0
 40
0.1007683359368336
100
AcDbArc
 50
231.9864041546
 51
255.7864227179
  0
ARC
  5
864
330
1B
100
AcDbEntity
  8
0
  6
Continuous
 62
     7
370
    25
100
AcDbCircle
 10
234.0728144427
 20
1.4704170434
 30
0.0
 40
0.1037536851721592
100
AcDbArc
 50
66.0331130782
 51
89.8975068614
  0
ARC
  5
865
330
1B
100
AcDbEntity
  8
0
  6
Continuous
 62
     7
370
    25
100
AcDbCircle
 10
234.0494531411
 20
1.4705265235
 30
0.0
 40
0.1007775335005655
100
AcDbArc
 50
104.281249232
 51
128.013333415
  0
ARC
  5
866
330
1B
100
AcDbEntity
  8
0
  6
Continuous
 62
     7
370
    25
100
AcDbCircle
 10
233.6178960563
 20
-0.2292368626
 30
0.0
 40
11.68449795934188
100
AcDbArc
 50
187.7612109642
 51
203.6163949882
  0
ARC
  5
867
330
1B
100
AcDbEntity
  8
0
  6
Continuous
 62
     7
370
    25
100
AcDbCircle
 10
230.0337091009
 20
-1.6162240931
 30
0.0
 40
8.485777270434069
100
AcDbArc
 50
207.0231219108
 51
223.5056574524
  0
ARC
  5
868
330
1B
100
AcDbEntity
  8
0
  6
Continuous
 62
     7
370
    25
100
AcDbCircle
 10
228.9506288218
 20
-3.3942227363
 30
0.0
 40
5.959389433935132
100
AcDbArc
 50
226.1595000528
 51
246.4853313152
  0
ARC
  5
869
330
1B
100
AcDbEntity
  8
0
  6
Continuous
 62
     7
370
    25
100
AcDbCircle
 10
227.7503066719
 20
-4.5770405595
 30
0.0
 40
4.672959998494203
100
AcDbArc
 50
257.7004991421
 51
269.9720005035
  0
ARC
  5
86A
330
1B
100
AcDbEntity
  8
0
  6
Continuous
 62
     7
370
    25
100
AcDbCircle
 10
225.4623370459
 20
-1.6162240918
 30
0.0
 40
8.485777272158506
100
AcDbArc
 50
316.4943425471
 51
332.9768780858
  0
ARC
  5
86B
330
1B
100
AcDbEntity
  8
0
  6
Continuous
 62
     7
370
    25
100
AcDbCircle
 10
225.462337043
 20
1.6162240898
 30
0.0
 40
8.485777275635082
100
AcDbArc
 50
27.0231219176
 51
43.5056574495
  0
ARC
  5
86C
330
1B
100
AcDbEntity
  8
0
  6
Continuous
 62
     7
370
    25
100
AcDbCircle
 10
227.750306672
 20
4.5770405595
 30
0.0
 40
4.672959998525982
100
AcDbArc
 50
90.0279994965
 51
102.2995008579
  0
ARC
  5
86D
330
1B
100
AcDbEntity
  8
0
  6
Continuous
 62
     7
370
    25
100
AcDbCircle
 10
228.89833946
 20
3.4725497758
 30
0.0
 40
5.866699346527448
100
AcDbArc
 50
113.3033872951
 51
134.0020214446
  0
ARC
  5
86E
330
1B
100
AcDbEntity
  8
0
  6
Continuous
 62
     7
370
    25
100
AcDbCircle
 10
230.0337091058
 20
1.6162240896
 30
0.0
 40
8.485777276366855
100
AcDbArc
 50
136.4943425534
 51
152.9768780834
  0
ARC
  5
86F
330
1B
100
AcDbEntity
  8
0
  6
Continuous
 62
     7
370
    25
100
AcDbCircle
 10
233.6173694411
 20
0.2293504465
 30
0.0
 40
11.68396082940601
100
AcDbArc
 50
156.3736806762
 51
172.2389921921
  0
ARC
  5
870
330
1B
100
AcDbEntity
  8
0
  6
Continuous
 62
     7
370
    25
100
AcDbCircle
 10
234.2445108185
 20
0.0
 30
0.0
 40
13.03726228973868
100
AcDbArc
 50
173.8153696675
 51
186.1846303325
  0
ARC
  5
871
330
1B
100
AcDbEntity
  8
0
  6
Continuous
 62
     7
370
    25
100
AcDbCircle
 10
221.671145584
 20
0.0
 30
0.0
 40
11.91054070506381
100
AcDbArc
 50
353.8792355876
 51
6.1207644124
  0
ARC
  5
872
330
1B
100
AcDbEntity
  8
0
  6
Continuous
 62
     7
370
    25
100
AcDbCircle
 10
233.63152441
 20
1.3663117863
 30
0.0
 40
0.1007758682085086
100
AcDbArc
 50
104.2694220555
 51
128.0131350965
  0
ARC
  5
873
330
1B
100
AcDbEntity
  8
0
  6
Continuous
 62
     7
370
    25
100
AcDbCircle
 10
233.631509203
 20
-1.3663362168
 30
0.0
 40
0.1007472581630578
100
AcDbArc
 50
231.9848146437
 51
255.94439887
  0
ARC
  5
874
330
1B
100
AcDbEntity
  8
0
  6
Continuous
 62
     7
370
    25
100
AcDbCircle
 10
233.4987566649
 20
-1.3320494621
 30
0.0
 40
0.0936430469167286
100
AcDbArc
 50
79.7654703368
 51
116.921227894
  0
ARC
  5
875
330
1B
100
AcDbEntity
  8
0
  6
Continuous
 62
     7
370
    25
100
AcDbCircle
 10
233.4987653296
 20
1.332225072
 30
0.0
 40
0.09381433159038
100
AcDbArc
 50
243.1270165015
 51
280.2102658592
  0
ARC
  5
876
330
1B
100
AcDbEntity
  8
0
  6
Continuous
 62
     7
370
    25
100
AcDbCircle
 10
225.7089491903
 20
-1.4418429721
 30
0.0
 40
7.568593557696488
100
AcDbArc
 50
316.5793464297
 51
332.891874206
  0
ARC
  5
877
330
1B
100
AcDbEntity
  8
0
  6
Continuous
 62
     7
370
    25
100
AcDbCircle
 10
228.2004428713
 20
-3.3367834912
 30
0.0
 40
4.954605931207266
100
AcDbArc
 50
286.4541173945
 51
308.2255942213
  0
ARC
  5
878
330
1B
100
AcDbEntity
  8
0
  6
Continuous
 62
     7
370
    25
100
AcDbCircle
 10
227.7460484658
 20
-4.0830986033
 30
0.0
 40
4.166901864543259
100
AcDbArc
 50
270.0271512798
 51
282.1738922074
  0
ARC
  5
879
330
1B
100
AcDbEntity
  8
0
  6
Continuous
 62
     7
370
    25
100
AcDbCircle
 10
228.7634704347
 20
-3.212768288
 30
0.0
 40
5.088763254207024
100
AcDbArc
 50
225.9157029706
 51
253.3620217668
  0
ARC
  5
87A
330
1B
100
AcDbEntity
  8
0
  6
Continuous
 62
     7
370
    25
100
AcDbCircle
 10
229.7870969602
 20
-1.4418429705
 30
0.0
 40
7.568593560512869
100
AcDbArc
 50
207.108125797
 51
223.4206535673
  0
ARC
  5
87B
330
1B
100
AcDbEntity
  8
0
  6
Continuous
 62
     7
370
    25
100
AcDbCircle
 10
232.9985000696
 20
-0.2180770073
 30
0.0
 40
10.35871128939756
100
AcDbArc
 50
187.8032432911
 51
204.8467255783
  0
ARC
  5
87C
330
1B
100
AcDbEntity
  8
0
  6
Continuous
 62
     7
370
    25
100
AcDbCircle
 10
233.542995039
 20
0.0
 30
0.0
 40
11.62863441619554
100
AcDbArc
 50
173.8792355876
 51
186.1207644124
  0
ARC
  5
87D
330
1B
100
AcDbEntity
  8
0
  6
Continuous
 62
     7
370
    25
100
AcDbCircle
 10
232.9985126934
 20
0.2180866628
 30
0.0
 40
10.35872065499363
100
AcDbArc
 50
155.1533485952
 51
172.1968205271
  0
ARC
  5
87E
330
1B
100
AcDbEntity
  8
0
  6
Continuous
 62
     7
370
    25
100
AcDbCircle
 10
229.7870969577
 20
1.4418429722
 30
0.0
 40
7.568593557557369
100
AcDbArc
 50
136.5793464295
 51
152.8918742062
  0
ARC
  5
87F
330
1B
100
AcDbEntity
  8
0
  6
Continuous
 62
     7
370
    25
100
AcDbCircle
 10
228.7634827907
 20
3.2127669808
 30
0.0
 40
5.08877055630017
100
AcDbArc
 50
106.6381030497
 51
134.084395309
  0
ARC
  5
880
330
1B
100
AcDbEntity
  8
0
  6
Continuous
 62
     7
370
    25
100
AcDbCircle
 10
227.7460484658
 20
4.0830986033
 30
0.0
 40
4.166901864543826
100
AcDbArc
 50
77.8261077926
 51
89.9728487202
  0
ARC
  5
881
330
1B
100
AcDbEntity
  8
0
  6
Continuous
 62
     7
370
    25
100
AcDbCircle
 10
228.232606233
 20
3.3991219625
 30
0.0
 40
4.885725513867892
100
AcDbArc
 50
51.6518452
 51
73.7005477398
  0
ARC
  5
882
330
1B
100
AcDbEntity
  8
0
  6
Continuous
 62
     7
370
    25
100
AcDbCircle
 10
225.7089491878
 20
1.4418429704
 30
0.0
 40
7.568593560634952
100
AcDbArc
 50
27.1081257971
 51
43.4206535671
  0
ARC
  5
883
330
1B
100
AcDbEntity
  8
0
  6
Continuous
 62
     7
370
    25
100
AcDbCircle
 10
231.5515334714
 20
3.1038558707
 30
0.0
 40
5.233540199817779
100
AcDbArc
 50
116.6046015238
 51
128.7761495864
  0
ARC
  5
884
330
1B
100
AcDbEntity
  8
0
  6
Continuous
 62
     7
370
    25
100
AcDbCircle
 10
231.5478847346
 20
-3.1102540107
 30
0.0
 40
5.226185503927104
100
AcDbArc
 50
231.5165254766
 51
243.3997521595
  0
ARC
  5
885
330
1B
100
AcDbEntity
  8
0
  6
Continuous
 62
     7
370
    25
100
AcDbCircle
 10
233.0535598345
 20
5.0679414704
 30
0.0
 40
0.4050535078545443
100
AcDbArc
 50
94.5163224409
 51
135.1853655276
  0
ARC
  5
886
330
1B
100
AcDbEntity
  8
0
  6
Continuous
 62
     7
370
    25
100
AcDbCircle
 10
232.7962298524
 20
5.3550437124
 30
0.0
 40
0.2538468846524132
100
AcDbArc
 50
319.3263302542
 51
27.3677858782
  0
ARC
  5
887
330
1B
100
AcDbEntity
  8
0
  6
Continuous
 62
     7
370
    25
100
AcDbCircle
 10
233.0263686687
 20
5.4737456884
 30
0.0
 40
0.2866252697160067
100
AcDbArc
 50
204.8199723623
 51
262.4595482685
  0
ARC
  5
888
330
1B
100
AcDbEntity
  8
0
  6
Continuous
 62
     7
370
    25
100
AcDbCircle
 10
232.7962298527
 20
-5.3550437125
 30
0.0
 40
0.2538468843825455
100
AcDbArc
 50
332.6322140991
 51
40.6736698085
  0
ARC
  5
889
330
1B
100
AcDbEntity
  8
0
  6
Continuous
 62
     7
370
    25
100
AcDbCircle
 10
233.0535598345
 20
-5.0679414704
 30
0.0
 40
0.4050535078545393
100
AcDbArc
 50
224.8146344724
 51
265.4836775591
  0
ARC
  5
88A
330
1B
100
AcDbEntity
  8
0
  6
Continuous
 62
     7
370
    25
100
AcDbCircle
 10
233.0263686686
 20
-5.4737456883
 30
0.0
 40
0.2866252696265104
100
AcDbArc
 50
97.5404517432
 51
155.1800276507
  0
ARC
  5
88B
330
1B
100
AcDbEntity
  8
0
  6
Continuous
 62
     7
370
    25
100
AcDbCircle
 10
232.6787409617
 20
5.129509786
 30
0.0
 40
0.2866252696288171
100
AcDbArc
 50
204.8199723498
 51
262.4595482567
  0
ARC
  5
88C
330
1B
100
AcDbEntity
  8
0
  6
Continuous
 62
     7
370
    25
100
AcDbCircle
 10
232.6787409618
 20
-5.1295097861
 30
0.0
 40
0.2866252697108457
100
AcDbArc
 50
97.5404517309
 51
155.1800276381
  0
ARC
  5
88D
330
1B
100
AcDbEntity
  8
0
  6
Continuous
 62
     7
370
    25
100
AcDbCircle
 10
231.6544333455
 20
-7.1682742901
 30
0.0
 40
0.2921728894718462
100
AcDbArc
 50
206.0972972921
 51
262.6638355958
  0
ARC
  5
88E
330
1B
100
AcDbEntity
  8
0
  6
Continuous
 62
     7
370
    25
100
AcDbCircle
 10
225.3703359296
 20
-1.5812787071
 30
0.0
 40
8.302301005004665
100
AcDbArc
 50
316.4943425448
 51
332.9768780872
  0
ARC
  5
88F
330
1B
100
AcDbEntity
  8
0
  6
Continuous
 62
     7
370
    25
100
AcDbCircle
 10
225.3703359246
 20
1.5812787035
 30
0.0
 40
8.302301011161145
100
AcDbArc
 50
27.0231219189
 51
43.505657449
  0
ARC
  5
890
330
1B
100
AcDbEntity
  8
0
  6
Continuous
 62
     7
370
    25
100
AcDbCircle
 10
231.6544333455
 20
7.1682742901
 30
0.0
 40
0.2921728894718453
100
AcDbArc
 50
97.3361644042
 51
153.9027027079
  0
ARC
  5
891
330
1B
100
AcDbEntity
  8
0
  6
Continuous
 62
     7
370
    25
100
AcDbCircle
 10
225.5180957392
 20
1.4767967405
 30
0.0
 40
7.752074614588714
100
AcDbArc
 50
27.1081257955
 51
43.4206535699
  0
ARC
  5
892
330
1B
100
AcDbEntity
  8
0
  6
Continuous
 62
     7
370
    25
100
AcDbCircle
 10
225.5180957384
 20
-1.47679674
 30
0.0
 40
7.752074615489223
100
AcDbArc
 50
316.579346431
 51
332.8918742036
  0
ARC
  5
893
330
1B
100
AcDbEntity
  8
0
  6
Continuous
 62
     7
370
    25
100
AcDbCircle
 10
233.299734311
 20
-4.6308077808
 30
0.0
 40
0.0612434587978112
100
AcDbArc
 50
78.8099710015
 51
149.1601919307
  0
ARC
  5
894
330
1B
100
AcDbEntity
  8
0
  6
Continuous
 62
     7
370
    25
100
AcDbCircle
 10
233.2997269038
 20
4.6307969157
 30
0.0
 40
0.0612340963046609
100
AcDbArc
 50
210.8346381619
 51
281.1990130614
  0
ARC
  5
895
330
1B
100
AcDbEntity
  8
0
  6
Continuous
 62
     7
370
    25
100
AcDbCircle
 10
231.2018113896
 20
-6.7245445721
 30
0.0
 40
0.0805544101097074
100
AcDbArc
 50
86.860844487
 51
134.0109907248
  0
ARC
  5
896
330
1B
100
AcDbEntity
  8
0
  6
Continuous
 62
     7
370
    25
100
AcDbCircle
 10
231.2018162157
 20
6.7245718348
 30
0.0
 40
0.0805813678351197
100
AcDbArc
 50
226.0767667727
 51
273.1346676346
  0
ARC
  5
897
330
1B
100
AcDbEntity
  8
0
  6
Continuous
 62
     7
370
    25
100
AcDbCircle
 10
232.211397512
 20
0.0007164676
 30
0.0
 40
8.939427563505607
100
AcDbArc
 50
143.3840949735
 51
216.7582961779
  0
ARC
  5
898
330
1B
100
AcDbEntity
  8
0
  6
Continuous
 62
     7
370
    25
100
AcDbCircle
 10
232.0733524484
 20
0.0001935197
 30
0.0
 40
8.711391058717076
100
AcDbArc
 50
145.756856767
 51
214.2912015933
  0
ARC
  5
899
330
1B
100
AcDbEntity
  8
0
  6
Continuous
 62
     7
370
    25
100
AcDbCircle
 10
229.5138820318
 20
-1.7766099844
 30
0.0
 40
5.108163392969864
100
AcDbArc
 50
223.4119852547
 51
225.9713766596
  0
ARC
  5
89A
330
1B
100
AcDbEntity
  8
0
  6
Continuous
 62
     7
370
    25
100
AcDbCircle
 10
228.9266166141
 20
-2.4900647485
 30
0.0
 40
4.182348791151603
100
AcDbArc
 50
235.803360609
 51
238.7555089306
  0
ARC
  5
89B
330
1B
100
AcDbEntity
  8
0
  6
Continuous
 62
     7
370
    25
100
AcDbCircle
 10
228.614023245
 20
-3.167883188
 30
0.0
 40
3.433211584815563
100
AcDbArc
 50
249.9995309349
 51
264.3395320483
  0
ARC
  5
89C
330
1B
100
AcDbEntity
  8
0
  6
Continuous
 62
     7
370
    25
100
AcDbCircle
 10
228.9270575645
 20
2.489391312
 30
0.0
 40
4.183153629060414
100
AcDbArc
 50
121.2724218259
 51
124.1964506658
  0
ARC
  5
89D
330
1B
100
AcDbEntity
  8
0
  6
Continuous
 62
     7
370
    25
100
AcDbCircle
 10
229.5146488553
 20
1.7758400689
 30
0.0
 40
5.1092499124341
100
AcDbArc
 50
134.0288054091
 51
136.6121113855
  0
ARC
  5
89E
330
1B
100
AcDbEntity
  8
0
  6
Continuous
 62
     7
370
    25
100
AcDbCircle
 10
230.7796742281
 20
0.8176097794
 30
0.0
 40
6.699569739114905
100
AcDbArc
 50
145.4845010387
 51
154.9406731771
  0
ARC
  5
89F
330
1B
100
AcDbEntity
  8
0
  6
Continuous
 62
     7
370
    25
100
AcDbCircle
 10
232.4049318049
 20
0.1438310642
 30
0.0
 40
8.462071781553483
100
AcDbArc
 50
160.9997850295
 51
169.0584203823
  0
ARC
  5
8A0
330
1B
100
AcDbEntity
  8
0
  6
Continuous
 62
     7
370
    25
100
AcDbCircle
 10
233.2003088291
 20
0.0027802443
 30
0.0
 40
9.27059449274126
100
AcDbArc
 50
175.3768844119
 51
176.925518674
  0
ARC
  5
8A1
330
1B
100
AcDbEntity
  8
0
  6
Continuous
 62
     7
370
    25
100
AcDbCircle
 10
233.1997609478
 20
-0.0028146674
 30
0.0
 40
9.270045553869348
100
AcDbArc
 50
183.0744504938
 51
184.6557685863
  0
ARC
  5
8A2
330
1B
100
AcDbEntity
  8
0
  6
Continuous
 62
     7
370
    25
100
AcDbCircle
 10
232.402144512
 20
-0.1445928158
 30
0.0
 40
8.459184688202988
100
AcDbArc
 50
190.9763653602
 51
199.021874143
  0
ARC
  5
8A3
330
1B
100
AcDbEntity
  8
0
  6
Continuous
 62
     7
370
    25
100
AcDbCircle
 10
230.7760826306
 20
-0.8197186397
 30
0.0
 40
6.695409706413177
100
AcDbArc
 50
205.1057097626
 51
214.5383433217
  0
ARC
  5
8A4
330
1B
100
AcDbEntity
  8
0
  6
Continuous
 62
     7
370
    25
100
AcDbCircle
 10
229.7276527861
 20
3.7392378373
 30
0.0
 40
3.760762172316277
100
AcDbArc
 50
83.5183544335
 51
89.9958975497
  0
ARC
  5
8A5
330
1B
100
AcDbEntity
  8
0
  6
Continuous
 62
     7
370
    25
100
AcDbCircle
 10
229.7276527861
 20
-3.7392378373
 30
0.0
 40
3.76076217231671
100
AcDbArc
 50
270.0041024503
 51
276.4816455665
  0
ARC
  5
8A6
330
1B
100
AcDbEntity
  8
0
  6
Continuous
 62
     7
370
    25
100
AcDbCircle
 10
229.1409422527
 20
-3.5346406306
 30
0.0
 40
3.965428482134452
100
AcDbArc
 50
270.3398949761
 51
300.6612587199
  0
ARC
  5
8A7
330
1B
100
AcDbEntity
  8
0
  6
Continuous
 62
     7
370
    25
100
AcDbCircle
 10
229.1409878205
 20
3.5347556241
 30
0.0
 40
3.965306327279248
100
AcDbArc
 50
59.3384603139
 51
89.6794203897
  0
ARC
  5
8A8
330
1B
100
AcDbEntity
  8
0
  6
Continuous
 62
     7
370
    25
100
AcDbCircle
 10
229.6038708922
 20
-8.1868325053
 30
0.0
 40
0.0983497275286127
100
AcDbArc
 50
90.0283315818
 51
128.0234373727
  0
ARC
  5
8A9
330
1B
100
AcDbEntity
  8
0
  6
Continuous
 62
     7
370
    25
100
AcDbCircle
 10
229.6038320373
 20
8.186709164
 30
0.0
 40
0.0982288898809749
100
AcDbArc
 50
231.9507691961
 51
269.9940894302
  0
ARC
  5
8AA
330
1B
100
AcDbEntity
  8
0
  6
Continuous
 62
     7
370
    25
100
AcDbCircle
 10
228.883894156
 20
-10.2633734312
 30
0.0
 40
1.353269237375011
100
AcDbArc
 50
91.0548391921
 51
103.0516141314
  0
ARC
  5
8AB
330
1B
100
AcDbEntity
  8
0
  6
Continuous
 62
     7
370
    25
100
AcDbCircle
 10
228.8102021982
 20
-9.6723341836
 30
0.0
 40
1.353269237497081
100
AcDbArc
 50
91.0548391836
 51
103.0516141303
  0
ARC
  5
8AC
330
1B
100
AcDbEntity
  8
0
  6
Continuous
 62
     7
370
    25
100
AcDbCircle
 10
228.8838941561
 20
10.2633734322
 30
0.0
 40
1.353269238324695
100
AcDbArc
 50
256.9483858736
 51
268.9451608129
  0
ARC
  5
8AD
330
1B
100
AcDbEntity
  8
0
  6
Continuous
 62
     7
370
    25
100
AcDbCircle
 10
228.8102021985
 20
9.6723341862
 30
0.0
 40
1.353269240136332
100
AcDbArc
 50
256.9483858811
 51
268.9451608001
  0
ARC
  5
8AE
330
1B
100
AcDbEntity
  8
0
  6
Continuous
 62
     7
370
    25
100
AcDbCircle
 10
228.6620267224
 20
-8.9565645482
 30
0.0
 40
0.2023077302524658
100
AcDbArc
 50
293.0330860773
 51
13.2098539651
  0
ARC
  5
8AF
330
1B
100
AcDbEntity
  8
0
  6
Continuous
 62
     7
370
    25
100
AcDbCircle
 10
228.7793991591
 20
-8.9452964701
 30
0.0
 40
0.2011121861548155
100
AcDbArc
 50
179.9335322669
 51
259.0455707753
  0
ARC
  5
8B0
330
1B
100
AcDbEntity
  8
0
  6
Continuous
 62
     7
370
    25
100
AcDbCircle
 10
228.7793991591
 20
8.9452964701
 30
0.0
 40
0.2011121861547331
100
AcDbArc
 50
100.9544292247
 51
180.0664677331
  0
ARC
  5
8B1
330
1B
100
AcDbEntity
  8
0
  6
Continuous
 62
     7
370
    25
100
AcDbCircle
 10
228.6620267221
 20
8.9565645479
 30
0.0
 40
0.2023077307263301
100
AcDbArc
 50
346.7901461703
 51
66.9669138657
  0
ARC
  5
8B2
330
1B
100
AcDbEntity
  8
0
  6
Continuous
 62
     7
370
    25
100
AcDbCircle
 10
227.6066017178
 20
-4.494387067
 30
0.0
 40
4.555512069623055
100
AcDbArc
 50
257.6842575378
 51
282.3157424622
  0
ARC
  5
8B3
330
1B
100
AcDbEntity
  8
0
  6
Continuous
 62
     7
370
    25
100
AcDbCircle
 10
227.6066017178
 20
4.4943870664
 30
0.0
 40
4.555512070176297
100
AcDbArc
 50
77.6842575393
 51
102.3157424607
  0
ARC
  5
8B4
330
1B
100
AcDbEntity
  8
0
  6
Continuous
 62
     7
370
    25
100
AcDbCircle
 10
229.0862907908
 20
-8.9565645479
 30
0.0
 40
0.202307730636617
100
AcDbArc
 50
293.0330861197
 51
13.2098538527
  0
ARC
  5
8B5
330
1B
100
AcDbEntity
  8
0
  6
Continuous
 62
     7
370
    25
100
AcDbCircle
 10
227.6066017178
 20
-4.1970012817
 30
0.0
 40
4.252908344604354
100
AcDbArc
 50
257.8103588365
 51
282.1896411635
  0
ARC
  5
8B6
330
1B
100
AcDbEntity
  8
0
  6
Continuous
 62
     7
370
    25
100
AcDbCircle
 10
227.6066017178
 20
4.1970012817
 30
0.0
 40
4.2529083446042
100
AcDbArc
 50
77.8103588365
 51
102.1896411635
  0
ARC
  5
8B7
330
1B
100
AcDbEntity
  8
0
  6
Continuous
 62
     7
370
    25
100
AcDbCircle
 10
229.0862868931
 20
8.9565631282
 30
0.0
 40
0.2023110527830503
100
AcDbArc
 50
346.7907904166
 51
66.966097373
  0
ARC
  5
8B8
330
1B
100
AcDbEntity
  8
0
  6
Continuous
 62
     7
370
    25
100
AcDbCircle
 10
228.6456493004
 20
-8.2580027656
 30
0.0
 40
0.1039788375461396
100
AcDbArc
 50
65.8990046911
 51
89.8996849128
  0
ARC
  5
8B9
330
1B
100
AcDbEntity
  8
0
  6
Continuous
 62
     7
370
    25
100
AcDbCircle
 10
228.6456493004
 20
8.2580027656
 30
0.0
 40
0.1039788375428458
100
AcDbArc
 50
270.1003150871
 51
294.1009952978
  0
ARC
  5
8BA
330
1B
100
AcDbEntity
  8
0
  6
Continuous
 62
     7
370
    25
100
AcDbCircle
 10
226.909479911
 20
-8.3535029127
 30
0.0
 40
0.2008723015976915
100
AcDbArc
 50
100.9615727812
 51
180.1486084807
  0
ARC
  5
8BB
330
1B
100
AcDbEntity
  8
0
  6
Continuous
 62
     7
370
    25
100
AcDbCircle
 10
226.909479911
 20
8.3535029127
 30
0.0
 40
0.2008723015976915
100
AcDbArc
 50
179.8513915193
 51
259.0384272188
  0
ARC
  5
8BC
330
1B
100
AcDbEntity
  8
0
  6
Continuous
 62
     7
370
    25
100
AcDbCircle
 10
226.834019426
 20
-8.9565645479
 30
0.0
 40
0.2023077307276015
100
AcDbArc
 50
166.7901461706
 51
246.9669138654
  0
ARC
  5
8BD
330
1B
100
AcDbEntity
  8
0
  6
Continuous
 62
     7
370
    25
100
AcDbCircle
 10
225.2610597896
 20
-7.1464668483
 30
0.0
 40
0.2809248780247513
100
AcDbArc
 50
97.7582661952
 51
156.5361691507
  0
ARC
  5
8BE
330
1B
100
AcDbEntity
  8
0
  6
Continuous
 62
     7
370
    25
100
AcDbCircle
 10
225.2610316443
 20
7.1464250646
 30
0.0
 40
0.2808816577157947
100
AcDbArc
 50
203.4583661471
 51
262.246533973
  0
ARC
  5
8BF
330
1B
100
AcDbEntity
  8
0
  6
Continuous
 62
     7
370
    25
100
AcDbCircle
 10
224.1098894232
 20
-6.9951075139
 30
0.0
 40
0.4175952378988446
100
AcDbArc
 50
226.2573312408
 51
265.6785010172
  0
ARC
  5
8C0
330
1B
100
AcDbEntity
  8
0
  6
Continuous
 62
     7
370
    25
100
AcDbCircle
 10
224.353300964
 20
-6.5034876962
 30
0.0
 40
0.4175952378666129
100
AcDbArc
 50
226.2573312424
 51
265.6785010486
  0
ARC
  5
8C1
330
1B
100
AcDbEntity
  8
0
  6
Continuous
 62
     7
370
    25
100
AcDbCircle
 10
224.1098894233
 20
6.9951075137
 30
0.0
 40
0.4175952380591448
100
AcDbArc
 50
94.3214989608
 51
133.7426687481
  0
ARC
  5
8C2
330
1B
100
AcDbEntity
  8
0
  6
Continuous
 62
     7
370
    25
100
AcDbCircle
 10
224.3533009643
 20
6.5034876954
 30
0.0
 40
0.4175952386329718
100
AcDbArc
 50
94.321499004
 51
133.7426687215
  0
ARC
  5
8C3
330
1B
100
AcDbEntity
  8
0
  6
Continuous
 62
     7
370
    25
100
AcDbCircle
 10
224.0932089331
 20
6.8066822367
 30
0.0
 40
0.2551209213814941
100
AcDbArc
 50
320.4142790025
 51
26.3442778917
  0
ARC
  5
8C4
330
1B
100
AcDbEntity
  8
0
  6
Continuous
 62
     7
370
    25
100
AcDbCircle
 10
224.3271089162
 20
6.9343009015
 30
0.0
 40
0.2925753926113969
100
AcDbArc
 50
206.1883804508
 51
262.6783932986
  0
ARC
  5
8C5
330
1B
100
AcDbEntity
  8
0
  6
Continuous
 62
     7
370
    25
100
AcDbCircle
 10
224.3271089162
 20
-6.9343009015
 30
0.0
 40
0.2925753926113953
100
AcDbArc
 50
97.3216067014
 51
153.8116195492
  0
ARC
  5
8C6
330
1B
100
AcDbEntity
  8
0
  6
Continuous
 62
     7
370
    25
100
AcDbCircle
 10
224.0932089327
 20
-6.8066822368
 30
0.0
 40
0.2551209217142797
100
AcDbArc
 50
333.6557221757
 51
39.5857209711
  0
ARC
  5
8C7
330
1B
100
AcDbEntity
  8
0
  6
Continuous
 62
     7
370
    25
100
AcDbCircle
 10
229.6951076964
 20
-1.4767967405
 30
0.0
 40
7.752074614590869
100
AcDbArc
 50
207.1081257955
 51
223.4206535699
  0
ARC
  5
8C8
330
1B
100
AcDbEntity
  8
0
  6
Continuous
 62
     7
370
    25
100
AcDbCircle
 10
223.0818527269
 20
-5.2935667636
 30
0.0
 40
0.4041968292284693
100
AcDbArc
 50
94.5302450149
 51
135.2873696364
  0
ARC
  5
8C9
330
1B
100
AcDbEntity
  8
0
  6
Continuous
 62
     7
370
    25
100
AcDbCircle
 10
223.0818527269
 20
5.2935667636
 30
0.0
 40
0.4041968292283369
100
AcDbArc
 50
224.7126303636
 51
265.4697549851
  0
ARC
  5
8CA
330
1B
100
AcDbEntity
  8
0
  6
Continuous
 62
     7
370
    25
100
AcDbCircle
 10
229.6951076972
 20
1.47679674
 30
0.0
 40
7.752074615488217
100
AcDbArc
 50
136.579346431
 51
152.8918742036
  0
ARC
  5
8CB
330
1B
100
AcDbEntity
  8
0
  6
Continuous
 62
     7
370
    25
100
AcDbCircle
 10
224.5174744844
 20
6.8066816203
 30
0.0
 40
0.2551196859586288
100
AcDbArc
 50
320.4141450408
 51
26.3445362445
  0
ARC
  5
8CC
330
1B
100
AcDbEntity
  8
0
  6
Continuous
 62
     7
370
    25
100
AcDbCircle
 10
224.5174673498
 20
-6.8066823414
 30
0.0
 40
0.2551257353570604
100
AcDbArc
 50
333.6563217428
 51
39.5849674385
  0
ARC
  5
8CD
330
1B
100
AcDbEntity
  8
0
  6
Continuous
 62
     7
370
    25
100
AcDbCircle
 10
229.842867506
 20
1.5812787071
 30
0.0
 40
8.302301005006223
100
AcDbArc
 50
136.4943425448
 51
152.9768780872
  0
ARC
  5
8CE
330
1B
100
AcDbEntity
  8
0
  6
Continuous
 62
     7
370
    25
100
AcDbCircle
 10
229.842867511
 20
-1.5812787035
 30
0.0
 40
8.302301011162466
100
AcDbArc
 50
207.0231219189
 51
223.505657449
  0
ARC
  5
8CF
330
1B
100
AcDbEntity
  8
0
  6
Continuous
 62
     7
370
    25
100
AcDbCircle
 10
222.463680606
 20
-5.4076516542
 30
0.0
 40
0.0649728715203642
100
AcDbArc
 50
215.5692505307
 51
279.4796663289
  0
ARC
  5
8D0
330
1B
100
AcDbEntity
  8
0
  6
Continuous
 62
     7
370
    25
100
AcDbCircle
 10
222.463680062
 20
5.4076546244
 30
0.0
 40
0.0649700315199919
100
AcDbArc
 50
80.5194290305
 51
144.4366473894
  0
ARC
  5
8D1
330
1B
100
AcDbEntity
  8
0
  6
Continuous
 62
     7
370
    25
100
AcDbCircle
 10
223.6296269204
 20
-5.0016567488
 30
0.0
 40
0.4320420725912476
100
AcDbArc
 50
94.1126623048
 51
132.1871093627
  0
ARC
  5
8D2
330
1B
100
AcDbEntity
  8
0
  6
Continuous
 62
     7
370
    25
100
AcDbCircle
 10
223.6296561368
 20
5.0017323747
 30
0.0
 40
0.4321182896632481
100
AcDbArc
 50
227.8166721602
 51
265.8839797612
  0
ARC
  5
8D3
330
1B
100
AcDbEntity
  8
0
  6
Continuous
 62
     7
370
    25
100
AcDbCircle
 10
232.9672892843
 20
-0.2233474116
 30
0.0
 40
10.60990036082625
100
AcDbArc
 50
187.8032784669
 51
204.846650611
  0
ARC
  5
8D4
330
1B
100
AcDbEntity
  8
0
  6
Continuous
 62
     7
370
    25
100
AcDbCircle
 10
222.7608255393
 20
-2.8187306872
 30
0.0
 40
1.194498402431643
100
AcDbArc
 50
91.2048469763
 51
104.8029849634
  0
ARC
  5
8D5
330
1B
100
AcDbEntity
  8
0
  6
Continuous
 62
     7
370
    25
100
AcDbCircle
 10
222.7607976089
 20
2.8185114149
 30
0.0
 40
1.194279058012877
100
AcDbArc
 50
255.1956615327
 51
268.796357308
  0
ARC
  5
8D6
330
1B
100
AcDbEntity
  8
0
  6
Continuous
 62
     7
370
    25
100
AcDbCircle
 10
232.9672878832
 20
0.2233533955
 30
0.0
 40
10.60989733288473
100
AcDbArc
 50
155.1533774249
 51
172.1967519055
  0
ARC
  5
8D7
330
1B
100
AcDbEntity
  8
0
  6
Continuous
 62
     7
370
    25
100
AcDbCircle
 10
222.0053893593
 20
-2.8020707647
 30
0.0
 40
1.56237022891497
100
AcDbArc
 50
90.9072446261
 51
101.2937988633
  0
ARC
  5
8D8
330
1B
100
AcDbEntity
  8
0
  6
Continuous
 62
     7
370
    25
100
AcDbCircle
 10
221.782285065
 20
-1.281954081
 30
0.0
 40
0.2027756589756292
100
AcDbArc
 50
294.1957236465
 51
11.9706102047
  0
ARC
  5
8D9
330
1B
100
AcDbEntity
  8
0
  6
Continuous
 62
     7
370
    25
100
AcDbCircle
 10
221.9038877442
 20
-1.2660614556
 30
0.0
 40
0.2045100446911327
100
AcDbArc
 50
181.090743484
 51
259.1507369227
  0
ARC
  5
8DA
330
1B
100
AcDbEntity
  8
0
  6
Continuous
 62
     7
370
    25
100
AcDbCircle
 10
221.7822850652
 20
1.2819540811
 30
0.0
 40
0.2027756587547625
100
AcDbArc
 50
348.0293897686
 51
65.8042764604
  0
ARC
  5
8DB
330
1B
100
AcDbEntity
  8
0
  6
Continuous
 62
     7
370
    25
100
AcDbCircle
 10
222.0053893593
 20
2.8020707647
 30
0.0
 40
1.56237022891479
100
AcDbArc
 50
258.7062011367
 51
269.0927553739
  0
ARC
  5
8DC
330
1B
100
AcDbEntity
  8
0
  6
Continuous
 62
     7
370
    25
100
AcDbCircle
 10
221.9038877441
 20
1.2660614558
 30
0.0
 40
0.2045100445787309
100
AcDbArc
 50
100.8492631091
 51
178.9092565523
  0
ARC
  5
8DD
330
1B
100
AcDbEntity
  8
0
  6
Continuous
 62
     7
370
    25
100
AcDbCircle
 10
233.5420578516
 20
0.0
 30
0.0
 40
11.9105407050638
100
AcDbArc
 50
173.8792355876
 51
186.1207644124
  0
ARC
  5
8DE
330
1B
100
AcDbEntity
  8
0
  6
Continuous
 62
     7
370
    25
100
AcDbCircle
 10
221.4859598843
 20
-1.3702776215
 30
0.0
 40
0.2045100449092411
100
AcDbArc
 50
181.0907435278
 51
259.1507368445
  0
ARC
  5
8DF
330
1B
100
AcDbEntity
  8
0
  6
Continuous
 62
     7
370
    25
100
AcDbCircle
 10
221.4859598839
 20
1.3702776218
 30
0.0
 40
0.2045100444675226
100
AcDbArc
 50
100.8492629979
 51
178.9092565617
  0
ARC
  5
8E0
330
1B
100
AcDbEntity
  8
0
  6
Continuous
 62
     7
370
    25
100
AcDbCircle
 10
222.206550745
 20
1.2819544724
 30
0.0
 40
0.2027744203403072
100
AcDbArc
 50
348.0291869888
 51
65.8046271112
  0
ARC
  5
8E1
330
1B
100
AcDbEntity
  8
0
  6
Continuous
 62
     7
370
    25
100
AcDbCircle
 10
222.2065456466
 20
-1.2819517874
 30
0.0
 40
0.2027789292919546
100
AcDbArc
 50
294.1963785607
 51
11.9697721284
  0
ARC
  5
8E2
330
1B
100
AcDbEntity
  8
0
  6
Continuous
 62
     7
370
    25
100
AcDbCircle
 10
233.9626248626
 20
0.0
 30
0.0
 40
12.75537553784035
100
AcDbArc
 50
173.8153696677
 51
186.1846303323
  0
ARC
  5
8E3
330
1B
100
AcDbEntity
  8
0
  6
Continuous
 62
     7
370
    25
100
AcDbCircle
 10
252.0
 20
0.0
 30
0.0
 40
12.00000000000041
100
AcDbArc
 50
270.0
 51
90.0
  0
ARC
  5
8E4
330
1B
100
AcDbEntity
  8
0
  6
Continuous
 62
     8
370
    25
100
AcDbCircle
 10
234.0221885857
 20
-1.3984660495
 30
0.0
 40
0.1908275129312297
100
AcDbArc
 50
299.0880858411
 51
358.1762734657
  0
ARC
  5
8E5
330
1B
100
AcDbEntity
  8
0
  6
Continuous
 62
     8
370
    25
100
AcDbCircle
 10
234.117044438
 20
-1.4121603225
 30
0.0
 40
0.1891815127651293
100
AcDbArc
 50
168.4156316338
 51
226.7374265643
  0
ARC
  5
8E6
330
1B
100
AcDbEntity
  8
0
  6
Continuous
 62
     8
370
    25
100
AcDbCircle
 10
234.0221885858
 20
1.3984660495
 30
0.0
 40
0.1908275129295187
100
AcDbArc
 50
1.8237265343
 51
60.9119141594
  0
ARC
  5
8E7
330
1B
100
AcDbEntity
  8
0
  6
Continuous
 62
     8
370
    25
100
AcDbCircle
 10
234.1170446897
 20
1.4121602997
 30
0.0
 40
0.1891817547703787
100
AcDbArc
 50
133.2627881701
 51
191.5843462995
  0
ARC
  5
8E8
330
1B
100
AcDbEntity
  8
0
  6
Continuous
 62
     8
370
    25
100
AcDbCircle
 10
227.7457394761
 20
-4.5770405594
 30
0.0
 40
4.672959998530976
100
AcDbArc
 50
270.0279994965
 51
282.2995008579
  0
ARC
  5
8E9
330
1B
100
AcDbEntity
  8
0
  6
Continuous
 62
     8
370
    25
100
AcDbCircle
 10
227.7457394761
 20
4.5770405594
 30
0.0
 40
4.672959998561389
100
AcDbArc
 50
77.7004991422
 51
89.9720005035
  0
ARC
  5
8EA
330
1B
100
AcDbEntity
  8
0
  6
Continuous
 62
     8
370
    25
100
AcDbCircle
 10
233.699116579
 20
1.3079441562
 30
0.0
 40
0.1891815137762557
100
AcDbArc
 50
133.2625740821
 51
191.5843682469
  0
ARC
  5
8EB
330
1B
100
AcDbEntity
  8
0
  6
Continuous
 62
     8
370
    25
100
AcDbCircle
 10
233.699116829
 20
-1.3079441337
 30
0.0
 40
0.1891817541146016
100
AcDbArc
 50
168.4156536416
 51
226.7372124192
  0
ARC
  5
8EC
330
1B
100
AcDbEntity
  8
0
  6
Continuous
 62
     8
370
    25
100
AcDbCircle
 10
233.5134420624
 20
-1.1831228734
 30
0.0
 40
0.0868323098943654
100
AcDbArc
 50
228.8979959907
 51
270.2287135176
  0
ARC
  5
8ED
330
1B
100
AcDbEntity
  8
0
  6
Continuous
 62
     8
370
    25
100
AcDbCircle
 10
233.5133983542
 20
1.1832835179
 30
0.0
 40
0.0866718525244797
100
AcDbArc
 50
89.7419688291
 51
131.1548510793
  0
ARC
  5
8EE
330
1B
100
AcDbEntity
  8
0
  6
Continuous
 62
     8
370
    25
100
AcDbCircle
 10
227.7499976822
 20
-4.0830986033
 30
0.0
 40
4.166901864543258
100
AcDbArc
 50
257.8261077926
 51
269.9728487202
  0
ARC
  5
8EF
330
1B
100
AcDbEntity
  8
0
  6
Continuous
 62
     8
370
    25
100
AcDbCircle
 10
227.7499976822
 20
4.0830986033
 30
0.0
 40
4.16690186454272
100
AcDbArc
 50
90.0271512798
 51
102.1738922074
  0
ARC
  5
8F0
330
1B
100
AcDbEntity
  8
0
  6
Continuous
 62
     8
370
    25
100
AcDbCircle
 10
234.1790440261
 20
-1.5774534949
 30
0.0
 40
0.0867288062846039
100
AcDbArc
 50
222.5501858476
 51
265.1957517074
  0
ARC
  5
8F1
330
1B
100
AcDbEntity
  8
0
  6
Continuous
 62
     8
370
    25
100
AcDbCircle
 10
233.3361188121
 20
-4.6064182581
 30
0.0
 40
0.0892438234955772
100
AcDbArc
 50
175.4972271807
 51
237.3176083589
  0
ARC
  5
8F2
330
1B
100
AcDbEntity
  8
0
  6
Continuous
 62
     8
370
    25
100
AcDbCircle
 10
233.3360544479
 20
4.6064477844
 30
0.0
 40
0.0891842808170115
100
AcDbArc
 50
122.6578865897
 51
184.5256648438
  0
ARC
  5
8F3
330
1B
100
AcDbEntity
  8
0
  6
Continuous
 62
     8
370
    25
100
AcDbCircle
 10
232.4711205814
 20
-4.9355124352
 30
0.0
 40
0.090489052678717
100
AcDbArc
 50
168.1607973183
 51
234.5136877046
  0
ARC
  5
8F4
330
1B
100
AcDbEntity
  8
0
  6
Continuous
 62
     8
370
    25
100
AcDbCircle
 10
232.5578781633
 20
-4.9230374192
 30
0.0
 40
0.1138589974480842
100
AcDbArc
 50
43.0155866048
 51
89.0563490261
  0
ARC
  5
8F5
330
1B
100
AcDbEntity
  8
0
  6
Continuous
 62
     8
370
    25
100
AcDbCircle
 10
232.5578464581
 20
4.9230860978
 30
0.0
 40
0.1139153884884317
100
AcDbArc
 50
271.1485780682
 51
316.9773903642
  0
ARC
  5
8F6
330
1B
100
AcDbEntity
  8
0
  6
Continuous
 62
     8
370
    25
100
AcDbCircle
 10
232.4709859758
 20
4.9356076345
 30
0.0
 40
0.0903334129922317
100
AcDbArc
 50
125.4518465725
 51
192.0153114504
  0
ARC
  5
8F7
330
1B
100
AcDbEntity
  8
0
  6
Continuous
 62
     8
370
    25
100
AcDbCircle
 10
231.2436976138
 20
-6.7339500088
 30
0.0
 40
0.118787189604
100
AcDbArc
 50
145.4655261932
 51
216.8446220103
  0
ARC
  5
8F8
330
1B
100
AcDbEntity
  8
0
  6
Continuous
 62
     8
370
    25
100
AcDbCircle
 10
231.2436400935
 20
6.733966185
 30
0.0
 40
0.1187314600987359
100
AcDbArc
 50
143.144980302
 51
214.6080704243
  0
ARC
  5
8F9
330
1B
100
AcDbEntity
  8
0
  6
Continuous
 62
     8
370
    25
100
AcDbCircle
 10
232.9829297503
 20
4.9218305686
 30
0.0
 40
0.1124602093501521
100
AcDbArc
 50
265.3759089205
 51
317.1603066925
  0
ARC
  5
8FA
330
1B
100
AcDbEntity
  8
0
  6
Continuous
 62
     8
370
    25
100
AcDbCircle
 10
232.9829249385
 20
-4.9218451437
 30
0.0
 40
0.1124736214776013
100
AcDbArc
 50
42.84346569
 51
94.6211484178
  0
ARC
  5
8FB
330
1B
100
AcDbEntity
  8
0
  6
Continuous
 62
     8
370
    25
100
AcDbCircle
 10
231.5310700182
 20
-7.3819236979
 30
0.0
 40
0.1148982539111287
100
AcDbArc
 50
271.1177906293
 51
318.5014111699
  0
ARC
  5
8FC
330
1B
100
AcDbEntity
  8
0
  6
Continuous
 62
     8
370
    25
100
AcDbCircle
 10
231.5310570439
 20
7.3819046176
 30
0.0
 40
0.1149206140839444
100
AcDbArc
 50
41.5014276143
 51
88.8043642071
  0
ARC
  5
8FD
330
1B
100
AcDbEntity
  8
0
  6
Continuous
 62
     8
370
    25
100
AcDbCircle
 10
231.4441572984
 20
7.3725041805
 30
0.0
 40
0.0919046946804799
100
AcDbArc
 50
174.0384321141
 51
235.4591896708
  0
ARC
  5
8FE
330
1B
100
AcDbEntity
  8
0
  6
Continuous
 62
     8
370
    25
100
AcDbCircle
 10
231.2007457583
 20
-6.8808843633
 30
0.0
 40
0.091904695541786
100
AcDbArc
 50
124.5408105165
 51
185.9615672793
  0
ARC
  5
8FF
330
1B
100
AcDbEntity
  8
0
  6
Continuous
 62
     8
370
    25
100
AcDbCircle
 10
228.1423760132
 20
-3.9065308541
 30
0.0
 40
5.168416571147978
100
AcDbArc
 50
285.9648854073
 51
301.8713710742
  0
ARC
  5
900
330
1B
100
AcDbEntity
  8
0
  6
Continuous
 62
     8
370
    25
100
AcDbCircle
 10
228.1332481302
 20
3.8859501976
 30
0.0
 40
5.190714983279359
100
AcDbArc
 50
58.1630143658
 51
74.0007291419
  0
ARC
  5
901
330
1B
100
AcDbEntity
  8
0
  6
Continuous
 62
     8
370
    25
100
AcDbCircle
 10
228.0343031437
 20
-3.3748623776
 30
0.0
 40
5.121030000247996
100
AcDbArc
 50
286.5174171147
 51
310.2573204629
  0
ARC
  5
902
330
1B
100
AcDbEntity
  8
0
  6
Continuous
 62
     8
370
    25
100
AcDbCircle
 10
228.0732466263
 20
3.4498733744
 30
0.0
 40
5.038068232967829
100
AcDbArc
 50
50.1036957362
 51
73.6646520906
  0
ARC
  5
903
330
1B
100
AcDbEntity
  8
0
  6
Continuous
 62
     8
370
    25
100
AcDbCircle
 10
229.670895967
 20
-8.2436211818
 30
0.0
 40
0.1852309139053858
100
AcDbArc
 50
133.5436664912
 51
192.770131518
  0
ARC
  5
904
330
1B
100
AcDbEntity
  8
0
  6
Continuous
 62
     8
370
    25
100
AcDbCircle
 10
229.6707847878
 20
8.2435865164
 30
0.0
 40
0.185129341639043
100
AcDbArc
 50
167.2117423575
 51
226.4742445869
  0
ARC
  5
905
330
1B
100
AcDbEntity
  8
0
  6
Continuous
 62
     8
370
    25
100
AcDbCircle
 10
228.6637108697
 20
-8.3118574688
 30
0.0
 40
0.1646080841747103
100
AcDbArc
 50
111.3247578694
 51
194.8424900575
  0
ARC
  5
906
330
1B
100
AcDbEntity
  8
0
  6
Continuous
 62
     8
370
    25
100
AcDbCircle
 10
228.5959108496
 20
-8.3287798116
 30
0.0
 40
0.1896159105643349
100
AcDbArc
 50
2.8674167122
 51
60.9066048501
  0
ARC
  5
907
330
1B
100
AcDbEntity
  8
0
  6
Continuous
 62
     8
370
    25
100
AcDbCircle
 10
228.59591085
 20
8.3287798112
 30
0.0
 40
0.1896159099915692
100
AcDbArc
 50
299.0933950828
 51
357.1325834004
  0
ARC
  5
908
330
1B
100
AcDbEntity
  8
0
  6
Continuous
 62
     8
370
    25
100
AcDbCircle
 10
228.6637108697
 20
8.3118574688
 30
0.0
 40
0.1646080841745811
100
AcDbArc
 50
165.1575099425
 51
248.6752421307
  0
ARC
  5
909
330
1B
100
AcDbEntity
  8
0
  6
Continuous
 62
     8
370
    25
100
AcDbCircle
 10
229.0201791928
 20
8.3287769529
 30
0.0
 40
0.1896113341577584
100
AcDbArc
 50
299.0926864748
 51
357.1333911789
  0
ARC
  5
90A
330
1B
100
AcDbEntity
  8
0
  6
Continuous
 62
     8
370
    25
100
AcDbCircle
 10
229.0201674115
 20
-8.3287844809
 30
0.0
 40
0.1896234552788741
100
AcDbArc
 50
2.8687012604
 51
60.9053361264
  0
ARC
  5
90B
330
1B
100
AcDbEntity
  8
0
  6
Continuous
 62
     8
370
    25
100
AcDbCircle
 10
227.2743042422
 20
-8.2569507075
 30
0.0
 40
0.1028728964019524
100
AcDbArc
 50
78.0823735942
 51
114.1589312327
  0
ARC
  5
90C
330
1B
100
AcDbEntity
  8
0
  6
Continuous
 62
     8
370
    25
100
AcDbCircle
 10
227.2743061759
 20
8.2569660235
 30
0.0
 40
0.1028875913132306
100
AcDbArc
 50
245.8435044022
 51
281.9148053602
  0
ARC
  5
90D
330
1B
100
AcDbEntity
  8
0
  6
Continuous
 62
     8
370
    25
100
AcDbCircle
 10
227.3212437307
 20
-8.2488081485
 30
0.0
 40
0.1610100695923597
100
AcDbArc
 50
95.2761738128
 51
147.1817227292
  0
ARC
  5
90E
330
1B
100
AcDbEntity
  8
0
  6
Continuous
 62
     8
370
    25
100
AcDbCircle
 10
227.3212761135
 20
8.2488607834
 30
0.0
 40
0.1610629900878821
100
AcDbArc
 50
212.8282143914
 51
264.7138686158
  0
ARC
  5
90F
330
1B
100
AcDbEntity
  8
0
  6
Continuous
 62
     8
370
    25
100
AcDbCircle
 10
228.6783009961
 20
-3.2262607345
 30
0.0
 40
5.29232391463849
100
AcDbArc
 50
226.0213711579
 51
249.5530096815
  0
ARC
  5
910
330
1B
100
AcDbEntity
  8
0
  6
Continuous
 62
     8
370
    25
100
AcDbCircle
 10
228.6657054275
 20
3.2428948125
 30
0.0
 40
5.27160782048378
100
AcDbArc
 50
109.4904362326
 51
134.0056505017
  0
ARC
  5
911
330
1B
100
AcDbEntity
  8
0
  6
Continuous
 62
     8
370
    25
100
AcDbCircle
 10
228.776324543
 20
-3.3484171212
 30
0.0
 40
5.795288079219644
100
AcDbArc
 50
226.1287004933
 51
247.8665208987
  0
ARC
  5
912
330
1B
100
AcDbEntity
  8
0
  6
Continuous
 62
     8
370
    25
100
AcDbCircle
 10
228.7264848417
 20
3.424951105
 30
0.0
 40
5.705599569555122
100
AcDbArc
 50
111.9003379281
 51
134.0431370599
  0
ARC
  5
913
330
1B
100
AcDbEntity
  8
0
  6
Continuous
 62
     8
370
    25
100
AcDbCircle
 10
223.916545416
 20
7.3680063376
 30
0.0
 40
0.1190359407036464
100
AcDbArc
 50
145.4409691986
 51
216.7403855883
  0
ARC
  5
914
330
1B
100
AcDbEntity
  8
0
  6
Continuous
 62
     8
370
    25
100
AcDbCircle
 10
223.948941543
 20
7.35837614
 30
0.0
 40
0.1399610210657252
100
AcDbArc
 50
22.31340167
 51
80.1160115873
  0
ARC
  5
915
330
1B
100
AcDbEntity
  8
0
  6
Continuous
 62
     8
370
    25
100
AcDbCircle
 10
223.9489415435
 20
-7.3583761408
 30
0.0
 40
0.1399610201486426
100
AcDbArc
 50
279.8839882962
 51
337.686598554
  0
ARC
  5
916
330
1B
100
AcDbEntity
  8
0
  6
Continuous
 62
     8
370
    25
100
AcDbCircle
 10
223.9165485959
 20
-7.3680072269
 30
0.0
 40
0.1190390208711812
100
AcDbArc
 50
143.2601869525
 51
214.5549744832
  0
ARC
  5
917
330
1B
100
AcDbEntity
  8
0
  6
Continuous
 62
     8
370
    25
100
AcDbCircle
 10
222.4992605441
 20
-5.4270797167
 30
0.0
 40
0.0903167608885757
100
AcDbArc
 50
125.3664931461
 51
191.7328405627
  0
ARC
  5
918
330
1B
100
AcDbEntity
  8
0
  6
Continuous
 62
     8
370
    25
100
AcDbCircle
 10
222.4992643895
 20
5.4270824463
 30
0.0
 40
0.0903212125291969
100
AcDbArc
 50
168.2721850307
 51
234.632519905
  0
ARC
  5
919
330
1B
100
AcDbEntity
  8
0
  6
Continuous
 62
     8
370
    25
100
AcDbCircle
 10
224.3732056121
 20
-7.3583761405
 30
0.0
 40
0.1399610204823541
100
AcDbArc
 50
279.8839882956
 51
337.6865984754
  0
ARC
  5
91A
330
1B
100
AcDbEntity
  8
0
  6
Continuous
 62
     8
370
    25
100
AcDbCircle
 10
224.3760774709
 20
7.3605767813
 30
0.0
 40
0.1364718011464966
100
AcDbArc
 50
21.9164194527
 51
86.3851920615
  0
ARC
  5
91B
330
1B
100
AcDbEntity
  8
0
  6
Continuous
 62
     8
370
    25
100
AcDbCircle
 10
222.9249611191
 20
4.9438530042
 30
0.0
 40
0.135826709140726
100
AcDbArc
 50
279.10152864
 51
336.931910229
  0
ARC
  5
91C
330
1B
100
AcDbEntity
  8
0
  6
Continuous
 62
     8
370
    25
100
AcDbCircle
 10
222.9052626258
 20
4.9364023031
 30
0.0
 40
0.1324462522823298
100
AcDbArc
 50
146.6610637855
 51
206.2068263836
  0
ARC
  5
91D
330
1B
100
AcDbEntity
  8
0
  6
Continuous
 62
     8
370
    25
100
AcDbCircle
 10
222.9249611191
 20
-4.9438530042
 30
0.0
 40
0.1358267091426356
100
AcDbArc
 50
23.0680897713
 51
80.8984713565
  0
ARC
  5
91E
330
1B
100
AcDbEntity
  8
0
  6
Continuous
 62
     8
370
    25
100
AcDbCircle
 10
222.9102486648
 20
-4.9360944552
 30
0.0
 40
0.1368034864290698
100
AcDbArc
 50
154.8231501002
 51
212.2989143514
  0
ARC
  5
91F
330
1B
100
AcDbEntity
  8
0
  6
Continuous
 62
     8
370
    25
100
AcDbCircle
 10
222.5576349195
 20
-5.2806382052
 30
0.0
 40
0.1324462528684702
100
AcDbArc
 50
153.793174217
 51
213.3389361321
  0
ARC
  5
920
330
1B
100
AcDbEntity
  8
0
  6
Continuous
 62
     8
370
    25
100
AcDbCircle
 10
222.5626209573
 20
5.2803303577
 30
0.0
 40
0.1368034857984141
100
AcDbArc
 50
147.7010855753
 51
205.1768504963
  0
ARC
  5
921
330
1B
100
AcDbEntity
  8
0
  6
Continuous
 62
     8
370
    25
100
AcDbCircle
 10
223.3492275683
 20
-4.9438504146
 30
0.0
 40
0.1358237756332727
100
AcDbArc
 50
23.0675269649
 51
80.8992900991
  0
ARC
  5
922
330
1B
100
AcDbEntity
  8
0
  6
Continuous
 62
     8
370
    25
100
AcDbCircle
 10
223.3492244005
 20
4.9438558529
 30
0.0
 40
0.1358289036556393
100
AcDbArc
 50
279.1016867065
 51
336.9308711504
  0
ARC
  5
923
330
1B
100
AcDbEntity
  8
0
  6
Continuous
 62
     8
370
    25
100
AcDbCircle
 10
233.3542276493
 20
-0.2265708628
 30
0.0
 40
11.42102848788525
100
AcDbArc
 50
187.7570202244
 51
203.8206542919
  0
ARC
  5
924
330
1B
100
AcDbEntity
  8
0
  6
Continuous
 62
     8
370
    25
100
AcDbCircle
 10
233.3509824384
 20
0.2272707754
 30
0.0
 40
11.41771850665624
100
AcDbArc
 50
156.117050412
 51
172.2442618867
  0
ARC
  5
925
330
1B
100
AcDbEntity
  8
0
  6
Continuous
 62
     8
370
    25
100
AcDbCircle
 10
221.2812694088
 20
1.4606606105
 30
0.0
 40
0.0864902263717749
100
AcDbArc
 50
228.6056986179
 51
270.1440757308
  0
ARC
  5
926
330
1B
100
AcDbEntity
  8
0
  6
Continuous
 62
     8
370
    25
100
AcDbCircle
 10
221.2811778035
 20
-1.4603274809
 30
0.0
 40
0.0861573778299536
100
AcDbArc
 50
89.794448716
 51
131.5054428467
  0
ARC
  5
927
330
1B
100
AcDbEntity
  8
0
  6
Continuous
 62
     8
370
    25
100
AcDbCircle
 10
221.8471468024
 20
-1.4714614284
 30
0.0
 40
0.1026576453644025
100
AcDbArc
 50
245.9743119874
 51
283.8550623369
  0
ARC
  5
928
330
1B
100
AcDbEntity
  8
0
  6
Continuous
 62
     8
370
    25
100
AcDbCircle
 10
221.84714927
 20
1.4714383978
 30
0.0
 40
0.10267921201595
100
AcDbArc
 50
76.1493385935
 51
114.0217447472
  0
ARC
  5
929
330
1B
100
AcDbEntity
  8
0
  6
Continuous
 62
     8
370
    25
100
AcDbCircle
 10
233.0763788656
 20
0.1982998705
 30
0.0
 40
11.90858288706749
100
AcDbArc
 50
154.3078364277
 51
174.2103510143
  0
ARC
  5
92A
330
1B
100
AcDbEntity
  8
0
  6
Continuous
 62
     8
370
    25
100
AcDbCircle
 10
228.1687217876
 20
3.1935946028
 30
0.0
 40
6.193299173457403
100
AcDbArc
 50
93.551498279
 51
157.5901083329
  0
VIEWPORT
  5
9FA
330
1B
100
AcDbEntity
  8
0
100
AcDbViewport
 10
0.0
 20
0.0
 30
0.0
 40
205.6
 41
156.0
 68
     1
 69
     1
 12
-68.5895622111
 22
0.0
 13
0.0
 23
0.0
 14
10.0
 24
10.0
 15
10.0
 25
10.0
 16
0.0
 26
0.0
 36
1.0
 17
0.0
 27
0.0
 37
0.0
 42
50.0
 43
0.0
 44
0.0
 45
147.1853223641
 50
0.0
 51
0.0
 72
   100
 90
   557152
  1

281
     0
 71
     1
 74
     0
110
0.0
120
0.0
130
0.0
111
1.0
121
0.0
131
0.0
112
0.0
122
1.0
132
0.0
 79
     0
146
0.0
  0
ENDBLK
  5
1D
330
1B
100
AcDbEntity
  8
0
100
AcDbBlockEnd
  0
ENDSEC
  0
SECTION
  2
ENTITIES
  0
SPLINE
  5
7F
330
1F
100
AcDbEntity
  8
0
  6
Continuous
 62
     7
370
    25
100
AcDbSpline
210
0.0
220
0.0
230
1.0
 70
     8
 71
     3
 72
    11
 73
     7
 74
     0
 42
0.000000001
 43
0.00000001
 40
0.0
 40
0.0
 40
0.0
 40
0.0
 40
0.2332500278594007
 40
0.4847876850247994
 40
0.7444591146893613
 40
1.0
 40
1.0
 40
1.0
 40
1.0
 10
-21.6057072974329
 20
-4.350036000123318
 30
0.0
 10
-21.51177705491655
 20
-4.356917222513125
 30
0.0
 10
-21.31655210578699
 20
-4.371219179529418
 30
0.0
 10
-21.0416629747623
 20
-4.501536329623111
 30
0.0
 10
-20.80442638031617
 20
-4.707299171403266
 30
0.0
 10
-20.71168417089009
 20
-4.893834210521372
 30
0.0
 10
-20.66568483117409
 20
-4.986353988586051
 30
0.0
  0
SPLINE
  5
80
330
1F
100
AcDbEntity
  8
0
  6
Continuous
 62
     7
370
    25
100
AcDbSpline
210
0.0
220
0.0
230
1.0
 70
     8
 71
     3
 72
    11
 73
     7
 74
     0
 42
0.000000001
 43
0.00000001
 40
0.0
 40
0.0
 40
0.0
 40
0.0
 40
0.2555409222883472
 40
0.5152124341039278
 40
0.7667501050871331
 40
1.0
 40
1.0
 40
1.0
 40
1.0
 10
-20.66568369912461
 20
4.986356888563386
 30
0.0
 10
-20.71168299594131
 20
4.893836568810022
 30
0.0
 10
-20.80442512689934
 20
4.707300421419834
 30
0.0
 10
-21.04166263265935
 20
4.501536394887529
 30
0.0
 10
-21.31655301837883
 20
4.371218764320787
 30
0.0
 10
-21.51177879297751
 20
4.35691709816745
 30
0.0
 10
-21.60570940220274
 20
4.350036017954144
 30
0.0
  0
CIRCLE
  5
8F
330
1F
100
AcDbEntity
  8
0
  6
Continuous
 62
     7
370
    25
100
AcDbCircle
 10
0.0
 20
0.0
 30
0.0
 40
20.44999999999999
  0
CIRCLE
  5
90
330
1F
100
AcDbEntity
  8
0
  6
Continuous
 62
     7
370
    25
100
AcDbCircle
 10
0.0
 20
0.0
 30
0.0
 40
21.25000000000001
  0
LWPOLYLINE
  5
91
330
1F
100
AcDbEntity
  8
0
  6
Continuous
 62
     7
370
    25
100
AcDbPolyline
 90
        9
 70
   128
 43
0.0
 10
-21.2499901452
 20
0.0000003101
 10
-21.2691987583
 20
0.0000004341
 10
-21.3261009601
 20
0.0000005285
 10
-21.4185098806
 20
0.0000005898
 10
-21.5428740522
 20
0.0000006155
 10
-21.6944139006
 20
0.0000006048
 10
-21.8673054336
 20
0.0000005579
 10
-22.0549040691
 20
0.0000004767
 10
-22.2500000005
 20
0.0000003643
  0
LWPOLYLINE
  5
92
330
1F
100
AcDbEntity
  8
0
  6
Continuous
 62
     7
370
    25
100
AcDbPolyline
 90
       12
 70
   128
 43
0.0
 10
-163.6791244222
 20
0.0
 10
-163.58435084
 20
1.7885071941
 10
-163.3021471787
 20
3.5370620929
 10
-162.8388174016
 20
5.2066048694
 10
-162.2047115304
 20
6.7598406968
 10
-161.4139944424
 20
8.1620728533
 10
-160.4843294507
 20
9.3819777896
 10
-159.4364837351
 20
10.3923048454
 10
-158.2938644373
 20
11.1704849837
 10
-157.0819957843
 20
11.6991349462
 10
-155.8279489192
 20
11.9664455662
 10
-155.1953449555
 20
11.999999812
  0
LWPOLYLINE
  5
93
330
1F
100
AcDbEntity
  8
0
  6
Continuous
 62
     7
370
    25
100
AcDbPolyline
 90
       12
 70
   128
 43
0.0
 10
-155.1949280022
 20
-11.9999999019
 10
-155.8279489192
 20
-11.9664455662
 10
-157.0819957843
 20
-11.6991349462
 10
-158.2938644373
 20
-11.1704849837
 10
-159.4364837351
 20
-10.3923048454
 10
-160.4843294507
 20
-9.3819777896
 10
-161.4139944424
 20
-8.1620728533
 10
-162.2047115304
 20
-6.7598406968
 10
-162.8388174016
 20
-5.2066048694
 10
-163.3021471787
 20
-3.5370620929
 10
-163.58435084
 20
-1.7885071941
 10
-163.6791244222
 20
0.0
  0
LWPOLYLINE
  5
98
330
1F
100
AcDbEntity
  8
0
  6
Continuous
 62
     8
370
    25
100
AcDbPolyline
 90
        5
 70
   128
 43
0.0
 10
20.9416738804
 20
-3.2871527829
 10
20.9416737988
 20
-3.2794684018
 10
20.941673801
 20
-3.2564526431
 10
20.9416738035
 20
-3.2182126127
 10
20.9416738792
 20
-3.1649278483
  0
SPLINE
  5
A5
330
1F
100
AcDbEntity
  8
0
  6
Continuous
 62
     8
370
    25
100
AcDbSpline
210
0.0
220
0.0
230
1.0
 70
     8
 71
     3
 72
    14
 73
    10
 74
     0
 42
0.000000001
 43
0.00000001
 40
0.0
 40
0.0
 40
0.0
 40
0.0
 40
0.0000180749544135
 40
0.1241349705393376
 40
0.24850596659727
 40
0.4973760397808409
 40
0.7477481516562766
 40
0.8738277317356613
 40
1.0
 40
1.0
 40
1.0
 40
1.0
 10
-21.59724050226531
 20
-4.349987931149738
 30
0.0
 10
-21.59723928827925
 20
-4.349991954573695
 30
0.0
 10
-21.58890188824356
 20
-4.377623980787512
 30
0.0
 10
-21.61826788371594
 20
-4.281559752747444
 30
0.0
 10
-21.70916150138723
 20
-3.972729704502377
 30
0.0
 10
-21.92531127929319
 20
-3.163976834726471
 30
0.0
 10
-22.13462859447311
 20
-1.964056518439751
 30
0.0
 10
-22.23504680955667
 20
-0.864862949613374
 30
0.0
 10
-22.2450143825602
 20
-0.2883582612633366
 30
0.0
 10
-22.2500000003196
 20
-0.0000000007718835
 30
0.0
  0
SPLINE
  5
A6
330
1F
100
AcDbEntity
  8
0
  6
Continuous
 62
     8
370
    25
100
AcDbSpline
210
0.0
220
0.0
230
1.0
 70
     8
 71
     3
 72
    13
 73
     9
 74
     0
 42
0.000000001
 43
0.00000001
 40
0.0
 40
0.0
 40
0.0
 40
0.0
 40
0.1261780831623453
 40
0.2522614497569118
 40
0.5026426054262783
 40
0.7515214518854977
 40
0.8758968036770904
 40
1.0
 40
1.0
 40
1.0
 40
1.0
 10
-22.25000000037909
 20
-0.0000000073648824
 30
0.0
 10
-22.24500589398593
 20
0.2883906997007686
 30
0.0
 10
-22.23502143006471
 20
0.8649556310858759
 30
0.0
 10
-22.13478328652144
 20
1.96355952326256
 30
0.0
 10
-21.92408974414765
 20
3.167996291222366
 30
0.0
 10
-21.71265946737319
 20
3.961240304879248
 30
0.0
 10
-21.61223374977993
 20
4.301401259116425
 30
0.0
 10
-21.60223598291705
 20
4.333804199976311
 30
0.0
 10
-21.59724257470058
 20
4.349987925136847
 30
0.0
  0
LWPOLYLINE
  5
AC
330
1F
100
AcDbEntity
  8
0
  6
Continuous
 62
     8
370
    25
100
AcDbPolyline
 90
       23
 70
   128
 43
0.0
 10
-141.0517074243
 20
12.0
 10
-141.6858132955
 20
11.9664455662
 10
-142.9398601606
 20
11.6991349462
 10
-144.1517288136
 20
11.1704849837
 10
-145.2943481114
 20
10.3923048454
 10
-146.342193827
 20
9.3819777896
 10
-147.2718588187
 20
8.1620728533
 10
-148.0625759067
 20
6.7598406968
 10
-148.6966817779
 20
5.2066048694
 10
-149.160011555
 20
3.5370620929
 10
-149.4422152163
 20
1.7885071941
 10
-149.5369887985
 20
0.0
 10
-149.4422152163
 20
-1.7885071941
 10
-149.160011555
 20
-3.5370620929
 10
-148.6966817779
 20
-5.2066048694
 10
-148.0625759067
 20
-6.7598406968
 10
-147.2718588187
 20
-8.1620728533
 10
-146.342193827
 20
-9.3819777896
 10
-145.2943481114
 20
-10.3923048454
 10
-144.1517288136
 20
-11.1704849837
 10
-142.9398601606
 20
-11.6991349462
 10
-141.6858132955
 20
-11.9664455662
 10
-141.0517074243
 20
-12.0
  0
LINE
  5
AD
330
1F
100
AcDbEntity
  8
0
  6
Continuous
 62
     7
370
    25
100
AcDbLine
 10
21.3347528617
 20
-3.9
 30
0.0
 11
21.674018854
 21
-3.9
 31
0.0
  0
LINE
  5
AE
330
1F
100
AcDbEntity
  8
0
  6
Continuous
 62
     7
370
    25
100
AcDbLine
 10
21.674018854
 20
3.9
 30
0.0
 11
21.3347528617
 21
3.9
 31
0.0
  0
LINE
  5
AF
330
1F
100
AcDbEntity
  8
0
  6
Continuous
 62
     7
370
    25
100
AcDbLine
 10
20.9393119408
 20
-3.2870546642
 30
0.0
 11
21.2473761028
 21
-3.299890671
 31
0.0
  0
LINE
  5
B0
330
1F
100
AcDbEntity
  8
0
  6
Continuous
 62
     7
370
    25
100
AcDbLine
 10
21.2473761028
 20
3.299890671
 30
0.0
 11
20.9393119762
 21
3.2870546657
 31
0.0
  0
LINE
  5
B1
330
1F
100
AcDbEntity
  8
0
  6
Continuous
 62
     7
370
    25
100
AcDbLine
 10
20.9771259104
 20
-2.6275538621
 30
0.0
 11
21.2684266084
 21
-2.6361881155
 31
0.0
  0
LINE
  5
B2
330
1F
100
AcDbEntity
  8
0
  6
Continuous
 62
     7
370
    25
100
AcDbLine
 10
21.2684266094
 20
2.6361881149
 30
0.0
 11
20.9568281278
 21
2.6269522282
 31
0.0
  0
LINE
  5
B3
330
1F
100
AcDbEntity
  8
0
  6
Continuous
 62
     7
370
    25
100
AcDbLine
 10
-92.9912979496
 20
-4.35
 30
0.0
 11
-21.5972369226
 21
-4.35
 31
0.0
  0
LINE
  5
B4
330
1F
100
AcDbEntity
  8
0
  6
Continuous
 62
     7
370
    25
100
AcDbLine
 10
-21.5972389956
 20
4.35
 30
0.0
 11
-92.9912979496
 21
4.35
 31
0.0
  0
LINE
  5
B5
330
1F
100
AcDbEntity
  8
0
  6
Continuous
 62
     7
370
    25
100
AcDbLine
 10
-155.193843048
 20
-12.0
 30
0.0
 11
-17.4530911728
 21
-12.0
 31
0.0
  0
LINE
  5
B6
330
1F
100
AcDbEntity
  8
0
  6
Continuous
 62
     7
370
    25
100
AcDbLine
 10
-17.3829346917
 20
12.0
 30
0.0
 11
-155.193843048
 21
12.0
 31
0.0
  0
LINE
  5
B7
330
1F
100
AcDbEntity
  8
0
  6
Continuous
 62
     7
370
    25
100
AcDbLine
 10
21.25
 20
3.799999945
 30
0.0
 11
21.25
 21
-3.7999994873
 31
0.0
  0
LINE
  5
B8
330
1F
100
AcDbEntity
  8
0
  6
Continuous
 62
     8
370
    25
100
AcDbLine
 10
21.35
 20
3.9
 30
0.0
 11
21.35
 21
-3.9
 31
0.0
  0
LINE
  5
B9
330
1F
100
AcDbEntity
  8
0
  6
Continuous
 62
     8
370
    25
100
AcDbLine
 10
21.6587716957
 20
-3.9
 30
0.0
 11
21.6587716957
 21
3.9
 31
0.0
  0
LINE
  5
BA
330
1F
100
AcDbEntity
  8
0
  6
Continuous
 62
     8
370
    25
100
AcDbLine
 10
22.3913739241
 20
-3.3106050208
 30
0.0
 11
22.3913739241
 21
3.3106050208
 31
0.0
  0
LINE
  5
BB
330
1F
100
AcDbEntity
  8
0
  6
Continuous
 62
     8
370
    25
100
AcDbLine
 10
20.9416738806
 20
3.1649278484
 30
0.0
 11
20.9416738805
 21
3.2871530784
 31
0.0
  0
LINE
  5
BC
330
1F
100
AcDbEntity
  8
0
  6
Continuous
 62
     8
370
    25
100
AcDbLine
 10
21.25
 20
2.641665467
 30
0.0
 11
20.9561642615
 21
2.6329007701
 31
0.0
  0
LINE
  5
BD
330
1F
100
AcDbEntity
  8
0
  6
Continuous
 62
     8
370
    25
100
AcDbLine
 10
21.0300060834
 20
1.9712447351
 30
0.0
 11
21.25
 21
1.9777774295
 31
0.0
  0
LINE
  5
BE
330
1F
100
AcDbEntity
  8
0
  6
Continuous
 62
     8
370
    25
100
AcDbLine
 10
21.25
 20
-1.9777774295
 30
0.0
 11
21.0897480749
 21
-1.9730185921
 31
0.0
  0
LINE
  5
BF
330
1F
100
AcDbEntity
  8
0
  6
Continuous
 62
     8
370
    25
100
AcDbLine
 10
20.9761034871
 20
-2.6334959613
 30
0.0
 11
21.25
 21
-2.641665467
 31
0.0
  0
LINE
  5
C0
330
1F
100
AcDbEntity
  8
0
  6
Continuous
 62
     8
370
    25
100
AcDbLine
 10
21.0558747388
 20
-2.1698829776
 30
0.0
 11
21.25
 21
-2.1756538959
 31
0.0
  0
LINE
  5
C1
330
1F
100
AcDbEntity
  8
0
  6
Continuous
 62
     8
370
    25
100
AcDbLine
 10
21.25
 20
-2.0746890734
 30
0.0
 11
21.0731591451
 21
-2.0694298067
 31
0.0
  0
LINE
  5
C2
330
1F
100
AcDbEntity
  8
0
  6
Continuous
 62
     8
370
    25
100
AcDbLine
 10
21.25
 20
2.1756538959
 30
0.0
 11
21.0079966232
 21
2.1684594272
 31
0.0
  0
LINE
  5
C3
330
1F
100
AcDbEntity
  8
0
  6
Continuous
 62
     8
370
    25
100
AcDbLine
 10
21.0192274509
 20
2.0678261447
 30
0.0
 11
21.25
 21
2.0746890734
 31
0.0
  0
LINE
  5
C4
330
1F
100
AcDbEntity
  8
0
  6
Continuous
 62
     8
370
    25
100
AcDbLine
 10
21.25
 20
-2.6127629294
 30
0.0
 11
20.9810390334
 21
-2.6048116509
 31
0.0
  0
LINE
  5
C5
330
1F
100
AcDbEntity
  8
0
  6
Continuous
 62
     8
370
    25
100
AcDbLine
 10
20.9593705323
 20
2.6041711373
 30
0.0
 11
21.25
 21
2.6127629294
 31
0.0
  0
LINE
  5
C6
330
1F
100
AcDbEntity
  8
0
  6
Continuous
 62
     8
370
    25
100
AcDbLine
 10
21.25
 20
2.6288151664
 30
0.0
 11
20.9575887457
 21
2.6201367494
 31
0.0
  0
LINE
  5
C7
330
1F
100
AcDbEntity
  8
0
  6
Continuous
 62
     8
370
    25
100
AcDbLine
 10
-92.9912979496
 20
4.3499997614
 30
0.0
 11
-92.9912979496
 21
-4.3499994317
 31
0.0
  0
LINE
  5
C8
330
1F
100
AcDbEntity
  8
0
  6
Continuous
 62
     8
370
    25
100
AcDbLine
 10
-93.273471303
 20
4.1518734442
 30
0.0
 11
-93.273471303
 21
-4.1518734443
 31
0.0
  0
LINE
  5
C9
330
1F
100
AcDbEntity
  8
0
  6
Continuous
 62
     8
370
    25
100
AcDbLine
 10
-116.3029700827
 20
-12.0
 30
0.0
 11
-116.3029700827
 21
12.0
 31
0.0
  0
ARC
  5
CA
330
1F
100
AcDbEntity
  8
0
  6
Continuous
 62
     7
370
    25
100
AcDbCircle
 10
21.35
 20
-3.8
 30
0.0
 40
0.0999999999999521
100
AcDbArc
 50
179.9999842416
 51
270.0
  0
ARC
  5
CB
330
1F
100
AcDbEntity
  8
0
  6
Continuous
 62
     7
370
    25
100
AcDbCircle
 10
21.35
 20
3.8
 30
0.0
 40
0.1000000000000134
100
AcDbArc
 50
90.0
 51
180.0000157583
  0
ARC
  5
CC
330
1F
100
AcDbEntity
  8
0
  6
Continuous
 62
     7
370
    25
100
AcDbCircle
 10
21.6587716942
 20
-3.15
 30
0.0
 40
0.7499999999982703
100
AcDbArc
 50
270.000000113
 51
347.6349204787
  0
ARC
  5
CD
330
1F
100
AcDbEntity
  8
0
  6
Continuous
 62
     7
370
    25
100
AcDbCircle
 10
21.6587716942
 20
3.15
 30
0.0
 40
0.7500000000011067
100
AcDbArc
 50
12.3650795215
 51
89.9999998868
  0
ARC
  5
CE
330
1F
100
AcDbEntity
  8
0
  6
Continuous
 62
     7
370
    25
100
AcDbCircle
 10
7.29
 20
0.0
 30
0.0
 40
15.46000000001363
100
AcDbArc
 50
347.6349197487
 51
12.3650802513
  0
ARC
  5
CF
330
1F
100
AcDbEntity
  8
0
  6
Continuous
 62
     7
370
    25
100
AcDbCircle
 10
-92.9912979495
 20
-4.0499999999
 30
0.0
 40
0.3000000000665058
100
AcDbArc
 50
199.8511746397
 51
269.9999999905
  0
ARC
  5
D0
330
1F
100
AcDbEntity
  8
0
  6
Continuous
 62
     7
370
    25
100
AcDbCircle
 10
-92.9912979496
 20
4.05
 30
0.0
 40
0.2999999999625969
100
AcDbArc
 50
89.9999999956
 51
160.1488253742
  0
ARC
  5
D1
330
1F
100
AcDbEntity
  8
0
  6
Continuous
 62
     7
370
    25
100
AcDbCircle
 10
-81.7734375
 20
0.0
 30
0.0
 40
12.22656250004717
100
AcDbArc
 50
160.1488253709
 51
199.8511746291
  0
ARC
  5
D2
330
1F
100
AcDbEntity
  8
0
  6
Continuous
 62
     7
370
    25
100
AcDbCircle
 10
0.0
 20
0.0
 30
0.0
 40
26.50000000000002
100
AcDbArc
 50
207.0106962534
 51
152.9346831743
  0
ARC
  5
D3
330
1F
100
AcDbEntity
  8
0
  6
Continuous
 62
     8
370
    25
100
AcDbCircle
 10
0.0
 20
0.0
 30
0.0
 40
25.49999998990002
100
AcDbArc
 50
208.2311156486
 51
151.7699326273
  0
SPLINE
  5
92B
330
23
100
AcDbEntity
 67
     1
  8
0
  6
Continuous
 62
     7
370
    25
100
AcDbSpline
210
0.0
220
0.0
230
1.0
 70
     8
 71
     3
 72
    12
 73
     8
 74
     0
 42
0.000000001
 43
0.00000001
 40
0.0
 40
0.0
 40
0.0
 40
0.0
 40
0.1506294731570078
 40
0.3959929629252732
 40
0.6425678063363603
 40
0.8898175853768895
 40
1.0
 40
1.0
 40
1.0
 40
1.0
 10
-154.2148582988674
 20
226.632276501159
 30
0.0
 10
-154.2036964158028
 20
226.6216094941012
 30
0.0
 10
-154.1743527086654
 20
226.5935667768173
 30
0.0
 10
-154.1088007180371
 20
226.5739086312147
 30
0.0
 10
-154.0334443781096
 20
226.577808296583
 30
0.0
 10
-153.973153106372
 20
226.6012293098237
 30
0.0
 10
-153.9492226947027
 20
226.6289176634309
 30
0.0
 10
-153.941845881457
 20
226.6374529037126
 30
0.0
  0
SPLINE
  5
92C
330
23
100
AcDbEntity
 67
     1
  8
0
  6
Continuous
 62
     7
370
    25
100
AcDbSpline
210
0.0
220
0.0
230
1.0
 70
     8
 71
     3
 72
    12
 73
     8
 74
     0
 42
0.000000001
 43
0.00000001
 40
0.0
 40
0.0
 40
0.0
 40
0.0
 40
0.1600464453266983
 40
0.4000254666009
 40
0.6411892585132596
 40
0.8830131746848616
 40
1.0
 40
1.0
 40
1.0
 40
1.0
 10
-156.16348771074
 20
228.8590102294949
 30
0.0
 10
-156.1753010374636
 20
228.8470916248163
 30
0.0
 10
-156.2048276634692
 20
228.8173018635501
 30
0.0
 10
-156.2261256535562
 20
228.7509199613241
 30
0.0
 10
-156.223372287431
 20
228.6754083015985
 30
0.0
 10
-156.2003442042878
 20
228.6139947889329
 30
0.0
 10
-156.1722223772149
 20
228.5890668240164
 30
0.0
 10
-156.1630535233013
 20
228.5809392984438
 30
0.0
  0
SPLINE
  5
92D
330
23
100
AcDbEntity
 67
     1
  8
0
  6
Continuous
 62
     7
370
    25
100
AcDbSpline
210
0.0
220
0.0
230
1.0
 70
     8
 71
     3
 72
    13
 73
     9
 74
     0
 42
0.000000001
 43
0.00000001
 40
0.0
 40
0.0
 40
0.0
 40
0.0
 40
0.0251983901479149
 40
0.2389267639469252
 40
0.4691907888547039
 40
0.7077624178447791
 40
0.9530395055189756
 40
1.0
 40
1.0
 40
1.0
 40
1.0
 10
-158.7347441465962
 20
231.1488630441749
 30
0.0
 10
-158.7331106381765
 20
231.1468075371945
 30
0.0
 10
-158.7176219947231
 20
231.1273175765971
 30
0.0
 10
-158.6729478588003
 20
231.1029330984394
 30
0.0
 10
-158.6030980651286
 20
231.0851915689709
 30
0.0
 10
-158.5288095490624
 20
231.0973600905878
 30
0.0
 10
-158.4759007700943
 20
231.1220933643155
 30
0.0
 10
-158.4573673217419
 20
231.1463230035041
 30
0.0
 10
-158.4543891288187
 20
231.1502165336552
 30
0.0
  0
SPLINE
  5
92E
330
23
100
AcDbEntity
 67
     1
  8
0
  6
Continuous
 62
     7
370
    25
100
AcDbSpline
210
0.0
220
0.0
230
1.0
 70
     8
 71
     3
 72
    13
 73
     9
 74
     0
 42
0.000000001
 43
0.00000001
 40
0.0
 40
0.0
 40
0.0
 40
0.0
 40
0.0085469084882355
 40
0.2318895118599983
 40
0.4667674844507424
 40
0.7083725284820684
 40
0.9587142676206812
 40
1.0
 40
1.0
 40
1.0
 40
1.0
 10
-151.6511820346814
 20
224.3474564614605
 30
0.0
 10
-151.6519015264846
 20
224.3469316126691
 30
0.0
 10
-151.6714223395659
 20
224.3326917351504
 30
0.0
 10
-151.6960142662046
 20
224.2877084427591
 30
0.0
 10
-151.7153948842622
 20
224.2166049953719
 30
0.0
 10
-151.7033638379253
 20
224.1407090322825
 30
0.0
 10
-151.678456513757
 20
224.0874718603978
 30
0.0
 10
-151.65434186081
 20
224.0688768436538
 30
0.0
 10
-151.6509279468093
 20
224.0662443451417
 30
0.0
  0
SPLINE
  5
92F
330
23
100
AcDbEntity
 67
     1
  8
0
  6
Continuous
 62
     7
370
    25
100
AcDbSpline
210
0.0
220
0.0
230
1.0
 70
     8
 71
     3
 72
    12
 73
     8
 74
     0
 42
0.000000001
 43
0.00000001
 40
0.0
 40
0.0
 40
0.0
 40
0.0
 40
0.1225438951482924
 40
0.3220163980637322
 40
0.542803447856785
 40
0.7776160645927711
 40
0.9999999999999999
 40
0.9999999999999999
 40
0.9999999999999999
 40
0.9999999999999999
 10
-150.0330378275178
 20
222.4477207054869
 30
0.0
 10
-150.0238510224681
 20
222.4388285295003
 30
0.0
 10
-149.9997102697343
 20
222.4154619923207
 30
0.0
 10
-149.9465691120728
 20
222.3923221278219
 30
0.0
 10
-149.8782554712933
 20
222.3848575824761
 30
0.0
 10
-149.806999557976
 20
222.4013574461119
 30
0.0
 10
-149.770419052986
 20
222.4325053013736
 30
0.0
 10
-149.7526260127264
 20
222.4476558588311
 30
0.0
  0
SPLINE
  5
930
330
23
100
AcDbEntity
 67
     1
  8
0
  6
Continuous
 62
     7
370
    25
100
AcDbSpline
210
0.0
220
0.0
230
1.0
 70
     8
 71
     3
 72
    12
 73
     8
 74
     0
 42
0.000000001
 43
0.00000001
 40
0.0
 40
0.0
 40
0.0
 40
0.0
 40
0.2037825182110312
 40
0.4384707889739222
 40
0.6856864325324817
 40
0.9116062866649041
 40
1.0
 40
1.0
 40
1.0
 40
1.0
 10
-160.3531916474273
 20
233.0481432193645
 30
0.0
 10
-160.3670511415634
 20
233.0318710817034
 30
0.0
 10
-160.3968720672344
 20
232.9968589663305
 30
0.0
 10
-160.4158528836873
 20
232.9254758500913
 30
0.0
 10
-160.4083458367334
 20
232.851176788058
 30
0.0
 10
-160.3824878625728
 20
232.7966778041126
 30
0.0
 10
-160.359316032415
 20
232.7735434582006
 30
0.0
 10
-160.3527994695796
 20
232.7670374369771
 30
0.0
  0
SPLINE
  5
931
330
23
100
AcDbEntity
 67
     1
  8
0
  6
Continuous
 62
     7
370
    25
100
AcDbSpline
210
0.0
220
0.0
230
1.0
 70
     8
 71
     3
 72
    13
 73
     9
 74
     0
 42
0.000000001
 43
0.00000001
 40
0.0
 40
0.0
 40
0.0
 40
0.0
 40
0.0641102439078942
 40
0.3013004970248484
 40
0.5285220359786804
 40
0.7459772777946563
 40
0.9009801430465235
 40
1.0
 40
1.0
 40
1.0
 40
1.0
 10
-149.2848380435269
 20
221.980573777207
 30
0.0
 10
-149.2900650397912
 20
221.9763649150954
 30
0.0
 10
-149.3146304832582
 20
221.9565844218567
 30
0.0
 10
-149.3386586169869
 20
221.9038890720424
 30
0.0
 10
-149.3495557242093
 20
221.8328267781791
 30
0.0
 10
-149.3349878177458
 20
221.770886026986
 30
0.0
 10
-149.3124775221994
 20
221.726049240214
 30
0.0
 10
-149.2925949175881
 20
221.7083048608132
 30
0.0
 10
-149.2848445374356
 20
221.7013879759978
 30
0.0
  0
SPLINE
  5
932
330
23
100
AcDbEntity
 67
     1
  8
0
  6
Continuous
 62
     7
370
    25
100
AcDbSpline
210
0.0
220
0.0
230
1.0
 70
     8
 71
     3
 72
    13
 73
     9
 74
     0
 42
0.000000001
 43
0.00000001
 40
0.0
 40
0.0
 40
0.0
 40
0.0
 40
0.0994428390405412
 40
0.2120376830194734
 40
0.4007157187052003
 40
0.6093182966849671
 40
0.8391272800064867
 40
1.0
 40
1.0
 40
1.0
 40
1.0
 10
-161.0900436159823
 20
233.5081995068543
 30
0.0
 10
-161.0832221450521
 20
233.500808454282
 30
0.0
 10
-161.0686770163653
 20
233.4850488311895
 30
0.0
 10
-161.0318540103795
 20
233.4674768100922
 30
0.0
 10
-160.9822474274193
 20
233.4531732790657
 30
0.0
 10
-160.9186488154945
 20
233.4562136690973
 30
0.0
 10
-160.859671656657
 20
233.476277926035
 30
0.0
 10
-160.8318800314996
 20
233.5044053270202
 30
0.0
 10
-160.8204361520085
 20
233.5159874703979
 30
0.0
  0
SPLINE
  5
949
330
23
100
AcDbEntity
 67
     1
  8
0
  6
Continuous
 62
     7
370
    25
100
AcDbSpline
210
0.0
220
0.0
230
1.0
 70
     8
 71
     3
 72
    13
 73
     9
 74
     0
 42
0.000000001
 43
0.00000001
 40
0.0
 40
0.0
 40
0.0
 40
0.0
 40
0.239221113048413
 40
0.3682093977244845
 40
0.5000004737925996
 40
0.631791479396142
 40
0.760779562479165
 40
1.0
 40
1.0
 40
1.0
 40
1.0
 10
-21.22814243452688
 20
319.3707511094609
 30
0.0
 10
-21.24067953435894
 20
319.245777991238
 30
0.0
 10
-21.2599766520738
 20
319.0534192315691
 30
0.0
 10
-21.3850992360282
 20
318.8207786015799
 30
0.0
 10
-21.5153594948172
 20
318.6603215441886
 30
0.0
 10
-21.67747106691575
 20
318.5309074721394
 30
0.0
 10
-21.91305577024295
 20
318.4059257937328
 30
0.0
 10
-22.10856922343994
 20
318.3853108783164
 30
0.0
 10
-22.2355918511029
 20
318.3719176274561
 30
0.0
  0
SPLINE
  5
94A
330
23
100
AcDbEntity
 67
     1
  8
0
  6
Continuous
 62
     7
370
    25
100
AcDbSpline
210
0.0
220
0.0
230
1.0
 70
     8
 71
     3
 72
    13
 73
     9
 74
     0
 42
0.000000001
 43
0.00000001
 40
0.0
 40
0.0
 40
0.0
 40
0.0
 40
0.2392204356576532
 40
0.3682085183735372
 40
0.4999995240534676
 40
0.6317906005592957
 40
0.7607788858618875
 40
1.0
 40
1.0
 40
1.0
 40
1.0
 10
-22.23559199024004
 20
309.8280818403647
 30
0.0
 10
-22.10856936204052
 20
309.8146885867084
 30
0.0
 10
-21.91305590767913
 20
309.7940736669526
 30
0.0
 10
-21.67747120402741
 20
309.6690919709824
 30
0.0
 10
-21.51535963180418
 20
309.539677879541
 30
0.0
 10
-21.38509937357368
 20
309.3792207963018
 30
0.0
 10
-21.25997679118844
 20
309.1465801263628
 30
0.0
 10
-21.24067967644883
 20
308.9542213264799
 30
0.0
 10
-21.22814257855106
 20
308.8292481821438
 30
0.0
  0
LWPOLYLINE
  5
953
330
23
100
AcDbEntity
 67
     1
  8
0
  6
Continuous
 62
     7
370
    25
100
AcDbPolyline
 90
        3
 70
   128
 43
0.0
 10
-19.1656014317
 20
296.6
 10
-19.1719532604
 20
296.538775607
 10
-19.248649589
 20
295.202665186
  0
SPLINE
  5
95E
330
23
100
AcDbEntity
 67
     1
  8
0
  6
Continuous
 62
     7
370
    25
100
AcDbSpline
210
0.0
220
0.0
230
1.0
 70
     8
 71
     3
 72
    12
 73
     8
 74
     0
 42
0.000000001
 43
0.00000001
 40
0.0
 40
0.0
 40
0.0
 40
0.0
 40
0.2500000000000326
 40
0.2500000000000326
 40
0.5000000000000653
 40
0.5000000000000653
 40
1.0
 40
1.0
 40
1.0
 40
1.0
 10
-147.930621977
 20
222.0404369213
 30
0.0
 10
-147.9229486604
 20
222.0327921065
 30
0.0
 10
-147.9235896514416
 20
222.0183161209209
 30
0.0
 10
-147.9398483276979
 20
221.9768849179708
 30
0.0
 10
-147.9556335751334
 20
221.9502055734667
 30
0.0
 10
-148.0213709746334
 20
221.8582479177666
 30
0.0
 10
-148.0881060194999
 20
221.7825510366
 30
0.0
 10
-148.1632609974
 20
221.7073905171
 30
0.0
  0
SPLINE
  5
960
330
23
100
AcDbEntity
 67
     1
  8
0
  6
Continuous
 62
     7
370
    25
100
AcDbSpline
210
0.0
220
0.0
230
1.0
 70
     8
 71
     3
 72
    12
 73
     8
 74
     0
 42
0.000000001
 43
0.00000001
 40
0.0
 40
0.0
 40
0.0
 40
0.0
 40
0.5000000000000377
 40
0.5000000000000377
 40
0.7500000000000189
 40
0.7500000000000189
 40
1.0
 40
1.0
 40
1.0
 40
1.0
 10
-161.0930543476
 20
234.6371838673
 30
0.0
 10
-161.0181469612
 20
234.7120884997
 30
0.0
 10
-160.9421808746
 20
234.7790826690665
 30
0.0
 10
-160.850257402475
 20
234.8447993579917
 30
0.0
 10
-160.8235922435625
 20
234.8605799723021
 30
0.0
 10
-160.7821199346
 20
234.8768577855584
 30
0.0
 10
-160.7676486795
 20
234.8774913427499
 30
0.0
 10
-160.7600081175
 20
234.8698230618
 30
0.0
  0
SPLINE
  5
965
330
23
100
AcDbEntity
 67
     1
  8
0
  6
Continuous
 62
     7
370
    25
100
AcDbSpline
210
0.0
220
0.0
230
1.0
 70
     8
 71
     3
 72
    10
 73
     6
 74
     0
 42
0.000000001
 43
0.00000001
 40
0.0
 40
0.0
 40
0.0
 40
0.0
 40
0.5
 40
0.5
 40
1.0
 40
1.0
 40
1.0
 40
1.0
 10
-160.7627359666034
 20
234.5897081987288
 30
0.0
 10
-160.7995194252235
 20
234.6264916573555
 30
0.0
 10
-160.819898646873
 20
234.6766717946415
 30
0.0
 10
-160.8188765162201
 20
234.7817332574573
 30
0.0
 10
-160.7975169506019
 20
234.8323194665511
 30
0.0
 10
-160.7600107364656
 20
234.8698256807655
 30
0.0
  0
LWPOLYLINE
  5
966
330
23
100
AcDbEntity
 67
     1
  8
0
  6
Continuous
 62
     7
370
    25
100
AcDbPolyline
 90
        9
 70
   128
 43
0.0
 10
-161.0930543476
 20
234.6371838673
 10
-161.0860449531
 20
234.6301744729
 10
-161.0737891365
 20
234.6179186475
 10
-161.0567711806
 20
234.600900674
 10
-161.0356635419
 20
234.5797930099
 10
-161.0113002789
 20
234.5554297146
 10
-160.9846440946
 20
234.5287734923
 10
-160.9567482956
 20
234.5008776511
 10
-160.9287149088
 20
234.4728444285
  0
SPLINE
  5
96C
330
23
100
AcDbEntity
 67
     1
  8
0
  6
Continuous
 62
     7
370
    25
100
AcDbSpline
210
0.0
220
0.0
230
1.0
 70
     8
 71
     3
 72
    10
 73
     6
 74
     0
 42
0.000000001
 43
0.00000001
 40
0.0
 40
0.0
 40
0.0
 40
0.0
 40
0.5
 40
0.5
 40
1.0
 40
1.0
 40
1.0
 40
1.0
 10
-148.3276002893294
 20
221.8717298090743
 30
0.0
 10
-148.2903794188329
 20
221.9089465421251
 30
0.0
 10
-148.2553502800053
 20
221.9477181578839
 30
0.0
 10
-148.2112813193078
 20
222.0081336819686
 30
0.0
 10
-148.202712209767
 20
222.0297122324416
 30
0.0
 10
-148.2107420520439
 20
222.0377054425517
 30
0.0
  0
SPLINE
  5
97D
330
23
100
AcDbEntity
 67
     1
  8
0
  6
Continuous
 62
     7
370
    25
100
AcDbSpline
210
0.0
220
0.0
230
1.0
 70
     8
 71
     3
 72
    34
 73
    30
 74
     0
 42
0.000000001
 43
0.00000001
 40
0.0
 40
0.0
 40
0.0
 40
0.0
 40
0.0176461193182316
 40
0.0351691510248432
 40
0.0526223014937873
 40
0.0700594168039492
 40
0.0875344912638745
 40
0.1051011691642448
 40
0.1228122624565711
 40
0.1535586172746859
 40
0.1844189682654597
 40
0.2151772869154274
 40
0.2458747748426685
 40
0.3075836874771941
 40
0.369446272111185
 40
0.4319512365767071
 40
0.4947915853225218
 40
0.5578890672432639
 40
0.621150167527175
 40
0.6842245314245348
 40
0.7474554282324779
 40
0.7789661883459569
 40
0.8105533518271947
 40
0.842266517875178
 40
0.8738648898244274
 40
0.9056060933478552
 40
0.9370009424416964
 40
0.9683612877100033
 40
1.0
 40
1.0
 40
1.0
 40
1.0
 10
21.25
 20
314.9
 30
0.0
 10
21.24984817309829
 20
314.8990551216148
 30
0.0
 10
21.24954557833851
 20
314.8971719556888
 30
0.0
 10
21.2471178874102
 20
314.8817695753159
 30
0.0
 10
21.24330002642626
 20
314.8571304155014
 30
0.0
 10
21.23799647299537
 20
314.8223686888664
 30
0.0
 10
21.23129141310499
 20
314.7777283701687
 30
0.0
 10
21.22322075649942
 20
314.723122164357
 30
0.0
 10
21.2115666578455
 20
314.6431101757431
 30
0.0
 10
21.19522034651385
 20
314.5278962940696
 30
0.0
 10
21.1734506137662
 20
314.3661928303268
 30
0.0
 10
21.14972700425512
 20
314.1792053169082
 30
0.0
 10
21.11667817508234
 20
313.8976534147642
 30
0.0
 10
21.07485696308041
 20
313.4886823646276
 30
0.0
 10
21.0310919499978
 20
312.9247572159335
 30
0.0
 10
21.0008914528505
 20
312.3051438962057
 30
0.0
 10
20.98873060690214
 20
311.6538138879549
 30
0.0
 10
20.99759489779087
 20
310.9976195117619
 30
0.0
 10
21.02548933606431
 20
310.3644815333086
 30
0.0
 10
21.06854229362645
 20
309.7810766871142
 30
0.0
 10
21.11099452367796
 20
309.3543560899777
 30
0.0
 10
21.14504848939115
 20
309.0591588797765
 30
0.0
 10
21.16968384299296
 20
308.8626111534081
 30
0.0
 10
21.19241354614425
 20
308.6923410842689
 30
0.0
 10
21.21239122937717
 20
308.5508330165587
 30
0.0
 10
21.22874455192006
 20
308.4390438457661
 30
0.0
 10
21.24077836686727
 20
308.3590113172028
 30
0.0
 10
21.24853609992214
 20
308.309091067384
 30
0.0
 10
21.2495105980048
 20
308.3030392692668
 30
0.0
 10
21.25
 20
308.3
 30
0.0
  0
SPLINE
  5
97E
330
23
100
AcDbEntity
 67
     1
  8
0
  6
Continuous
 62
     7
370
    25
100
AcDbSpline
210
0.0
220
0.0
230
1.0
 70
     8
 71
     3
 72
     9
 73
     5
 74
     0
 42
0.000000001
 43
0.00000001
 40
0.0
 40
0.0
 40
0.0
 40
0.0
 40
0.005260871633879
 40
1.0
 40
1.0
 40
1.0
 40
1.0
 10
-21.22804490182267
 20
319.3536566244845
 30
0.0
 10
-21.2281541618932
 20
319.3541538207421
 30
0.0
 10
-21.24892259688521
 20
319.4486621631467
 30
0.0
 10
-21.24945786137246
 20
319.449332845917
 30
0.0
 10
-21.24999030990195
 20
319.4500000003115
 30
0.0
  0
SPLINE
  5
984
330
23
100
AcDbEntity
 67
     1
  8
0
  6
Continuous
 62
     7
370
    25
100
AcDbSpline
210
0.0
220
0.0
230
1.0
 70
     8
 71
     3
 72
    38
 73
    34
 74
     0
 42
0.000000001
 43
0.00000001
 40
0.0
 40
0.0
 40
0.0
 40
0.0
 40
0.0625000000000013
 40
0.0625000000000013
 40
0.1250000000000026
 40
0.1250000000000026
 40
0.1875000000000039
 40
0.1875000000000039
 40
0.2500000000000052
 40
0.2500000000000052
 40
0.3125000000000066
 40
0.3125000000000066
 40
0.3750000000000078
 40
0.3750000000000078
 40
0.4375000000000091
 40
0.4375000000000091
 40
0.5000000000000081
 40
0.5000000000000081
 40
0.5625000000000072
 40
0.5625000000000072
 40
0.6250000000000061
 40
0.6250000000000061
 40
0.6875000000000051
 40
0.6875000000000051
 40
0.7500000000000041
 40
0.7500000000000041
 40
0.8125000000000031
 40
0.8125000000000031
 40
0.875000000000002
 40
0.875000000000002
 40
0.937500000000001
 40
0.937500000000001
 40
1.0
 40
1.0
 40
1.0
 40
1.0
 10
-21.0
 20
240.0
 30
0.0
 10
-21.0
 20
240.0000000000001
 30
0.0
 10
-20.9602040859115
 20
240.0692106826577
 30
0.0
 10
-20.80104645905127
 20
240.3510929157457
 30
0.0
 10
-20.68147246782169
 20
240.5639759219257
 30
0.0
 10
-20.36629013184837
 20
241.144345873881
 30
0.0
 10
-20.17008141543518
 20
241.512716982293
 30
0.0
 10
-19.71759432845882
 20
242.4117589962323
 30
0.0
 10
-19.46150711797806
 20
242.9423743838662
 30
0.0
 10
-18.93278306321376
 20
244.1424942521408
 30
0.0
 10
-18.66235983665542
 20
244.8090559012133
 30
0.0
 10
-18.17054000655639
 20
246.203938997087
 30
0.0
 10
-17.94922229567943
 20
246.9329800833175
 30
0.0
 10
-17.59327405613963
 20
248.3912499376272
 30
0.0
 10
-17.4579007368379
 20
249.120301505846
 30
0.0
 10
-17.27830905943946
 20
250.5664589321744
 30
0.0
 10
-17.23368483034666
 20
251.2837546517811
 30
0.0
 10
-17.23368513370501
 20
252.7162529389189
 30
0.0
 10
-17.2783096611074
 20
253.4335487810232
 30
0.0
 10
-17.45790231014642
 20
254.8797083398723
 30
0.0
 10
-17.59327556325994
 20
255.6087577605289
 30
0.0
 10
-17.94922463975376
 20
257.0670280479467
 30
0.0
 10
-18.17054198533262
 20
257.7960667659072
 30
0.0
 10
-18.66235926467351
 20
259.1909422898686
 30
0.0
 10
-18.93278221576345
 20
259.8575037207892
 30
0.0
 10
-19.46150653215051
 20
261.0576243995993
 30
0.0
 10
-19.71759322419179
 20
261.5882387150237
 30
0.0
 10
-20.17008065309035
 20
262.4872815945498
 30
0.0
 10
-20.36628977096781
 20
262.8556534417107
 30
0.0
 10
-20.68147177749366
 20
263.4360228257739
 30
0.0
 10
-20.80104551551708
 20
263.6489054044428
 30
0.0
 10
-20.96020388580509
 20
263.9307889728506
 30
0.0
 10
-21.0
 20
264.0000000000001
 30
0.0
 10
-21.0
 20
264.0
 30
0.0
  0
SPLINE
  5
99A
330
23
100
AcDbEntity
 67
     1
  8
0
  6
Continuous
 62
     8
370
    25
100
AcDbSpline
210
0.0
220
0.0
230
1.0
 70
     8
 71
     3
 72
    17
 73
    13
 74
     0
 42
0.000000001
 43
0.00000001
 40
0.0
 40
0.0
 40
0.0
 40
0.0
 40
0.0623019100580302
 40
0.1258195192572089
 40
0.2571378577648614
 40
0.3936492556297027
 40
0.5309895727105289
 40
0.6683301306768842
 40
0.804845119698839
 40
0.871653976723401
 40
0.9368127789197735
 40
1.0
 40
1.0
 40
1.0
 40
1.0
 10
-21.24999035498169
 20
308.7499999996915
 30
0.0
 10
-21.24569552237469
 20
308.7684691336183
 30
0.0
 10
-21.23702205195618
 20
308.8057677902661
 30
0.0
 10
-21.14696666963893
 20
309.2086775312374
 30
0.0
 10
-20.94720906272103
 20
310.185505721679
 30
0.0
 10
-20.69711255052893
 20
311.9700021876877
 30
0.0
 10
-20.59122557822488
 20
314.0995360255512
 30
0.0
 10
-20.6969217920608
 20
316.2282240542295
 30
0.0
 10
-20.90748388584385
 20
317.7312116270173
 30
0.0
 10
-21.06964196769241
 20
318.6124829053938
 30
0.0
 10
-21.17201931958439
 20
319.1035786471537
 30
0.0
 10
-21.209561944136
 20
319.2711553725793
 30
0.0
 10
-21.22804490182267
 20
319.3536566244845
 30
0.0
  0
LINE
  5
9A2
330
23
100
AcDbEntity
 67
     1
  8
0
  6
Continuous
 62
     7
370
    25
100
AcDbLine
 10
-26.5
 20
-0.9
 30
0.0
 11
-26.5
 21
-6.0
 31
0.0
  0
LINE
  5
9A3
330
23
100
AcDbEntity
 67
     1
  8
0
  6
Continuous
 62
     7
370
    25
100
AcDbLine
 10
26.5
 20
-6.1
 30
0.0
 11
26.5
 21
-1.0
 31
0.0
  0
LINE
  5
9A4
330
23
100
AcDbEntity
 67
     1
  8
0
  6
Continuous
 62
     7
370
    25
100
AcDbLine
 10
21.3347528617
 20
307.7
 30
0.0
 11
21.674018854
 21
307.7
 31
0.0
  0
LINE
  5
9A5
330
23
100
AcDbEntity
 67
     1
  8
0
  6
Continuous
 62
     7
370
    25
100
AcDbLine
 10
21.674018854
 20
315.5
 30
0.0
 11
21.3347528617
 21
315.5
 31
0.0
  0
LINE
  5
9A6
330
23
100
AcDbEntity
 67
     1
  8
0
  6
Continuous
 62
     7
370
    25
100
AcDbLine
 10
21.2684266068
 20
314.2361881155
 30
0.0
 11
21.1444065551
 21
314.2325121183
 31
0.0
  0
LINE
  5
9A7
330
23
100
AcDbEntity
 67
     1
  8
0
  6
Continuous
 62
     7
370
    25
100
AcDbLine
 10
21.1444065542
 20
308.9674878824
 30
0.0
 11
21.2684266105
 21
308.963811885
 31
0.0
  0
LINE
  5
9A8
330
23
100
AcDbEntity
 67
     1
  8
0
  6
Continuous
 62
     7
370
    25
100
AcDbLine
 10
21.25
 20
307.800000055
 30
0.0
 11
21.25
 21
322.8
 31
0.0
  0
LINE
  5
9A9
330
23
100
AcDbEntity
 67
     1
  8
0
  6
Continuous
 62
     7
370
    25
100
AcDbLine
 10
21.25
 20
305.5725762137
 30
0.0
 11
21.25
 21
307.7788738414
 31
0.0
  0
LINE
  5
9AA
330
23
100
AcDbEntity
 67
     1
  8
0
  6
Continuous
 62
     7
370
    25
100
AcDbLine
 10
-21.25
 20
308.7499999781
 30
0.0
 11
-21.25
 21
296.6
 31
0.0
  0
LINE
  5
9AB
330
23
100
AcDbEntity
 67
     1
  8
0
  6
Continuous
 62
     7
370
    25
100
AcDbLine
 10
-21.25
 20
322.8
 30
0.0
 11
-21.25
 21
319.4500000218
 31
0.0
  0
LINE
  5
9AC
330
23
100
AcDbEntity
 67
     1
  8
0
  6
Continuous
 62
     7
370
    25
100
AcDbLine
 10
-92.9912979496
 20
309.75
 30
0.0
 11
-22.2500000779
 21
309.75
 31
0.0
  0
LINE
  5
9AD
330
23
100
AcDbEntity
 67
     1
  8
0
  6
Continuous
 62
     7
370
    25
100
AcDbLine
 10
-22.2500000877
 20
318.45
 30
0.0
 11
-92.9912979496
 21
318.45
 31
0.0
  0
LINE
  5
9AE
330
23
100
AcDbEntity
 67
     1
  8
0
  6
Continuous
 62
     7
370
    25
100
AcDbLine
 10
-146.7085616738
 20
219.1213203436
 30
0.0
 11
-132.5664260501
 21
233.2634559673
 31
0.0
  0
LINE
  5
9AF
330
23
100
AcDbEntity
 67
     1
  8
0
  6
Continuous
 62
     7
370
    25
100
AcDbLine
 10
-149.5369887985
 20
250.2340187157
 30
0.0
 11
-163.6791244222
 21
236.091883092
 31
0.0
  0
LINE
  5
9B0
330
23
100
AcDbEntity
 67
     1
  8
0
  6
Continuous
 62
     7
370
    25
100
AcDbLine
 10
-116.3029700827
 20
240.0
 30
0.0
 11
-21.0
 21
240.0
 31
0.0
  0
LINE
  5
9B1
330
23
100
AcDbEntity
 67
     1
  8
0
  6
Continuous
 62
     7
370
    25
100
AcDbLine
 10
-21.0
 20
264.0
 30
0.0
 11
-116.3029700827
 21
264.0
 31
0.0
  0
LINE
  5
9B2
330
23
100
AcDbEntity
 67
     1
  8
0
  6
Continuous
 62
     7
370
    25
100
AcDbLine
 10
21.0
 20
0.0
 30
0.0
 11
21.0
 21
295.0
 31
0.0
  0
LINE
  5
9B3
330
23
100
AcDbEntity
 67
     1
  8
0
  6
Continuous
 62
     7
370
    25
100
AcDbLine
 10
-21.0
 20
240.0
 30
0.0
 11
-21.0
 21
0.0
 31
0.0
  0
LINE
  5
9B4
330
23
100
AcDbEntity
 67
     1
  8
0
  6
Continuous
 62
     7
370
    25
100
AcDbLine
 10
-21.0
 20
295.0
 30
0.0
 11
-21.0
 21
264.0
 31
0.0
  0
LINE
  5
9B5
330
23
100
AcDbEntity
 67
     1
  8
0
  6
Continuous
 62
     7
370
    25
100
AcDbLine
 10
-160.7600107364
 20
234.869825681
 30
0.0
 11
-159.7847736551
 21
233.8945885997
 31
0.0
  0
LINE
  5
9B6
330
23
100
AcDbEntity
 67
     1
  8
0
  6
Continuous
 62
     7
370
    25
100
AcDbLine
 10
-161.517318056
 20
234.2129194383
 30
0.0
 11
-161.0930543476
 21
234.6371838673
 31
0.0
  0
LINE
  5
9B7
330
23
100
AcDbEntity
 67
     1
  8
0
  6
Continuous
 62
     7
370
    25
100
AcDbLine
 10
-148.1632609974
 20
221.7073905171
 30
0.0
 11
-148.5875253275
 21
221.2831267098
 31
0.0
  0
LINE
  5
9B8
330
23
100
AcDbEntity
 67
     1
  8
0
  6
Continuous
 62
     7
370
    25
100
AcDbLine
 10
-161.3529789522
 20
234.0485803345
 30
0.0
 11
-160.9287149088
 21
234.4728444285
 31
0.0
  0
LINE
  5
9B9
330
23
100
AcDbEntity
 67
     1
  8
0
  6
Continuous
 62
     7
370
    25
100
AcDbLine
 10
-160.8181873037
 20
233.513788686
 30
0.0
 11
-161.5931594177
 21
234.2887608
 31
0.0
  0
LINE
  5
9BA
330
23
100
AcDbEntity
 67
     1
  8
0
  6
Continuous
 62
     7
370
    25
100
AcDbLine
 10
-148.5116839658
 20
221.2072853481
 30
0.0
 11
-149.2866560799
 21
221.9822574621
 31
0.0
  0
LINE
  5
9BB
330
23
100
AcDbEntity
 67
     1
  8
0
  6
Continuous
 62
     7
370
    25
100
AcDbLine
 10
-148.3276003443
 20
221.871729864
 30
0.0
 11
-148.7518644315
 21
221.4474658134
 31
0.0
  0
LINE
  5
9BC
330
23
100
AcDbEntity
 67
     1
  8
0
  6
Continuous
 62
     7
370
    25
100
AcDbLine
 10
-148.1632612588
 20
221.7073907785
 30
0.0
 11
-148.7455281902
 21
222.2896577098
 31
0.0
  0
LINE
  5
9BD
330
23
100
AcDbEntity
 67
     1
  8
0
  6
Continuous
 62
     7
370
    25
100
AcDbLine
 10
-149.1697922913
 20
221.8653936736
 30
0.0
 11
-148.7455281902
 21
222.2896577098
 31
0.0
  0
LINE
  5
9BE
330
23
100
AcDbEntity
 67
     1
  8
0
  6
Continuous
 62
     7
370
    25
100
AcDbLine
 10
-160.5107870521
 20
234.0549165718
 30
0.0
 11
-160.9350510924
 21
233.6306524743
 31
0.0
  0
LINE
  5
9BF
330
23
100
AcDbEntity
 67
     1
  8
0
  6
Continuous
 62
     7
370
    25
100
AcDbLine
 10
-26.499999947
 20
-6.0
 30
0.0
 11
26.5
 21
-6.0
 31
0.0
  0
LINE
  5
9C0
330
23
100
AcDbEntity
 67
     1
  8
0
  6
Continuous
 62
     7
370
    25
100
AcDbLine
 10
25.4999999895
 20
0.0
 30
0.0
 11
-25.4999999899
 21
0.0
 31
0.0
  0
LINE
  5
9C1
330
23
100
AcDbEntity
 67
     1
  8
0
  6
Continuous
 62
     7
370
    25
100
AcDbLine
 10
0.0
 20
296.6
 30
0.0
 11
-21.2499999741
 21
296.6
 31
0.0
  0
LINE
  5
9C2
330
23
100
AcDbEntity
 67
     1
  8
0
  6
Continuous
 62
     7
370
    25
100
AcDbLine
 10
21.249999973
 20
305.620089833
 30
0.0
 11
0.0
 21
296.6
 31
0.0
  0
LINE
  5
9C3
330
23
100
AcDbEntity
 67
     1
  8
0
  6
Continuous
 62
     7
370
    25
100
AcDbLine
 10
-20.45
 20
323.6
 30
0.0
 11
20.4499999297
 21
323.6
 31
0.0
  0
LINE
  5
9C4
330
23
100
AcDbEntity
 67
     1
  8
0
  6
Continuous
 62
     7
370
    25
100
AcDbLine
 10
-22.2500000003
 20
309.7500269865
 30
0.0
 11
-22.2260607285
 21
309.8317568459
 31
0.0
  0
LINE
  5
9C5
330
23
100
AcDbEntity
 67
     1
  8
0
  6
Continuous
 62
     7
370
    25
100
AcDbLine
 10
-146.7085617341
 20
219.1213204039
 30
0.0
 11
-163.6791244222
 21
236.091883092
 31
0.0
  0
LINE
  5
9C6
330
23
100
AcDbEntity
 67
     1
  8
0
  6
Continuous
 62
     7
370
    25
100
AcDbLine
 10
-21.0
 20
295.0
 30
0.0
 11
21.0
 21
295.0
 31
0.0
  0
LINE
  5
9C7
330
23
100
AcDbEntity
 67
     1
  8
0
  6
Continuous
 62
     8
370
    25
100
AcDbLine
 10
26.499999947
 20
-1.0
 30
0.0
 11
-26.5
 21
-1.0
 31
0.0
  0
LINE
  5
9C8
330
23
100
AcDbEntity
 67
     1
  8
0
  6
Continuous
 62
     8
370
    25
100
AcDbLine
 10
21.35
 20
315.5
 30
0.0
 11
21.35
 21
307.7
 31
0.0
  0
LINE
  5
9C9
330
23
100
AcDbEntity
 67
     1
  8
0
  6
Continuous
 62
     8
370
    25
100
AcDbLine
 10
21.6587716957
 20
307.7000005095
 30
0.0
 11
21.6587716957
 21
315.5
 31
0.0
  0
LINE
  5
9CA
330
23
100
AcDbEntity
 67
     1
  8
0
  6
Continuous
 62
     8
370
    25
100
AcDbLine
 10
22.3913739241
 20
308.2893949792
 30
0.0
 11
22.3913739241
 21
314.9106050208
 31
0.0
  0
LINE
  5
9CB
330
23
100
AcDbEntity
 67
     1
  8
0
  6
Continuous
 62
     8
370
    25
100
AcDbLine
 10
21.25
 20
314.241665467
 30
0.0
 11
21.1580172328
 21
314.2389217567
 31
0.0
  0
LINE
  5
9CC
330
23
100
AcDbEntity
 67
     1
  8
0
  6
Continuous
 62
     8
370
    25
100
AcDbLine
 10
21.0857761632
 20
313.5729008255
 30
0.0
 11
21.25
 21
313.5777774295
 31
0.0
  0
LINE
  5
9CD
330
23
100
AcDbEntity
 67
     1
  8
0
  6
Continuous
 62
     8
370
    25
100
AcDbLine
 10
21.25
 20
309.6222225705
 30
0.0
 11
21.0857761764
 21
309.6270993615
 31
0.0
  0
LINE
  5
9CE
330
23
100
AcDbEntity
 67
     1
  8
0
  6
Continuous
 62
     8
370
    25
100
AcDbLine
 10
21.1580172257
 20
308.9610781045
 30
0.0
 11
21.25
 21
308.958334533
 31
0.0
  0
LINE
  5
9CF
330
23
100
AcDbEntity
 67
     1
  8
0
  6
Continuous
 62
     8
370
    25
100
AcDbLine
 10
21.25
 20
313.7756538959
 30
0.0
 11
21.0893519274
 21
313.7708780225
 31
0.0
  0
LINE
  5
9D0
330
23
100
AcDbEntity
 67
     1
  8
0
  6
Continuous
 62
     8
370
    25
100
AcDbLine
 10
21.0873702178
 20
313.6698526389
 30
0.0
 11
21.25
 21
313.6746890734
 31
0.0
  0
LINE
  5
9D1
330
23
100
AcDbEntity
 67
     1
  8
0
  6
Continuous
 62
     8
370
    25
100
AcDbLine
 10
21.0893519216
 20
309.429121819
 30
0.0
 11
21.25
 21
309.4243461041
 31
0.0
  0
LINE
  5
9D2
330
23
100
AcDbEntity
 67
     1
  8
0
  6
Continuous
 62
     8
370
    25
100
AcDbLine
 10
21.25
 20
309.5253109266
 30
0.0
 11
21.0873702276
 21
309.5301475555
 31
0.0
  0
LINE
  5
9D3
330
23
100
AcDbEntity
 67
     1
  8
0
  6
Continuous
 62
     8
370
    25
100
AcDbLine
 10
21.25
 20
308.9872370706
 30
0.0
 11
21.1386711803
 21
308.9905282785
 31
0.0
  0
LINE
  5
9D4
330
23
100
AcDbEntity
 67
     1
  8
0
  6
Continuous
 62
     8
370
    25
100
AcDbLine
 10
21.1386711763
 20
314.2094717488
 30
0.0
 11
21.25
 21
314.2127629294
 31
0.0
  0
LINE
  5
9D5
330
23
100
AcDbEntity
 67
     1
  8
0
  6
Continuous
 62
     8
370
    25
100
AcDbLine
 10
21.25
 20
314.2288151664
 30
0.0
 11
21.1487741185
 21
314.2258109018
 31
0.0
  0
LINE
  5
9D6
330
23
100
AcDbEntity
 67
     1
  8
0
  6
Continuous
 62
     8
370
    25
100
AcDbLine
 10
21.25
 20
322.8
 30
0.0
 11
-21.25
 21
322.8
 31
0.0
  0
LINE
  5
9D7
330
23
100
AcDbEntity
 67
     1
  8
0
  6
Continuous
 62
     8
370
    25
100
AcDbLine
 10
-92.9912979496
 20
318.449999476
 30
0.0
 11
-92.9912979496
 21
309.75
 31
0.0
  0
LINE
  5
9D8
330
23
100
AcDbEntity
 67
     1
  8
0
  6
Continuous
 62
     8
370
    25
100
AcDbLine
 10
-93.273471303
 20
318.2518734443
 30
0.0
 11
-93.273471303
 21
309.9481265557
 31
0.0
  0
LINE
  5
9D9
330
23
100
AcDbEntity
 67
     1
  8
0
  6
Continuous
 62
     8
370
    25
100
AcDbLine
 10
-19.248649589
 20
295.202665186
 30
0.0
 11
19.248649589
 21
295.202665186
 31
0.0
  0
LINE
  5
9DA
330
23
100
AcDbEntity
 67
     1
  8
0
  6
Continuous
 62
     8
370
    25
100
AcDbLine
 10
-149.5369887382
 20
250.2340186554
 30
0.0
 11
-132.5664260501
 21
233.2634559673
 31
0.0
  0
LINE
  5
9DB
330
23
100
AcDbEntity
 67
     1
  8
0
  6
Continuous
 62
     8
370
    25
100
AcDbLine
 10
-116.3029700827
 20
240.0
 30
0.0
 11
-116.3029700827
 21
264.0
 31
0.0
  0
ARC
  5
9DC
330
23
100
AcDbEntity
 67
     1
  8
0
  6
Continuous
 62
     7
370
    25
100
AcDbCircle
 10
-148.653105322
 20
221.3487067043
 30
0.0
 40
0.2000000000229405
100
AcDbArc
 50
225.0000000066
 51
314.9999999859
  0
ARC
  5
9DD
330
23
100
AcDbEntity
 67
     1
  8
0
  6
Continuous
 62
     7
370
    25
100
AcDbCircle
 10
-161.4517380616
 20
234.1473394438
 30
0.0
 40
0.1999999999489427
100
AcDbArc
 50
134.9999999929
 51
225.0000000146
  0
ARC
  5
9DE
330
23
100
AcDbEntity
 67
     1
  8
0
  6
Continuous
 62
     7
370
    25
100
AcDbCircle
 10
-25.5
 20
-1.0
 30
0.0
 40
1.000000000000242
100
AcDbArc
 50
89.9999997107
 51
180.0
  0
ARC
  5
9DF
330
23
100
AcDbEntity
 67
     1
  8
0
  6
Continuous
 62
     7
370
    25
100
AcDbCircle
 10
25.5
 20
-1.0
 30
0.0
 40
0.9999999999998579
100
AcDbArc
 50
360.0
 51
90.0000002894
  0
ARC
  5
9E0
330
23
100
AcDbEntity
 67
     1
  8
0
  6
Continuous
 62
     7
370
    25
100
AcDbCircle
 10
21.35
 20
307.8
 30
0.0
 40
0.1000000000000227
100
AcDbArc
 50
179.9999842416
 51
270.0
  0
ARC
  5
9E1
330
23
100
AcDbEntity
 67
     1
  8
0
  6
Continuous
 62
     7
370
    25
100
AcDbCircle
 10
21.35
 20
315.4
 30
0.0
 40
0.1000000000000798
100
AcDbArc
 50
90.0
 51
180.0000157583
  0
ARC
  5
9E2
330
23
100
AcDbEntity
 67
     1
  8
0
  6
Continuous
 62
     7
370
    25
100
AcDbCircle
 10
21.6587716942
 20
308.45
 30
0.0
 40
0.7499999999983123
100
AcDbArc
 50
270.000000113
 51
347.6349204787
  0
ARC
  5
9E3
330
23
100
AcDbEntity
 67
     1
  8
0
  6
Continuous
 62
     7
370
    25
100
AcDbCircle
 10
21.6587716942
 20
314.75
 30
0.0
 40
0.7500000000010986
100
AcDbArc
 50
12.3650795215
 51
89.9999998868
  0
ARC
  5
9E4
330
23
100
AcDbEntity
 67
     1
  8
0
  6
Continuous
 62
     7
370
    25
100
AcDbCircle
 10
7.29
 20
311.6
 30
0.0
 40
15.46000000001265
100
AcDbArc
 50
347.6349197487
 51
12.3650802513
  0
ARC
  5
9E5
330
23
100
AcDbEntity
 67
     1
  8
0
  6
Continuous
 62
     7
370
    25
100
AcDbCircle
 10
20.45
 20
322.8
 30
0.0
 40
0.8000000000016598
100
AcDbArc
 50
0.0000000001
 51
89.9999999999
  0
ARC
  5
9E6
330
23
100
AcDbEntity
 67
     1
  8
0
  6
Continuous
 62
     7
370
    25
100
AcDbCircle
 10
-20.45
 20
322.8
 30
0.0
 40
0.7999999999971124
100
AcDbArc
 50
89.9999999998
 51
180.0000000002
  0
ARC
  5
9E7
330
23
100
AcDbEntity
 67
     1
  8
0
  6
Continuous
 62
     7
370
    25
100
AcDbCircle
 10
-92.9912979495
 20
310.0500000001
 30
0.0
 40
0.3000000000668024
100
AcDbArc
 50
199.8511746397
 51
269.9999999904
  0
ARC
  5
9E8
330
23
100
AcDbEntity
 67
     1
  8
0
  6
Continuous
 62
     7
370
    25
100
AcDbCircle
 10
-92.9912979496
 20
318.15
 30
0.0
 40
0.2999999999624501
100
AcDbArc
 50
89.9999999956
 51
160.1488253743
  0
ARC
  5
9E9
330
23
100
AcDbEntity
 67
     1
  8
0
  6
Continuous
 62
     7
370
    25
100
AcDbCircle
 10
-81.7734375
 20
314.1
 30
0.0
 40
12.22656250004677
100
AcDbArc
 50
160.1488253709
 51
199.8511746291
  0
ARC
  5
9EA
330
23
100
AcDbEntity
 67
     1
  8
0
  6
Continuous
 62
     7
370
    25
100
AcDbCircle
 10
-19.0486673478
 20
295.2
 30
0.0
 40
0.1999999999990925
100
AcDbArc
 50
179.2364578532
 51
270.0000000002
  0
ARC
  5
9EB
330
23
100
AcDbEntity
 67
     1
  8
0
  6
Continuous
 62
     7
370
    25
100
AcDbCircle
 10
19.0486673478
 20
295.2
 30
0.0
 40
0.2000000000017014
100
AcDbArc
 50
270.0000000006
 51
0.7635421461
  0
ARC
  5
9EC
330
23
100
AcDbEntity
 67
     1
  8
0
  6
Continuous
 62
     7
370
    25
100
AcDbCircle
 10
4.0416666667
 20
295.0
 30
0.0
 40
15.20833333329873
100
AcDbArc
 50
0.7635421487
 51
34.5767433486
  0
ARC
  5
9ED
330
23
100
AcDbEntity
 67
     1
  8
0
  6
Continuous
 62
     7
370
    25
100
AcDbCircle
 10
-116.3029700827
 20
216.9999999999
 30
0.0
 40
47.00000000013068
100
AcDbArc
 50
90.0
 51
135.0
  0
ARC
  5
9EE
330
23
100
AcDbEntity
 67
     1
  8
0
  6
Continuous
 62
     7
370
    25
100
AcDbCircle
 10
-116.3029700828
 20
217.0000000001
 30
0.0
 40
22.99999999989785
100
AcDbArc
 50
89.9999999998
 51
135.0000000002
  0
ARC
  5
9EF
330
23
100
AcDbEntity
 67
     1
  8
0
  6
Continuous
 62
     7
370
    25
100
AcDbCircle
 10
-149.9205202552
 20
222.5913786573
 30
0.0
 40
0.1837895851415622
100
AcDbArc
 50
231.780614974
 51
320.4625682568
  0
ARC
  5
9F0
330
23
100
AcDbEntity
 67
     1
  8
0
  6
Continuous
 62
     7
370
    25
100
AcDbCircle
 10
-160.2090661085
 20
232.8799245106
 30
0.0
 40
0.1837895851415111
100
AcDbArc
 50
129.5374317432
 51
218.2193850261
  0
ARC
  5
9F1
330
23
100
AcDbEntity
 67
     1
  8
0
  6
Continuous
 62
     7
370
    25
100
AcDbCircle
 10
-161.609289651
 20
234.236312543
 30
0.0
 40
0.3177082882356375
100
AcDbArc
 50
286.5183868169
 51
323.7794609536
  0
ARC
  5
9F2
330
23
100
AcDbEntity
 67
     1
  8
0
  6
Continuous
 62
     7
370
    25
100
AcDbCircle
 10
-161.1913617913
 20
233.8183846833
 30
0.0
 40
0.3177082886447692
100
AcDbArc
 50
286.5183868787
 51
323.779460897
  0
ARC
  5
9F3
330
23
100
AcDbEntity
 67
     1
  8
0
  6
Continuous
 62
     7
370
    25
100
AcDbCircle
 10
-148.5641322228
 20
221.1911551147
 30
0.0
 40
0.3177082882678063
100
AcDbArc
 50
126.2205390885
 51
163.4816131683
  0
ARC
  5
9F4
330
23
100
AcDbEntity
 67
     1
  8
0
  6
Continuous
 62
     7
370
    25
100
AcDbCircle
 10
-148.9820600834
 20
221.6090829752
 30
0.0
 40
0.3177082876023635
100
AcDbArc
 50
126.2205389994
 51
163.4816131976
  0
ARC
  5
9F5
330
23
100
AcDbEntity
 67
     1
  8
0
  6
Continuous
 62
     7
370
    25
100
AcDbCircle
 10
-161.37752695
 20
234.0714980262
 30
0.0
 40
0.198850620076103
100
AcDbArc
 50
134.6678362272
 51
224.6639393943
  0
ARC
  5
9F6
330
23
100
AcDbEntity
 67
     1
  8
0
  6
Continuous
 62
     7
370
    25
100
AcDbCircle
 10
-148.7289467396
 20
221.4229178158
 30
0.0
 40
0.1988506200759368
100
AcDbArc
 50
225.3360606056
 51
315.3321637729
  0
ARC
  5
9F7
330
23
100
AcDbEntity
 67
     1
  8
0
  6
Continuous
 62
     7
370
    25
100
AcDbCircle
 10
-22.24998522
 20
308.7500331902
 30
0.0
 40
0.9999937962238975
100
AcDbArc
 50
359.9980983105
 51
90.0008468601
  0
ARC
  5
9F8
330
23
100
AcDbEntity
 67
     1
  8
0
  6
Continuous
 62
     7
370
    25
100
AcDbCircle
 10
-22.2499831556
 20
319.4499626095
 30
0.0
 40
0.9999930111127949
100
AcDbArc
 50
269.9990348516
 51
0.0021423566
  0
ARC
  5
9F9
330
23
100
AcDbEntity
 67
     1
  8
0
  6
Continuous
 62
     8
370
    25
100
AcDbCircle
 10
-36.6604641923
 20
314.1008028837
 30
0.0
 40
15.05246682198914
100
AcDbArc
 50
343.5241572919
 51
16.7941488895
  0
VIEWPORT
  5
9FC
330
23
100
AcDbEntity
 67
     1
  8
0
100
AcDbViewport
 10
0.0
 20
0.0
 30
0.0
 40
205.6
 41
156.0
 68
     1
 69
     1
 12
-68.5895622111
 22
0.0
 13
0.0
 23
0.0
 14
10.0
 24
10.0
 15
10.0
 25
10.0
 16
0.0
 26
0.0
 36
1.0
 17
0.0
 27
0.0
 37
0.0
 42
50.0
 43
0.0
 44
0.0
 45
147.1853223641
 50
0.0
 51
0.0
 72
   100
 90
   557152
  1

281
     0
 71
     1
 74
     0
110
0.0
120
0.0
130
0.0
111
1.0
121
0.0
131
0.0
112
0.0
122
1.0
132
0.0
 79
     0
146
0.0
  0
ENDSEC
  0
SECTION
  2
OBJECTS
  0
DICTIONARY
  5
C
330
0
100
AcDbDictionary
281
     1
  3
ACAD_GROUP
350
D
  3
ACAD_LAYOUT
350
1A
  3
ACAD_MLINESTYLE
350
17
  3
ACAD_PLOTSETTINGS
350
19
  3
ACAD_PLOTSTYLENAME
350
E
  3
ACAD_SCALELIST
350
47
  0
DICTIONARY
  5
D
102
{ACAD_REACTORS
330
C
102
}
330
C
100
AcDbDictionary
281
     1
  0
DICTIONARY
  5
1A
102
{ACAD_REACTORS
330
C
102
}
330
C
100
AcDbDictionary
281
     1
  3
_Bottom
350
26
  3
_Left
350
1E
  3
Model
350
22
  0
DICTIONARY
  5
17
102
{ACAD_REACTORS
330
C
102
}
330
C
100
AcDbDictionary
281
     1
  3
Standard
350
18
  0
DICTIONARY
  5
19
102
{ACAD_REACTORS
330
C
102
}
330
C
100
AcDbDictionary
281
     1
  0
ACDBDICTIONARYWDFLT
  5
E
102
{ACAD_REACTORS
330
C
102
}
330
C
100
AcDbDictionary
281
     1
  3
Normal
350
F
100
AcDbDictionaryWithDefault
340
F
  0
DICTIONARY
  5
47
102
{ACAD_REACTORS
330
C
102
}
330
C
100
AcDbDictionary
281
     1
  3
A0
350
48
  3
A1
350
49
  3
A2
350
4A
  3
A3
350
4B
  3
A4
350
4C
  3
A5
350
4D
  3
A6
350
4E
  3
A7
350
4F
  3
A8
350
50
  3
A9
350
51
  3
B0
350
52
  3
B1
350
53
  3
B2
350
54
  3
B3
350
55
  3
B4
350
56
  3
B5
350
57
  3
B6
350
58
  3
B7
350
59
  3
B8
350
5A
  3
B9
350
5B
  3
C0
350
5C
  3
C1
350
5D
  3
C2
350
5E
  3
C3
350
5F
  3
C4
350
60
  3
C5
350
61
  3
C6
350
62
  3
C7
350
63
  3
C8
350
64
  3
C9
350
65
  3
D0
350
66
  3
D1
350
67
  3
D2
350
68
  0
LAYOUT
  5
26
102
{ACAD_REACTORS
330
1A
102
}
330
1A
100
AcDbPlotSettings
  1

  2
none_device
  4
ANSI_A_(11.00_x_8.50_Inches)
  6

 40
6.35
 41
19.05
 42
6.35000508
 43
19.05000254
 44
279.4
 45
215.9
 46
233.1100762941
 47
88.89999873
 48
0.0
 49
0.0
140
0.0
141
0.0
142
0.0572618053
143
1.0
 70
  1696
 72
     0
 73
     0
 74
     1
  7

 75
     0
147
0.055211106
148
4157.4497603248
149
673.1
100
AcDbLayout
  1
_Bottom
 70
     1
 71
     2
 10
0.0
 20
0.0
 11
0.0
 21
0.0
 12
0.0
 22
0.0
 32
0.0
 14
-163.6791244222
 24
-26.5
 34
0.0
 15
26.5
 25
26.5
 35
0.0
146
0.0
 13
0.0
 23
0.0
 33
0.0
 16
1.0
 26
0.0
 36
0.0
 17
0.0
 27
1.0
 37
0.0
 76
     0
330
23
331
9FC
  0
LAYOUT
  5
1E
102
{ACAD_REACTORS
330
1A
102
}
330
1A
100
AcDbPlotSettings
  1

  2
none_device
  4
ISO_A4_(210.00_x_297.00_MM)
  6

 40
7.5
 41
20.0
 42
7.5
 43
20.0
 44
210.0
 45
297.0
 46
0.0
 47
0.0
 48
0.0
 49
0.0
140
0.0
141
0.0
142
1.0
143
1.2828793774
 70
   688
 72
     1
 73
     1
 74
     1
  7

 75
     0
147
0.779496512
148
6.1
149
26.5
100
AcDbLayout
  1
_Left
 70
     1
 71
     1
 10
-31.7575875486
 20
-36.1215953307
 11
349.2575875486
 21
233.28307393
 12
0.0
 22
0.0
 32
0.0
 14
1.0000000000E+20
 24
1.0000000000E+20
 34
1.0000000000E+20
 15
-1.0000000000E+20
 25
-1.0000000000E+20
 35
-1.0000000000E+20
146
0.0
 13
0.0
 23
0.0
 33
0.0
 16
1.0
 26
0.0
 36
0.0
 17
0.0
 27
1.0
 37
0.0
 76
     0
330
1B
331
9FA
  0
LAYOUT
  5
22
102
{ACAD_REACTORS
330
1A
102
}
330
1A
100
AcDbPlotSettings
  1

  2
none_device
  4
Letter_(8.50_x_11.00_Inches)
  6

 40
6.35
 41
6.35
 42
6.35000508
 43
6.35000508
 44
215.9
 45
279.4
 46
0.0
 47
0.0
 48
0.0
 49
0.0
140
0.0
141
0.0
142
1.0
143
1.0
 70
  1712
 72
     1
 73
     0
 74
     0
  7

 75
     0
147
1.0
148
0.0
149
0.0
100
AcDbLayout
  1
Model
 70
     1
 71
     0
 10
0.0
 20
0.0
 11
420.0
 21
297.0
 12
0.0
 22
0.0
 32
0.0
 14
-163.6791244222
 24
-26.5
 34
0.0
 15
26.5
 25
26.5
 35
0.0
146
0.0
 13
0.0
 23
0.0
 33
0.0
 16
1.0
 26
0.0
 36
0.0
 17
0.0
 27
1.0
 37
0.0
 76
     0
330
1F
331
29
  0
MLINESTYLE
  5
18
102
{ACAD_REACTORS
330
17
102
}
330
17
100
AcDbMlineStyle
  2
Standard
 70
     0
  3

 62
   256
 51
90.0
 52
90.0
 71
     2
 49
0.5
 62
   256
  6
BYLAYER
 49
-0.5
 62
   256
  6
BYLAYER
  0
ACDBPLACEHOLDER
  5
F
102
{ACAD_REACTORS
330
E
102
}
330
E
  0
SCALE
  5
48
102
{ACAD_REACTORS
330
47
102
}
330
47
100
AcDbScale
 70
     0
300
1:1
140
1.0
141
1.0
290
     1
  0
SCALE
  5
49
102
{ACAD_REACTORS
330
47
102
}
330
47
100
AcDbScale
 70
     0
300
1:2
140
1.0
141
2.0
290
     0
  0
SCALE
  5
4A
102
{ACAD_REACTORS
330
47
102
}
330
47
100
AcDbScale
 70
     0
300
1:4
140
1.0
141
4.0
290
     0
  0
SCALE
  5
4B
102
{ACAD_REACTORS
330
47
102
}
330
47
100
AcDbScale
 70
     0
300
1:5
140
1.0
141
5.0
290
     0
  0
SCALE
  5
4C
102
{ACAD_REACTORS
330
47
102
}
330
47
100
AcDbScale
 70
     0
300
1:8
140
1.0
141
8.0
290
     0
  0
SCALE
  5
4D
102
{ACAD_REACTORS
330
47
102
}
330
47
100
AcDbScale
 70
     0
300
1:10
140
1.0
141
10.0
290
     0
  0
SCALE
  5
4E
102
{ACAD_REACTORS
330
47
102
}
330
47
100
AcDbScale
 70
     0
300
1:16
140
1.0
141
16.0
290
     0
  0
SCALE
  5
4F
102
{ACAD_REACTORS
330
47
102
}
330
47
100
AcDbScale
 70
     0
300
1:20
140
1.0
141
20.0
290
     0
  0
SCALE
  5
50
102
{ACAD_REACTORS
330
47
102
}
330
47
100
AcDbScale
 70
     0
300
1:30
140
1.0
141
30.0
290
     0
  0
SCALE
  5
51
102
{ACAD_REACTORS
330
47
102
}
330
47
100
AcDbScale
 70
     0
300
1:40
140
1.0
141
40.0
290
     0
  0
SCALE
  5
52
102
{ACAD_REACTORS
330
47
102
}
330
47
100
AcDbScale
 70
     0
300
1:50
140
1.0
141
50.0
290
     0
  0
SCALE
  5
53
102
{ACAD_REACTORS
330
47
102
}
330
47
100
AcDbScale
 70
     0
300
1:100
140
1.0
141
100.0
290
     0
  0
SCALE
  5
54
102
{ACAD_REACTORS
330
47
102
}
330
47
100
AcDbScale
 70
     0
300
2:1
140
2.0
141
1.0
290
     0
  0
SCALE
  5
55
102
{ACAD_REACTORS
330
47
102
}
330
47
100
AcDbScale
 70
     0
300
4:1
140
4.0
141
1.0
290
     0
  0
SCALE
  5
56
102
{ACAD_REACTORS
330
47
102
}
330
47
100
AcDbScale
 70
     0
300
8:1
140
8.0
141
1.0
290
     0
  0
SCALE
  5
57
102
{ACAD_REACTORS
330
47
102
}
330
47
100
AcDbScale
 70
     0
300
10:1
140
10.0
141
1.0
290
     0
  0
SCALE
  5
58
102
{ACAD_REACTORS
330
47
102
}
330
47
100
AcDbScale
 70
     0
300
100:1
140
100.0
141
1.0
290
     0
  0
SCALE
  5
59
102
{ACAD_REACTORS
330
47
102
}
330
47
100
AcDbScale
 70
     0
300
1/128" = 1'-0"
140
0.0078125
141
12.0
290
     0
  0
SCALE
  5
5A
102
{ACAD_REACTORS
330
47
102
}
330
47
100
AcDbScale
 70
     0
300
1/64" = 1'-0"
140
0.015625
141
12.0
290
     0
  0
SCALE
  5
5B
102
{ACAD_REACTORS
330
47
102
}
330
47
100
AcDbScale
 70
     0
300
1/32" = 1'-0"
140
0.03125
141
12.0
290
     0
  0
SCALE
  5
5C
102
{ACAD_REACTORS
330
47
102
}
330
47
100
AcDbScale
 70
     0
300
1/16" = 1'-0"
140
0.0625
141
12.0
290
     0
  0
SCALE
  5
5D
102
{ACAD_REACTORS
330
47
102
}
330
47
100
AcDbScale
 70
     0
300
3/32" = 1'-0"
140
0.09375
141
12.0
290
     0
  0
SCALE
  5
5E
102
{ACAD_REACTORS
330
47
102
}
330
47
100
AcDbScale
 70
     0
300
1/8" = 1'-0"
140
0.125
141
12.0
290
     0
  0
SCALE
  5
5F
102
{ACAD_REACTORS
330
47
102
}
330
47
100
AcDbScale
 70
     0
300
3/16" = 1'-0"
140
0.1875
141
12.0
290
     0
  0
SCALE
  5
60
102
{ACAD_REACTORS
330
47
102
}
330
47
100
AcDbScale
 70
     0
300
1/4" = 1'-0"
140
0.25
141
12.0
290
     0
  0
SCALE
  5
61
102
{ACAD_REACTORS
330
47
102
}
330
47
100
AcDbScale
 70
     0
300
3/8" = 1'-0"
140
0.375
141
12.0
290
     0
  0
SCALE
  5
62
102
{ACAD_REACTORS
330
47
102
}
330
47
100
AcDbScale
 70
     0
300
1/2" = 1'-0"
140
0.5
141
12.0
290
     0
  0
SCALE
  5
63
102
{ACAD_REACTORS
330
47
102
}
330
47
100
AcDbScale
 70
     0
300
3/4" = 1'-0"
140
0.75
141
12.0
290
     0
  0
SCALE
  5
64
102
{ACAD_REACTORS
330
47
102
}
330
47
100
AcDbScale
 70
     0
300
1" = 1'-0"
140
1.0
141
12.0
290
     0
  0
SCALE
  5
65
102
{ACAD_REACTORS
330
47
102
}
330
47
100
AcDbScale
 70
     0
300
1-1/2" = 1'-0"
140
1.5
141
12.0
290
     0
  0
SCALE
  5
66
102
{ACAD_REACTORS
330
47
102
}
330
47
100
AcDbScale
 70
     0
300
3" = 1'-0"
140
3.0
141
12.0
290
     0
  0
SCALE
  5
67
102
{ACAD_REACTORS
330
47
102
}
330
47
100
AcDbScale
 70
     0
300
6" = 1'-0"
140
6.0
141
12.0
290
     0
  0
SCALE
  5
68
102
{ACAD_REACTORS
330
47
102
}
330
47
100
AcDbScale
 70
     0
300
1'-0" = 1'-0"
140
12.0
141
12.0
290
     0
  0
ENDSEC
  0
EOF
