  0
SECTION
  2
HEADER
  9
$ACADVER
  1
AC1015
  9
$ACADMAINTVER
 70
     6
  9
$DWGCODEPAGE
  3
ANSI_1252
  9
$INSBASE
 10
0.0
 20
0.0
 30
0.0
  9
$EXTMIN
 10
-25.0
 20
-1.0
 30
0.0
  9
$EXTMAX
 10
25.0
 20
132.1155520854
 30
0.0
  9
$LIMMIN
 10
0.0
 20
0.0
  9
$LIMMAX
 10
420.0
 20
297.0
  9
$ORTHOMODE
 70
     0
  9
$REGENMODE
 70
     1
  9
$FILLMODE
 70
     1
  9
$QTEXTMODE
 70
     0
  9
$MIRRTEXT
 70
     1
  9
$LTSCALE
 40
1.0
  9
$ATTMODE
 70
     1
  9
$TEXTSIZE
 40
3.5
  9
$TRACEWID
 40
1.0
  9
$TEXTSTYLE
  7
Standard
  9
$CLAYER
  8
0
  9
$CELTYPE
  6
ByLayer
  9
$CECOLOR
 62
   256
  9
$CELTSCALE
 40
1.0
  9
$DISPSILH
 70
     0
  9
$DIMSCALE
 40
1.0
  9
$DIMASZ
 40
3.302
  9
$DIMEXO
 40
1.0
  9
$DIMDLI
 40
3.75
  9
$DIMRND
 40
0.0
  9
$DIMDLE
 40
0.0
  9
$DIMEXE
 40
1.0
  9
$DIMTP
 40
0.0
  9
$DIMTM
 40
0.0
  9
$DIMTXT
 40
3.5
  9
$DIMCEN
 40
2.5
  9
$DIMTSZ
 40
0.0
  9
$DIMTOL
 70
     0
  9
$DIMLIM
 70
     0
  9
$DIMTIH
 70
     1
  9
$DIMTOH
 70
     1
  9
$DIMSE1
 70
     0
  9
$DIMSE2
 70
     0
  9
$DIMTAD
 70
     1
  9
$DIMZIN
 70
     1
  9
$DIMBLK
  1

  9
$DIMASO
 70
     1
  9
$DIMSHO
 70
     1
  9
$DIMPOST
  1

  9
$DIMAPOST
  1

  9
$DIMALT
 70
     0
  9
$DIMALTD
 70
     3
  9
$DIMALTF
 40
0.0393700787
  9
$DIMLFAC
 40
1.0
  9
$DIMTOFL
 70
     1
  9
$DIMTVP
 40
0.0
  9
$DIMTIX
 70
     0
  9
$DIMSOXD
 70
     0
  9
$DIMSAH
 70
     0
  9
$DIMBLK1
  1

  9
$DIMBLK2
  1

  9
$DIMSTYLE
  2
ISO-25
  9
$DIMCLRD
 70
     0
  9
$DIMCLRE
 70
     0
  9
$DIMCLRT
 70
     0
  9
$DIMTFAC
 40
1.0
  9
$DIMGAP
 40
1.524
  9
$DIMJUST
 70
     0
  9
$DIMSD1
 70
     0
  9
$DIMSD2
 70
     0
  9
$DIMTOLJ
 70
     0
  9
$DIMTZIN
 70
     1
  9
$DIMALTZ
 70
     0
  9
$DIMALTTZ
 70
     0
  9
$DIMUPT
 70
     0
  9
$DIMDEC
 70
     2
  9
$DIMTDEC
 70
     2
  9
$DIMALTU
 70
     2
  9
$DIMALTTD
 70
     3
  9
$DIMTXSTY
  7
Standard
  9
$DIMAUNIT
 70
     0
  9
$DIMADEC
 70
     2
  9
$DIMALTRND
 40
0.0
  9
$DIMAZIN
 70
     0
  9
$DIMDSEP
 70
    44
  9
$DIMATFIT
 70
     3
  9
$DIMFRAC
 70
     0
  9
$DIMLDRBLK
  1

  9
$DIMLUNIT
 70
     2
  9
$DIMLWD
 70
    -2
  9
$DIMLWE
 70
    -2
  9
$DIMTMOVE
 70
     0
  9
$LUNITS
 70
     2
  9
$LUPREC
 70
     2
  9
$SKETCHINC
 40
1.0
  9
$FILLETRAD
 40
10.0
  9
$AUNITS
 70
     0
  9
$AUPREC
 70
     2
  9
$MENU
  1
.
  9
$ELEVATION
 40
0.0
  9
$PELEVATION
 40
0.0
  9
$THICKNESS
 40
0.0
  9
$LIMCHECK
 70
     0
  9
$CHAMFERA
 40
0.0
  9
$CHAMFERB
 40
0.0
  9
$CHAMFERC
 40
0.0
  9
$CHAMFERD
 40
0.0
  9
$SKPOLY
 70
     0
  9
$TDCREATE
 40
2459033.449445764
  9
$TDUCREATE
 40
2459033.407779097
  9
$TDUPDATE
 40
2459033.449491331
  9
$TDUUPDATE
 40
2459033.407824664
  9
$TDINDWG
 40
0.0000000116
  9
$TDUSRTIMER
 40
0.0000000116
  9
$USRTIMER
 70
     1
  9
$ANGBASE
 50
0.0
  9
$ANGDIR
 70
     0
  9
$PDMODE
 70
     0
  9
$PDSIZE
 40
-1.0
  9
$PLINEWID
 40
0.0
  9
$SPLFRAME
 70
     0
  9
$SPLINETYPE
 70
     6
  9
$SPLINESEGS
 70
     8
  9
$HANDSEED
  5
285
  9
$SURFTAB1
 70
     6
  9
$SURFTAB2
 70
     6
  9
$SURFTYPE
 70
     6
  9
$SURFU
 70
     6
  9
$SURFV
 70
     6
  9
$UCSBASE
  2

  9
$UCSNAME
  2

  9
$UCSORG
 10
0.0
 20
0.0
 30
0.0
  9
$UCSXDIR
 10
1.0
 20
0.0
 30
0.0
  9
$UCSYDIR
 10
0.0
 20
1.0
 30
0.0
  9
$UCSORTHOREF
  2

  9
$UCSORTHOVIEW
 70
     0
  9
$UCSORGTOP
 10
0.0
 20
0.0
 30
0.0
  9
$UCSORGBOTTOM
 10
0.0
 20
0.0
 30
0.0
  9
$UCSORGLEFT
 10
0.0
 20
0.0
 30
0.0
  9
$UCSORGRIGHT
 10
0.0
 20
0.0
 30
0.0
  9
$UCSORGFRONT
 10
0.0
 20
0.0
 30
0.0
  9
$UCSORGBACK
 10
0.0
 20
0.0
 30
0.0
  9
$PUCSBASE
  2

  9
$PUCSNAME
  2

  9
$PUCSORG
 10
0.0
 20
0.0
 30
0.0
  9
$PUCSXDIR
 10
1.0
 20
0.0
 30
0.0
  9
$PUCSYDIR
 10
0.0
 20
1.0
 30
0.0
  9
$PUCSORTHOREF
  2

  9
$PUCSORTHOVIEW
 70
     0
  9
$PUCSORGTOP
 10
0.0
 20
0.0
 30
0.0
  9
$PUCSORGBOTTOM
 10
0.0
 20
0.0
 30
0.0
  9
$PUCSORGLEFT
 10
0.0
 20
0.0
 30
0.0
  9
$PUCSORGRIGHT
 10
0.0
 20
0.0
 30
0.0
  9
$PUCSORGFRONT
 10
0.0
 20
0.0
 30
0.0
  9
$PUCSORGBACK
 10
0.0
 20
0.0
 30
0.0
  9
$USERI1
 70
     0
  9
$USERI2
 70
     0
  9
$USERI3
 70
     0
  9
$USERI4
 70
     0
  9
$USERI5
 70
     0
  9
$USERR1
 40
0.0
  9
$USERR2
 40
0.0
  9
$USERR3
 40
0.0
  9
$USERR4
 40
0.0
  9
$USERR5
 40
0.0
  9
$WORLDVIEW
 70
     1
  9
$SHADEDGE
 70
     3
  9
$SHADEDIF
 70
    70
  9
$TILEMODE
 70
     1
  9
$MAXACTVP
 70
    64
  9
$PINSBASE
 10
0.0
 20
0.0
 30
0.0
  9
$PLIMCHECK
 70
     0
  9
$PEXTMIN
 10
-25.0
 20
-1.0
 30
0.0
  9
$PEXTMAX
 10
99.6399559623
 20
132.1155520854
 30
0.0
  9
$PLIMMIN
 10
-38.652877137
 20
-6.1198289264
  9
$PLIMMAX
 10
164.092348347
 20
137.2353810118
  9
$UNITMODE
 70
     0
  9
$VISRETAIN
 70
     1
  9
$PLINEGEN
 70
     0
  9
$PSLTSCALE
 70
     1
  9
$TREEDEPTH
 70
  3020
  9
$CMLSTYLE
  2
Standard
  9
$CMLJUST
 70
     0
  9
$CMLSCALE
 40
20.0
  9
$PROXYGRAPHICS
 70
     1
  9
$MEASUREMENT
 70
     1
  9
$CELWEIGHT
370
    -1
  9
$ENDCAPS
280
     0
  9
$JOINSTYLE
280
     0
  9
$LWDISPLAY
290
     1
  9
$INSUNITS
 70
     4
  9
$HYPERLINKBASE
  1

  9
$STYLESHEET
  1

  9
$XEDIT
290
     1
  9
$CEPSNTYPE
380
     0
  9
$PSTYLEMODE
290
     1
  9
$FINGERPRINTGUID
  2
{a543c08c-50ba-47bd-84b2-3373f47e23f3}
  9
$VERSIONGUID
  2
{FAEB1C32-E019-11D5-929B-00C0DF256EC4}
  9
$EXTNAMES
290
     1
  9
$PSVPSCALE
 40
0.0
  9
$OLESTARTUP
290
     0
  0
ENDSEC
  0
SECTION
  2
CLASSES
  0
CLASS
  1
ACDBDICTIONARYWDFLT
  2
AcDbDictionaryWithDefault
  3
ObjectDBX Classes
 90
        0
280
     0
281
     0
  0
CLASS
  1
VISUALSTYLE
  2
AcDbVisualStyle
  3
ObjectDBX Classes
 90
     4095
280
     0
281
     0
  0
CLASS
  1
MATERIAL
  2
AcDbMaterial
  3
ObjectDBX Classes
 90
     1153
280
     0
281
     0
  0
CLASS
  1
SCALE
  2
AcDbScale
  3
ObjectDBX Classes
 90
     1153
280
     0
281
     0
  0
CLASS
  1
TABLESTYLE
  2
AcDbTableStyle
  3
ObjectDBX Classes
 90
     4095
280
     0
281
     0
  0
CLASS
  1
MLEADERSTYLE
  2
AcDbMLeaderStyle
  3
ACDB_MLEADERSTYLE_CLASS
 90
     4095
280
     0
281
     0
  0
CLASS
  1
SUN
  2
AcDbSun
  3
SCENEOE
 90
     1153
280
     0
281
     0
  0
CLASS
  1
ACDBPLACEHOLDER
  2
AcDbPlaceHolder
  3
ObjectDBX Classes
 90
        0
280
     0
281
     0
  0
CLASS
  1
LAYOUT
  2
AcDbLayout
  3
ObjectDBX Classes
 90
        0
280
     0
281
     0
  0
ENDSEC
  0
SECTION
  2
TABLES
  0
TABLE
  2
VPORT
  5
8
330
0
100
AcDbSymbolTable
 70
     1
  0
VPORT
  5
29
330
8
100
AcDbSymbolTableRecord
100
AcDbViewportTableRecord
  2
*Active
 70
     0
 10
0.0
 20
0.0
 11
1.0
 21
1.0
 12
0.0
 22
65.5577760427
 13
0.0
 23
0.0
 14
10.0
 24
10.0
 15
10.0
 25
10.0
 16
0.0
 26
0.0
 36
1.0
 17
0.0
 27
0.0
 37
0.0
 40
135.7778631271
 41
0.3756135118
 42
50.0
 43
0.0
 44
0.0
 50
0.0
 51
0.0
 71
     0
 72
   100
 73
     1
 74
     3
 75
     0
 76
     0
 77
     0
 78
     0
281
     0
 65
     1
110
0.0
120
0.0
130
0.0
111
1.0
121
0.0
131
0.0
112
0.0
122
1.0
132
0.0
 79
     0
146
0.0
  0
ENDTAB
  0
TABLE
  2
LTYPE
  5
5
330
0
100
AcDbSymbolTable
 70
     6
  0
LTYPE
  5
14
330
5
100
AcDbSymbolTableRecord
100
AcDbLinetypeTableRecord
  2
ByBlock
 70
     0
  3

 72
    65
 73
     0
 40
0.0
  0
LTYPE
  5
15
330
5
100
AcDbSymbolTableRecord
100
AcDbLinetypeTableRecord
  2
ByLayer
 70
     0
  3

 72
    65
 73
     0
 40
0.0
  0
LTYPE
  5
16
330
5
100
AcDbSymbolTableRecord
100
AcDbLinetypeTableRecord
  2
Continuous
 70
     0
  3
Solid line
 72
    65
 73
     0
 40
0.0
  0
LTYPE
  5
6E
330
5
100
AcDbSymbolTableRecord
100
AcDbLinetypeTableRecord
  2
HIDDEN
 70
     0
  3
Hidden __ __ __ __ __ __ __ __ __ __ __ __ __ __
 72
    65
 73
     2
 40
1.905
 49
1.27
 74
     0
 49
-0.635
 74
     0
  0
LTYPE
  5
6F
330
5
100
AcDbSymbolTableRecord
100
AcDbLinetypeTableRecord
  2
PHANTOM
 70
     0
  3
Phantom ______  __  __  ______  __  __  ______
 72
    65
 73
     6
 40
12.7
 49
6.35
 74
     0
 49
-1.27
 74
     0
 49
1.27
 74
     0
 49
-1.27
 74
     0
 49
1.27
 74
     0
 49
-1.27
 74
     0
  0
LTYPE
  5
70
330
5
100
AcDbSymbolTableRecord
100
AcDbLinetypeTableRecord
  2
CENTER
 70
     0
  3
Center ____ _ ____ _ ____ _ ____ _ ____ _ ____
 72
    65
 73
     4
 40
10.16
 49
6.35
 74
     0
 49
-1.27
 74
     0
 49
1.27
 74
     0
 49
-1.27
 74
     0
  0
LTYPE
  5
71
330
5
100
AcDbSymbolTableRecord
100
AcDbLinetypeTableRecord
  2
CENTERX2
 70
     0
  3
Center (2x) ________  __  ________  __  _____
 72
    65
 73
     4
 40
20.32
 49
12.7
 74
     0
 49
-2.54
 74
     0
 49
2.54
 74
     0
 49
-2.54
 74
     0
  0
LTYPE
  5
72
330
5
100
AcDbSymbolTableRecord
100
AcDbLinetypeTableRecord
  2
DOT2
 70
     0
  3
Dot (.5x) ........................................
 72
    65
 73
     2
 40
0.635
 49
0.0
 74
     0
 49
-0.635
 74
     0
  0
ENDTAB
  0
TABLE
  2
LAYER
  5
2
330
0
100
AcDbSymbolTable
 70
     1
  0
LAYER
  5
10
330
2
100
AcDbSymbolTableRecord
100
AcDbLayerTableRecord
  2
0
 70
     0
 62
     7
  6
Continuous
370
    -3
390
F
  0
ENDTAB
  0
TABLE
  2
STYLE
  5
3
330
0
100
AcDbSymbolTable
 70
     1
  0
STYLE
  5
11
330
3
100
AcDbSymbolTableRecord
100
AcDbTextStyleTableRecord
  2
Standard
 70
     0
 40
0.0
 41
1.0
 50
0.0
 71
     0
 42
3.5
  3
txt
  4

  0
ENDTAB
  0
TABLE
  2
VIEW
  5
6
330
0
100
AcDbSymbolTable
 70
     0
  0
ENDTAB
  0
TABLE
  2
UCS
  5
7
330
0
100
AcDbSymbolTable
 70
     0
  0
ENDTAB
  0
TABLE
  2
APPID
  5
9
330
0
100
AcDbSymbolTable
 70
     1
  0
APPID
  5
12
330
9
100
AcDbSymbolTableRecord
100
AcDbRegAppTableRecord
  2
ACAD
 70
     0
  0
ENDTAB
  0
TABLE
  2
DIMSTYLE
  5
A
330
0
100
AcDbSymbolTable
 70
     1
100
AcDbDimStyleTable
  0
DIMSTYLE
105
27
330
A
100
AcDbSymbolTableRecord
100
AcDbDimStyleTableRecord
  2
ISO-25
 70
     0
 41
2.5
 42
0.625
 43
3.75
 44
1.25
 73
     0
 74
     0
 77
     1
 78
     8
140
2.5
141
2.5
143
0.0393700787
147
0.625
171
     3
172
     1
178
     0
271
     2
272
     2
274
     3
278
    44
283
     0
284
     8
340
11
  0
ENDTAB
  0
TABLE
  2
BLOCK_RECORD
  5
1
330
0
100
AcDbSymbolTable
 70
     2
  0
BLOCK_RECORD
  5
1F
330
1
100
AcDbSymbolTableRecord
100
AcDbBlockTableRecord
  2
*Model_Space
340
22
  0
BLOCK_RECORD
  5
1B
330
1
100
AcDbSymbolTableRecord
100
AcDbBlockTableRecord
  2
*Paper_Space
340
1E
  0
BLOCK_RECORD
  5
23
330
1
100
AcDbSymbolTableRecord
100
AcDbBlockTableRecord
  2
*Paper_Space0
340
26
  0
BLOCK_RECORD
  5
200
330
1
100
AcDbSymbolTableRecord
100
AcDbBlockTableRecord
  2
*Paper_Space1
340
201
  0
ENDTAB
  0
ENDSEC
  0
SECTION
  2
BLOCKS
  0
BLOCK
  5
20
330
1F
100
AcDbEntity
  8
0
100
AcDbBlockBegin
  2
*Model_Space
 70
     0
 10
0.0
 20
0.0
 30
0.0
  3
*Model_Space
  1

  0
ENDBLK
  5
21
330
1F
100
AcDbEntity
  8
0
100
AcDbBlockEnd
  0
BLOCK
  5
1C
330
1B
100
AcDbEntity
 67
     1
  8
0
100
AcDbBlockBegin
  2
*Paper_Space
 70
     0
 10
0.0
 20
0.0
 30
0.0
  3
*Paper_Space
  1

  0
ENDBLK
  5
1D
330
1B
100
AcDbEntity
 67
     1
  8
0
100
AcDbBlockEnd
  0
BLOCK
  5
24
330
23
100
AcDbEntity
  8
0
100
AcDbBlockBegin
  2
*Paper_Space0
 70
     0
 10
0.0
 20
0.0
 30
0.0
  3
*Paper_Space0
  1

  0
SPLINE
  5
18F
330
23
100
AcDbEntity
  8
0
  6
Continuous
 62
     7
370
    25
100
AcDbSpline
210
0.0
220
0.0
230
1.0
 70
     8
 71
     3
 72
     9
 73
     5
 74
     0
 42
0.000000001
 43
0.00000001
 40
0.0
 40
0.0
 40
0.0
 40
0.0
 40
0.4014414680047291
 40
1.0
 40
1.0
 40
1.0
 40
1.0
 10
-2.938424227015849
 20
-99.55169686636644
 30
0.0
 10
-2.554969501291437
 20
-99.57291102607245
 30
0.0
 10
-1.599774893145237
 20
-99.62575598952732
 30
0.0
 10
-0.599013979787333
 20
-99.633116091285
 30
0.0
 10
0.0000000033904204
 20
-99.63752154298841
 30
0.0
  0
SPLINE
  5
190
330
23
100
AcDbEntity
  8
0
  6
Continuous
 62
     7
370
    25
100
AcDbSpline
210
0.0
220
0.0
230
1.0
 70
     8
 71
     3
 72
    21
 73
    17
 74
     0
 42
0.000000001
 43
0.00000001
 40
0.0
 40
0.0
 40
0.0
 40
0.0
 40
0.0410856413787828
 40
0.1083310138678646
 40
0.1714894386602243
 40
0.2158188678091342
 40
0.2585546460349743
 40
0.3158796049166065
 40
0.387741239753113
 40
0.4587036348959056
 40
0.5397011848873371
 40
0.63071028316035
 40
0.7317055371849561
 40
0.8426676283273592
 40
0.9635750871455889
 40
0.9999999999999999
 40
0.9999999999999999
 40
0.9999999999999999
 40
0.9999999999999999
 10
-10.22799563198059
 20
-97.44688995208872
 30
0.0
 10
-10.22972663447882
 20
-97.50875521751665
 30
0.0
 10
-10.23429078996839
 20
-97.67187612063758
 30
0.0
 10
-10.09359856749368
 20
-97.92652958971425
 30
0.0
 10
-9.88464989858356
 20
-98.14882504937476
 30
0.0
 10
-9.673698503327142
 20
-98.29887313482229
 30
0.0
 10
-9.47657299287877
 20
-98.4118092019775
 30
0.0
 10
-9.199301342616012
 20
-98.54288856519379
 30
0.0
 10
-8.822278717983096
 20
-98.68454626684006
 30
0.0
 10
-8.329239603456509
 20
-98.83382930392864
 30
0.0
 10
-7.715464624562879
 20
-98.98441154350677
 30
0.0
 10
-6.930576511268165
 20
-99.13817776150174
 30
0.0
 10
-5.953404447297562
 20
-99.28879226965778
 30
0.0
 10
-4.761586446253373
 20
-99.42385069914593
 30
0.0
 10
-3.734615664821614
 20
-99.51548643154622
 30
0.0
 10
-3.088102231681805
 20
-99.54488957684455
 30
0.0
 10
-2.938424227015849
 20
-99.55169686636644
 30
0.0
  0
SPLINE
  5
191
330
23
100
AcDbEntity
  8
0
  6
Continuous
 62
     7
370
    25
100
AcDbSpline
210
0.0
220
0.0
230
1.0
 70
     8
 71
     3
 72
    20
 73
    16
 74
     0
 42
0.000000001
 43
0.00000001
 40
0.0
 40
0.0
 40
0.0
 40
0.0
 40
0.0294520191264683
 40
0.1445049394816391
 40
0.2500456785365382
 40
0.3460601595334407
 40
0.4325366616978172
 40
0.5094601816166535
 40
0.5768124206625859
 40
0.6516809157182025
 40
0.7131307447070112
 40
0.7809647912807914
 40
0.9009436655213622
 40
0.969332362647658
 40
0.9999999999999999
 40
0.9999999999999999
 40
0.9999999999999999
 40
0.9999999999999999
 10
2.869514478659992
 20
-99.55709244212332
 30
0.0
 10
2.9908995969063
 20
-99.55182501098038
 30
0.0
 10
3.586469941025443
 20
-99.52598060909858
 30
0.0
 10
4.552270147665761
 20
-99.44411510017659
 30
0.0
 10
5.704830764470151
 20
-99.32162768985009
 30
0.0
 10
6.659213510961438
 20
-99.18453954757834
 30
0.0
 10
7.435144572892876
 20
-99.0443558375782
 30
0.0
 10
8.051395980481718
 20
-98.90676846258906
 30
0.0
 10
8.570856798163335
 20
-98.76605520934794
 30
0.0
 10
8.99189731026819
 20
-98.62579784872018
 30
0.0
 10
9.353953775704515
 20
-98.4757136254824
 30
0.0
 10
9.769297629061445
 20
-98.25139103186275
 30
0.0
 10
10.08666468002484
 20
-97.94830578340846
 30
0.0
 10
10.23889948238684
 20
-97.63950937353242
 30
0.0
 10
10.23393393476277
 20
-97.49807418850375
 30
0.0
 10
10.23239661143467
 20
-97.45428614621298
 30
0.0
  0
SPLINE
  5
192
330
23
100
AcDbEntity
  8
0
  6
Continuous
 62
     7
370
    25
100
AcDbSpline
210
0.0
220
0.0
230
1.0
 70
     8
 71
     3
 72
     9
 73
     5
 74
     0
 42
0.000000001
 43
0.00000001
 40
0.0
 40
0.0
 40
0.0
 40
0.0
 40
0.5850140293406986
 40
1.0
 40
1.0
 40
1.0
 40
1.0
 10
-0.0000000020957813
 20
-99.63752181951305
 30
0.0
 10
0.5708305731165524
 20
-99.6335074632259
 30
0.0
 10
1.546585933813886
 20
-99.62664548028901
 30
0.0
 10
2.481527037314508
 20
-99.57749090235828
 30
0.0
 10
2.869514478659992
 20
-99.55709244212332
 30
0.0
  0
SPLINE
  5
197
330
23
100
AcDbEntity
  8
0
  6
Continuous
 62
     7
370
    25
100
AcDbSpline
210
0.0
220
0.0
230
1.0
 70
     8
 71
     3
 72
    15
 73
    11
 74
     0
 42
0.000000001
 43
0.00000001
 40
0.0
 40
0.0
 40
0.0
 40
0.0
 40
0.1555008228902901
 40
0.3042612224045711
 40
0.4466230635977678
 40
0.5827862147843479
 40
0.7127976194441171
 40
0.8365079667471578
 40
0.9535269237490973
 40
1.0
 40
1.0
 40
1.0
 40
1.0
 10
-0.0351086826500626
 20
-54.49620625119361
 30
0.0
 10
0.2651486994540511
 20
-54.49081748708141
 30
0.0
 10
0.8526483436163754
 20
-54.48027354316169
 30
0.0
 10
1.673945734797302
 20
-54.39217934548205
 30
0.0
 10
2.38498394798566
 20
-54.26058758339895
 30
0.0
 10
2.970909594713402
 20
-54.08704880259435
 30
0.0
 10
3.429235272231983
 20
-53.87852543331387
 30
0.0
 10
3.748184997668236
 20
-53.63745186014772
 30
0.0
 10
3.926221094978311
 20
-53.42492069573923
 30
0.0
 10
3.952606720125942
 20
-53.28732916649088
 30
0.0
 10
3.960106909248414
 20
-53.24821838229539
 30
0.0
  0
SPLINE
  5
198
330
23
100
AcDbEntity
  8
0
  6
Continuous
 62
     7
370
    25
100
AcDbSpline
210
0.0
220
0.0
230
1.0
 70
     8
 71
     3
 72
    15
 73
    11
 74
     0
 42
0.000000001
 43
0.00000001
 40
0.0
 40
0.0
 40
0.0
 40
0.0
 40
0.0714575689731231
 40
0.1591041210137656
 40
0.2625136155229743
 40
0.3812002214220484
 40
0.5146899882309585
 40
0.6625526405248016
 40
0.8244151646858288
 40
0.9999999999999999
 40
0.9999999999999999
 40
0.9999999999999999
 40
0.9999999999999999
 10
-3.998955909559775
 20
-53.09042754671427
 30
0.0
 10
-3.990359918769852
 20
-53.15968910945576
 30
0.0
 10
-3.971220482898645
 20
-53.31390370447185
 30
0.0
 10
-3.846834966731419
 20
-53.52859442208062
 30
0.0
 10
-3.617303939293003
 20
-53.75285517068879
 30
0.0
 10
-3.242255192805714
 20
-53.97212182674509
 30
0.0
 10
-2.695264019686717
 20
-54.17598586530827
 30
0.0
 10
-1.955470951657741
 20
-54.34671264880177
 30
0.0
 10
-1.022501649333038
 20
-54.47128650520747
 30
0.0
 10
-0.3268573949201183
 20
-54.48767748875595
 30
0.0
 10
0.0351089338083162
 20
-54.49620625055
 30
0.0
  0
SPLINE
  5
1A8
330
23
100
AcDbEntity
  8
0
  6
Continuous
 62
     7
370
    25
100
AcDbSpline
210
0.0
220
0.0
230
1.0
 70
     8
 71
     3
 72
    26
 73
    22
 74
     0
 42
0.000000001
 43
0.00000001
 40
0.0
 40
0.0
 40
0.0
 40
0.0
 40
0.0624999999999998
 40
0.0624999999999998
 40
0.1249999999999995
 40
0.1249999999999995
 40
0.2499999999999996
 40
0.2499999999999996
 40
0.3749999999999997
 40
0.3749999999999997
 40
0.4999999999999998
 40
0.4999999999999998
 40
0.6249999999999999
 40
0.6249999999999999
 40
0.7499999999999999
 40
0.7499999999999999
 40
0.875
 40
0.875
 40
0.9375
 40
0.9375
 40
1.0
 40
1.0
 40
1.0
 40
1.0
 10
0.0
 20
-99.63236241784999
 30
0.0
 10
-0.6363982647411447
 20
-99.63235086660502
 30
0.0
 10
-1.261426726457637
 20
-99.62160560732353
 30
0.0
 10
-2.500857334170335
 20
-99.57849282506784
 30
0.0
 10
-3.113818340555094
 20
-99.54615898734006
 30
0.0
 10
-4.876853633138273
 20
-99.41868074922795
 30
0.0
 10
-5.957019617646258
 20
-99.29266033867975
 30
0.0
 10
-7.770185806585508
 20
-98.97576277604581
 30
0.0
 10
-8.501021273570558
 20
-98.78496287862038
 30
0.0
 10
-9.491245170636597
 20
-98.36708374105302
 30
0.0
 10
-9.749955844021947
 20
-98.14020544470392
 30
0.0
 10
-9.749978478251725
 20
-97.68617337235189
 30
0.0
 10
-9.491288940319881
 20
-97.45929282898089
 30
0.0
 10
-8.501098884774594
 20
-97.04140903297491
 30
0.0
 10
-7.77027632383818
 20
-96.85060630319342
 30
0.0
 10
-5.957128988467058
 20
-96.53370279829346
 30
0.0
 10
-4.876955381731103
 20
-96.40767854088669
 30
0.0
 10
-3.113930006143169
 20
-96.28019605247606
 30
0.0
 10
-2.500988459349237
 20
-96.24786162835689
 30
0.0
 10
-1.261536210958514
 20
-96.20474570738924
 30
0.0
 10
-0.6364624234368627
 20
-96.193997516335
 30
0.0
 10
0.0
 20
-96.19398629404
 30
0.0
  0
SPLINE
  5
1AB
330
23
100
AcDbEntity
  8
0
  6
Continuous
 62
     7
370
    25
100
AcDbSpline
210
0.0
220
0.0
230
1.0
 70
     8
 71
     3
 72
    26
 73
    22
 74
     0
 42
0.000000001
 43
0.00000001
 40
0.0
 40
0.0
 40
0.0
 40
0.0
 40
0.0625
 40
0.0625
 40
0.1250000000000001
 40
0.1250000000000001
 40
0.25
 40
0.25
 40
0.3749999999999999
 40
0.3749999999999999
 40
0.4999999999999999
 40
0.4999999999999999
 40
0.6249999999999998
 40
0.6249999999999998
 40
0.7499999999999998
 40
0.7499999999999998
 40
0.8749999999999997
 40
0.8749999999999997
 40
0.9374999999999999
 40
0.9374999999999999
 40
1.0
 40
1.0
 40
1.0
 40
1.0
 10
0.0
 20
-96.19398629404
 30
0.0
 10
0.6363982647411445
 20
-96.19399784528498
 30
0.0
 10
1.261426726457637
 20
-96.20474310477917
 30
0.0
 10
2.500857334170335
 20
-96.247855887153
 30
0.0
 10
3.113818340555094
 20
-96.28018972481786
 30
0.0
 10
4.876853633138273
 20
-96.40766796289476
 30
0.0
 10
5.957019617646257
 20
-96.5336883734731
 30
0.0
 10
7.770185806585503
 20
-96.85058593610272
 30
0.0
 10
8.501021273570556
 20
-97.04138583352051
 30
0.0
 10
9.491245170636597
 20
-97.45926497109475
 30
0.0
 10
9.749955844021947
 20
-97.68614326743742
 30
0.0
 10
9.749978478251725
 20
-98.14017533979671
 30
0.0
 10
9.491288940319883
 20
-98.36705588316049
 30
0.0
 10
8.501098884774592
 20
-98.78493967917579
 30
0.0
 10
7.77027632383818
 20
-98.97574240895338
 30
0.0
 10
5.957128988467061
 20
-99.29264591384754
 30
0.0
 10
4.876955381731102
 20
-99.41867017122932
 30
0.0
 10
3.113930006143169
 20
-99.54615265968167
 30
0.0
 10
2.500988459349235
 20
-99.57848708386392
 30
0.0
 10
1.261536210958513
 20
-99.62160300471345
 30
0.0
 10
0.636462423436864
 20
-99.63235119555502
 30
0.0
 10
-0.0000000000000068
 20
-99.63236241784999
 30
0.0
  0
SPLINE
  5
1AC
330
23
100
AcDbEntity
  8
0
  6
Continuous
 62
     7
370
    25
100
AcDbSpline
210
0.0
220
0.0
230
1.0
 70
     8
 71
     3
 72
     9
 73
     5
 74
     0
 42
0.000000001
 43
0.00000001
 40
0.0
 40
0.0
 40
0.0
 40
0.0
 40
0.0001357326952955
 40
0.9999999999999999
 40
0.9999999999999999
 40
0.9999999999999999
 40
0.9999999999999999
 10
10.24999851927748
 20
-97.42077048740516
 30
0.0
 10
10.24999901290197
 20
-97.42077191920222
 30
0.0
 10
10.25363575264409
 20
-97.43132057174394
 30
0.0
 10
10.24732888358289
 20
-97.44187604776032
 30
0.0
 10
10.24102287057002
 20
-97.4524300910535
 30
0.0
  0
CIRCLE
  5
1AD
330
23
100
AcDbEntity
  8
0
  6
Continuous
 62
     7
370
    25
100
AcDbCircle
 10
0.0
 20
0.0027246327
 30
0.0
 40
17.0
  0
CIRCLE
  5
1AE
330
23
100
AcDbEntity
  8
0
  6
Continuous
 62
     7
370
    25
100
AcDbCircle
 10
0.0
 20
0.0027246327
 30
0.0
 40
17.5
  0
SPLINE
  5
1AF
330
23
100
AcDbEntity
  8
0
  6
Continuous
 62
     7
370
    25
100
AcDbSpline
210
0.0
220
0.0
230
1.0
 70
     8
 71
     3
 72
    14
 73
    10
 74
     0
 42
0.000000001
 43
0.00000001
 40
0.0
 40
0.0
 40
0.0
 40
0.0
 40
0.2499999999999999
 40
0.2499999999999999
 40
0.4999999999999999
 40
0.4999999999999999
 40
0.7499999999999999
 40
0.7499999999999999
 40
1.0
 40
1.0
 40
1.0
 40
1.0
 10
0.0000000000000079
 20
-17.99727536726
 30
0.0
 10
-0.5283159325601167
 20
-17.99727044636429
 30
0.0
 10
-1.056196838438866
 20
-17.96634743639365
 30
0.0
 10
-2.025961166914703
 20
-17.86082036601159
 30
0.0
 10
-2.467553468517727
 20
-17.78687569236557
 30
0.0
 10
-3.203089476593081
 20
-17.63790418393308
 30
0.0
 10
-3.497092606124353
 20
-17.56359811879762
 30
0.0
 10
-3.895862069245942
 20
-17.45703530296394
 30
0.0
 10
-3.999965636255537
 20
-17.42571784801201
 30
0.0
 10
-3.99997195585386
 20
-17.4257206135959
 30
0.0
  0
SPLINE
  5
1B3
330
23
100
AcDbEntity
  8
0
  6
Continuous
 62
     7
370
    25
100
AcDbSpline
210
0.0
220
0.0
230
1.0
 70
     8
 71
     3
 72
    27
 73
    23
 74
     0
 42
0.000000001
 43
0.00000001
 40
0.0
 40
0.0
 40
0.0
 40
0.0
 40
0.0284715236677558
 40
0.0573158648812471
 40
0.0865377293758707
 40
0.1161416427365201
 40
0.1461319574716616
 40
0.1765128598957044
 40
0.2072883768100625
 40
0.238462381975965
 40
0.2979704619679068
 40
0.3632441447392404
 40
0.4181292410185071
 40
0.4896910189526362
 40
0.5678829533048838
 40
0.6176508010058197
 40
0.6854351612868358
 40
0.7459514920843937
 40
0.8124790870625739
 40
0.8769689707752227
 40
0.9394612451321666
 40
1.0
 40
1.0
 40
1.0
 40
1.0
 10
0.0000000000000084
 20
-17.99727536726
 30
0.0
 10
0.059916574175769
 20
-17.99704344971533
 30
0.0
 10
0.1805342941713566
 20
-17.99657657780468
 30
0.0
 10
0.3622466950622106
 20
-17.99286310181258
 30
0.0
 10
0.5455135786195536
 20
-17.98695401838715
 30
0.0
 10
0.729909050154832
 20
-17.97862475180921
 30
0.0
 10
0.9149798546929587
 20
-17.96793669165374
 30
0.0
 10
1.100243896080207
 20
-17.95487308495133
 30
0.0
 10
1.285197575519648
 20
-17.9394385587433
 30
0.0
 10
1.524270519909626
 20
-17.91631369372599
 30
0.0
 10
1.822367211882375
 20
-17.88152509210791
 30
0.0
 10
2.14853725104477
 20
-17.83552023316033
 30
0.0
 10
2.475579596999878
 20
-17.78151508730044
 30
0.0
 10
2.798671448110894
 20
-17.72112920601712
 30
0.0
 10
3.079805144453955
 20
-17.66182093228264
 30
0.0
 10
3.323771041248512
 20
-17.60502603813162
 30
0.0
 10
3.517969829587232
 20
-17.55740119364437
 30
0.0
 10
3.69459491346154
 20
-17.51104730331425
 30
0.0
 10
3.831959777846513
 20
-17.47386369017438
 30
0.0
 10
3.93008593317657
 20
-17.44638565901741
 30
0.0
 10
3.989290905017845
 20
-17.4290375327842
 30
0.0
 10
3.996468288931553
 20
-17.42681448740562
 30
0.0
 10
3.999999998680566
 20
-17.42572061376999
 30
0.0
  0
SPLINE
  5
1B4
330
23
100
AcDbEntity
  8
0
  6
Continuous
 62
     7
370
    25
100
AcDbSpline
210
0.0
220
0.0
230
1.0
 70
     8
 71
     3
 72
    16
 73
    12
 74
     0
 42
0.000000001
 43
0.00000001
 40
0.0
 40
0.0
 40
0.0
 40
0.0
 40
0.125
 40
0.25
 40
0.25
 40
0.5
 40
0.5
 40
0.75
 40
0.75
 40
0.875
 40
1.0
 40
1.0
 40
1.0
 40
1.0
 10
0.0
 20
-52.60459393334
 30
0.0
 10
-0.2275552937112999
 20
-52.60459961805999
 30
0.0
 10
-0.6739637431315999
 20
-52.61624672304003
 30
0.0
 10
-1.110017046331867
 20
-52.65094829399333
 30
0.0
 10
-1.740472623617566
 20
-52.71970071865834
 30
0.0
 10
-2.129341459843666
 20
-52.78801181185501
 30
0.0
 10
-2.783606383953001
 20
-52.96075599271503
 30
0.0
 10
-3.048202569204499
 20
-53.06500967810501
 30
0.0
 10
-3.316977550100001
 20
-53.23682880761001
 30
0.0
 10
-3.453822245658
 20
-53.35650610267
 30
0.0
 10
-3.499984184281
 20
-53.47950685960001
 30
0.0
 10
-3.499986021567
 20
-53.54241657152
 30
0.0
  0
LWPOLYLINE
  5
1B7
330
23
100
AcDbEntity
  8
0
  6
Continuous
 62
     7
370
    25
100
AcDbPolyline
 90
        9
 70
   128
 43
0.0
 10
0.0000002421
 20
-52.6045939333
 10
0.0000001741
 20
-52.5770619302
 10
0.000000108
 20
-52.5373641465
 10
0.0000000454
 20
-52.4865610216
 10
-0.0000000119
 20
-52.42600965
 10
-0.0000000624
 20
-52.3573275289
 10
-0.0000001048
 20
-52.2823493511
 10
-0.000000138
 20
-52.2030779946
 10
-0.0000001609
 20
-52.1216310203
  0
SPLINE
  5
1B8
330
23
100
AcDbEntity
  8
0
  6
Continuous
 62
     7
370
    25
100
AcDbSpline
210
0.0
220
0.0
230
1.0
 70
     8
 71
     3
 72
     9
 73
     5
 74
     0
 42
0.000000001
 43
0.00000001
 40
0.0
 40
0.0
 40
0.0
 40
0.0
 40
0.2469946066600834
 40
1.0
 40
1.0
 40
1.0
 40
1.0
 10
3.91696352941926
 20
-52.87786434153382
 30
0.0
 10
3.931319112432812
 20
-52.89258494645314
 30
0.0
 10
3.989440150813651
 20
-52.95218383858435
 30
0.0
 10
3.995464005175987
 20
-53.01337578938678
 30
0.0
 10
3.99999999999952
 20
-53.05945365837
 30
0.0
  0
SPLINE
  5
1BA
330
23
100
AcDbEntity
  8
0
  6
Continuous
 62
     7
370
    25
100
AcDbSpline
210
0.0
220
0.0
230
1.0
 70
     8
 71
     3
 72
    16
 73
    12
 74
     0
 42
0.000000001
 43
0.00000001
 40
0.0
 40
0.0
 40
0.0
 40
0.0
 40
0.125
 40
0.25
 40
0.25
 40
0.5
 40
0.5
 40
0.75
 40
0.75
 40
0.875
 40
1.0
 40
1.0
 40
1.0
 40
1.0
 10
0.0
 20
-52.60459393334
 30
0.0
 10
0.2275552937112
 20
-52.60459961805999
 30
0.0
 10
0.6739637431316001
 20
-52.61624672304003
 30
0.0
 10
1.110017046331867
 20
-52.65094829399333
 30
0.0
 10
1.740472623617566
 20
-52.71970071865834
 30
0.0
 10
2.129341459843666
 20
-52.78801181185501
 30
0.0
 10
2.783606383953001
 20
-52.96075599271503
 30
0.0
 10
3.048202569204499
 20
-53.06500967810501
 30
0.0
 10
3.316977550100001
 20
-53.23682880761001
 30
0.0
 10
3.453822245658
 20
-53.35650610267
 30
0.0
 10
3.499984184281
 20
-53.47950685960001
 30
0.0
 10
3.499986021567
 20
-53.54241657152
 30
0.0
  0
SPLINE
  5
1BB
330
23
100
AcDbEntity
  8
0
  6
Continuous
 62
     7
370
    25
100
AcDbSpline
210
0.0
220
0.0
230
1.0
 70
     8
 71
     3
 72
    16
 73
    12
 74
     0
 42
0.000000001
 43
0.00000001
 40
0.0
 40
0.0
 40
0.0
 40
0.0
 40
0.125
 40
0.25
 40
0.25
 40
0.5
 40
0.5
 40
0.75
 40
0.75
 40
0.875
 40
1.0
 40
1.0
 40
1.0
 40
1.0
 10
-3.499986021567
 20
-53.54241657152
 30
0.0
 10
-3.499984399059999
 20
-53.60572452805999
 30
0.0
 10
-3.453207609085001
 20
-53.72924143245998
 30
0.0
 10
-3.315947951426332
 20
-53.84877443836001
 30
0.0
 10
-3.047395406350833
 20
-54.02010857538999
 30
0.0
 10
-2.784306908117167
 20
-54.12367531147332
 30
0.0
 10
-2.134883111864501
 20
-54.29556982590003
 30
0.0
 10
-1.749166713966633
 20
-54.36371395228
 30
0.0
 10
-1.121902861575734
 20
-54.43281255540001
 30
0.0
 10
-0.6874391197731999
 20
-54.46794868440001
 30
0.0
 10
-0.2331606244392
 20
-54.48023342657
 30
0.0
 10
0.0
 20
-54.48023828039
 30
0.0
  0
SPLINE
  5
1BC
330
23
100
AcDbEntity
  8
0
  6
Continuous
 62
     7
370
    25
100
AcDbSpline
210
0.0
220
0.0
230
1.0
 70
     8
 71
     3
 72
    16
 73
    12
 74
     0
 42
0.000000001
 43
0.00000001
 40
0.0
 40
0.0
 40
0.0
 40
0.0
 40
0.125
 40
0.25
 40
0.25
 40
0.5
 40
0.5
 40
0.75
 40
0.75
 40
0.875
 40
1.0
 40
1.0
 40
1.0
 40
1.0
 10
3.499986021567
 20
-53.54241657152
 30
0.0
 10
3.499984399059999
 20
-53.60572452805999
 30
0.0
 10
3.453207609085001
 20
-53.72924143245998
 30
0.0
 10
3.315947951426332
 20
-53.84877443836001
 30
0.0
 10
3.047395406350833
 20
-54.02010857538999
 30
0.0
 10
2.784306908117167
 20
-54.12367531147332
 30
0.0
 10
2.134883111864501
 20
-54.29556982590003
 30
0.0
 10
1.749166713966633
 20
-54.36371395228
 30
0.0
 10
1.121902861575734
 20
-54.43281255540001
 30
0.0
 10
0.6874391197731999
 20
-54.46794868440001
 30
0.0
 10
0.2331606244392
 20
-54.48023342657
 30
0.0
 10
0.0
 20
-54.48023828039
 30
0.0
  0
LWPOLYLINE
  5
1BD
330
23
100
AcDbEntity
  8
0
  6
Continuous
 62
     7
370
    25
100
AcDbPolyline
 90
        3
 70
   128
 43
0.0
 10
0.0000001342
 20
-54.4964505507
 10
0.000000163
 20
-54.4970068053
 10
0.0000002384
 20
-54.4802382804
  0
SPLINE
  5
1C1
330
23
100
AcDbEntity
  8
0
  6
Continuous
 62
     8
370
    25
100
AcDbSpline
210
0.0
220
0.0
230
1.0
 70
     8
 71
     3
 72
    21
 73
    17
 74
     0
 42
0.000000001
 43
0.00000001
 40
0.0
 40
0.0
 40
0.0
 40
0.0
 40
0.0000016041981221
 40
0.1514114999588528
 40
0.2860198816457575
 40
0.3996458843619877
 40
0.5047559201130308
 40
0.6348379273227482
 40
0.7589624632511248
 40
0.7937564207754441
 40
0.8284258824108403
 40
0.8629735128062106
 40
0.8974020049016084
 40
0.9317140796915255
 40
0.9659124859618438
 40
1.0
 40
1.0
 40
1.0
 40
1.0
 10
-10.25
 20
-97.42077047302159
 30
0.0
 10
-10.24999999999284
 20
-97.42076904079588
 30
0.0
 10
-10.24999932438362
 20
-97.28558907909952
 30
0.0
 10
-10.06875381142462
 20
-97.02904250573032
 30
0.0
 10
-9.34986749015702
 20
-96.68976888589968
 30
0.0
 10
-8.381260923008654
 20
-96.41663828518419
 30
0.0
 10
-7.162901794829592
 20
-96.17723065540186
 30
0.0
 10
-5.651473056608639
 20
-95.9729556160168
 30
0.0
 10
-4.260983753235096
 20
-95.85156247518862
 30
0.0
 10
-3.281937533971808
 20
-95.79110957532525
 30
0.0
 10
-2.745700208763556
 20
-95.76350962273645
 30
0.0
 10
-2.202996039903747
 20
-95.74093492422176
 30
0.0
 10
-1.655462733224966
 20
-95.7233468900008
 30
0.0
 10
-1.104784200087483
 20
-95.71087104107424
 30
0.0
 10
-0.5526127058809565
 20
-95.7030460722687
 30
0.0
 10
-0.1840047029984547
 20
-95.7020697740865
 30
0.0
 10
-0.0000000001830975
 20
-95.7015824177202
 30
0.0
  0
SPLINE
  5
1C2
330
23
100
AcDbEntity
  8
0
  6
Continuous
 62
     8
370
    25
100
AcDbSpline
210
0.0
220
0.0
230
1.0
 70
     8
 71
     3
 72
    28
 73
    24
 74
     0
 42
0.000000001
 43
0.00000001
 40
0.0
 40
0.0
 40
0.0
 40
0.0
 40
0.0204945472507047
 40
0.0396694705987206
 40
0.0575247514796734
 40
0.0740603729563393
 40
0.0892763198131498
 40
0.1031725786955573
 40
0.1157491383225122
 40
0.1270059898234775
 40
0.1937664330357462
 40
0.2536726386247445
 40
0.3855675831826449
 40
0.5049341813726068
 40
0.6319740109043037
 40
0.753340019551167
 40
0.7889959119497253
 40
0.8245074281852103
 40
0.8598774093451348
 40
0.8951087307627209
 40
0.9302043018569535
 40
0.9651670659412622
 40
1.0
 40
1.0
 40
1.0
 40
1.0
 10
10.24999999999999
 20
-97.42077048496753
 30
0.0
 10
10.24899864928167
 20
-97.40247056009949
 30
0.0
 10
10.24706042384082
 20
-97.36704902467194
 30
0.0
 10
10.23215947754478
 20
-97.3157695370467
 30
0.0
 10
10.21069774294873
 20
-97.26808941198449
 30
0.0
 10
10.18361574511647
 20
-97.22401371860859
 30
0.0
 10
10.15275180481218
 20
-97.18354066856057
 30
0.0
 10
10.11956398130713
 20
-97.14667184749028
 30
0.0
 10
10.08543157037485
 20
-97.11340214605895
 30
0.0
 10
9.994654292414378
 20
-97.03384686600043
 30
0.0
 10
9.812329616518245
 20
-96.91424511888451
 30
0.0
 10
9.34048776750872
 20
-96.69645494826632
 30
0.0
 10
8.539190300369153
 20
-96.45030395281994
 30
0.0
 10
7.23331768741228
 20
-96.18732759210741
 30
0.0
 10
5.689278934595531
 20
-95.9777809585189
 30
0.0
 10
4.32741549877854
 20
-95.85693368348088
 30
0.0
 10
3.356370696375086
 20
-95.79543457627372
 30
0.0
 10
2.808087794991302
 20
-95.76650214298036
 30
0.0
 10
2.253028167566135
 20
-95.74283772751146
 30
0.0
 10
1.692962330218483
 20
-95.72440023327678
 30
0.0
 10
1.129703157725175
 20
-95.711321659211
 30
0.0
 10
0.565026377669099
 20
-95.70311772965798
 30
0.0
 10
0.1881084181708649
 20
-95.70209355330763
 30
0.0
 10
-0.0000000008014295
 20
-95.70158241769
 30
0.0
  0
SPLINE
  5
1C3
330
23
100
AcDbEntity
  8
0
  6
Continuous
 62
     8
370
    25
100
AcDbSpline
210
0.0
220
0.0
230
1.0
 70
     8
 71
     3
 72
    16
 73
    12
 74
     0
 42
0.000000001
 43
0.00000001
 40
0.0
 40
0.0
 40
0.0
 40
0.0
 40
0.1340286049680171
 40
0.272357094376474
 40
0.4149357245520919
 40
0.5617256634041414
 40
0.6394555065966746
 40
0.7249488343769116
 40
0.818189677695406
 40
0.9724215122586352
 40
1.0
 40
1.0
 40
1.0
 40
1.0
 10
0.0000000005114265
 20
-52.1216310203034
 30
0.0
 10
-0.2487064220761165
 20
-52.12475969322339
 30
0.0
 10
-0.7540982272424432
 20
-52.13111741265161
 30
0.0
 10
-1.495613784112722
 20
-52.1834709676473
 30
0.0
 10
-2.199870986834317
 20
-52.26847848975075
 30
0.0
 10
-2.728250834441887
 20
-52.3684366446809
 30
0.0
 10
-3.109719965127656
 20
-52.46651376367299
 30
0.0
 10
-3.386122518674319
 20
-52.55509140858174
 30
0.0
 10
-3.671853630663919
 20
-52.67948504435695
 30
0.0
 10
-3.871306632097497
 20
-52.78940813737225
 30
0.0
 10
-3.904413398777062
 20
-52.86607989512773
 30
0.0
 10
-3.909435305935331
 20
-52.87771009909285
 30
0.0
  0
SPLINE
  5
1C4
330
23
100
AcDbEntity
  8
0
  6
Continuous
 62
     8
370
    25
100
AcDbSpline
210
0.0
220
0.0
230
1.0
 70
     8
 71
     3
 72
    15
 73
    11
 74
     0
 42
0.000000001
 43
0.00000001
 40
0.0
 40
0.0
 40
0.0
 40
0.0
 40
0.1381536213975478
 40
0.2782565433643477
 40
0.4166348051843577
 40
0.5617273894699999
 40
0.6990714815981017
 40
0.8511560633179283
 40
0.9451802328946309
 40
1.0
 40
1.0
 40
1.0
 40
1.0
 10
-0.0000000000000005
 20
-52.12163102027001
 30
0.0
 10
0.2563860196615127
 20
-52.12501766476448
 30
0.0
 10
0.7727755784459823
 20
-52.13183873815438
 30
0.0
 10
1.515807104294903
 20
-52.18561704613354
 30
0.0
 10
2.211144688577847
 20
-52.27078747766824
 30
0.0
 10
2.815487962089447
 20
-52.38499859881437
 30
0.0
 10
3.328736797642868
 20
-52.5284006620956
 30
0.0
 10
3.661533354723301
 20
-52.67249221084957
 30
0.0
 10
3.847917082008411
 20
-52.79308713357945
 30
0.0
 10
3.898378430080861
 20
-52.85504502366089
 30
0.0
 10
3.91696352941926
 20
-52.87786434153382
 30
0.0
  0
LINE
  5
1D5
330
23
100
AcDbEntity
  8
0
  6
Continuous
 62
     7
370
    25
100
AcDbLine
 10
-10.25
 20
-14.1836674328
 30
0.0
 11
-10.25
 21
-97.420770469
 31
0.0
  0
LINE
  5
1D6
330
23
100
AcDbEntity
  8
0
  6
Continuous
 62
     7
370
    25
100
AcDbLine
 10
10.25
 20
-97.4207704874
 30
0.0
 11
10.25
 21
-14.1836686993
 31
0.0
  0
LINE
  5
1D7
330
23
100
AcDbEntity
  8
0
  6
Continuous
 62
     7
370
    25
100
AcDbLine
 10
-4.0
 20
-17.4257234136
 30
0.0
 11
-4.0
 21
-53.0594536124
 31
0.0
  0
LINE
  5
1D8
330
23
100
AcDbEntity
  8
0
  6
Continuous
 62
     7
370
    25
100
AcDbLine
 10
4.0
 20
-53.0594532055
 30
0.0
 11
4.0
 21
-17.4257176572
 31
0.0
  0
LINE
  5
1D9
330
23
100
AcDbEntity
  8
0
  6
Continuous
 62
     7
370
    25
100
AcDbLine
 10
3.9
 20
17.5847528617
 30
0.0
 11
3.9
 21
17.924018854
 31
0.0
  0
LINE
  5
1DA
330
23
100
AcDbEntity
  8
0
  6
Continuous
 62
     7
370
    25
100
AcDbLine
 10
-3.9
 20
17.924018854
 30
0.0
 11
-3.9
 21
17.5847528617
 31
0.0
  0
LINE
  5
1DB
330
23
100
AcDbEntity
  8
0
  6
Continuous
 62
     7
370
    25
100
AcDbLine
 10
3.2844310252
 20
17.1263446038
 30
0.0
 11
3.2998949579
 21
17.4974789873
 31
0.0
  0
LINE
  5
1DC
330
23
100
AcDbEntity
  8
0
  6
Continuous
 62
     7
370
    25
100
AcDbLine
 10
-3.3037604077
 20
17.5902497833
 30
0.0
 11
-3.2861468871
 21
17.1675252881
 31
0.0
  0
LINE
  5
1DD
330
23
100
AcDbEntity
  8
0
  6
Continuous
 62
     7
370
    25
100
AcDbLine
 10
-2.6361881155
 20
17.5184266068
 30
0.0
 11
-2.6290117072
 21
17.2763103922
 31
0.0
  0
LINE
  5
1DE
330
23
100
AcDbEntity
  8
0
  6
Continuous
 62
     7
370
    25
100
AcDbLine
 10
2.6281789345
 20
17.248214496
 30
0.0
 11
2.636188115
 21
17.5184266105
 31
0.0
  0
LINE
  5
1DF
330
23
100
AcDbEntity
  8
0
  6
Continuous
 62
     7
370
    25
100
AcDbLine
 10
0.0000000006
 20
-95.7015824177
 30
0.0
 11
-0.000000002
 21
-96.193986294
 31
0.0
  0
LINE
  5
1E0
330
23
100
AcDbEntity
  8
0
  6
Continuous
 62
     7
370
    25
100
AcDbLine
 10
0.000000002
 20
-99.6323624178
 30
0.0
 11
0.0000000014
 21
-99.6394795201
 31
0.0
  0
LINE
  5
1E1
330
23
100
AcDbEntity
  8
0
  6
Continuous
 62
     7
370
    25
100
AcDbLine
 10
-10.2416452563
 20
-97.4441252521
 30
0.0
 11
-10.2499984646
 21
-97.420770469
 31
0.0
  0
LINE
  5
1E2
330
23
100
AcDbEntity
  8
0
  6
Continuous
 62
     7
370
    25
100
AcDbLine
 10
-0.0000000001
 20
-17.9972753673
 30
0.0
 11
-0.0000000001
 21
-17.4972753673
 31
0.0
  0
LINE
  5
1E3
330
23
100
AcDbEntity
  8
0
  6
Continuous
 62
     7
370
    25
100
AcDbLine
 10
-3.9094353059
 20
-52.8777100991
 30
0.0
 11
-3.9999850805
 21
-53.0594536584
 31
0.0
  0
LINE
  5
1E4
330
23
100
AcDbEntity
  8
0
  6
Continuous
 62
     7
370
    25
100
AcDbLine
 10
0.3087955997
 20
17.5
 30
0.0
 11
3.799999945
 21
17.5
 31
0.0
  0
LINE
  5
1E5
330
23
100
AcDbEntity
  8
0
  6
Continuous
 62
     7
370
    25
100
AcDbLine
 10
-3.799999945
 20
17.5
 30
0.0
 11
-0.3087955997
 21
17.5
 31
0.0
  0
LINE
  5
1E6
330
23
100
AcDbEntity
  8
0
  6
Continuous
 62
     8
370
    25
100
AcDbLine
 10
3.9
 20
17.9087716957
 30
0.0
 11
-3.9
 21
17.9087716957
 31
0.0
  0
LINE
  5
1E7
330
23
100
AcDbEntity
  8
0
  6
Continuous
 62
     8
370
    25
100
AcDbLine
 10
3.3106050208
 20
18.6413739241
 30
0.0
 11
-3.3106050208
 21
18.6413739241
 31
0.0
  0
LINE
  5
1E8
330
23
100
AcDbEntity
  8
0
  6
Continuous
 62
     8
370
    25
100
AcDbLine
 10
-3.9
 20
17.6
 30
0.0
 11
3.9
 21
17.6
 31
0.0
  0
LINE
  5
1E9
330
23
100
AcDbEntity
  8
0
  6
Continuous
 62
     8
370
    25
100
AcDbLine
 10
1.9777774295
 20
17.5
 30
0.0
 11
1.9739085268
 21
17.3697163778
 31
0.0
  0
LINE
  5
1EA
330
23
100
AcDbEntity
  8
0
  6
Continuous
 62
     8
370
    25
100
AcDbLine
 10
2.6341225353
 20
17.2471107342
 30
0.0
 11
2.641665467
 21
17.5
 31
0.0
  0
LINE
  5
1EB
330
23
100
AcDbEntity
  8
0
  6
Continuous
 62
     8
370
    25
100
AcDbLine
 10
-2.641665467
 20
17.5
 30
0.0
 11
-2.6349778097
 21
17.2757965829
 31
0.0
  0
LINE
  5
1EC
330
23
100
AcDbEntity
  8
0
  6
Continuous
 62
     8
370
    25
100
AcDbLine
 10
-1.9728131362
 20
17.3328231497
 30
0.0
 11
-1.9777774295
 21
17.5
 31
0.0
  0
LINE
  5
1ED
330
23
100
AcDbEntity
  8
0
  6
Continuous
 62
     8
370
    25
100
AcDbLine
 10
-2.1756538959
 20
17.5
 30
0.0
 11
-2.1701786182
 21
17.3158257527
 31
0.0
  0
LINE
  5
1EE
330
23
100
AcDbEntity
  8
0
  6
Continuous
 62
     8
370
    25
100
AcDbLine
 10
-2.0694698608
 20
17.3244989346
 30
0.0
 11
-2.0746890734
 21
17.5
 31
0.0
  0
LINE
  5
1EF
330
23
100
AcDbEntity
  8
0
  6
Continuous
 62
     8
370
    25
100
AcDbLine
 10
2.1706944676
 20
17.3331720655
 30
0.0
 11
2.1756538959
 21
17.5
 31
0.0
  0
LINE
  5
1F0
330
23
100
AcDbEntity
  8
0
  6
Continuous
 62
     8
370
    25
100
AcDbLine
 10
2.0746890734
 20
17.5
 30
0.0
 11
2.0702821594
 21
17.3518192246
 31
0.0
  0
LINE
  5
1F1
330
23
100
AcDbEntity
  8
0
  6
Continuous
 62
     8
370
    25
100
AcDbLine
 10
-2.606208118
 20
17.2782742698
 30
0.0
 11
-2.6127629294
 21
17.5
 31
0.0
  0
LINE
  5
1F2
330
23
100
AcDbEntity
  8
0
  6
Continuous
 62
     8
370
    25
100
AcDbLine
 10
2.6127629294
 20
17.5
 30
0.0
 11
2.6054442223
 21
17.2524364664
 31
0.0
  0
ARC
  5
1F3
330
23
100
AcDbEntity
  8
0
  6
Continuous
 62
     7
370
    25
100
AcDbCircle
 10
3.15
 20
17.9087716942
 30
0.0
 40
0.7500000000433609
100
AcDbArc
 50
0.0000001158
 51
77.6349204759
  0
ARC
  5
1F4
330
23
100
AcDbEntity
  8
0
  6
Continuous
 62
     7
370
    25
100
AcDbCircle
 10
-3.1500000001
 20
17.9087716943
 30
0.0
 40
0.7499999999062462
100
AcDbArc
 50
102.3650795156
 51
179.9999998926
  0
ARC
  5
1F5
330
23
100
AcDbEntity
  8
0
  6
Continuous
 62
     7
370
    25
100
AcDbCircle
 10
3.8
 20
17.6
 30
0.0
 40
0.0999999999950743
100
AcDbArc
 50
269.9999842388
 51
0.0000000028
  0
ARC
  5
1F6
330
23
100
AcDbEntity
  8
0
  6
Continuous
 62
     7
370
    25
100
AcDbCircle
 10
-3.8
 20
17.6
 30
0.0
 40
0.1000000000024648
100
AcDbArc
 50
180.0000000014
 51
270.0000157569
  0
ARC
  5
1F7
330
23
100
AcDbEntity
  8
0
  6
Continuous
 62
     7
370
    25
100
AcDbCircle
 10
0.0
 20
3.54
 30
0.0
 40
15.4600000000129
100
AcDbArc
 50
77.6349197487
 51
102.3650802513
  0
ARC
  5
1F8
330
23
100
AcDbEntity
  8
0
  6
Continuous
 62
     7
370
    25
100
AcDbCircle
 10
0.0
 20
0.0
 30
0.0
 40
17.49999999999999
100
AcDbArc
 50
100.8403571881
 51
255.6852802497
  0
ARC
  5
1F9
330
23
100
AcDbEntity
  8
0
  6
Continuous
 62
     7
370
    25
100
AcDbCircle
 10
0.0
 20
0.0
 30
0.0
 40
17.49999999999999
100
AcDbArc
 50
284.3147197503
 51
79.1413752082
  0
ARC
  5
1FA
330
23
100
AcDbEntity
  8
0
  6
Continuous
 62
     7
370
    25
100
AcDbCircle
 10
-4.4999683542
 20
-17.4257301068
 30
0.0
 40
0.4999964838363501
100
AcDbArc
 50
0.0010878446
 51
75.5264833901
  0
ARC
  5
1FB
330
23
100
AcDbEntity
  8
0
  6
Continuous
 62
     7
370
    25
100
AcDbCircle
 10
4.4999683542
 20
-17.4257301068
 30
0.0
 40
0.4999964838363501
100
AcDbArc
 50
104.4735166099
 51
179.9989121554
  0
ARC
  5
1FC
330
23
100
AcDbEntity
  8
0
  6
Continuous
 62
     7
370
    25
100
AcDbCircle
 10
-3.5083588036
 20
-53.0507849447
 30
0.0
 40
0.4917029212005249
100
AcDbArc
 50
181.0101759991
 51
270.9756872211
  0
ARC
  5
1FD
330
23
100
AcDbEntity
  8
0
  6
Continuous
 62
     7
370
    25
100
AcDbCircle
 10
3.5083588036
 20
-53.0507849447
 30
0.0
 40
0.4917029212005247
100
AcDbArc
 50
269.0243127789
 51
358.9898240009
  0
ARC
  5
1FE
330
23
100
AcDbEntity
  8
0
  6
Continuous
 62
     7
370
    25
100
AcDbCircle
 10
0.0
 20
0.0
 30
0.0
 40
24.99999999999999
100
AcDbArc
 50
294.2551789434
 51
245.7817141714
  0
ARC
  5
1FF
330
23
100
AcDbEntity
  8
0
  6
Continuous
 62
     8
370
    25
100
AcDbCircle
 10
0.0
 20
0.0
 30
0.0
 40
24.0
100
AcDbArc
 50
295.3294147725
 51
244.7148162375
  0
VIEWPORT
  5
281
330
23
100
AcDbEntity
  8
0
100
AcDbViewport
 10
0.0
 20
0.0
 30
0.0
 40
205.6
 41
156.0
 68
     1
 69
     1
 12
0.0
 22
65.5577760427
 13
0.0
 23
0.0
 14
10.0
 24
10.0
 15
10.0
 25
10.0
 16
0.0
 26
0.0
 36
1.0
 17
0.0
 27
0.0
 37
0.0
 42
50.0
 43
0.0
 44
0.0
 45
135.7778631271
 50
0.0
 51
0.0
 72
   100
 90
   557152
  1

281
     0
 71
     1
 74
     0
110
0.0
120
0.0
130
0.0
111
1.0
121
0.0
131
0.0
112
0.0
122
1.0
132
0.0
 79
     0
146
0.0
  0
ENDBLK
  5
25
330
23
100
AcDbEntity
  8
0
100
AcDbBlockEnd
  0
BLOCK
  5
202
330
200
100
AcDbEntity
  8
0
100
AcDbBlockBegin
  2
*Paper_Space1
 70
     0
 10
0.0
 20
0.0
 30
0.0
  3
*Paper_Space1
  1

  0
SPLINE
  5
207
330
200
100
AcDbEntity
  8
0
  6
Continuous
 62
     7
370
    25
100
AcDbSpline
210
0.0
220
0.0
230
1.0
 70
     8
 71
     3
 72
    26
 73
    22
 74
     0
 42
0.000000001
 43
0.00000001
 40
0.0
 40
0.0
 40
0.0
 40
0.0
 40
0.0688730775824011
 40
0.0964380444306601
 40
0.1421581284101743
 40
0.1894433797181654
 40
0.2399863728922342
 40
0.2925323981405579
 40
0.346575157807777
 40
0.4017130712358997
 40
0.4576654042507838
 40
0.5142301436226261
 40
0.5712625585450763
 40
0.6286610976120552
 40
0.6863587463775778
 40
0.7443181201448331
 40
0.8025263628644196
 40
0.8609974616496717
 40
0.9197757829027747
 40
0.9789387091794051
 40
1.0
 40
1.0
 40
1.0
 40
1.0
 10
-0.0000000000004892
 20
-7.534763968648176
 30
0.0
 10
0.4938804382445782
 20
-7.528143438710229
 30
0.0
 10
1.185425891399732
 20
-7.518873184167781
 30
0.0
 10
2.199288665185335
 20
-7.45728134399843
 30
0.0
 10
3.054751739032191
 20
-7.384261023333845
 30
0.0
 10
4.062951345391804
 20
-7.262948381343302
 30
0.0
 10
5.104173346858126
 20
-7.099356178596423
 30
0.0
 10
6.171437373144729
 20
-6.888595171974522
 30
0.0
 10
7.243206533770415
 20
-6.630262414386308
 30
0.0
 10
8.304761045505186
 20
-6.324294008986945
 30
0.0
 10
9.343705311855059
 20
-5.971449649718886
 30
0.0
 10
10.34967487707341
 20
-5.573005345032557
 30
0.0
 10
11.31382705487194
 20
-5.130632945400344
 30
0.0
 10
12.22855317748191
 20
-4.646284333419313
 30
0.0
 10
13.08720165281079
 20
-4.122076022764237
 30
0.0
 10
13.88412347667111
 20
-3.560255079628108
 30
0.0
 10
14.61367581956987
 20
-2.962918037421061
 30
0.0
 10
15.27328494076833
 20
-2.332657601782619
 30
0.0
 10
15.85125780180963
 20
-1.669715133246936
 30
0.0
 10
16.25872678288708
 20
-1.131709213070965
 30
0.0
 10
16.44165829288347
 20
-0.8086479960013118
 30
0.0
 10
16.4896833640115
 20
-0.7238346255284828
 30
0.0
  0
SPLINE
  5
208
330
200
100
AcDbEntity
  8
0
  6
Continuous
 62
     7
370
    25
100
AcDbSpline
210
0.0
220
0.0
230
1.0
 70
     8
 71
     3
 72
    25
 73
    21
 74
     0
 42
0.000000001
 43
0.00000001
 40
0.0
 40
0.0
 40
0.0
 40
0.0
 40
0.0016563059225381
 40
0.0634961236785127
 40
0.1253408428944626
 40
0.1871625088957937
 40
0.2489377998906116
 40
0.3106467369418229
 40
0.3722663278503459
 40
0.4337701313842232
 40
0.4951245426156575
 40
0.556273961661028
 40
0.617123321203153
 40
0.6774989410483192
 40
0.7370505637297913
 40
0.7949564631579614
 40
0.8487255261590103
 40
0.8928027511765846
 40
0.9308841711800596
 40
1.0
 40
1.0
 40
1.0
 40
1.0
 10
-16.518744610127
 20
-0.6924218871630916
 30
0.0
 10
-16.5152013504578
 20
-0.6991608204069272
 30
0.0
 10
-16.37936699092385
 20
-0.9575044831865165
 30
0.0
 10
-16.02175623796098
 20
-1.447633917693092
 30
0.0
 10
-15.44240954600425
 20
-2.155830144375412
 30
0.0
 10
-14.76225168466495
 20
-2.831116616878959
 30
0.0
 10
-14.00049317477482
 20
-3.472963937169983
 30
0.0
 10
-13.15819229116156
 20
-4.077091841240075
 30
0.0
 10
-12.24187018003446
 20
-4.640513050634225
 30
0.0
 10
-11.25724823650984
 20
-5.160168361331569
 30
0.0
 10
-10.21103911382249
 20
-5.633286175161185
 30
0.0
 10
-9.110716979964135
 20
-6.057277743321536
 30
0.0
 10
-7.965115590430085
 20
-6.429752819090924
 30
0.0
 10
-6.785471461420594
 20
-6.748469577631345
 30
0.0
 10
-5.588480253066106
 20
-7.011221816162975
 30
0.0
 10
-4.4075882434013
 20
-7.21493834283899
 30
0.0
 10
-3.314163462278568
 20
-7.357041742993051
 30
0.0
 10
-2.349035720795728
 20
-7.446665978212461
 30
0.0
 10
-1.267782624283651
 20
-7.517342668050049
 30
0.0
 10
-0.496978715431317
 20
-7.527934709888391
 30
0.0
 10
-0.0000000000004892
 20
-7.534763968648176
 30
0.0
  0
SPLINE
  5
209
330
200
100
AcDbEntity
  8
0
  6
Continuous
 62
     7
370
    25
100
AcDbSpline
210
0.0
220
0.0
230
1.0
 70
     8
 71
     3
 72
    13
 73
     9
 74
     0
 42
0.000000001
 43
0.00000001
 40
0.0
 40
0.0
 40
0.0
 40
0.0
 40
0.1610317071970687
 40
0.3165033108658284
 40
0.466231500536717
 40
0.6101642734184121
 40
0.8799016928322396
 40
1.0
 40
1.0
 40
1.0
 40
1.0
 10
-70.35193946419291
 20
16.62262368862238
 30
0.0
 10
-70.04989456798151
 20
16.46272224784013
 30
0.0
 10
-69.45623378312725
 20
16.14844044395997
 30
0.0
 10
-68.56558216285428
 20
15.8572449571246
 30
0.0
 10
-67.7110319719265
 20
15.69661895323941
 30
0.0
 10
-66.66097911237284
 20
15.66843545873724
 30
0.0
 10
-65.6838809186034
 20
15.8068223928229
 30
0.0
 10
-65.06562081651809
 20
16.153114965202
 30
0.0
 10
-64.87515086574955
 20
16.25979875247876
 30
0.0
  0
SPLINE
  5
20D
330
200
100
AcDbEntity
  8
0
  6
Continuous
 62
     7
370
    25
100
AcDbSpline
210
0.0
220
0.0
230
1.0
 70
     8
 71
     3
 72
    25
 73
    21
 74
     0
 42
0.000000001
 43
0.00000001
 40
0.0
 40
0.0
 40
0.0
 40
0.0
 40
0.0435749607722473
 40
0.079991837330055
 40
0.1158744795706784
 40
0.1507995290936717
 40
0.1865369692742209
 40
0.2404696311783862
 40
0.2905331273330082
 40
0.3369657859553097
 40
0.3874009862251899
 40
0.4440167169637151
 40
0.5068146510028854
 40
0.5757915376980193
 40
0.650266806092375
 40
0.729855684695433
 40
0.8146126101446444
 40
0.9045859642837016
 40
0.9516338307656329
 40
0.9999999999999999
 40
0.9999999999999999
 40
0.9999999999999999
 40
0.9999999999999999
 10
-73.23323776521336
 20
35.03985946908173
 30
0.0
 10
-73.44176684545273
 20
34.90368585839158
 30
0.0
 10
-73.8245698123281
 20
34.65370795544161
 30
0.0
 10
-74.31975544369506
 20
34.18727110668578
 30
0.0
 10
-74.73807288756203
 20
33.70466993623441
 30
0.0
 10
-75.11004963997783
 20
33.17060654329781
 30
0.0
 10
-75.49323103491386
 20
32.48958093973647
 30
0.0
 10
-75.84649195021659
 20
31.65071298138094
 30
0.0
 10
-76.12715372597674
 20
30.66866856901541
 30
0.0
 10
-76.30854161284417
 20
29.65111004761581
 30
0.0
 10
-76.40012819868406
 20
28.53785068733574
 30
0.0
 10
-76.38086723333289
 20
27.25951647335521
 30
0.0
 10
-76.2106694873947
 20
25.80811133962377
 30
0.0
 10
-75.84798555921407
 20
24.21207679751348
 30
0.0
 10
-75.25714896066927
 20
22.52326288978854
 30
0.0
 10
-74.41317161959266
 20
20.81322515539798
 30
0.0
 10
-73.30430710168966
 20
19.16842478546561
 30
0.0
 10
-72.17765914634239
 20
17.96278730294364
 30
0.0
 10
-71.16842725933246
 20
17.13067402941993
 30
0.0
 10
-70.6266174125442
 20
16.79353898066493
 30
0.0
 10
-70.35196948945956
 20
16.62264241706704
 30
0.0
  0
SPLINE
  5
210
330
200
100
AcDbEntity
  8
0
  6
Continuous
 62
     7
370
    25
100
AcDbSpline
210
0.0
220
0.0
230
1.0
 70
     8
 71
     3
 72
    11
 73
     7
 74
     0
 42
0.000000001
 43
0.00000001
 40
0.0
 40
0.0
 40
0.0
 40
0.0
 40
0.2921190228837514
 40
0.5862503877249362
 40
0.8805195132741849
 40
1.0
 40
1.0
 40
1.0
 40
1.0
 10
-38.45918909582267
 20
74.39549944242222
 30
0.0
 10
-38.22554883322339
 20
74.27995444519374
 30
0.0
 10
-37.7566588130363
 20
74.04806848735304
 30
0.0
 10
-37.02871390062068
 20
73.98711303444811
 30
0.0
 10
-36.45800510464734
 20
74.0686917567327
 30
0.0
 10
-36.17250277164187
 20
74.24157446999824
 30
0.0
 10
-36.09005687514595
 20
74.29149865147085
 30
0.0
  0
SPLINE
  5
211
330
200
100
AcDbEntity
  8
0
  6
Continuous
 62
     7
370
    25
100
AcDbSpline
210
0.0
220
0.0
230
1.0
 70
     8
 71
     3
 72
    10
 73
     6
 74
     0
 42
0.000000001
 43
0.00000001
 40
0.0
 40
0.0
 40
0.0
 40
0.0
 40
0.3218416729050608
 40
0.6627678170112824
 40
1.0
 40
1.0
 40
1.0
 40
1.0
 10
-39.21183760658388
 20
81.67470759617153
 30
0.0
 10
-39.40406188231609
 20
81.51805866003279
 30
0.0
 10
-39.79990889135517
 20
81.19547186602111
 30
0.0
 10
-40.24186649454181
 20
80.46797725199568
 30
0.0
 10
-40.40313665837508
 20
79.8766363508352
 30
0.0
 10
-40.48333251711122
 20
79.58257643146038
 30
0.0
  0
SPLINE
  5
212
330
200
100
AcDbEntity
  8
0
  6
Continuous
 62
     7
370
    25
100
AcDbSpline
210
0.0
220
0.0
230
1.0
 70
     8
 71
     3
 72
    15
 73
    11
 74
     0
 42
0.000000001
 43
0.00000001
 40
0.0
 40
0.0
 40
0.0
 40
0.0
 40
0.1238851175932613
 40
0.2480271014329288
 40
0.3724779712603555
 40
0.4972793082858616
 40
0.6224533152140094
 40
0.7479942842795133
 40
0.8738638283811246
 40
1.0
 40
1.0
 40
1.0
 40
1.0
 10
-40.48344968338066
 20
79.58200800060085
 30
0.0
 10
-40.52064490942613
 20
79.3456251297766
 30
0.0
 10
-40.59511248295252
 20
78.87236926645788
 30
0.0
 10
-40.57153219067829
 20
78.109548878626
 30
0.0
 10
-40.44682391651988
 20
77.3404575098235
 30
0.0
 10
-40.21354504064217
 20
76.58803060477096
 30
0.0
 10
-39.88045607435468
 20
75.88232665893824
 30
0.0
 10
-39.45672816170263
 20
75.25628105178558
 30
0.0
 10
-38.96073455039816
 20
74.72482598463581
 30
0.0
 10
-38.58878724176195
 20
74.48360415853824
 30
0.0
 10
-38.40261682328082
 20
74.3628656365255
 30
0.0
  0
SPLINE
  5
213
330
200
100
AcDbEntity
  8
0
  6
Continuous
 62
     7
370
    25
100
AcDbSpline
210
0.0
220
0.0
230
1.0
 70
     8
 71
     3
 72
    28
 73
    24
 74
     0
 42
0.000000001
 43
0.00000001
 40
0.0
 40
0.0
 40
0.0
 40
0.0
 40
0.0612372182153742
 40
0.0858490577003225
 40
0.1266589777919912
 40
0.1688820923533567
 40
0.2140259380949288
 40
0.2609681076306329
 40
0.309256406418021
 40
0.3585326324621809
 40
0.408546903055211
 40
0.4591197194498837
 40
0.5101225444841709
 40
0.5614648686799053
 40
0.6130860455999806
 40
0.6649503073503081
 40
0.7170387505769457
 40
0.769354207062177
 40
0.821922379258405
 40
0.8747937604182634
 40
0.928050380166856
 40
0.9818161069062556
 40
1.0
 40
1.0
 40
1.0
 40
1.0
 10
0.0019266062883626
 20
117.7844730681967
 30
0.0
 10
-0.4894576097271564
 20
117.777885725415
 30
0.0
 10
-1.178333968633236
 20
117.7686508648671
 30
0.0
 10
-2.189207118032211
 20
117.7072060902804
 30
0.0
 10
-3.043913987207936
 20
117.6341390574374
 30
0.0
 10
-4.051394508337604
 20
117.5126433678177
 30
0.0
 10
-5.092205449804911
 20
117.348669550437
 30
0.0
 10
-6.159326546137285
 20
117.1372746017587
 30
0.0
 10
-7.231222306005495
 20
116.8780046077703
 30
0.0
 10
-8.293190424538171
 20
116.5707343701773
 30
0.0
 10
-9.332857415888022
 20
116.2161515323671
 30
0.0
 10
-10.33987886582905
 20
115.8154457523447
 30
0.0
 10
-11.30542647363245
 20
115.370187824302
 30
0.0
 10
-12.22187749274769
 20
114.8822104695672
 30
0.0
 10
-13.08258370114351
 20
114.3535086742692
 30
0.0
 10
-13.88168397540687
 20
113.7861725445588
 30
0.0
 10
-14.6138914864152
 20
113.1823033298971
 30
0.0
 10
-15.27460980608283
 20
112.543984033927
 30
0.0
 10
-15.85882068632047
 20
111.873070915842
 30
0.0
 10
-16.36454093955036
 20
111.171672948274
 30
0.0
 10
-16.77887696187959
 20
110.4401954991256
 30
0.0
 10
-17.05089211318282
 20
109.8543659504313
 30
0.0
 10
-17.14970904358357
 20
109.5088873299041
 30
0.0
 10
-17.17468313660068
 20
109.4215742027965
 30
0.0
  0
SPLINE
  5
214
330
200
100
AcDbEntity
  8
0
  6
Continuous
 62
     7
370
    25
100
AcDbSpline
210
0.0
220
0.0
230
1.0
 70
     8
 71
     3
 72
    26
 73
    22
 74
     0
 42
0.000000001
 43
0.00000001
 40
0.0
 40
0.0
 40
0.0
 40
0.0
 40
0.0491955305240985
 40
0.1045816939871035
 40
0.1601133334498722
 40
0.2157395456326321
 40
0.2714059680050608
 40
0.3270652059825131
 40
0.3826789641589391
 40
0.4382113118429035
 40
0.493628037781579
 40
0.5488952042964708
 40
0.6039601922217271
 40
0.6587347921463731
 40
0.713057517075212
 40
0.7665994490926531
 40
0.8185777494852421
 40
0.8665615716026371
 40
0.9054490584739178
 40
0.9399181438745999
 40
1.0
 40
1.0
 40
1.0
 40
1.0
 10
17.16408647973306
 20
109.4853875763548
 30
0.0
 10
17.08027804558334
 20
109.7182034959206
 30
0.0
 10
16.90211494986284
 20
110.2131322627408
 30
0.0
 10
16.50647606742326
 20
110.9476363745293
 30
0.0
 10
16.00791651456484
 20
111.6886127861686
 30
0.0
 10
15.41290864629785
 20
112.4019937498467
 30
0.0
 10
14.72896106589954
 20
113.0840494150054
 30
0.0
 10
13.95999790472035
 20
113.7308104448538
 30
0.0
 10
13.11150541248171
 20
114.3388270044282
 30
0.0
 10
12.18913322773821
 20
114.9049025822416
 30
0.0
 10
11.19909053793768
 20
115.4261283605266
 30
0.0
 10
10.14814491618213
 20
115.8998362298947
 30
0.0
 10
9.043884765761787
 20
116.323572646486
 30
0.0
 10
7.8952454158191
 20
116.6950644434404
 30
0.0
 10
6.71365850894742
 20
117.0121687725794
 30
0.0
 10
5.516330526683269
 20
117.2727410229467
 30
0.0
 10
4.338665517324824
 20
117.4736455139245
 30
0.0
 10
3.25477624867343
 20
117.6125425331308
 30
0.0
 10
2.297141795026908
 20
117.7000905298235
 30
0.0
 10
1.237190610381671
 20
117.7679588498875
 30
0.0
 10
0.4818827042055267
 20
117.7780565452886
 30
0.0
 10
0.0019266062883626
 20
117.7844730681967
 30
0.0
  0
SPLINE
  5
21B
330
200
100
AcDbEntity
  8
0
  6
Continuous
 62
     7
370
    25
100
AcDbSpline
210
0.0
220
0.0
230
1.0
 70
     8
 71
     3
 72
    20
 73
    16
 74
     0
 42
0.000000001
 43
0.00000001
 40
0.0
 40
0.0
 40
0.0
 40
0.0
 40
0.0717539843605716
 40
0.1501314452473098
 40
0.2287616931006237
 40
0.3076243846128271
 40
0.3867128549344088
 40
0.4660325957026324
 40
0.5456052500192257
 40
0.6254760489449485
 40
0.7057250400926294
 40
0.7864807211106983
 40
0.8679325150095365
 40
0.9503366996665513
 40
1.0
 40
1.0
 40
1.0
 40
1.0
 10
-17.5
 20
12.2760965132466
 30
0.0
 10
-17.82856213832804
 20
12.08062398401041
 30
0.0
 10
-18.51601537343842
 20
11.67163522078152
 30
0.0
 10
-19.48090808450987
 20
10.99986050733849
 30
0.0
 10
-20.40969594459523
 20
10.27360222834027
 30
0.0
 10
-21.26407902679749
 20
9.508875353674995
 30
0.0
 10
-22.04179962780574
 20
8.70879365924113
 30
0.0
 10
-22.73836305455035
 20
7.874949588721519
 30
0.0
 10
-23.34999593331081
 20
7.009370198158747
 30
0.0
 10
-23.8729309176673
 20
6.113992458759689
 30
0.0
 10
-24.30285838838921
 20
5.190791156832818
 30
0.0
 10
-24.63738437809247
 20
4.241740284330935
 30
0.0
 10
-24.86604195142976
 20
3.26877212699072
 30
0.0
 10
-24.98806416857118
 20
2.410688157591302
 30
0.0
 10
-24.98667642064251
 20
1.878007155766699
 30
0.0
 10
-24.98615456515194
 20
1.677695197244526
 30
0.0
  0
SPLINE
  5
21C
330
200
100
AcDbEntity
  8
0
  6
Continuous
 62
     7
370
    25
100
AcDbSpline
210
0.0
220
0.0
230
1.0
 70
     8
 71
     3
 72
    20
 73
    16
 74
     0
 42
0.000000001
 43
0.00000001
 40
0.0
 40
0.0
 40
0.0
 40
0.0
 40
0.0200739790315708
 40
0.1059813610179004
 40
0.1938035817215579
 40
0.2838254267686972
 40
0.365573172784884
 40
0.4477290913627996
 40
0.5302345978138892
 40
0.6130100971204545
 40
0.6959668863734446
 40
0.7790216777596943
 40
0.8621038203652878
 40
0.9451565527321508
 40
1.0
 40
1.0
 40
1.0
 40
1.0
 10
24.98879193732974
 20
1.75874596144545
 30
0.0
 10
24.99079903346193
 20
1.839107227260363
 30
0.0
 10
25.00139557635192
 20
2.263377687580712
 30
0.0
 10
24.90417409332434
 20
3.038176052074196
 30
0.0
 10
24.68701810780475
 20
4.082717587189013
 30
0.0
 10
24.34373861644947
 20
5.094137106141962
 30
0.0
 10
23.90069822438429
 20
6.061925416466295
 30
0.0
 10
23.37160446380847
 20
6.977153546013707
 30
0.0
 10
22.74451367238566
 20
7.868536201761939
 30
0.0
 10
22.02236396817329
 20
8.731934560226847
 30
0.0
 10
21.20861093889169
 20
9.563300464160971
 30
0.0
 10
20.3083080424579
 20
10.35968967832974
 30
0.0
 10
19.3223638509467
 20
11.1156604111351
 30
0.0
 10
18.38783692999244
 20
11.75527356859079
 30
0.0
 10
17.75263117208952
 20
12.12306128431241
 30
0.0
 10
17.5
 20
12.26933615752771
 30
0.0
  0
SPLINE
  5
222
330
200
100
AcDbEntity
  8
0
  6
Continuous
 62
     7
370
    25
100
AcDbSpline
210
0.0
220
0.0
230
1.0
 70
     8
 71
     3
 72
    26
 73
    22
 74
     0
 42
0.000000001
 43
0.00000001
 40
0.0
 40
0.0
 40
0.0
 40
0.0
 40
0.0625
 40
0.0625
 40
0.1250000000000001
 40
0.1250000000000001
 40
0.25
 40
0.25
 40
0.3749999999999999
 40
0.3749999999999999
 40
0.4999999999999999
 40
0.4999999999999999
 40
0.6249999999999998
 40
0.6249999999999998
 40
0.7499999999999998
 40
0.7499999999999998
 40
0.8749999999999997
 40
0.8749999999999997
 40
0.9374999999999999
 40
0.9374999999999999
 40
1.0
 40
1.0
 40
1.0
 40
1.0
 10
-68.01942001788161
 20
34.25196608158306
 30
0.0
 10
-67.56942665731145
 20
33.99212752158398
 30
0.0
 10
-67.13506283945107
 20
33.68284260752573
 30
0.0
 10
-66.28913839269963
 20
32.95965509610446
 30
0.0
 10
-65.87857298435665
 20
32.54651051889775
 30
0.0
 10
-64.72205950009777
 20
31.18446478834394
 30
0.0
 10
-64.04737669453297
 20
30.10851512603233
 30
0.0
 10
-62.98935500239275
 20
27.77151475316407
 30
0.0
 10
-62.60749218906982
 20
26.51173698624822
 30
0.0
 10
-62.20278332845659
 20
24.00181509042282
 30
0.0
 10
-62.18027443878842
 20
22.75296018784535
 30
0.0
 10
-62.50130759121249
 20
20.46506648339948
 30
0.0
 10
-62.84465748843791
 20
19.42740512277356
 30
0.0
 10
-63.84031605728788
 20
17.72587276073936
 30
0.0
 10
-64.49200355006477
 20
17.06273545681191
 30
0.0
 10
-65.99817694348845
 20
16.20598102929087
 30
0.0
 10
-66.85108763265883
 20
16.01187136595385
 30
0.0
 10
-68.18787856320822
 20
16.08915648392656
 30
0.0
 10
-68.64415757802222
 20
16.17642734589581
 30
0.0
 10
-69.551070227826
 20
16.46511405500767
 30
0.0
 10
-70.00066426035406
 20
16.66611117721407
 30
0.0
 10
-70.45071909129757
 20
16.92586117032294
 30
0.0
  0
SPLINE
  5
224
330
200
100
AcDbEntity
  8
0
  6
Continuous
 62
     7
370
    25
100
AcDbSpline
210
0.0
220
0.0
230
1.0
 70
     8
 71
     3
 72
     9
 73
     5
 74
     0
 42
0.000000001
 43
0.00000001
 40
0.0
 40
0.0
 40
0.0
 40
0.0
 40
0.1148045091686974
 40
0.9999999999999999
 40
0.9999999999999999
 40
0.9999999999999999
 40
0.9999999999999999
 10
-64.62279138080281
 20
16.34744112219317
 30
0.0
 10
-64.63090895404724
 20
16.34195859598604
 30
0.0
 10
-64.70161674508458
 20
16.29420327481593
 30
0.0
 10
-64.78111432685809
 20
16.26588846923174
 30
0.0
 10
-64.851485227776
 20
16.24082433100482
 30
0.0
  0
SPLINE
  5
225
330
200
100
AcDbEntity
  8
0
  6
Continuous
 62
     7
370
    25
100
AcDbSpline
210
0.0
220
0.0
230
1.0
 70
     8
 71
     3
 72
    25
 73
    21
 74
     0
 42
0.000000001
 43
0.00000001
 40
0.0
 40
0.0
 40
0.0
 40
0.0
 40
0.0791772226793702
 40
0.1596112029405469
 40
0.2023714535112874
 40
0.24565490408668
 40
0.2900577514543873
 40
0.3344604760165673
 40
0.4236381553155397
 40
0.5096362133155754
 40
0.5500341182231372
 40
0.5898075862725495
 40
0.6283007508011448
 40
0.6662146159677171
 40
0.7425015452941917
 40
0.8225565141290369
 40
0.8793263796175
 40
0.9382225960670596
 40
0.9978958821067316
 40
1.0
 40
1.0
 40
1.0
 40
1.0
 10
-12.37436867076461
 20
66.71254545661739
 30
0.0
 10
-11.896205985757
 20
66.42471605514545
 30
0.0
 10
-10.93229087516508
 20
65.84448861780996
 30
0.0
 10
-9.605615133365903
 20
64.90605771570804
 30
0.0
 10
-8.527151719051215
 20
64.07782913979699
 30
0.0
 10
-7.695133456841915
 20
63.39244766795787
 30
0.0
 10
-6.878616251784118
 20
62.66952111087433
 30
0.0
 10
-5.830189787886956
 20
61.65811802679357
 30
0.0
 10
-4.661416049056808
 20
60.34200986574601
 30
0.0
 10
-3.753171410557778
 20
58.9695908169177
 30
0.0
 10
-3.243909977473467
 20
57.87286369604406
 30
0.0
 10
-2.977740053106213
 20
57.07514288387936
 30
0.0
 10
-2.817076108805008
 20
56.28651249611222
 30
0.0
 10
-2.745093974769821
 20
55.25073770310383
 30
0.0
 10
-2.930580052215623
 20
53.95468683107165
 30
0.0
 10
-3.507737840218451
 20
52.6507704800246
 30
0.0
 10
-4.277833245500309
 20
51.59198639366635
 30
0.0
 10
-5.124400217735105
 20
50.79860239309923
 30
0.0
 10
-5.754655618884629
 20
50.2761866295919
 30
0.0
 10
-6.127662795781901
 20
50.11739052746983
 30
0.0
 10
-6.140367296542062
 20
50.11198198488654
 30
0.0
  0
SPLINE
  5
226
330
200
100
AcDbEntity
  8
0
  6
Continuous
 62
     7
370
    25
100
AcDbSpline
210
0.0
220
0.0
230
1.0
 70
     8
 71
     3
 72
    13
 73
     9
 74
     0
 42
0.000000001
 43
0.00000001
 40
0.0
 40
0.0
 40
0.0
 40
0.0
 40
0.2605371660251141
 40
0.3907818143010073
 40
0.5194236474652565
 40
0.6416038746956686
 40
0.7617801692356001
 40
1.0
 40
1.0
 40
1.0
 40
1.0
 10
-16.38521565525226
 20
67.85742319781265
 30
0.0
 10
-16.17984572391922
 20
67.93498548507391
 30
0.0
 10
-15.87180969361457
 20
68.05132179056046
 30
0.0
 10
-15.29096726035088
 20
67.98141232936413
 30
0.0
 10
-14.80457031455146
 20
67.85913152096346
 30
0.0
 10
-14.26610573391884
 20
67.66501864217915
 30
0.0
 10
-13.4980512368216
 20
67.33299793471565
 30
0.0
 10
-12.82303831829272
 20
66.96028285422884
 30
0.0
 10
-12.37436867076461
 20
66.71254545661739
 30
0.0
  0
SPLINE
  5
227
330
200
100
AcDbEntity
  8
0
  6
Continuous
 62
     7
370
    25
100
AcDbSpline
210
0.0
220
0.0
230
1.0
 70
     8
 71
     3
 72
    17
 73
    13
 74
     0
 42
0.000000001
 43
0.00000001
 40
0.0
 40
0.0
 40
0.0
 40
0.0
 40
0.0665786917066415
 40
0.1749678816378719
 40
0.2717381880795641
 40
0.3996157308766092
 40
0.5080626835477544
 40
0.6093820286457485
 40
0.7206793105069751
 40
0.8056067469633139
 40
0.9016792285140368
 40
0.9999999999999999
 40
0.9999999999999999
 40
0.9999999999999999
 40
0.9999999999999999
 10
-60.33718746320169
 20
18.83498052724744
 30
0.0
 10
-60.08398493679203
 20
18.97945196795822
 30
0.0
 10
-59.41857219683516
 20
19.35912091744307
 30
0.0
 10
-58.4229081130532
 20
20.04478272397343
 30
0.0
 10
-57.22532925500358
 20
20.91308238225895
 30
0.0
 10
-56.05226303203309
 20
21.79643446158777
 30
0.0
 10
-54.89830855734262
 20
22.58107240564721
 30
0.0
 10
-53.93985782488224
 20
23.0625568502922
 30
0.0
 10
-53.28033687746036
 20
23.25325735847465
 30
0.0
 10
-52.825071145647
 20
23.3307949707201
 30
0.0
 10
-52.51976037602653
 20
23.36438817091586
 30
0.0
 10
-52.43439909319333
 20
23.39395691143691
 30
0.0
 10
-52.39122482118501
 20
23.40891227297583
 30
0.0
  0
SPLINE
  5
229
330
200
100
AcDbEntity
  8
0
  6
Continuous
 62
     7
370
    25
100
AcDbSpline
210
0.0
220
0.0
230
1.0
 70
     8
 71
     3
 72
    26
 73
    22
 74
     0
 42
0.000000001
 43
0.00000001
 40
0.0
 40
0.0
 40
0.0
 40
0.0
 40
0.0624999999999998
 40
0.0624999999999998
 40
0.1249999999999995
 40
0.1249999999999995
 40
0.2499999999999996
 40
0.2499999999999996
 40
0.3749999999999997
 40
0.3749999999999997
 40
0.4999999999999998
 40
0.4999999999999998
 40
0.6249999999999999
 40
0.6249999999999999
 40
0.7499999999999999
 40
0.7499999999999999
 40
0.875
 40
0.875
 40
0.9375
 40
0.9375
 40
1.0
 40
1.0
 40
1.0
 40
1.0
 10
-70.45071909129757
 20
16.92586117032294
 30
0.0
 10
-70.90071245186775
 20
17.1856997303307
 30
0.0
 10
-71.33507626987851
 20
17.49498464432444
 30
0.0
 10
-72.18100071671351
 20
18.21817215571012
 30
0.0
 10
-72.59156612501202
 20
18.63131673293577
 30
0.0
 10
-73.74807960924598
 20
19.99336246350256
 30
0.0
 10
-74.42276241483209
 20
21.06931212580718
 30
0.0
 10
-75.48078410696925
 20
23.4063124986772
 30
0.0
 10
-75.86264692028679
 20
24.66609026559606
 30
0.0
 10
-76.26735578090491
 20
27.17601216141881
 30
0.0
 10
-76.2898646705685
 20
28.42486706399892
 30
0.0
 10
-75.96883151814959
 20
30.71276076844175
 30
0.0
 10
-75.62548162091903
 20
31.75042212907007
 30
0.0
 10
-74.62982305207568
 20
33.451954491092
 30
0.0
 10
-73.978135559296
 20
34.1150917950235
 30
0.0
 10
-72.47196216586823
 20
34.97184622255493
 30
0.0
 10
-71.61905147668018
 20
35.16595588589409
 30
0.0
 10
-70.2822605461603
 20
35.08867076790903
 30
0.0
 10
-69.82598153139091
 20
35.00139990592415
 30
0.0
 10
-68.91906888150359
 20
34.71271319684352
 30
0.0
 10
-68.46947484882516
 20
34.51171607469195
 30
0.0
 10
-68.01942001788161
 20
34.25196608158306
 30
0.0
  0
SPLINE
  5
22B
330
200
100
AcDbEntity
  8
0
  6
Continuous
 62
     7
370
    25
100
AcDbSpline
210
0.0
220
0.0
230
1.0
 70
     8
 71
     3
 72
    27
 73
    23
 74
     0
 42
0.000000001
 43
0.00000001
 40
0.0
 40
0.0
 40
0.0
 40
0.0
 40
0.0284715236677558
 40
0.0573158648812471
 40
0.0865377293758707
 40
0.1161416427365201
 40
0.1461319574716616
 40
0.1765128598957044
 40
0.2072883768100625
 40
0.238462381975965
 40
0.2979704619679068
 40
0.3632441447392404
 40
0.4181292410185071
 40
0.4896910189526362
 40
0.5678829533048838
 40
0.6176508010058197
 40
0.6854351612868358
 40
0.7459514920843937
 40
0.8124790870625739
 40
0.8769689707752227
 40
0.9394612451321666
 40
1.0
 40
1.0
 40
1.0
 40
1.0
 10
-12.72599545507117
 20
95.63193449096309
 30
0.0
 10
-12.68346404869751
 20
95.60693552828941
 30
0.0
 10
-12.59784431266341
 20
95.5566102565022
 30
0.0
 10
-12.46672841771201
 20
95.47350952411945
 30
0.0
 10
-12.33296080862097
 20
95.38415557464938
 30
0.0
 10
-12.19668383939872
 20
95.28797294630311
 30
0.0
 10
-12.05826141869649
 20
95.18508066952174
 30
0.0
 10
-11.91802259383551
 20
95.07544445920463
 30
0.0
 10
-11.77632673475238
 20
94.9591054527276
 30
0.0
 10
-11.59092488570823
 20
94.79941518800598
 30
0.0
 10
-11.35553943725288
 20
94.58249266140194
 30
0.0
 10
-11.09237204301191
 20
94.31548185282448
 30
0.0
 10
-10.8229307775954
 20
94.01560278653207
 30
0.0
 10
-10.55177107258532
 20
93.68008851497055
 30
0.0
 10
-10.31104224694299
 20
93.33833128284509
 30
0.0
 10
-10.09837225215034
 20
92.9945927183404
 30
0.0
 10
-9.927377121527934
 20
92.67526044380675
 30
0.0
 10
-9.76970717680596
 20
92.32184965350135
 30
0.0
 10
-9.646282764702352
 20
91.97231523596109
 30
0.0
 10
-9.55746719269196
 20
91.62108210274549
 30
0.0
 10
-9.503335977922651
 20
91.28490468797268
 30
0.0
 10
-9.496688870624011
 20
91.0714048135121
 30
0.0
 10
-9.493418089245784
 20
90.96634988025073
 30
0.0
  0
SPLINE
  5
22C
330
200
100
AcDbEntity
  8
0
  6
Continuous
 62
     7
370
    25
100
AcDbSpline
210
0.0
220
0.0
230
1.0
 70
     8
 71
     3
 72
     9
 73
     5
 74
     0
 42
0.000000001
 43
0.00000001
 40
0.0
 40
0.0
 40
0.0
 40
0.0
 40
0.1762596852950838
 40
1.0
 40
1.0
 40
1.0
 40
1.0
 10
-35.98839123758726
 20
74.31961942686625
 30
0.0
 10
-35.99312389616402
 20
74.31624375400212
 30
0.0
 10
-36.01997438423125
 20
74.29709205258791
 30
0.0
 10
-36.05102581374306
 20
74.28820195728706
 30
0.0
 10
-36.07660412806116
 20
74.28087882738619
 30
0.0
  0
SPLINE
  5
22D
330
200
100
AcDbEntity
  8
0
  6
Continuous
 62
     7
370
    25
100
AcDbSpline
210
0.0
220
0.0
230
1.0
 70
     8
 71
     3
 72
    22
 73
    18
 74
     0
 42
0.000000001
 43
0.00000001
 40
0.0
 40
0.0
 40
0.0
 40
0.0
 40
0.032438430206637
 40
0.0614766424435049
 40
0.0871144571830549
 40
0.1093517221561463
 40
0.1281883159620983
 40
0.1956344984657547
 40
0.2560954387767541
 40
0.3889629770382608
 40
0.5089525986649971
 40
0.63571163154019
 40
0.756604747653709
 40
0.8181086178869457
 40
0.8791561418556336
 40
0.9397766259205383
 40
1.0
 40
1.0
 40
1.0
 40
1.0
 10
-34.69027236314102
 20
76.42043004579567
 30
0.0
 10
-34.67985348211219
 20
76.48193025649586
 30
0.0
 10
-34.66010783413877
 20
76.5984841846401
 30
0.0
 10
-34.63997462930477
 20
76.76774710873653
 30
0.0
 10
-34.62662773262159
 20
76.91915455048574
 30
0.0
 10
-34.61880235809006
 20
77.05201161630357
 30
0.0
 10
-34.61122194186511
 20
77.26991608605549
 30
0.0
 10
-34.61582992213725
 20
77.56948159987854
 30
0.0
 10
-34.66266866255133
 20
78.10848909910273
 30
0.0
 10
-34.79002352891649
 20
78.7619160390666
 30
0.0
 10
-35.05076742106838
 20
79.5278779037513
 30
0.0
 10
-35.39757228367155
 20
80.21940180659907
 30
0.0
 10
-35.7579175659771
 20
80.73457060464004
 30
0.0
 10
-36.073465456871
 20
81.08916436136722
 30
0.0
 10
-36.32503364166791
 20
81.32718849926592
 30
0.0
 10
-36.58570226071583
 20
81.53569015959896
 30
0.0
 10
-36.76580386062743
 20
81.64684121124633
 30
0.0
 10
-36.8555587409361
 20
81.70223410804286
 30
0.0
  0
SPLINE
  5
230
330
200
100
AcDbEntity
  8
0
  6
Continuous
 62
     7
370
    25
100
AcDbSpline
210
0.0
220
0.0
230
1.0
 70
     8
 71
     3
 72
    16
 73
    12
 74
     0
 42
0.000000001
 43
0.00000001
 40
0.0
 40
0.0
 40
0.0
 40
0.0
 40
0.125
 40
0.25
 40
0.25
 40
0.5
 40
0.5
 40
0.75
 40
0.75
 40
0.875
 40
1.0
 40
1.0
 40
1.0
 40
1.0
 10
-37.19706509182949
 20
81.20248443877959
 30
0.0
 10
-37.03616322025547
 20
81.10957580093188
 30
0.0
 10
-36.72874052540391
 20
80.88710260676828
 30
0.0
 10
-36.44494199389111
 20
80.58918996915742
 30
0.0
 10
-36.04775788565916
 20
80.09425622697101
 30
0.0
 10
-35.8210893318012
 20
79.69946422670756
 30
0.0
 10
-35.48060274896762
 20
78.83546001099413
 30
0.0
 10
-35.36722348000314
 20
78.36719425726152
 30
0.0
 10
-35.2986653400092
 20
77.6637451850683
 30
0.0
 10
-35.28652615470172
 20
77.19433065443884
 30
0.0
 10
-35.34085940418496
 20
76.75044871842577
 30
0.0
 10
-35.38534198892869
 20
76.53305868703045
 30
0.0
  0
SPLINE
  5
232
330
200
100
AcDbEntity
  8
0
  6
Continuous
 62
     7
370
    25
100
AcDbSpline
210
0.0
220
0.0
230
1.0
 70
     8
 71
     3
 72
    16
 73
    12
 74
     0
 42
0.000000001
 43
0.00000001
 40
0.0
 40
0.0
 40
0.0
 40
0.0
 40
0.125
 40
0.25
 40
0.25
 40
0.5
 40
0.5
 40
0.75
 40
0.75
 40
0.875
 40
1.0
 40
1.0
 40
1.0
 40
1.0
 10
-40.33506968874498
 20
79.39047566630383
 30
0.0
 10
-40.37983402683177
 20
79.17170955805375
 30
0.0
 10
-40.43409748213071
 20
78.72579305047698
 30
0.0
 10
-40.42156284646445
 20
78.25670773276427
 30
0.0
 10
-40.3528190508793
 20
77.55502538805362
 30
0.0
 10
-40.24002013111598
 20
77.08974888370061
 30
0.0
 10
-39.9023559377217
 20
76.23065692285132
 30
0.0
 10
-39.67779843101458
 20
75.83772872721862
 30
0.0
 10
-39.28311599823245
 20
75.34290161419653
 30
0.0
 10
-39.00074873530474
 20
75.04413619373736
 30
0.0
 10
-38.68821195520039
 20
74.81624701098208
 30
0.0
 10
-38.52334592872278
 20
74.72105312566633
 30
0.0
  0
SPLINE
  5
233
330
200
100
AcDbEntity
  8
0
  6
Continuous
 62
     7
370
    25
100
AcDbSpline
210
0.0
220
0.0
230
1.0
 70
     8
 71
     3
 72
    16
 73
    12
 74
     0
 42
0.000000001
 43
0.00000001
 40
0.0
 40
0.0
 40
0.0
 40
0.0
 40
0.125
 40
0.25
 40
0.25
 40
0.5
 40
0.5
 40
0.75
 40
0.75
 40
0.875
 40
1.0
 40
1.0
 40
1.0
 40
1.0
 10
-37.19706509182949
 20
81.20248443877959
 30
0.0
 10
-37.35797500281172
 20
81.29535378860595
 30
0.0
 10
-37.68186919148835
 20
81.4373320737353
 30
0.0
 10
-38.01474315527896
 20
81.49541689004424
 30
0.0
 10
-38.50915787491819
 20
81.51519219529776
 30
0.0
 10
-38.83243290323543
 20
81.43787586736434
 30
0.0
 10
-39.41721664946228
 20
81.10801884297484
 30
0.0
 10
-39.67803289423265
 20
80.85577156123891
 30
0.0
 10
-39.9895799774477
 20
80.37175256370377
 30
0.0
 10
-40.17096841653715
 20
80.01405915258778
 30
0.0
 10
-40.29058450568647
 20
79.60786419772398
 30
0.0
 10
-40.33506968874498
 20
79.39047566630383
 30
0.0
  0
SPLINE
  5
234
330
200
100
AcDbEntity
  8
0
  6
Continuous
 62
     7
370
    25
100
AcDbSpline
210
0.0
220
0.0
230
1.0
 70
     8
 71
     3
 72
    16
 73
    12
 74
     0
 42
0.000000001
 43
0.00000001
 40
0.0
 40
0.0
 40
0.0
 40
0.0
 40
0.125
 40
0.25
 40
0.25
 40
0.5
 40
0.5
 40
0.75
 40
0.75
 40
0.875
 40
1.0
 40
1.0
 40
1.0
 40
1.0
 10
-35.38534198892869
 20
76.53305868703045
 30
0.0
 10
-35.43010862158688
 20
76.31429390340824
 30
0.0
 10
-35.55052444767274
 20
75.9065663466121
 30
0.0
 10
-35.73210428143405
 20
75.5495409268379
 30
0.0
 10
-36.04315113730449
 20
75.06710705837752
 30
0.0
 10
-36.30241553984758
 20
74.81661813810976
 30
0.0
 10
-36.88317528684164
 20
74.48772103253185
 30
0.0
 10
-37.20410314127139
 20
74.40969483300597
 30
0.0
 10
-37.69650575572687
 20
74.426971017329
 30
0.0
 10
-38.02856300881567
 20
74.48290531997024
 30
0.0
 10
-38.35847303790709
 20
74.62589278583226
 30
0.0
 10
-38.52334592872278
 20
74.72105312566633
 30
0.0
  0
LWPOLYLINE
  5
238
330
200
100
AcDbEntity
  8
0
  6
Continuous
 62
     7
370
    25
100
AcDbPolyline
 90
       73
 70
   128
 43
0.0
 10
-12.0188886739
 20
100.9393834182
 10
-10.9254627584
 20
100.360975622
 10
-9.7488728117
 20
99.8397834072
 10
-8.4980733937
 20
99.3797733614
 10
-7.1825838433
 20
98.9844464387
 10
-5.8124158302
 20
98.6568113157
 10
-4.3979971605
 20
98.3993614935
 10
-2.950092414
 20
98.2140563208
 10
-1.4797210204
 20
98.1023060818
 10
0.0019266063
 20
98.0649612632
 10
1.483574233
 20
98.1023060818
 10
2.9539456266
 20
98.2140563208
 10
4.401850373
 20
98.3993614935
 10
5.8162690428
 20
98.6568113157
 10
7.1864370559
 20
98.9844464387
 10
8.5019266063
 20
99.3797733614
 10
9.7527260243
 20
99.8397834072
 10
10.929315971
 20
100.360975622
 10
12.0227418865
 20
100.9393834182
 10
13.0246821393
 20
101.5706047633
 10
13.9275113592
 20
102.2498356817
 10
14.7243584706
 20
102.971906816
 10
15.4091589859
 20
103.7313227688
 10
15.9767011596
 20
104.5223039262
 10
16.4226656532
 20
105.338830444
 10
16.7436584075
 20
106.1746880624
 10
16.9372364738
 20
107.0235154001
 10
17.0019266063
 20
107.8788523687
 10
16.9372364738
 20
108.7341893372
 10
16.7436584075
 20
109.583016675
 10
16.4226656532
 20
110.4188742933
 10
15.9767011596
 20
111.2354008112
 10
15.4091589859
 20
112.0263819686
 10
14.7243584706
 20
112.7857979214
 10
13.9275113592
 20
113.5078690557
 10
13.0246821393
 20
114.1870999741
 10
12.0227418865
 20
114.8183213192
 10
10.929315971
 20
115.3967291154
 10
9.7527260243
 20
115.9179213301
 10
8.5019266063
 20
116.377931376
 10
7.1864370559
 20
116.7732582987
 10
5.8162690428
 20
117.1008934217
 10
4.401850373
 20
117.3583432438
 10
2.9539456266
 20
117.5436484166
 10
1.483574233
 20
117.6553986556
 10
0.0019266063
 20
117.6927434741
 10
-1.4797210204
 20
117.6553986556
 10
-2.950092414
 20
117.5436484166
 10
-4.3979971605
 20
117.3583432438
 10
-5.8124158302
 20
117.1008934217
 10
-7.1825838433
 20
116.7732582987
 10
-8.4980733937
 20
116.377931376
 10
-9.7488728117
 20
115.9179213301
 10
-10.9254627584
 20
115.3967291154
 10
-12.0188886739
 20
114.8183213192
 10
-13.0208289267
 20
114.1870999741
 10
-13.9236581466
 20
113.5078690557
 10
-14.720505258
 20
112.7857979214
 10
-15.4053057733
 20
112.0263819686
 10
-15.9728479471
 20
111.2354008112
 10
-16.4188124406
 20
110.4188742933
 10
-16.7398051949
 20
109.583016675
 10
-16.9333832613
 20
108.7341893372
 10
-16.9980733937
 20
107.8788523687
 10
-16.9333832613
 20
107.0235154001
 10
-16.7398051949
 20
106.1746880624
 10
-16.4188124406
 20
105.338830444
 10
-15.9728479471
 20
104.5223039262
 10
-15.4053057733
 20
103.7313227688
 10
-14.720505258
 20
102.971906816
 10
-13.9236581466
 20
102.2498356817
 10
-13.0208289267
 20
101.5706047633
 10
-12.0188886739
 20
100.9393834182
  0
SPLINE
  5
23A
330
200
100
AcDbEntity
  8
0
  6
Continuous
 62
     7
370
    25
100
AcDbSpline
210
0.0
220
0.0
230
1.0
 70
     8
 71
     3
 72
    22
 73
    18
 74
     0
 42
0.000000001
 43
0.00000001
 40
0.0
 40
0.0
 40
0.0
 40
0.0
 40
0.0668176255060669
 40
0.1334737640260628
 40
0.2000004510765326
 40
0.2664299094582549
 40
0.3327945035985752
 40
0.3991266928700735
 40
0.4654589842174038
 40
0.5318238844358137
 40
0.5982538524507285
 40
0.6647812519478846
 40
0.7314383046973955
 40
0.7982570449034831
 40
0.8652692748944604
 40
0.9325065224454387
 40
1.0
 40
1.0
 40
1.0
 40
1.0
 10
10.47340195166821
 20
79.37098007463038
 30
0.0
 10
10.56208242799625
 20
79.41022267682125
 30
0.0
 10
10.73922905482531
 20
79.48861303842006
 30
0.0
 10
10.99964590223204
 20
79.61721275895083
 30
0.0
 10
11.25562589514504
 20
79.75359268563516
 30
0.0
 10
11.50676733999016
 20
79.89848715611436
 30
0.0
 10
11.75310803700226
 20
80.05161340182784
 30
0.0
 10
11.99457203569729
 20
80.21296029503151
 30
0.0
 10
12.23111741978514
 20
80.38244398387272
 30
0.0
 10
12.46269704093496
 20
80.55999974364791
 30
0.0
 10
12.68926789829121
 20
80.7455586256961
 30
0.0
 10
12.91079271599823
 20
80.93904931621812
 30
0.0
 10
13.12722406772363
 20
81.14041431455945
 30
0.0
 10
13.33856632479569
 20
81.34954338672732
 30
0.0
 10
13.54464273619213
 20
81.56652469604315
 30
0.0
 10
13.74596867693488
 20
81.79070306186323
 30
0.0
 10
13.87537400382527
 20
81.94605730677337
 30
0.0
 10
13.94019971836866
 20
82.02388215506714
 30
0.0
  0
LWPOLYLINE
  5
23B
330
200
100
AcDbEntity
  8
0
  6
Continuous
 62
     7
370
    25
100
AcDbPolyline
 90
       25
 70
   128
 43
0.0
 10
10.4734019517
 20
79.3709800746
 10
9.2232650981
 20
78.8791225782
 10
7.904212226
 20
78.4514344401
 10
6.5261013262
 20
78.0911120035
 10
5.0992317623
 20
77.8008481518
 10
3.6342672974
 20
77.5828121826
 10
2.1421563983
 20
77.438633596
 10
0.6340504117
 20
77.369389916
 10
-0.8787797758
 20
77.3755986378
 10
-2.3850279713
 20
77.4572133604
 10
-3.8734371722
 20
77.6136241331
 10
-5.3328836969
 20
77.8436620141
 10
-6.7524603169
 20
78.1456078066
 10
-8.1215577732
 20
78.5172049075
 10
-9.4299440647
 20
78.955676172
 10
-10.6678409175
 20
79.4577446685
 10
-11.8259968631
 20
80.0196581694
 10
-12.8957563795
 20
80.6372171932
 10
-13.8691245791
 20
81.3058063892
 10
-14.7388269581
 20
82.0204290312
 10
-15.4983637631
 20
82.7757443599
 10
-16.1420585675
 20
83.5661074981
 10
-16.665100694
 20
84.3856116372
 10
-17.0635811677
 20
85.2281321823
 10
-17.0768457116
 20
85.2621238144
  0
SPLINE
  5
23C
330
200
100
AcDbEntity
  8
0
  6
Continuous
 62
     7
370
    25
100
AcDbSpline
210
0.0
220
0.0
230
1.0
 70
     8
 71
     3
 72
    23
 73
    19
 74
     0
 42
0.000000001
 43
0.00000001
 40
0.0
 40
0.0
 40
0.0
 40
0.0
 40
0.0274795713170361
 40
0.0543866421820308
 40
0.0807223619978663
 40
0.1064874367120171
 40
0.1316823889966954
 40
0.1860710578893349
 40
0.2357172056661318
 40
0.3370452656419247
 40
0.4851758211810139
 40
0.6299311653397609
 40
0.7423350544679744
 40
0.7951749779914437
 40
0.8473777203870274
 40
0.8989254725959406
 40
0.9498023001802118
 40
0.9999999999999999
 40
0.9999999999999999
 40
0.9999999999999999
 40
0.9999999999999999
 10
-12.37244206452496
 20
96.24430692483456
 30
0.0
 10
-12.32701313823914
 20
96.21756959256807
 30
0.0
 10
-12.23710173714355
 20
96.16465196492014
 30
0.0
 10
-12.10210203657127
 20
96.07863460704414
 30
0.0
 10
-11.96925706578889
 20
95.98940303411759
 30
0.0
 10
-11.83875126667036
 20
95.89691660959019
 30
0.0
 10
-11.66060115011227
 20
95.76425552003259
 30
0.0
 10
-11.44197120727174
 20
95.5895646565689
 30
0.0
 10
-11.09771370506623
 20
95.28978176611561
 30
0.0
 10
-10.60887124440761
 20
94.80758526231965
 30
0.0
 10
-10.01737376849719
 20
94.09386919441098
 30
0.0
 10
-9.516275808221074
 20
93.29865881359262
 30
0.0
 10
-9.228988177913257
 20
92.67031686858762
 30
0.0
 10
-9.076844913447822
 20
92.22897174671056
 30
0.0
 10
-8.990845730866598
 20
91.91222554904282
 30
0.0
 10
-8.93026276287728
 20
91.60263137198928
 30
0.0
 10
-8.89275631561261
 20
91.30115018245283
 30
0.0
 10
-8.888196295405674
 20
91.10721415144093
 30
0.0
 10
-8.885931604870889
 20
91.01089767172037
 30
0.0
  0
LWPOLYLINE
  5
23F
330
200
100
AcDbEntity
  8
0
  6
Continuous
 62
     7
370
    25
100
AcDbPolyline
 90
       28
 70
   128
 43
0.0
 10
-71.4194801252
 20
15.2564011019
 10
-71.4123970027
 20
14.7362528447
 10
-71.2778634704
 20
14.1821611952
 10
-71.014808677
 20
13.6306495646
 10
-70.6270685539
 20
13.0897602343
 10
-70.1202972251
 20
12.5673805887
 10
-69.5018845577
 20
12.0711280993
 10
-68.7808484011
 20
11.608239245
 10
-67.9677030859
 20
11.1854639875
 10
-67.074306102
 20
10.8089673422
 10
-66.113685189
 20
10.4842394778
 10
-65.0998483631
 20
10.2160156579
 10
-64.0475796482
 20
10.0082071898
 10
-62.9722234915
 20
9.8638443888
 10
-61.8894610074
 20
9.7850323897
 10
-60.815081311
 20
9.772920449
 10
-59.7647512776
 20
9.8276851859
 10
-58.7537870842
 20
9.9485280072
 10
-57.7969308653
 20
10.1336867527
 10
-56.9081357392
 20
10.3804613907
 10
-56.1003623402
 20
10.6852533914
 10
-55.3853898234
 20
11.043618201
 10
-54.7736440982
 20
11.4503300538
 10
-54.2740457946
 20
11.8994581749
 10
-53.8938801809
 20
12.3844532652
 10
-53.638690928
 20
12.898243004
 10
-53.5121992696
 20
13.43333518
 10
-53.5091474356
 20
13.4619700767
  0
LWPOLYLINE
  5
243
330
200
100
AcDbEntity
  8
0
  6
Continuous
 62
     7
370
    25
100
AcDbPolyline
 90
       12
 70
   128
 43
0.0
 10
-17.6776695297
 20
-11.0216422097
 10
-18.9071688989
 20
-10.2586626584
 10
-20.0380950443
 20
-9.4464562559
 10
-21.0645518404
 20
-8.5892574702
 10
-21.9811878169
 20
-7.6915353389
 10
-22.7832240582
 20
-6.7579701695
 10
-23.4664791187
 20
-5.7934291385
 10
-24.0273908229
 20
-4.8029409163
 10
-24.4630348369
 20
-3.7916694498
 10
-24.7711399145
 20
-2.7648870401
 10
-24.9500997385
 20
-1.7279468554
 10
-24.9999999998
 20
-0.8166048252
  0
LWPOLYLINE
  5
244
330
200
100
AcDbEntity
  8
0
  6
Continuous
 62
     7
370
    25
100
AcDbPolyline
 90
       34
 70
   128
 43
0.0
 10
24.9999999953
 20
-0.8162608027
 10
24.9745365326
 20
-1.4677574254
 10
24.8280352403
 20
-2.5063937976
 10
24.5520920686
 20
-3.5362200588
 10
24.1481456572
 20
-4.5518671717
 10
23.6183019959
 20
-5.5480400225
 10
22.9653234441
 20
-6.5195450274
 10
22.1926143296
 20
-7.4613172089
 10
21.3042032
 20
-8.3684466031
 10
20.3047218195
 20
-9.2362038573
 10
19.1993810213
 20
-10.060064887
 10
17.9939435404
 20
-10.8357344622
 10
16.6946939697
 20
-11.559168601
 10
15.3084059949
 20
-12.2265956527
 10
13.8423070796
 20
-12.8345359618
 10
12.3040407847
 20
-13.3798200088
 10
10.7016269184
 20
-13.8596049355
 10
9.0434197245
 20
-14.2713893651
 10
7.3380643276
 20
-14.6130264445
 10
5.5944516611
 20
-14.8827350361
 10
3.8216721141
 20
-15.0791090042
 10
2.0289681382
 20
-15.2011245457
 10
0.2256860619
 20
-15.2481455283
 10
-1.578772637
 20
-15.2199268062
 10
-3.3750003463
 20
-15.1166154989
 10
-5.1536323667
 20
-14.9387502235
 10
-6.9053957341
 20
-14.6872582874
 10
-8.6211575657
 20
-14.363450853
 10
-10.2919726736
 20
-13.9690161024
 10
-11.9091302016
 20
-13.5060104356
 10
-13.464199039
 20
-12.9768477499
 10
-14.9490717771
 20
-12.3842868546
 10
-16.3560069769
 20
-11.7314170876
 10
-17.6776695297
 20
-11.0216422097
  0
LWPOLYLINE
  5
246
330
200
100
AcDbEntity
  8
0
  6
Continuous
 62
     8
370
    25
100
AcDbPolyline
 90
       29
 70
   128
 43
0.0
 10
17.4999999777
 20
85.6546210776
 10
17.4908852051
 20
85.3291119282
 10
17.3775889829
 20
84.4623087444
 10
17.1356351718
 20
83.6043368004
 10
16.7668151131
 20
82.7615482204
 10
16.2738594215
 20
81.9401827162
 10
15.6604177684
 20
81.1463213905
 10
14.9310318613
 20
80.385841715
 10
14.0911018182
 20
79.664374015
 10
13.1468461873
 20
78.9872597849
 10
12.1052559069
 20
78.3595121417
 10
10.974042547
 20
77.7857787092
 10
9.7615812156
 20
77.2703072091
 10
8.4768485521
 20
76.816914012
 10
7.1293562677
 20
76.4289558824
 10
5.7290807239
 20
76.1093051267
 10
4.2863890708
 20
75.8603283273
 10
2.8119624928
 20
75.6838688211
 10
1.3167171282
 20
75.5812330527
 10
-0.1882767493
 20
75.5531809014
 10
-1.6918766916
 20
75.5999200556
 10
-3.1829505709
 20
75.7211044747
 10
-4.6504589977
 20
75.9158369519
 10
-6.0835370531
 20
76.182675756
 10
-7.4715747287
 20
76.5196453058
 10
-8.804295479
 20
76.9242507967
 10
-10.071832306
 20
77.3934966712
 10
-11.2648008104
 20
77.923908797
 10
-12.3743686708
 20
78.5115601884
  0
LWPOLYLINE
  5
248
330
200
100
AcDbEntity
  8
0
  6
Continuous
 62
     8
370
    25
100
AcDbPolyline
 90
       30
 70
   128
 43
0.0
 10
16.970426588
 20
87.5169753428
 10
17.1345488072
 20
86.7654931668
 10
17.2
 20
85.9000934104
 10
17.1345488072
 20
85.034693654
 10
16.9386933518
 20
84.1758801123
 10
16.6139242122
 20
83.3301888748
 10
16.1627130775
 20
82.5040561627
 10
15.588493937
 20
81.7037693446
 10
14.8956369451
 20
80.9354190864
 10
14.0894151618
 20
80.2048529976
 10
13.1759644216
 20
79.5176311273
 10
12.1622366364
 20
78.8789836487
 10
11.0559468866
 20
78.2937710549
 10
9.8655147052
 20
77.766447167
 10
8.6
 20
77.3010252383
 10
7.2690341019
 20
76.9010474106
 10
5.8827464652
 20
76.5695577568
 10
4.4516875758
 20
76.3090791132
 10
2.9867486559
 20
76.1215938796
 10
1.4990787753
 20
76.0085289319
 10
0.0
 20
75.9707447625
 10
-1.4990787753
 20
76.0085289319
 10
-2.9867486559
 20
76.1215938796
 10
-4.4516875758
 20
76.3090791132
 10
-5.8827464652
 20
76.5695577568
 10
-7.2690341019
 20
76.9010474106
 10
-8.6
 20
77.3010252383
 10
-9.8655147052
 20
77.766447167
 10
-11.0559468866
 20
78.2937710549
 10
-12.1622366364
 20
78.8789836487
  0
LWPOLYLINE
  5
249
330
200
100
AcDbEntity
  8
0
  6
Continuous
 62
     8
370
    25
100
AcDbPolyline
 90
       30
 70
   128
 43
0.0
 10
-16.546101717
 20
-0.5952724886
 10
-16.1316321657
 20
-1.2216410288
 10
-15.4887445079
 20
-2.0076990314
 10
-14.7311836049
 20
-2.7589429707
 10
-13.8645581724
 20
-3.4698108992
 10
-12.8952844019
 20
-4.1350397996
 10
-11.8305384575
 20
-4.7497045499
 10
-10.6782033454
 20
-5.3092543872
 10
-9.4468105517
 20
-5.8095466003
 10
-8.1454768779
 20
-6.2468772008
 10
-6.7838369431
 20
-6.6180083459
 10
-5.371971853
 20
-6.9201923104
 10
-3.9203345628
 20
-7.15119183
 10
-2.4396724871
 20
-7.3092966651
 10
-0.9409479299
 20
-7.3933362627
 10
0.5647430765
 20
-7.4026884232
 10
2.0662529228
 20
-7.3372839063
 10
3.5524649554
 20
-7.1976069442
 10
5.0123757804
 20
-6.9846916564
 10
6.4351767288
 20
-6.700114393
 10
7.8103338801
 20
-6.3459820646
 10
9.127666052
 20
-5.9249165431
 10
10.3774201779
 20
-5.4400352502
 10
11.5503435156
 20
-4.8949280774
 10
12.6377521509
 20
-4.2936308075
 10
13.631595291
 20
-3.6405952351
 10
14.5245148687
 20
-2.940656207
 10
15.3099000201
 20
-2.1989958271
 10
15.9819360281
 20
-1.4211050892
 10
16.5272631527
 20
-0.6266801529
  0
SPLINE
  5
24B
330
200
100
AcDbEntity
  8
0
  6
Continuous
 62
     8
370
    25
100
AcDbSpline
210
0.0
220
0.0
230
1.0
 70
     8
 71
     3
 72
    27
 73
    23
 74
     0
 42
0.000000001
 43
0.00000001
 40
0.0
 40
0.0
 40
0.0
 40
0.0
 40
0.0814121845237267
 40
0.1639386530939693
 40
0.2447228904169892
 40
0.3292837641969464
 40
0.3813677508096791
 40
0.4371639671449919
 40
0.4966793521589815
 40
0.5365544142408581
 40
0.5809918275527055
 40
0.6162250362361678
 40
0.665497198833183
 40
0.706046841806981
 40
0.7376072846899585
 40
0.7683428943250741
 40
0.8028036597911975
 40
0.8343408410326056
 40
0.8793437430583894
 40
0.9222507480881467
 40
0.9630647129132495
 40
1.0
 40
1.0
 40
1.0
 40
1.0
 10
-67.6712378983987
 20
34.79034233535747
 30
0.0
 10
-67.20796568643411
 20
34.48745103965929
 30
0.0
 10
-66.27508048147804
 20
33.87752279192656
 30
0.0
 10
-64.99373636956396
 20
32.56957149665209
 30
0.0
 10
-63.8437373306701
 20
31.0136360220726
 30
0.0
 10
-63.00530025120037
 20
29.46737282618272
 30
0.0
 10
-62.41255323095142
 20
28.02023645970592
 30
0.0
 10
-62.0049483560226
 20
26.72418268875674
 30
0.0
 10
-61.74054969672686
 20
25.50744318155235
 30
0.0
 10
-61.59033606356651
 20
24.38663360242371
 30
0.0
 10
-61.53261315041495
 20
23.46742732440413
 30
0.0
 10
-61.53981881999366
 20
22.49862349392495
 30
0.0
 10
-61.61751761473857
 20
21.58897170608218
 30
0.0
 10
-61.76527800075043
 20
20.74816556829352
 30
0.0
 10
-61.93884289422407
 20
20.06971266734501
 30
0.0
 10
-62.14040600592738
 20
19.46243136964067
 30
0.0
 10
-62.3809875720759
 20
18.89091351386815
 30
0.0
 10
-62.70096272924783
 20
18.28080293429147
 30
0.0
 10
-63.09755636460964
 20
17.68484550473445
 30
0.0
 10
-63.58657715195117
 20
17.12768190324507
 30
0.0
 10
-64.09194140485384
 20
16.67812283594275
 30
0.0
 10
-64.45182590949452
 20
16.45394043010623
 30
0.0
 10
-64.6227913808028
 20
16.34744112219316
 30
0.0
  0
SPLINE
  5
24C
330
200
100
AcDbEntity
  8
0
  6
Continuous
 62
     8
370
    25
100
AcDbSpline
210
0.0
220
0.0
230
1.0
 70
     8
 71
     3
 72
    12
 73
     8
 74
     0
 42
0.000000001
 43
0.00000001
 40
0.0
 40
0.0
 40
0.0
 40
0.0
 40
0.0054053042470451
 40
0.266828675748909
 40
0.5162794288894742
 40
0.7595839981963609
 40
1.0
 40
1.0
 40
1.0
 40
1.0
 10
-73.15124547776944
 20
35.09111605777149
 30
0.0
 10
-73.14300867627189
 20
35.09635425673911
 30
0.0
 10
-72.7364053223164
 20
35.35493390923643
 30
0.0
 10
-71.85464888443197
 20
35.65968316184465
 30
0.0
 10
-70.4736736775338
 20
35.75696598525593
 30
0.0
 10
-69.06100554424116
 20
35.49027118214046
 30
0.0
 10
-68.13264586085491
 20
35.02272128299901
 30
0.0
 10
-67.67123789798282
 20
34.79034233509275
 30
0.0
  0
SPLINE
  5
24D
330
200
100
AcDbEntity
  8
0
  6
Continuous
 62
     8
370
    25
100
AcDbSpline
210
0.0
220
0.0
230
1.0
 70
     8
 71
     3
 72
    12
 73
     8
 74
     0
 42
0.000000001
 43
0.00000001
 40
0.0
 40
0.0
 40
0.0
 40
0.0
 40
0.0033049836488494
 40
0.2532089318293619
 40
0.502569834721083
 40
0.7514345451773511
 40
1.0
 40
1.0
 40
1.0
 40
1.0
 10
-10.52615655928186
 20
89.01819058293027
 30
0.0
 10
-10.52393992847458
 20
89.01908763252055
 30
0.0
 10
-10.3541143624186
 20
89.08781443806112
 30
0.0
 10
-10.08130815507672
 20
89.34782058680348
 30
0.0
 10
-9.748073340835393
 20
89.78939834579533
 30
0.0
 10
-9.534634828667198
 20
90.33863761020079
 30
0.0
 10
-9.507164753354887
 20
90.75720404813889
 30
0.0
 10
-9.493437978742847
 20
90.96636136163085
 30
0.0
  0
SPLINE
  5
24E
330
200
100
AcDbEntity
  8
0
  6
Continuous
 62
     8
370
    25
100
AcDbSpline
210
0.0
220
0.0
230
1.0
 70
     8
 71
     3
 72
    11
 73
     7
 74
     0
 42
0.000000001
 43
0.00000001
 40
0.0
 40
0.0
 40
0.0
 40
0.0
 40
0.2472361087612572
 40
0.4980172263487603
 40
0.7489897106045482
 40
1.0
 40
1.0
 40
1.0
 40
1.0
 10
-14.52493564195848
 20
95.94481680829001
 30
0.0
 10
-14.41515284944879
 20
95.99216103085877
 30
0.0
 10
-14.19401313769541
 20
96.08752832378975
 30
0.0
 10
-13.76620185377947
 20
96.061620235774
 30
0.0
 10
-13.27745700819901
 20
95.92393416218054
 30
0.0
 10
-12.90982520176368
 20
95.72927260154077
 30
0.0
 10
-12.72599545507118
 20
95.63193449108144
 30
0.0
  0
SPLINE
  5
24F
330
200
100
AcDbEntity
  8
0
  6
Continuous
 62
     8
370
    25
100
AcDbSpline
210
0.0
220
0.0
230
1.0
 70
     8
 71
     3
 72
    13
 73
     9
 74
     0
 42
0.000000001
 43
0.00000001
 40
0.0
 40
0.0
 40
0.0
 40
0.0
 40
0.1887859440904367
 40
0.3456120092995231
 40
0.5083748516146898
 40
0.6860784905493041
 40
0.8524772369997617
 40
1.0
 40
1.0
 40
1.0
 40
1.0
 10
-34.69027236314102
 20
76.42043004579565
 30
0.0
 10
-34.72874903930533
 20
76.24426590457179
 30
0.0
 10
-34.79918861267711
 20
75.92176073551252
 30
0.0
 10
-34.96616065926719
 20
75.49427117253381
 30
0.0
 10
-35.16761199665088
 20
75.11441213965514
 30
0.0
 10
-35.41670012110469
 20
74.78008513240755
 30
0.0
 10
-35.69335798970767
 20
74.50698080177088
 30
0.0
 10
-35.89406972900517
 20
74.37951846420538
 30
0.0
 10
-35.98839123758726
 20
74.31961942686624
 30
0.0
  0
SPLINE
  5
250
330
200
100
AcDbEntity
  8
0
  6
Continuous
 62
     8
370
    25
100
AcDbSpline
210
0.0
220
0.0
230
1.0
 70
     8
 71
     3
 72
    12
 73
     8
 74
     0
 42
0.000000001
 43
0.00000001
 40
0.0
 40
0.0
 40
0.0
 40
0.0
 40
0.2363762110923558
 40
0.4803358062869985
 40
0.7317910563934444
 40
0.9906734761620145
 40
1.0
 40
1.0
 40
1.0
 40
1.0
 10
-36.85555874059807
 20
81.70222573423638
 30
0.0
 10
-37.03358357817279
 20
81.79136902575429
 30
0.0
 10
-37.39534461791699
 20
81.97251548972564
 30
0.0
 10
-37.95747529513896
 20
82.07281509035585
 30
0.0
 10
-38.51246585484267
 20
82.02314054358115
 30
0.0
 10
-38.877199002833
 20
81.9020112359621
 30
0.0
 10
-39.04321622343626
 20
81.79071056001719
 30
0.0
 10
-39.04898919858264
 20
81.78684026250427
 30
0.0
  0
LWPOLYLINE
  5
252
330
200
100
AcDbEntity
  8
0
  6
Continuous
 62
     8
370
    25
100
AcDbPolyline
 90
       34
 70
   128
 43
0.0
 10
-17.1905186505
 20
105.5848889847
 10
-17.0533065178
 20
105.2074209924
 10
-16.6531602566
 20
104.3694086223
 10
-16.1297055594
 20
103.5543562547
 10
-15.4868179016
 20
102.7682982521
 10
-14.7292569986
 20
102.0170543128
 10
-13.8626315661
 20
101.3061863843
 10
-12.8933577956
 20
100.6409574839
 10
-11.8286118512
 20
100.0262927337
 10
-10.6762767391
 20
99.4667428963
 10
-9.4448839454
 20
98.9664506832
 10
-8.1435502716
 20
98.5291200827
 10
-6.7819103368
 20
98.1579889376
 10
-5.3700452467
 20
97.8558049731
 10
-3.9184079565
 20
97.6248054535
 10
-2.4377458809
 20
97.4667006184
 10
-0.9390213237
 20
97.3826610208
 10
0.5666696828
 20
97.3733088603
 10
2.0681795291
 20
97.4387133772
 10
3.5543915617
 20
97.5783903393
 10
5.0143023867
 20
97.7913056272
 10
6.4371033351
 20
98.0758828905
 10
7.8122604864
 20
98.4300152189
 10
9.1295926583
 20
98.8510807404
 10
10.3793467842
 20
99.3359620333
 10
11.5522701219
 20
99.8810692061
 10
12.6396787572
 20
100.482366476
 10
13.6335218973
 20
101.1354020485
 10
14.526441475
 20
101.8353410765
 10
15.3118266264
 20
102.5770014564
 10
15.9838626344
 20
103.3548921943
 10
16.5375739797
 20
104.1632540593
 10
16.9688611772
 20
104.9961022229
 10
17.1844953136
 20
105.5551231857
  0
SPLINE
  5
253
330
200
100
AcDbEntity
  8
0
  6
Continuous
 62
     8
370
    25
100
AcDbSpline
210
0.0
220
0.0
230
1.0
 70
     8
 71
     3
 72
    14
 73
    10
 74
     0
 42
0.000000001
 43
0.00000001
 40
0.0
 40
0.0
 40
0.0
 40
0.0
 40
0.0350650326315059
 40
0.2029661107006686
 40
0.3694796358258342
 40
0.533139537334104
 40
0.6939194501359682
 40
0.8509783963475297
 40
1.0
 40
1.0
 40
1.0
 40
1.0
 10
-14.91785382656843
 20
95.71911538331487
 30
0.0
 10
-14.90870696882116
 20
95.75966562435723
 30
0.0
 10
-14.85576242541793
 20
95.99438163899316
 30
0.0
 10
-14.66859220203619
 20
96.29187715938951
 30
0.0
 10
-14.35392760338513
 20
96.58662199363671
 30
0.0
 10
-13.94791532241545
 20
96.71651634021362
 30
0.0
 10
-13.47059025474491
 20
96.69650100071911
 30
0.0
 10
-12.94221719751673
 20
96.54557227801895
 30
0.0
 10
-12.55901293299758
 20
96.34295520790208
 30
0.0
 10
-12.37244206447791
 20
96.2443069248616
 30
0.0
  0
SPLINE
  5
254
330
200
100
AcDbEntity
  8
0
  6
Continuous
 62
     8
370
    25
100
AcDbSpline
210
0.0
220
0.0
230
1.0
 70
     8
 71
     3
 72
    17
 73
    13
 74
     0
 42
0.000000001
 43
0.00000001
 40
0.0
 40
0.0
 40
0.0
 40
0.0
 40
0.043038393197351
 40
0.1206814945132492
 40
0.2260839149098413
 40
0.3594187704696739
 40
0.4855488286059211
 40
0.5926377381801482
 40
0.6805259745012786
 40
0.7894206066895142
 40
0.8959391407932384
 40
1.0
 40
1.0
 40
1.0
 40
1.0
 10
-11.32555056882542
 20
88.55555382331079
 30
0.0
 10
-11.26785480544051
 20
88.54342734530096
 30
0.0
 10
-11.10607341828589
 20
88.50942418252724
 30
0.0
 10
-10.81381910184345
 20
88.53391813137421
 30
0.0
 10
-10.41866867550098
 20
88.60638258824106
 30
0.0
 10
-10.00009235375639
 20
88.79354374393743
 30
0.0
 10
-9.633941635445744
 20
89.07222667942457
 30
0.0
 10
-9.366004372338939
 20
89.38280045013946
 30
0.0
 10
-9.159923812812078
 20
89.72273392472965
 30
0.0
 10
-9.006664633457229
 20
90.10354963566265
 30
0.0
 10
-8.904532650979634
 20
90.54251053285493
 30
0.0
 10
-8.892083560820891
 20
90.85598812132997
 30
0.0
 10
-8.885931662489837
 20
91.01089761501764
 30
0.0
  0
LWPOLYLINE
  5
255
330
200
100
AcDbEntity
  8
0
  6
Continuous
 62
     8
370
    25
100
AcDbPolyline
 90
       12
 70
   128
 43
0.0
 10
-17.6776695297
 20
-8.572019774
 10
-18.9071688989
 20
-7.8090402228
 10
-20.0380950443
 20
-6.9968338202
 10
-21.0645518404
 20
-6.1396350345
 10
-21.9811878169
 20
-5.2419129032
 10
-22.7832240582
 20
-4.3083477338
 10
-23.4664791187
 20
-3.3438067029
 10
-24.0273908229
 20
-2.3533184806
 10
-24.4630348369
 20
-1.3420470141
 10
-24.7711399145
 20
-0.3152646045
 10
-24.9500997385
 20
0.7216755803
 10
-24.9999999998
 20
1.6330176105
  0
LWPOLYLINE
  5
256
330
200
100
AcDbEntity
  8
0
  6
Continuous
 62
     8
370
    25
100
AcDbPolyline
 90
       34
 70
   128
 43
0.0
 10
24.9999999953
 20
1.633361633
 10
24.9745365326
 20
0.9818650103
 10
24.8280352403
 20
-0.0567713619
 10
24.5520920686
 20
-1.0865976231
 10
24.1481456572
 20
-2.102244736
 10
23.6183019959
 20
-3.0984175869
 10
22.9653234441
 20
-4.0699225917
 10
22.1926143296
 20
-5.0116947733
 10
21.3042032
 20
-5.9188241674
 10
20.3047218195
 20
-6.7865814216
 10
19.1993810213
 20
-7.6104424513
 10
17.9939435404
 20
-8.3861120265
 10
16.6946939697
 20
-9.1095461653
 10
15.3084059949
 20
-9.7769732171
 10
13.8423070796
 20
-10.3849135261
 10
12.3040407847
 20
-10.9301975732
 10
10.7016269184
 20
-11.4099824998
 10
9.0434197245
 20
-11.8217669295
 10
7.3380643276
 20
-12.1634040089
 10
5.5944516611
 20
-12.4331126005
 10
3.8216721141
 20
-12.6294865685
 10
2.0289681382
 20
-12.7515021101
 10
0.2256860619
 20
-12.7985230926
 10
-1.578772637
 20
-12.7703043706
 10
-3.3750003463
 20
-12.6669930632
 10
-5.1536323667
 20
-12.4891277879
 10
-6.9053957341
 20
-12.2376358517
 10
-8.6211575657
 20
-11.9138284174
 10
-10.2919726736
 20
-11.5193936667
 10
-11.9091302016
 20
-11.056388
 10
-13.464199039
 20
-10.5272253143
 10
-14.9490717771
 20
-9.9346644189
 10
-16.3560069769
 20
-9.2817946519
 10
-17.6776695297
 20
-8.572019774
  0
LWPOLYLINE
  5
257
330
200
100
AcDbEntity
  8
0
  6
Continuous
 62
     8
370
    25
100
AcDbPolyline
 90
       22
 70
   128
 43
0.0
 10
-16.9705627485
 20
-7.3472749062
 10
-18.1775380357
 20
-6.5969956481
 10
-19.2852339136
 20
-5.7973068991
 10
-20.2876005315
 20
-4.9525762819
 10
-21.1791633105
 20
-4.0674174222
 10
-21.9550528437
 20
-3.1466647507
 10
-22.6110314917
 20
-2.1953470992
 10
-23.1435165266
 20
-1.2186602349
 10
-23.5495996997
 20
-0.2219384827
 10
-23.8270631256
 20
0.7893744089
 10
-23.9743913953
 20
1.8097549994
 10
-23.9907798527
 20
2.833630324
 10
-23.87613899
 20
3.8554083306
 10
-23.6310949356
 20
4.8695084222
 10
-23.2569860353
 20
5.8703919357
 10
-22.7558555422
 20
6.8525923924
 10
-22.1304404571
 20
7.810745354
 10
-21.3841565805
 20
8.7396177213
 10
-20.5210798561
 20
9.6341363156
 10
-19.5459241096
 20
10.4894155864
 10
-18.4640153036
 20
11.300784295
 10
-17.5469098214
 20
11.9020975822
  0
LWPOLYLINE
  5
258
330
200
100
AcDbEntity
  8
0
  6
Continuous
 62
     8
370
    25
100
AcDbPolyline
 90
       44
 70
   128
 43
0.0
 10
17.5424568748
 20
11.9048516134
 10
17.5860606138
 20
11.8778190397
 10
18.7441871272
 20
11.102305407
 10
19.7999393904
 20
10.2795338204
 10
20.7475512507
 20
9.413997973
 10
21.5818471807
 20
8.5104251215
 10
22.2982705454
 20
7.5737502674
 10
22.8929084888
 20
6.609089204
 10
23.3625133047
 20
5.6217105755
 10
23.7045201743
 20
4.6170071016
 10
23.9170611748
 20
3.6004661242
 10
23.9989754809
 20
2.5776396377
 10
23.9498157051
 20
1.5541139656
 10
23.769850341
 20
0.5354792502
 10
23.4600622971
 20
-0.4727010789
 10
23.0221435282
 20
-1.4649206903
 10
22.4584857947
 20
-2.4357604246
 10
21.7721675999
 20
-3.3799178918
 10
20.9669373755
 20
-4.2922364313
 10
20.04719301
 20
-5.1677332755
 10
19.017957828
 20
-6.0016267643
 10
17.8848531552
 20
-6.7893624607
 10
16.6540676165
 20
-7.5266380254
 10
15.3323233356
 20
-8.2094267149
 10
13.9268392215
 20
-8.8339993742
 10
12.445291541
 20
-9.396944804
 10
10.8957719937
 20
-9.8951883916
 10
9.2867435182
 20
-10.3260089033
 10
7.62699407
 20
-10.6870533468
 10
5.9255886249
 20
-10.9763498227
 10
4.1918196696
 20
-11.1923182938
 10
2.4351564489
 20
-11.3337792153
 10
0.6651932481
 20
-11.3999599767
 10
-1.1084030075
 20
-11.3904991216
 10
-2.8759455503
 20
-11.3054483218
 10
-4.6277806758
 20
-11.1452720955
 10
-6.354340468
 20
-10.9108452696
 10
-8.046195056
 20
-10.6034482021
 10
-9.6941041169
 20
-10.2247597892
 10
-11.2890673428
 20
-9.7768482957
 10
-12.8223735975
 20
-9.2621600589
 10
-14.2856484941
 20
-8.6835061274
 10
-15.6709001324
 20
-8.0440469083
 10
-16.9705627485
 20
-7.3472749062
  0
LINE
  5
259
330
200
100
AcDbEntity
  8
0
  6
Continuous
 62
     7
370
    25
100
AcDbLine
 10
17.5
 20
2.6945846792
 30
0.0
 11
17.5
 21
85.6551311668
 31
0.0
  0
LINE
  5
25A
330
200
100
AcDbEntity
  8
0
  6
Continuous
 62
     7
370
    25
100
AcDbLine
 10
-17.5
 20
84.9911200378
 30
0.0
 11
-17.5
 21
67.219398078
 31
0.0
  0
LINE
  5
25B
330
200
100
AcDbEntity
  8
0
  6
Continuous
 62
     7
370
    25
100
AcDbLine
 10
-17.5
 20
43.5486782255
 30
0.0
 11
-17.5
 21
2.6945846792
 31
0.0
  0
LINE
  5
25C
330
200
100
AcDbEntity
  8
0
  6
Continuous
 62
     7
370
    25
100
AcDbLine
 10
-52.3900893589
 20
23.407058365
 30
0.0
 11
-6.1387946662
 21
50.1073624592
 31
0.0
  0
LINE
  5
25D
330
200
100
AcDbEntity
  8
0
  6
Continuous
 62
     7
370
    25
100
AcDbLine
 10
-64.6218122526
 20
16.3458350408
 30
0.0
 11
-60.330340389
 21
18.8232490145
 31
0.0
  0
LINE
  5
25E
330
200
100
AcDbEntity
  8
0
  6
Continuous
 62
     7
370
    25
100
AcDbLine
 10
-16.3879589958
 20
67.8613656851
 30
0.0
 11
-73.1519139622
 21
35.0922319936
 31
0.0
  0
LINE
  5
25F
330
200
100
AcDbEntity
  8
0
  6
Continuous
 62
     7
370
    25
100
AcDbLine
 10
-35.9876507335
 20
74.318426444
 30
0.0
 11
-10.5257037107
 21
89.0172955861
 31
0.0
  0
LINE
  5
260
330
200
100
AcDbEntity
  8
0
  6
Continuous
 62
     7
370
    25
100
AcDbLine
 10
-14.5253763169
 20
95.9456878269
 30
0.0
 11
-39.0497443199
 21
81.7880715321
 31
0.0
  0
LINE
  5
261
330
200
100
AcDbEntity
  8
0
  6
Continuous
 62
     7
370
    25
100
AcDbLine
 10
17.5019266063
 20
90.9399317506
 30
0.0
 11
17.5019266063
 21
107.4705819627
 31
0.0
  0
LINE
  5
262
330
200
100
AcDbEntity
  8
0
  6
Continuous
 62
     7
370
    25
100
AcDbLine
 10
-17.4980733937
 20
107.4705819627
 30
0.0
 11
-17.4980733937
 21
94.2295863327
 31
0.0
  0
LINE
  5
263
330
200
100
AcDbEntity
  8
0
  6
Continuous
 62
     7
370
    25
100
AcDbLine
 10
-53.5091927597
 20
13.4615180917
 30
0.0
 11
-52.5160064009
 21
23.3755821536
 31
0.0
  0
LINE
  5
264
330
200
100
AcDbEntity
  8
0
  6
Continuous
 62
     7
370
    25
100
AcDbLine
 10
-71.2244643949
 20
17.2030630365
 30
0.0
 11
-71.4194539821
 21
15.2566616973
 31
0.0
  0
LINE
  5
265
330
200
100
AcDbEntity
  8
0
  6
Continuous
 62
     7
370
    25
100
AcDbLine
 10
-55.7158249717
 20
10.8570885626
 30
0.0
 11
-55.4563742766
 21
11.0032891378
 31
0.0
  0
LINE
  5
266
330
200
100
AcDbEntity
  8
0
  6
Continuous
 62
     7
370
    25
100
AcDbLine
 10
-70.0121402571
 20
12.4717230934
 30
0.0
 11
-69.7863987524
 21
12.2765747197
 31
0.0
  0
LINE
  5
267
330
200
100
AcDbEntity
  8
0
  6
Continuous
 62
     7
370
    25
100
AcDbLine
 10
-25.0
 20
1.6330816238
 30
0.0
 11
-25.0
 21
-0.8165408119
 31
0.0
  0
LINE
  5
268
330
200
100
AcDbEntity
  8
0
  6
Continuous
 62
     7
370
    25
100
AcDbLine
 10
25.0
 20
-0.8165408119
 30
0.0
 11
25.0
 21
1.6330816238
 31
0.0
  0
LINE
  5
269
330
200
100
AcDbEntity
  8
0
  6
Continuous
 62
     7
370
    25
100
AcDbLine
 10
-73.2327195804
 20
35.0394814298
 30
0.0
 11
-73.1512454778
 21
35.0911160578
 31
0.0
  0
LINE
  5
26A
330
200
100
AcDbEntity
  8
0
  6
Continuous
 62
     7
370
    25
100
AcDbLine
 10
-39.0489891986
 20
81.7868402625
 30
0.0
 11
-39.2151564496
 21
81.6761767174
 31
0.0
  0
LINE
  5
26B
330
200
100
AcDbEntity
  8
0
  6
Continuous
 62
     7
370
    25
100
AcDbLine
 10
-24.9999999998
 20
1.6330176105
 30
0.0
 11
-24.9998974285
 21
1.6744234985
 31
0.0
  0
LINE
  5
26C
330
200
100
AcDbEntity
  8
0
  6
Continuous
 62
     7
370
    25
100
AcDbLine
 10
24.9991852189
 20
1.7495999505
 30
0.0
 11
24.9999999953
 21
1.633361633
 31
0.0
  0
ARC
  5
26D
330
200
100
AcDbEntity
  8
0
  6
Continuous
 62
     7
370
    25
100
AcDbCircle
 10
11.4316296857
 20
85.6370309515
 30
0.0
 40
6.068395785780109
100
AcDbArc
 50
0.1660803668
 51
21.6120072604
  0
ARC
  5
26E
330
200
100
AcDbEntity
  8
0
  6
Continuous
 62
     7
370
    25
100
AcDbCircle
 10
-11.0225775164
 20
2.7895117505
 30
0.0
 40
6.47812348914885
100
AcDbArc
 50
180.8429102655
 51
211.4997304455
  0
ARC
  5
26F
330
200
100
AcDbEntity
  8
0
  6
Continuous
 62
     7
370
    25
100
AcDbCircle
 10
11.029478457
 20
2.7865993975
 30
0.0
 40
6.471175615688915
100
AcDbArc
 50
328.1660728817
 51
359.1853656798
  0
ARC
  5
270
330
200
100
AcDbEntity
  8
0
  6
Continuous
 62
     7
370
    25
100
AcDbCircle
 10
-67.2463996713
 20
34.1337962771
 30
0.0
 40
0.7820003588169931
100
AcDbArc
 50
122.9065983648
 51
171.3086135382
  0
ARC
  5
271
330
200
100
AcDbEntity
  8
0
  6
Continuous
 62
     7
370
    25
100
AcDbCircle
 10
0.0005482629
 20
101.3651035994
 30
0.0
 40
24.29774695991916
100
AcDbArc
 50
247.9667890827
 51
291.9862053133
  0
ARC
  5
272
330
200
100
AcDbEntity
  8
0
  6
Continuous
 62
     7
370
    25
100
AcDbCircle
 10
-34.8817279655
 20
77.440034255
 30
0.0
 40
1.03741591695874
100
AcDbArc
 50
240.9580110165
 51
280.6343413868
  0
ARC
  5
273
330
200
100
AcDbEntity
  8
0
  6
Continuous
 62
     7
370
    25
100
AcDbCircle
 10
-36.4295298682
 20
81.0445368584
 30
0.0
 40
0.7836181873983942
100
AcDbArc
 50
122.9337607147
 51
168.3716970861
  0
ARC
  5
274
330
200
100
AcDbEntity
  8
0
  6
Continuous
 62
     7
370
    25
100
AcDbCircle
 10
-40.2632405297
 20
79.5992051477
 30
0.0
 40
0.2207429020038441
100
AcDbArc
 50
184.3417598653
 51
251.0103483994
  0
ARC
  5
275
330
200
100
AcDbEntity
  8
0
  6
Continuous
 62
     7
370
    25
100
AcDbCircle
 10
-11.5296404012
 20
107.4703902547
 30
0.0
 40
5.966628662162293
100
AcDbArc
 50
161.9161939951
 51
198.4216652162
  0
ARC
  5
276
330
200
100
AcDbEntity
  8
0
  6
Continuous
 62
     7
370
    25
100
AcDbCircle
 10
11.5063998491
 20
107.4705690083
 30
0.0
 40
5.992470342287497
100
AcDbArc
 50
341.3587178188
 51
18.6102528792
  0
ARC
  5
277
330
200
100
AcDbEntity
  8
0
  6
Continuous
 62
     7
370
    25
100
AcDbCircle
 10
3.2050429175
 20
91.4814275289
 30
0.0
 40
14.30694782391487
100
AcDbArc
 50
318.6203324955
 51
357.8507942278
  0
ARC
  5
278
330
200
100
AcDbEntity
  8
0
  6
Continuous
 62
     7
370
    25
100
AcDbCircle
 10
-9.1368786343
 20
90.2684049599
 30
0.0
 40
0.7837590274903891
100
AcDbArc
 50
71.3256194798
 51
117.0607464542
  0
ARC
  5
279
330
200
100
AcDbEntity
  8
0
  6
Continuous
 62
     7
370
    25
100
AcDbCircle
 10
-13.1400501154
 20
96.2792373512
 30
0.0
 40
0.7684024039417551
100
AcDbArc
 50
302.6054783487
 51
357.3945215027
  0
ARC
  5
27A
330
200
100
AcDbEntity
  8
0
  6
Continuous
 62
     7
370
    25
100
AcDbCircle
 10
-61.5334716821
 20
23.6391880203
 30
0.0
 40
14.04366183425348
100
AcDbArc
 50
234.0162131855
 51
294.4767881432
  0
ARC
  5
27B
330
200
100
AcDbEntity
  8
0
  6
Continuous
 62
     8
370
    25
100
AcDbCircle
 10
-8.5957607516
 20
86.7109995698
 30
0.0
 40
9.028215990768574
100
AcDbArc
 50
190.7021583415
 51
245.2579846057
  0
ARC
  5
27C
330
200
100
AcDbEntity
  8
0
  6
Continuous
 62
     8
370
    25
100
AcDbCircle
 10
-8.4430488557
 20
86.9514705701
 30
0.0
 40
8.888048314725106
100
AcDbArc
 50
191.3335695226
 51
245.2633456962
  0
ARC
  5
27D
330
200
100
AcDbEntity
  8
0
  6
Continuous
 62
     8
370
    25
100
AcDbCircle
 10
-70.1747182033
 20
16.8480536201
 30
0.0
 40
0.2867586164254424
100
AcDbArc
 50
164.2562981372
 51
231.8153525875
  0
ARC
  5
27E
330
200
100
AcDbEntity
  8
0
  6
Continuous
 62
     8
370
    25
100
AcDbCircle
 10
-38.2327470079
 20
74.6160512161
 30
0.0
 40
0.3089870796271409
100
AcDbArc
 50
160.1337327254
 51
230.0960894648
  0
VIEWPORT
  5
283
330
200
100
AcDbEntity
  8
0
100
AcDbViewport
 10
0.0
 20
0.0
 30
0.0
 40
205.6
 41
156.0
 68
     1
 69
     1
 12
0.0
 22
65.5577760427
 13
0.0
 23
0.0
 14
10.0
 24
10.0
 15
10.0
 25
10.0
 16
0.0
 26
0.0
 36
1.0
 17
0.0
 27
0.0
 37
0.0
 42
50.0
 43
0.0
 44
0.0
 45
135.7778631271
 50
0.0
 51
0.0
 72
   100
 90
   557152
  1

281
     0
 71
     1
 74
     0
110
0.0
120
0.0
130
0.0
111
1.0
121
0.0
131
0.0
112
0.0
122
1.0
132
0.0
 79
     0
146
0.0
  0
ENDBLK
  5
203
330
200
100
AcDbEntity
  8
0
100
AcDbBlockEnd
  0
ENDSEC
  0
SECTION
  2
ENTITIES
  0
SPLINE
  5
8A
330
1F
100
AcDbEntity
  8
0
  6
Continuous
 62
     7
370
    25
100
AcDbSpline
210
0.0
220
0.0
230
1.0
 70
     8
 71
     3
 72
    26
 73
    22
 74
     0
 42
0.000000001
 43
0.00000001
 40
0.0
 40
0.0
 40
0.0
 40
0.0
 40
0.0625
 40
0.0625
 40
0.1250000000000001
 40
0.1250000000000001
 40
0.25
 40
0.25
 40
0.3749999999999999
 40
0.3749999999999999
 40
0.4999999999999999
 40
0.4999999999999999
 40
0.6249999999999998
 40
0.6249999999999998
 40
0.7499999999999998
 40
0.7499999999999998
 40
0.8749999999999997
 40
0.8749999999999997
 40
0.9374999999999999
 40
0.9374999999999999
 40
1.0
 40
1.0
 40
1.0
 40
1.0
 10
0.0
 20
90.03682408881001
 30
0.0
 10
0.6363982647411445
 20
90.03675857843874
 30
0.0
 10
1.261426726457637
 20
89.9758191842359
 30
0.0
 10
2.500857334170335
 20
89.73131444571025
 30
0.0
 10
3.113818340555094
 20
89.54794013982448
 30
0.0
 10
4.876853633138273
 20
88.82497512571851
 30
0.0
 10
5.957019617646257
 20
88.11027786238819
 30
0.0
 10
7.770185806585503
 20
86.31306247674321
 30
0.0
 10
8.501021273570556
 20
85.23098248731227
 30
0.0
 10
9.491245170636597
 20
82.86107213160685
 30
0.0
 10
9.749955844021947
 20
81.57438137428598
 30
0.0
 10
9.749978478251725
 20
78.99943753681279
 30
0.0
 10
9.491288940319883
 20
77.71273403598389
 30
0.0
 10
8.501098884774592
 20
75.34279726095768
 30
0.0
 10
7.77027632383818
 20
74.26070120841807
 30
0.0
 10
5.957128988467061
 20
72.46345212252741
 30
0.0
 10
4.876955381731102
 20
71.74873304272933
 30
0.0
 10
3.113930006143169
 20
71.02574392377808
 30
0.0
 10
2.500988459349235
 20
70.84236629195334
 30
0.0
 10
1.261536210958513
 20
70.59784375355942
 30
0.0
 10
0.636462423436864
 20
70.53688773362254
 30
0.0
 10
-0.0000000000000068
 20
70.53682408881
 30
0.0
  0
SPLINE
  5
8C
330
1F
100
AcDbEntity
  8
0
  6
Continuous
 62
     7
370
    25
100
AcDbSpline
210
0.0
220
0.0
230
1.0
 70
     8
 71
     3
 72
    38
 73
    34
 74
     0
 42
0.000000001
 43
0.00000001
 40
0.0
 40
0.0
 40
0.0
 40
0.0
 40
0.0101556531244971
 40
0.0203332476533945
 40
0.0305330812189075
 40
0.0407554495106295
 40
0.05100064626691
 40
0.061268963266884
 40
0.0715606903231522
 40
0.0818761152750924
 40
0.0922155239828011
 40
0.1025792003216498
 40
0.1129674261774522
 40
0.123380481442222
 40
0.1840826646314997
 40
0.2476257189273569
 40
0.307327823742143
 40
0.3732990753685157
 40
0.4365784588546783
 40
0.5000045796757268
 40
0.5634306842912329
 40
0.6267100261616936
 40
0.6926798176385841
 40
0.7523833158908669
 40
0.8159247282744682
 40
0.8766282700944604
 40
0.8944622499663937
 40
0.9122240173255265
 40
0.9299149931963829
 40
0.9475366157321364
 40
0.9650903401346099
 40
0.9825776385585845
 40
1.0
 40
1.0
 40
1.0
 40
1.0
 10
-0.0000000000000455
 20
69.95
 30
0.0
 10
0.1096407428812955
 20
69.95101593231271
 30
0.0
 10
0.3291591087194203
 20
69.95304999187151
 30
0.0
 10
0.6584457227276735
 20
69.96952342085139
 30
0.0
 10
0.9877497154982763
 20
69.99588305357868
 30
0.0
 10
1.316723664888358
 20
70.03313410531337
 30
0.0
 10
1.645016855526046
 20
70.08104577907707
 30
0.0
 10
1.972275601071322
 20
70.13970496533561
 30
0.0
 10
2.298143766672883
 20
70.20909841157919
 30
0.0
 10
2.622262583249138
 20
70.28922446531926
 30
0.0
 10
2.944273161939639
 20
70.3800641847972
 30
0.0
 10
3.26380894069595
 20
70.48158380750912
 30
0.0
 10
3.580525880585761
 20
70.59375302563767
 30
0.0
 10
4.398354757762481
 20
70.913916240219
 30
0.0
 10
5.689272358833106
 20
71.5948548114263
 30
0.0
 10
7.233218374726434
 20
72.84718390271883
 30
0.0
 10
8.539238471572673
 20
74.41097014341028
 30
0.0
 10
9.51164547401259
 20
76.19599863342296
 30
0.0
 10
10.11583877422626
 20
78.17243244608623
 30
0.0
 10
10.31715579547382
 20
80.19997391884749
 30
0.0
 10
10.11584880261805
 20
82.22751613649582
 30
0.0
 10
9.511671651072154
 20
84.20393675177024
 30
0.0
 10
8.539274242919525
 20
85.98897324620819
 30
0.0
 10
7.233294507625261
 20
87.55274671841431
 30
0.0
 10
5.689285220933563
 20
88.80512957389428
 30
0.0
 10
4.327415071970732
 20
89.52350854559113
 30
0.0
 10
3.356370752843743
 20
89.89059322811434
 30
0.0
 10
2.808087779951445
 20
90.06342020355406
 30
0.0
 10
2.253028171572148
 20
90.20473589742238
 30
0.0
 10
1.692962329151678
 20
90.31467175869231
 30
0.0
 10
1.129703158008024
 20
90.39244769484293
 30
0.0
 10
0.5650263775988077
 20
90.44101475406717
 30
0.0
 10
0.1881084181474628
 20
90.44700863451531
 30
0.0
 10
-0.0000000008014295
 20
90.44999999999999
 30
0.0
  0
SPLINE
  5
8D
330
1F
100
AcDbEntity
  8
0
  6
Continuous
 62
     7
370
    25
100
AcDbSpline
210
0.0
220
0.0
230
1.0
 70
     8
 71
     3
 72
    26
 73
    22
 74
     0
 42
0.000000001
 43
0.00000001
 40
0.0
 40
0.0
 40
0.0
 40
0.0
 40
0.0624999999999998
 40
0.0624999999999998
 40
0.1249999999999995
 40
0.1249999999999995
 40
0.2499999999999996
 40
0.2499999999999996
 40
0.3749999999999997
 40
0.3749999999999997
 40
0.4999999999999998
 40
0.4999999999999998
 40
0.6249999999999999
 40
0.6249999999999999
 40
0.7499999999999999
 40
0.7499999999999999
 40
0.875
 40
0.875
 40
0.9375
 40
0.9375
 40
1.0
 40
1.0
 40
1.0
 40
1.0
 10
0.0
 20
70.53682408881
 30
0.0
 10
-0.6363982647411447
 20
70.53688959919191
 30
0.0
 10
-1.261426726457637
 20
70.59782899342206
 30
0.0
 10
-2.500857334170335
 20
70.8423337319632
 30
0.0
 10
-3.113818340555094
 20
71.02570803784073
 30
0.0
 10
-4.876853633138273
 20
71.74867305194496
 30
0.0
 10
-5.957019617646258
 20
72.46337031528181
 30
0.0
 10
-7.770185806585508
 20
74.26058570092675
 30
0.0
 10
-8.501021273570558
 20
75.34266569035758
 30
0.0
 10
-9.491245170636597
 20
77.71257604606319
 30
0.0
 10
-9.749955844021947
 20
78.99926680338407
 30
0.0
 10
-9.749978478251725
 20
81.57421064085717
 30
0.0
 10
-9.491288940319881
 20
82.86091414168541
 30
0.0
 10
-8.501098884774594
 20
85.23085091670126
 30
0.0
 10
-7.77027632383818
 20
86.31294696924387
 30
0.0
 10
-5.957128988467058
 20
88.11019605514433
 30
0.0
 10
-4.876955381731103
 20
88.82491513493257
 30
0.0
 10
-3.113930006143169
 20
89.54790425388953
 30
0.0
 10
-2.500988459349237
 20
89.73128188572666
 30
0.0
 10
-1.261536210958514
 20
89.9758044240998
 30
0.0
 10
-0.6364624234368627
 20
90.0367604439975
 30
0.0
 10
0.0
 20
90.03682408881001
 30
0.0
  0
SPLINE
  5
8E
330
1F
100
AcDbEntity
  8
0
  6
Continuous
 62
     7
370
    25
100
AcDbSpline
210
0.0
220
0.0
230
1.0
 70
     8
 71
     3
 72
    38
 73
    34
 74
     0
 42
0.000000001
 43
0.00000001
 40
0.0
 40
0.0
 40
0.0
 40
0.0
 40
0.0098402120655777
 40
0.0196979730135711
 40
0.0295735515792969
 40
0.0394672150461141
 40
0.0493792292343207
 40
0.059309858490542
 40
0.0692593656776116
 40
0.0792280121649376
 40
0.0892160578193521
 40
0.0992237609964404
 40
0.1092513785323438
 40
0.1192991657360316
 40
0.181941272209871
 40
0.2476308806746891
 40
0.3073386691373908
 40
0.3733159749746935
 40
0.4205550791460194
 40
0.4999943645954175
 40
0.575700287179102
 40
0.6430053445658921
 40
0.6998190773929871
 40
0.7523747719158322
 40
0.8174166129254298
 40
0.8794796799430521
 40
0.8968768826917994
 40
0.9142118366946411
 40
0.9314858742931795
 40
0.9487003419747774
 40
0.9658566002541967
 40
0.9829560235420741
 40
1.0
 40
1.0
 40
1.0
 40
1.0
 10
0.0
 20
69.95
 30
0.0
 10
-0.1062249654725281
 20
69.95095358370078
 30
0.0
 10
-0.3188643363825234
 20
69.95286245170882
 30
0.0
 10
-0.6377928768907634
 20
69.9683179124487
 30
0.0
 10
-0.9566603641377592
 20
69.99303623840244
 30
0.0
 10
-1.27515235580854
 20
70.02795074567467
 30
0.0
 10
-1.592952059416465
 20
70.0728362926434
 30
0.0
 10
-1.909740601024684
 20
70.1277662525286
 30
0.0
 10
-2.225197488516068
 20
70.19272097656895
 30
0.0
 10
-2.53900037893452
 20
70.26769249516447
 30
0.0
 10
-2.85082748203989
 20
70.35265754479097
 30
0.0
 10
-3.160350126711629
 20
70.44757981390711
 30
0.0
 10
-3.467262177385631
 20
70.55242746450857
 30
0.0
 10
-4.301224057870671
 20
70.86710206728449
 30
0.0
 10
-5.635273873471539
 20
71.5540747870844
 30
0.0
 10
-7.218543289801479
 20
72.8296154538552
 30
0.0
 10
-8.539227731881788
 20
74.41083165857833
 30
0.0
 10
-9.429201574458892
 20
76.0451248709227
 30
0.0
 10
-10.08089845757667
 20
77.99899356493712
 30
0.0
 10
-10.35087468961722
 20
80.16067988405754
 30
0.0
 10
-10.06870765318919
 20
82.53379087603324
 30
0.0
 10
-9.349877233212307
 20
84.5559360537951
 30
0.0
 10
-8.381258719444093
 20
86.18752947022986
 30
0.0
 10
-7.162902521589384
 20
87.61356844100513
 30
0.0
 10
-5.651472847467573
 20
88.83372275980543
 30
0.0
 10
-4.260983766722177
 20
89.55497665616078
 30
0.0
 10
-3.281937532245669
 20
89.91578132155819
 30
0.0
 10
-2.745700209223624
 20
90.0807066134847
 30
0.0
 10
-2.202996039781112
 20
90.2156211696656
 30
0.0
 10
-1.65546273325765
 20
90.32062979033665
 30
0.0
 10
-1.104784200078807
 20
90.39496092922147
 30
0.0
 10
-0.5526127058831177
 20
90.44140429246744
 30
0.0
 10
-0.1840047029991736
 20
90.44713786781645
 30
0.0
 10
-0.0000000001830975
 20
90.44999999999997
 30
0.0
  0
SPLINE
  5
8F
330
1F
100
AcDbEntity
  8
0
  6
Continuous
 62
     7
370
    25
100
AcDbSpline
210
0.0
220
0.0
230
1.0
 70
     8
 71
     3
 72
    29
 73
    25
 74
     0
 42
0.000000001
 43
0.00000001
 40
0.0
 40
0.0
 40
0.0
 40
0.0
 40
0.0321277117017779
 40
0.0647242982929562
 40
0.0977881177540416
 40
0.1313173927633767
 40
0.1653119325051765
 40
0.1997718057357422
 40
0.2346953769636869
 40
0.2700802544923435
 40
0.3059266075272084
 40
0.3422347099075389
 40
0.379002362252406
 40
0.4162269930336731
 40
0.4539102733316811
 40
0.4920524319034694
 40
0.6084135861546204
 40
0.7435517417175768
 40
0.7611920848013934
 40
0.7888798347041409
 40
0.8266090478278308
 40
0.8743750440639713
 40
0.9321730634694292
 40
0.9999999999999999
 40
0.9999999999999999
 40
0.9999999999999999
 40
0.9999999999999999
 10
0.0000000001816904
 20
118.1155564616582
 30
0.0
 10
-0.068174609217716
 20
118.1165716329095
 30
0.0
 10
-0.2055187747696242
 20
118.1186167909185
 30
0.0
 10
-0.4124485372124905
 20
118.1352067248682
 30
0.0
 10
-0.6211583714579668
 20
118.1621528145168
 30
0.0
 10
-0.8309648977520809
 20
118.200859194252
 30
0.0
 10
-1.041141330471424
 20
118.2514068593816
 30
0.0
 10
-1.25094297210355
 20
118.3140930402746
 30
0.0
 10
-1.459574344175406
 20
118.3891288181426
 30
0.0
 10
-1.66617716257392
 20
118.4767579080641
 30
0.0
 10
-1.869887190402
 20
118.5770947565243
 30
0.0
 10
-2.069843064490326
 20
118.6901533315543
 30
0.0
 10
-2.265131002547676
 20
118.8159428268491
 30
0.0
 10
-2.454777756289548
 20
118.9544513472877
 30
0.0
 10
-2.637885355664076
 20
119.1055177261626
 30
0.0
 10
-2.932846903110312
 20
119.3798878106594
 30
0.0
 10
-3.324783122498389
 20
119.8451898248963
 30
0.0
 10
-3.596565193330933
 20
120.3394132273685
 30
0.0
 10
-3.736833955415902
 20
120.6863034326468
 30
0.0
 10
-3.795707760073075
 20
120.8480939099156
 30
0.0
 10
-3.864643975737854
 20
121.072220351764
 30
0.0
 10
-3.932386747635249
 20
121.3609575734051
 30
0.0
 10
-3.988015969747703
 20
121.7157519325624
 30
0.0
 10
-3.995788638434038
 20
121.9753753038817
 30
0.0
 10
-3.999985227413776
 20
122.1155501425284
 30
0.0
  0
SPLINE
  5
91
330
1F
100
AcDbEntity
  8
0
  6
Continuous
 62
     7
370
    25
100
AcDbSpline
210
0.0
220
0.0
230
1.0
 70
     8
 71
     3
 72
    16
 73
    12
 74
     0
 42
0.000000001
 43
0.00000001
 40
0.0
 40
0.0
 40
0.0
 40
0.0
 40
0.125
 40
0.25
 40
0.25
 40
0.5
 40
0.5
 40
0.75
 40
0.75
 40
0.875
 40
1.0
 40
1.0
 40
1.0
 40
1.0
 10
-3.499986021567
 20
122.244959874
 30
0.0
 10
-3.499984399059999
 20
122.0086913636
 30
0.0
 10
-3.453207609085001
 20
121.5477200008
 30
0.0
 10
-3.315947951426332
 20
121.1016167496
 30
0.0
 10
-3.047395406350833
 20
120.46218904515
 30
0.0
 10
-2.784306908117167
 20
120.0756727241166
 30
0.0
 10
-2.134883111864501
 20
119.4341536627167
 30
0.0
 10
-1.749166713966633
 20
119.17983632085
 30
0.0
 10
-1.121902861575734
 20
118.9219568233
 30
0.0
 10
-0.6874391197731999
 20
118.7908270047
 30
0.0
 10
-0.2331606244392
 20
118.7449797227
 30
0.0
 10
0.0
 20
118.744961608
 30
0.0
  0
LWPOLYLINE
  5
92
330
1F
100
AcDbEntity
  8
0
  6
Continuous
 62
     7
370
    25
100
AcDbPolyline
 90
        9
 70
   128
 43
0.0
 10
-0.0000000824
 20
118.1155556597
 10
-0.0000000936
 20
118.1286172553
 10
-0.0000000874
 20
118.1671191975
 10
-0.0000000641
 20
118.2290499324
 10
-0.0000000251
 20
118.3111738573
 10
0.0000000277
 20
118.4092003654
 10
0.0000000915
 20
118.5180080116
 10
0.000000163
 20
118.6319120847
 10
0.0000002384
 20
118.744961608
  0
SPLINE
  5
93
330
1F
100
AcDbEntity
  8
0
  6
Continuous
 62
     7
370
    25
100
AcDbSpline
210
0.0
220
0.0
230
1.0
 70
     8
 71
     3
 72
    16
 73
    12
 74
     0
 42
0.000000001
 43
0.00000001
 40
0.0
 40
0.0
 40
0.0
 40
0.0
 40
0.125
 40
0.25
 40
0.25
 40
0.5
 40
0.5
 40
0.75
 40
0.75
 40
0.875
 40
1.0
 40
1.0
 40
1.0
 40
1.0
 10
3.499986021567
 20
122.244959874
 30
0.0
 10
3.499984399059999
 20
122.0086913636
 30
0.0
 10
3.453207609085001
 20
121.5477200008
 30
0.0
 10
3.315947951426332
 20
121.1016167496
 30
0.0
 10
3.047395406350833
 20
120.46218904515
 30
0.0
 10
2.784306908117167
 20
120.0756727241166
 30
0.0
 10
2.134883111864501
 20
119.4341536627167
 30
0.0
 10
1.749166713966633
 20
119.17983632085
 30
0.0
 10
1.121902861575734
 20
118.9219568233
 30
0.0
 10
0.6874391197731999
 20
118.7908270047
 30
0.0
 10
0.2331606244392
 20
118.7449797227
 30
0.0
 10
0.0
 20
118.744961608
 30
0.0
  0
SPLINE
  5
95
330
1F
100
AcDbEntity
  8
0
  6
Continuous
 62
     7
370
    25
100
AcDbSpline
210
0.0
220
0.0
230
1.0
 70
     8
 71
     3
 72
    23
 73
    19
 74
     0
 42
0.000000001
 43
0.00000001
 40
0.0
 40
0.0
 40
0.0
 40
0.0
 40
0.0303350050491448
 40
0.060765245493744
 40
0.0912946165394364
 40
0.1219269755736709
 40
0.1526661412108292
 40
0.1835158924015039
 40
0.2144799676058025
 40
0.2455620640303132
 40
0.3658360403984964
 40
0.4918874178355337
 40
0.6113003764699749
 40
0.7434894732634203
 40
0.8039203509204705
 40
0.871322838776071
 40
0.9250003892069816
 40
1.0
 40
1.0
 40
1.0
 40
1.0
 10
-0.0000000000000178
 20
118.1155520854
 30
0.0
 10
0.0643444613112529
 20
118.116448898276
 30
0.0
 10
0.1932353905004113
 20
118.1182453395322
 30
0.0
 10
0.3864064492964371
 20
118.1327976188842
 30
0.0
 10
0.5792482693838532
 20
118.1560919240205
 30
0.0
 10
0.7712958842186017
 20
118.1890105519344
 30
0.0
 10
0.9620806778502264
 20
118.2313300185919
 30
0.0
 10
1.151125328856575
 20
118.2830917029625
 30
0.0
 10
1.337968198292507
 20
118.3442471072145
 30
0.0
 10
1.69793429587557
 20
118.4819888764251
 30
0.0
 10
2.218791741263606
 20
118.7568643173723
 30
0.0
 10
2.819189832587345
 20
119.2429886942967
 30
0.0
 10
3.328341340964387
 20
119.8504707846074
 30
0.0
 10
3.641761223319779
 20
120.4236285792175
 30
0.0
 10
3.827245131691497
 20
120.9299088006594
 30
0.0
 10
3.920313494220587
 20
121.2942214924287
 30
0.0
 10
3.986174155397965
 20
121.6946859828799
 30
0.0
 10
3.994908928721574
 20
121.9605759259691
 30
0.0
 10
3.999999999999532
 20
122.1155501424952
 30
0.0
  0
SPLINE
  5
96
330
1F
100
AcDbEntity
  8
0
  6
Continuous
 62
     7
370
    25
100
AcDbSpline
210
0.0
220
0.0
230
1.0
 70
     8
 71
     3
 72
    16
 73
    12
 74
     0
 42
0.000000001
 43
0.00000001
 40
0.0
 40
0.0
 40
0.0
 40
0.0
 40
0.125
 40
0.25
 40
0.25
 40
0.5
 40
0.5
 40
0.75
 40
0.75
 40
0.875
 40
1.0
 40
1.0
 40
1.0
 40
1.0
 10
0.0
 20
125.744961608
 30
0.0
 10
-0.2275552937112999
 20
125.7449403923
 30
0.0
 10
-0.6739637431315999
 20
125.701472805
 30
0.0
 10
-1.110017046331867
 20
125.5719647790666
 30
0.0
 10
-1.740472623617566
 20
125.3153772370667
 30
0.0
 10
-2.129341459843666
 20
125.0604367665333
 30
0.0
 10
-2.783606383953001
 20
124.4157467068
 30
0.0
 10
-3.048202569204499
 20
124.0266666560667
 30
0.0
 10
-3.316977550100001
 20
123.3854289350667
 30
0.0
 10
-3.453822245658
 20
122.9387871894
 30
0.0
 10
-3.499984184281
 20
122.4797421152
 30
0.0
 10
-3.499986021567
 20
122.244959874
 30
0.0
  0
SPLINE
  5
97
330
1F
100
AcDbEntity
  8
0
  6
Continuous
 62
     7
370
    25
100
AcDbSpline
210
0.0
220
0.0
230
1.0
 70
     8
 71
     3
 72
    16
 73
    12
 74
     0
 42
0.000000001
 43
0.00000001
 40
0.0
 40
0.0
 40
0.0
 40
0.0
 40
0.125
 40
0.25
 40
0.25
 40
0.5
 40
0.5
 40
0.75
 40
0.75
 40
0.875
 40
1.0
 40
1.0
 40
1.0
 40
1.0
 10
0.0
 20
125.744961608
 30
0.0
 10
0.2275552937112
 20
125.7449403923
 30
0.0
 10
0.6739637431316001
 20
125.701472805
 30
0.0
 10
1.110017046331867
 20
125.5719647790666
 30
0.0
 10
1.740472623617566
 20
125.3153772370667
 30
0.0
 10
2.129341459843666
 20
125.0604367665333
 30
0.0
 10
2.783606383953001
 20
124.4157467068
 30
0.0
 10
3.048202569204499
 20
124.0266666560667
 30
0.0
 10
3.316977550100001
 20
123.3854289350667
 30
0.0
 10
3.453822245658
 20
122.9387871894
 30
0.0
 10
3.499984184281
 20
122.4797421152
 30
0.0
 10
3.499986021567
 20
122.244959874
 30
0.0
  0
LWPOLYLINE
  5
98
330
1F
100
AcDbEntity
  8
0
  6
Continuous
 62
     7
370
    25
100
AcDbPolyline
 90
        9
 70
   128
 43
0.0
 10
0.0000002421
 20
125.744961608
 10
0.0000001741
 20
125.8219043916
 10
0.000000108
 20
125.8933347011
 10
0.0000000454
 20
125.957344432
 10
-0.0000000119
 20
126.0122237044
 10
-0.0000000624
 20
126.0565065385
 10
-0.0000001048
 20
126.0890100153
 10
-0.000000138
 20
126.1088658755
 10
-0.0000001609
 20
126.1155437132
  0
SPLINE
  5
99
330
1F
100
AcDbEntity
  8
0
  6
Continuous
 62
     7
370
    25
100
AcDbSpline
210
0.0
220
0.0
230
1.0
 70
     8
 71
     3
 72
    22
 73
    18
 74
     0
 42
0.000000001
 43
0.00000001
 40
0.0
 40
0.0
 40
0.0
 40
0.0
 40
0.032438430206637
 40
0.0614766424435049
 40
0.0871144571830549
 40
0.1093517221561463
 40
0.1281883159620983
 40
0.1956344984657547
 40
0.2560954387767541
 40
0.3889629770382608
 40
0.5089525986649971
 40
0.63571163154019
 40
0.756604747653709
 40
0.8181086178869457
 40
0.8791561418556336
 40
0.9397766259205383
 40
1.0
 40
1.0
 40
1.0
 40
1.0
 10
3.999999999999532
 20
122.1155501424952
 30
0.0
 10
3.999036665409609
 20
122.1825388878693
 30
0.0
 10
3.997210973606373
 20
122.3094945734826
 30
0.0
 10
3.983643212890742
 20
122.4889876745008
 30
0.0
 10
3.965505779905131
 20
122.6468424847029
 30
0.0
 10
3.944586116859881
 20
122.7831009411475
 30
0.0
 10
3.903564548882314
 20
123.0035896725563
 30
0.0
 10
3.828049236625323
 20
123.2982158899068
 30
0.0
 10
3.642630719755621
 20
123.8060530258151
 30
0.0
 10
3.327923609075855
 20
124.3816738576729
 30
0.0
 10
2.815686855001154
 20
124.9919212098833
 30
0.0
 10
2.211184277785638
 20
125.4795995660257
 30
0.0
 10
1.629961376958354
 20
125.7841484715937
 30
0.0
 10
1.14365624690707
 20
125.9552755257298
 30
0.0
 10
0.766331198574911
 20
126.0473715096497
 30
0.0
 10
0.384167629271547
 20
126.1049081475365
 30
0.0
 10
0.1277750289916715
 20
126.1120118874097
 30
0.0
 10
0.0000000000000084
 20
126.1155520854
 30
0.0
  0
SPLINE
  5
9A
330
1F
100
AcDbEntity
  8
0
  6
Continuous
 62
     7
370
    25
100
AcDbSpline
210
0.0
220
0.0
230
1.0
 70
     8
 71
     3
 72
    34
 73
    30
 74
     0
 42
0.000000001
 43
0.00000001
 40
0.0
 40
0.0
 40
0.0
 40
0.0
 40
0.0328761685405068
 40
0.065074148954437
 40
0.0965949361576533
 40
0.1274391059843244
 40
0.1576067314024273
 40
0.1870980673643058
 40
0.2159138427072272
 40
0.2440548650544065
 40
0.2715206609449578
 40
0.2983107089431882
 40
0.3244249110626591
 40
0.3498636884599609
 40
0.3746276869236891
 40
0.3987162673342419
 40
0.4221285347180851
 40
0.4448639522592946
 40
0.4669223680461014
 40
0.4883040046432384
 40
0.5090091771949953
 40
0.5736267459065849
 40
0.6373231204680555
 40
0.7001010918572506
 40
0.7619511736919329
 40
0.822873256959358
 40
0.8828583281831853
 40
0.9419018974189167
 40
0.9999999999999999
 40
0.9999999999999999
 40
0.9999999999999999
 40
0.9999999999999999
 10
-3.99998508048734
 20
122.1155501424674
 30
0.0
 10
-3.998988033098757
 20
122.1834900860123
 30
0.0
 10
-3.997014505976846
 20
122.3179684696704
 30
0.0
 10
-3.981314679310827
 20
122.5170930917785
 30
0.0
 10
-3.957019632113612
 20
122.711102126119
 30
0.0
 10
-3.923897897749593
 20
122.8996321784693
 30
0.0
 10
-3.882856471579126
 20
123.0823770005278
 30
0.0
 10
-3.834480564440687
 20
123.2590790714882
 30
0.0
 10
-3.779411149837998
 20
123.4295270372421
 30
0.0
 10
-3.718255353790051
 20
123.5935500172226
 30
0.0
 10
-3.651653354463518
 20
123.7510314563446
 30
0.0
 10
-3.580213121424099
 20
123.9018897084666
 30
0.0
 10
-3.504516865061263
 20
124.0460786068052
 30
0.0
 10
-3.425120965667616
 20
124.1835852132534
 30
0.0
 10
-3.342556995032014
 20
124.3144222849459
 30
0.0
 10
-3.257367785381538
 20
124.4386470886094
 30
0.0
 10
-3.170069832437848
 20
124.5563400059646
 30
0.0
 10
-3.081149615111416
 20
124.6676028576634
 30
0.0
 10
-2.99106647649086
 20
124.7725568103799
 30
0.0
 10
-2.900248982685429
 20
124.8713451232884
 30
0.0
 10
-2.743695378714846
 20
125.0307019194964
 30
0.0
 10
-2.509822231187452
 20
125.2388768203346
 30
0.0
 10
-2.183774193732083
 20
125.4747978729447
 30
0.0
 10
-1.839947459664622
 20
125.674525648735
 30
0.0
 10
-1.482736202445033
 20
125.837395904559
 30
0.0
 10
-1.116254334334095
 20
125.9631173561553
 30
0.0
 10
-0.7447319215878766
 20
126.0512932914375
 30
0.0
 10
-0.3720621762307467
 20
126.1055566211205
 30
0.0
 10
-0.1233515992334254
 20
126.1122313849889
 30
0.0
 10
0.0000000005114287
 20
126.1155418304514
 30
0.0
  0
SPLINE
  5
9B
330
1F
100
AcDbEntity
  8
0
  6
Continuous
 62
     7
370
    25
100
AcDbSpline
210
0.0
220
0.0
230
1.0
 70
     8
 71
     3
 72
    23
 73
    19
 74
     0
 42
0.000000001
 43
0.00000001
 40
0.0
 40
0.0
 40
0.0
 40
0.0
 40
0.0317157107831201
 40
0.0633247872634022
 40
0.0949047502574455
 40
0.1265333345924625
 40
0.1898626298277241
 40
0.2531790233479613
 40
0.3166979731221733
 40
0.3803353585493874
 40
0.507463405542143
 40
0.6336768955617326
 40
0.6960044752557781
 40
0.7580312206771541
 40
0.8192052969504724
 40
0.8802690880620712
 40
0.9400379547424665
 40
1.0
 40
1.0
 40
1.0
 40
1.0
 10
-4.374996908137041
 20
122.1156677222
 30
0.0
 10
-4.37399077608131
 20
122.0417267003293
 30
0.0
 10
-4.371981894778803
 20
121.8940932604855
 30
0.0
 10
-4.355579539488613
 20
121.6733722001118
 30
0.0
 10
-4.329357514197827
 20
121.4539279088307
 30
0.0
 10
-4.280011201671518
 20
121.1632728271775
 30
0.0
 10
-4.192625800270585
 20
120.8048262352428
 30
0.0
 10
-4.046958069791766
 20
120.3869213466572
 30
0.0
 10
-3.861760541362894
 20
119.9848531392847
 30
0.0
 10
-3.563647670490537
 20
119.4758043628511
 30
0.0
 10
-3.10172742614623
 20
118.8999317947406
 30
0.0
 10
-2.537237139194836
 20
118.4286691981409
 30
0.0
 10
-2.040482067636858
 20
118.1265095455679
 30
0.0
 10
-1.651293425832432
 20
117.940716348373
 30
0.0
 10
-1.247787814415161
 20
117.7950404454071
 30
0.0
 10
-0.8363599772400384
 20
117.6919537904392
 30
0.0
 10
-0.4190775075853928
 20
117.6273173807939
 30
0.0
 10
-0.139842678691666
 20
117.6194780666175
 30
0.0
 10
0.0000000000000777
 20
117.6155520854
 30
0.0
  0
LWPOLYLINE
  5
9C
330
1F
100
AcDbEntity
  8
0
  6
Continuous
 62
     7
370
    25
100
AcDbPolyline
 90
        9
 70
   128
 43
0.0
 10
-4.3750029941
 20
122.1156676642
 10
-4.2972857709
 20
122.115665541
 10
-4.2250588267
 20
122.115663481
 10
-4.1602786498
 20
122.1156615399
 10
-4.1047000096
 20
122.1156597704
 10
-4.0598284241
 20
122.1156582203
 10
-4.0268793777
 20
122.1156569317
 10
-4.0067453963
 20
122.1156559395
 10
-3.9999718705
 20
122.1156552705
  0
LWPOLYLINE
  5
9D
330
1F
100
AcDbEntity
  8
0
  6
Continuous
 62
     7
370
    25
100
AcDbPolyline
 90
        9
 70
   128
 43
0.0
 10
0.0000001425
 20
117.6155520854
 10
0.0000002453
 20
117.7130982306
 10
0.0000003253
 20
117.8068958375
 10
0.0000003793
 20
117.8933402424
 10
0.0000004053
 20
117.9691093666
 10
0.0000004023
 20
118.0312913854
 10
0.0000003703
 20
118.0774966292
 10
0.0000003107
 20
118.1059494198
 10
0.0000002257
 20
118.1155563099
  0
LWPOLYLINE
  5
9E
330
1F
100
AcDbEntity
  8
0
  6
Continuous
 62
     7
370
    25
100
AcDbPolyline
 90
        9
 70
   128
 43
0.0
 10
4.3750029941
 20
122.1156676642
 10
4.2972857709
 20
122.115665541
 10
4.2250588267
 20
122.115663481
 10
4.1602786498
 20
122.1156615399
 10
4.1047000096
 20
122.1156597704
 10
4.0598284241
 20
122.1156582203
 10
4.0268793777
 20
122.1156569317
 10
4.0067453963
 20
122.1156559395
 10
3.9999718705
 20
122.1156552705
  0
SPLINE
  5
9F
330
1F
100
AcDbEntity
  8
0
  6
Continuous
 62
     7
370
    25
100
AcDbSpline
210
0.0
220
0.0
230
1.0
 70
     8
 71
     3
 72
    24
 73
    20
 74
     0
 42
0.000000001
 43
0.00000001
 40
0.0
 40
0.0
 40
0.0
 40
0.0
 40
0.0307072665887862
 40
0.0616929066302979
 40
0.0929536244908715
 40
0.124488300581214
 40
0.1562943315675983
 40
0.1883670599624596
 40
0.2207008193900562
 40
0.2532947376062919
 40
0.3633938061084012
 40
0.5074908054771149
 40
0.6574635124633103
 40
0.7579269134018781
 40
0.8098298824219786
 40
0.8599762261527802
 40
0.90837968751134
 40
0.9550521621073803
 40
1.0
 40
1.0
 40
1.0
 40
1.0
 10
4.375005147251155
 20
122.1156677219932
 30
0.0
 10
4.374052531627413
 20
122.0441007265902
 30
0.0
 10
4.372138664544511
 20
121.9003179528141
 30
0.0
 10
4.356494153108034
 20
121.6841732554836
 30
0.0
 10
4.331137901495391
 20
121.4671308297088
 30
0.0
 10
4.29500557029087
 20
121.2497513194954
 30
0.0
 10
4.248208465068158
 20
121.0326104376647
 30
0.0
 10
4.190543777524773
 20
120.816319109964
 30
0.0
 10
4.121853207198666
 20
120.6015069805576
 30
0.0
 10
3.979128695592721
 20
120.2208371561241
 30
0.0
 10
3.678431074088501
 20
119.6241275876941
 30
0.0
 10
3.097956097716879
 20
118.8817118039128
 30
0.0
 10
2.379812193140568
 20
118.3046482195258
 30
0.0
 10
1.754618095506753
 20
117.980760038325
 30
0.0
 10
1.312698108963293
 20
117.8179514274087
 30
0.0
 10
0.9751324408493158
 20
117.7241429735769
 30
0.0
 10
0.6427940594829888
 20
117.6605142396295
 30
0.0
 10
0.3183319206751114
 20
117.6224498575904
 30
0.0
 10
0.1047706329741596
 20
117.6178223068561
 30
0.0
 10
-0.00000000007634
 20
117.6155520853889
 30
0.0
  0
SPLINE
  5
A0
330
1F
100
AcDbEntity
  8
0
  6
Continuous
 62
     7
370
    25
100
AcDbSpline
210
0.0
220
0.0
230
1.0
 70
     8
 71
     3
 72
    24
 73
    20
 74
     0
 42
0.000000001
 43
0.00000001
 40
0.0
 40
0.0
 40
0.0
 40
0.0
 40
0.0288441932144558
 40
0.0575378292691394
 40
0.0861452252619291
 40
0.1147312804047845
 40
0.1751408192888188
 40
0.2356200228663619
 40
0.2972668591230593
 40
0.3593767157687769
 40
0.4851904255387739
 40
0.6131978612625336
 40
0.6778763330125921
 40
0.7424331289005619
 40
0.8069632841176387
 40
0.8715416977753627
 40
0.9143149913245123
 40
0.9570700908016759
 40
1.0
 40
1.0
 40
1.0
 40
1.0
 10
0.0000000000000777
 20
126.6155520854
 30
0.0
 10
-0.0672454750349298
 20
126.6146508268194
 30
0.0
 10
-0.201385425940103
 20
126.6128530139302
 30
0.0
 10
-0.4017489662844712
 20
126.5981931352879
 30
0.0
 10
-0.6005734570380274
 20
126.5747743540047
 30
0.0
 10
-0.8708192153732324
 20
126.5294157827903
 30
0.0
 10
-1.209488398963586
 20
126.4471182094379
 30
0.0
 10
-1.61068430222889
 20
126.3070672595223
 30
0.0
 10
-1.999173864762669
 20
126.1266338620083
 30
0.0
 10
-2.497257125254299
 20
125.8310501364826
 30
0.0
 10
-3.067572807259862
 20
125.3658523280012
 30
0.0
 10
-3.537915698390858
 20
124.7922130701433
 30
0.0
 10
-3.84422230944674
 20
124.2801011130154
 30
0.0
 10
-4.035687526204375
 20
123.8725396254189
 30
0.0
 10
-4.186416090043087
 20
123.4478102204435
 30
0.0
 10
-4.283030563131601
 20
123.0589528036747
 30
0.0
 10
-4.339369654396086
 20
122.7137198503505
 30
0.0
 10
-4.369456733395996
 20
122.4155372494294
 30
0.0
 10
-4.373147673207628
 20
122.2157600893073
 30
0.0
 10
-4.374996908137041
 20
122.1156677222
 30
0.0
  0
SPLINE
  5
A2
330
1F
100
AcDbEntity
  8
0
  6
Continuous
 62
     7
370
    25
100
AcDbSpline
210
0.0
220
0.0
230
1.0
 70
     8
 71
     3
 72
    23
 73
    19
 74
     0
 42
0.000000001
 43
0.00000001
 40
0.0
 40
0.0
 40
0.0
 40
0.0
 40
0.0274795713170361
 40
0.0543866421820308
 40
0.0807223619978663
 40
0.1064874367120171
 40
0.1316823889966954
 40
0.1860710578893349
 40
0.2357172056661318
 40
0.3370452656419247
 40
0.4851758211810139
 40
0.6299311653397609
 40
0.7423350544679744
 40
0.7951749779914437
 40
0.8473777203870274
 40
0.8989254725959406
 40
0.9498023001802118
 40
0.9999999999999999
 40
0.9999999999999999
 40
0.9999999999999999
 40
0.9999999999999999
 10
0.0000000000000069
 20
126.6155520854001
 30
0.0
 10
0.064040735018928
 20
126.6147198947514
 30
0.0
 10
0.1907880012104144
 20
126.6130728510431
 30
0.0
 10
0.3785094920573059
 20
126.599976532886
 30
0.0
 10
0.5614817311567665
 20
126.5797187310815
 30
0.0
 10
0.7394145588138045
 20
126.5520899652841
 30
0.0
 10
0.979977117980149
 20
126.5041955581954
 30
0.0
 10
1.270804645175433
 20
126.4264660807559
 30
0.0
 10
1.720392008216317
 20
126.2654554561839
 30
0.0
 10
2.342153060839103
 20
125.9509721152837
 30
0.0
 10
3.065267516181869
 20
125.3817124057907
 30
0.0
 10
3.655442321217032
 20
124.6436420376716
 30
0.0
 10
3.986019179432518
 20
124.0015382658135
 30
0.0
 10
4.159327953408101
 20
123.5267489296743
 30
0.0
 10
4.256777788137692
 20
123.1754699375198
 30
0.0
 10
4.325115218239217
 20
122.8218112549947
 30
0.0
 10
4.367310466824854
 20
122.4682653535058
 30
0.0
 10
4.372451749773976
 20
122.2326726106335
 30
0.0
 10
4.375005118904626
 20
122.1156677223578
 30
0.0
  0
SPLINE
  5
A3
330
1F
100
AcDbEntity
  8
0
  6
Continuous
 62
     7
370
    25
100
AcDbSpline
210
0.0
220
0.0
230
1.0
 70
     8
 71
     3
 72
    10
 73
     6
 74
     0
 42
0.000000001
 43
0.00000001
 40
0.0
 40
0.0
 40
0.0
 40
0.0
 40
0.0169237321093718
 40
0.5074526033201233
 40
1.0
 40
1.0
 40
1.0
 40
1.0
 10
-17.49859210990334
 20
107.3286440213626
 30
0.0
 10
-17.49905856114759
 20
107.3256986033018
 30
0.0
 10
-17.51304495000577
 20
107.2373812006647
 30
0.0
 10
-17.46675354420751
 20
107.1513252702292
 30
0.0
 10
-17.36834625893515
 20
107.1274927918834
 30
0.0
 10
-17.3190415877124
 20
107.1155520854
 30
0.0
  0
SPLINE
  5
A4
330
1F
100
AcDbEntity
  8
0
  6
Continuous
 62
     7
370
    25
100
AcDbSpline
210
0.0
220
0.0
230
1.0
 70
     8
 71
     3
 72
    10
 73
     6
 74
     0
 42
0.000000001
 43
0.00000001
 40
0.0
 40
0.0
 40
0.0
 40
0.0
 40
0.4925473968431722
 40
0.983076268109509
 40
1.0
 40
1.0
 40
1.0
 40
1.0
 10
17.3190415877124
 20
107.1155520854
 30
0.0
 10
17.36834625894727
 20
107.1274927918851
 30
0.0
 10
17.4667535442331
 20
107.1513252702318
 30
0.0
 10
17.51304495001919
 20
107.2373812006167
 30
0.0
 10
17.4990585611595
 20
107.3256986032295
 30
0.0
 10
17.49859210992109
 20
107.3286440212523
 30
0.0
  0
LWPOLYLINE
  5
AC
330
1F
100
AcDbEntity
  8
0
  6
Continuous
 62
     7
370
    25
100
AcDbPolyline
 90
       31
 70
   128
 43
0.0
 10
-8.9294783895
 20
61.6100001139
 10
-8.9343798669
 20
61.6148300737
 10
-9.0
 20
61.7470376084
 10
-8.9343798669
 20
61.8792451431
 10
-8.7384763568
 20
62.0095247943
 10
-8.4151461842
 20
62.1359767912
 10
-7.9691042309
 20
62.256757179
 10
-7.406854793
 20
62.3701047077
 10
-6.7365967335
 20
62.474366515
 10
-5.9681039242
 20
62.5680222291
 10
-5.1125827206
 20
62.6497061387
 10
-4.1825085484
 20
62.7182271086
 10
-3.1914439834
 20
62.7725859485
 10
-2.1538409786
 20
62.8119899844
 10
-1.0848301223
 20
62.8358646165
 10
0.0
 20
62.8438616991
 10
1.0848301223
 20
62.8358646165
 10
2.1538409786
 20
62.8119899844
 10
3.1914439834
 20
62.7725859485
 10
4.1825085484
 20
62.7182271086
 10
5.1125827206
 20
62.6497061387
 10
5.9681039242
 20
62.5680222291
 10
6.7365967335
 20
62.474366515
 10
7.406854793
 20
62.3701047077
 10
7.9691042309
 20
62.256757179
 10
8.4151461842
 20
62.1359767912
 10
8.7384763568
 20
62.0095247943
 10
8.9343798669
 20
61.8792451431
 10
9.0
 20
61.7470376084
 10
8.9343798669
 20
61.6148300737
 10
8.9293989823
 20
61.6099232873
  0
LWPOLYLINE
  5
AD
330
1F
100
AcDbEntity
  8
0
  6
Continuous
 62
     7
370
    25
100
AcDbPolyline
 90
       52
 70
   128
 43
0.0
 10
0.0
 20
60.3890105088
 10
-1.069128125
 20
60.3970467641
 10
-2.1220493575
 20
60.4210337086
 10
-3.1428024848
 20
60.4606077246
 10
-4.11591393
 20
60.5151689105
 10
-5.0266323156
 20
60.5838901741
 10
-5.8611520791
 20
60.6657297713
 10
-6.6068227516
 20
60.7594470972
 10
-7.2523407259
 20
60.8636214926
 10
-7.7879206074
 20
60.9766737799
 10
-8.205443551
 20
61.0968902016
 10
-8.4985803346
 20
61.2224483994
 10
-8.6628873033
 20
61.3514450389
 10
-8.6958737309
 20
61.4819246626
 10
-8.5970395768
 20
61.6119093324
 10
-8.3678830661
 20
61.7394286133
 10
-8.0118779779
 20
61.8625494428
 10
-7.5344209864
 20
61.9794054347
 10
-6.9427498529
 20
62.0882251713
 10
-6.2458337087
 20
62.1873590563
 10
-5.4542370921
 20
62.2753043211
 10
-4.5799598009
 20
62.3507278051
 10
-3.6362549877
 20
62.4124861651
 10
-2.6374282555
 20
62.4596432075
 10
-1.5986207994
 20
62.4914840794
 10
-0.5355798815
 20
62.5075261057
 10
0.5355798815
 20
62.5075261057
 10
1.5986207994
 20
62.4914840794
 10
2.6374282555
 20
62.4596432075
 10
3.6362549877
 20
62.4124861651
 10
4.5799598009
 20
62.3507278051
 10
5.4542370921
 20
62.2753043211
 10
6.2458337087
 20
62.1873590563
 10
6.9427498529
 20
62.0882251713
 10
7.5344209864
 20
61.9794054347
 10
8.0118779779
 20
61.8625494428
 10
8.3678830661
 20
61.7394286133
 10
8.5970395768
 20
61.6119093324
 10
8.6958737309
 20
61.4819246626
 10
8.6628873033
 20
61.3514450389
 10
8.4985803346
 20
61.2224483994
 10
8.205443551
 20
61.0968902016
 10
7.7879206074
 20
60.9766737799
 10
7.2523407259
 20
60.8636214926
 10
6.6068227516
 20
60.7594470972
 10
5.8611520791
 20
60.6657297713
 10
5.0266323156
 20
60.5838901741
 10
4.11591393
 20
60.5151689105
 10
3.1428024848
 20
60.4606077246
 10
2.1220493575
 20
60.4210337086
 10
1.069128125
 20
60.3970467641
 10
0.0
 20
60.3890105088
  0
LWPOLYLINE
  5
AE
330
1F
100
AcDbEntity
  8
0
  6
Continuous
 62
     7
370
    25
100
AcDbPolyline
 90
       48
 70
   128
 43
0.0
 10
0.0
 20
62.3450133941
 10
0.9796591168
 20
62.3370211463
 10
1.9418361934
 20
62.3131870247
 10
2.8693611572
 20
62.2739363498
 10
3.7456823031
 20
62.2199695509
 10
4.5551616596
 20
62.1522496667
 10
5.2833540484
 20
62.0719851601
 10
5.917264859
 20
61.9806083532
 10
6.445581938
 20
61.8797498673
 10
6.8588774546
 20
61.7712095244
 10
7.1497761406
 20
61.6569242296
 10
7.313086902
 20
61.5389334066
 10
7.3458954543
 20
61.4193426044
 10
7.2476163282
 20
61.3002859238
 10
7.0200033171
 20
61.183887934
 10
6.6671181805
 20
61.07222576
 10
6.1952581619
 20
60.9672920158
 10
5.6128436147
 20
60.8709592466
 10
4.9302677403
 20
60.784946513
 10
4.1597111212
 20
60.7107887143
 10
3.3149243586
 20
60.649809198
 10
2.4109826923
 20
60.6030961452
 10
1.4640169827
 20
60.5714831513
 10
0.4909258554
 20
60.555534351
 10
-0.4909258554
 20
60.555534351
 10
-1.4640169827
 20
60.5714831513
 10
-2.4109826923
 20
60.6030961452
 10
-3.3149243586
 20
60.649809198
 10
-4.1597111212
 20
60.7107887143
 10
-4.9302677403
 20
60.784946513
 10
-5.6128436147
 20
60.8709592466
 10
-6.1952581619
 20
60.9672920158
 10
-6.6671181805
 20
61.07222576
 10
-7.0200033171
 20
61.183887934
 10
-7.2476163282
 20
61.3002859238
 10
-7.3458954543
 20
61.4193426044
 10
-7.313086902
 20
61.5389334066
 10
-7.1497761406
 20
61.6569242296
 10
-6.8588774546
 20
61.7712095244
 10
-6.445581938
 20
61.8797498673
 10
-5.917264859
 20
61.9806083532
 10
-5.2833540484
 20
62.0719851601
 10
-4.5551616596
 20
62.1522496667
 10
-3.7456823031
 20
62.2199695509
 10
-2.8693611572
 20
62.2739363498
 10
-1.9418361934
 20
62.3131870247
 10
-0.9796591168
 20
62.3370211463
 10
0.0
 20
62.3450133941
  0
LWPOLYLINE
  5
AF
330
1F
100
AcDbEntity
  8
0
  6
Continuous
 62
     7
370
    25
100
AcDbPolyline
 90
       25
 70
   128
 43
0.0
 10
7.0419119474
 20
61.7058940898
 10
7.0335648228
 20
61.6884051674
 10
6.9025428182
 20
61.5722324995
 10
6.6429395009
 20
61.45931612
 10
6.2595907897
 20
61.3517594474
 10
5.7596377457
 20
61.251566059
 10
5.1523935482
 20
61.1606023681
 10
4.4491700075
 20
61.0805628561
 10
3.6630668477
 20
61.0129385077
 10
2.8087276834
 20
60.9589890366
 10
1.9020672367
 20
60.9197194193
 10
0.9599748761
 20
60.8958611744
 10
0.0
 20
60.8878587361
 10
-0.9599748761
 20
60.8958611744
 10
-1.9020672367
 20
60.9197194193
 10
-2.8087276834
 20
60.9589890366
 10
-3.6630668477
 20
61.0129385077
 10
-4.4491700075
 20
61.0805628561
 10
-5.1523935482
 20
61.1606023681
 10
-5.7596377457
 20
61.251566059
 10
-6.2595907897
 20
61.3517594474
 10
-6.6429395009
 20
61.45931612
 10
-6.9025428182
 20
61.5722324995
 10
-7.0335648228
 20
61.6884051674
 10
-7.0419119474
 20
61.7058940898
  0
LINE
  5
BC
330
1F
100
AcDbEntity
  8
0
  6
Continuous
 62
     7
370
    25
100
AcDbLine
 10
-17.5
 20
104.9
 30
0.0
 11
-17.5
 21
3.3
 31
0.0
  0
LINE
  5
BD
330
1F
100
AcDbEntity
  8
0
  6
Continuous
 62
     7
370
    25
100
AcDbLine
 10
17.5
 20
3.3
 30
0.0
 11
17.5
 21
104.9
 31
0.0
  0
LINE
  5
BE
330
1F
100
AcDbEntity
  8
0
  6
Continuous
 62
     7
370
    25
100
AcDbLine
 10
-17.5
 20
131.6155520854
 30
0.0
 11
-17.5
 21
107.3286440214
 31
0.0
  0
LINE
  5
BF
330
1F
100
AcDbEntity
  8
0
  6
Continuous
 62
     7
370
    25
100
AcDbLine
 10
17.5
 20
107.3286440213
 30
0.0
 11
17.5
 21
131.6155520854
 31
0.0
  0
LINE
  5
C0
330
1F
100
AcDbEntity
  8
0
  6
Continuous
 62
     7
370
    25
100
AcDbLine
 10
9.0
 20
61.7470376084
 30
0.0
 11
9.0000000001
 21
75.2975891646
 31
0.0
  0
LINE
  5
C1
330
1F
100
AcDbEntity
  8
0
  6
Continuous
 62
     7
370
    25
100
AcDbLine
 10
-9.0000000001
 20
75.3072424519
 30
0.0
 11
-9.0
 21
61.7470376084
 31
0.0
  0
LINE
  5
C2
330
1F
100
AcDbEntity
  8
0
  6
Continuous
 62
     7
370
    25
100
AcDbLine
 10
8.6318113888
 20
61.3167870957
 30
0.0
 11
8.9294600577
 21
61.6099824357
 31
0.0
  0
LINE
  5
C3
330
1F
100
AcDbEntity
  8
0
  6
Continuous
 62
     7
370
    25
100
AcDbLine
 10
-8.9294600577
 20
61.6099824357
 30
0.0
 11
-8.6318113888
 21
61.3167870957
 31
0.0
  0
LINE
  5
C4
330
1F
100
AcDbEntity
  8
0
  6
Continuous
 62
     7
370
    25
100
AcDbLine
 10
25.0
 20
-1.0
 30
0.0
 11
25.0
 21
2.0
 31
0.0
  0
LINE
  5
C5
330
1F
100
AcDbEntity
  8
0
  6
Continuous
 62
     7
370
    25
100
AcDbLine
 10
-25.0
 20
2.0
 30
0.0
 11
-25.0
 21
-1.0
 31
0.0
  0
LINE
  5
C6
330
1F
100
AcDbEntity
  8
0
  6
Continuous
 62
     7
370
    25
100
AcDbLine
 10
17.2
 20
105.2
 30
0.0
 11
-17.2
 21
105.2
 31
0.0
  0
LINE
  5
C7
330
1F
100
AcDbEntity
  8
0
  6
Continuous
 62
     7
370
    25
100
AcDbLine
 10
-0.0000000006
 20
69.9500146272
 30
0.0
 11
0.000000002
 21
70.5368240888
 31
0.0
  0
LINE
  5
C8
330
1F
100
AcDbEntity
  8
0
  6
Continuous
 62
     7
370
    25
100
AcDbLine
 10
0.0000000006
 20
90.4499853728
 30
0.0
 11
-0.000000002
 21
90.0368240888
 31
0.0
  0
LINE
  5
C9
330
1F
100
AcDbEntity
  8
0
  6
Continuous
 62
     7
370
    25
100
AcDbLine
 10
-0.0000000001
 20
126.1155520855
 30
0.0
 11
-0.0000000001
 21
126.6155520854
 31
0.0
  0
LINE
  5
CA
330
1F
100
AcDbEntity
  8
0
  6
Continuous
 62
     7
370
    25
100
AcDbLine
 10
17.3190415877
 20
107.1155520854
 30
0.0
 11
-17.3190415877
 21
107.1155520854
 31
0.0
  0
LINE
  5
CB
330
1F
100
AcDbEntity
  8
0
  6
Continuous
 62
     7
370
    25
100
AcDbLine
 10
-17.0
 20
132.1155520854
 30
0.0
 11
17.0
 21
132.1155520854
 31
0.0
  0
LINE
  5
CC
330
1F
100
AcDbEntity
  8
0
  6
Continuous
 62
     7
370
    25
100
AcDbLine
 10
24.0
 20
3.0
 30
0.0
 11
-24.0
 21
3.0
 31
0.0
  0
LINE
  5
CD
330
1F
100
AcDbEntity
  8
0
  6
Continuous
 62
     7
370
    25
100
AcDbLine
 10
24.9999999929
 20
-1.0
 30
0.0
 11
-24.9999999975
 21
-1.0
 31
0.0
  0
LINE
  5
CE
330
1F
100
AcDbEntity
  8
0
  6
Continuous
 62
     8
370
    25
100
AcDbLine
 10
17.499999998
 20
104.9
 30
0.0
 11
-17.4999999881
 21
104.9
 31
0.0
  0
LINE
  5
CF
330
1F
100
AcDbEntity
  8
0
  6
Continuous
 62
     8
370
    25
100
AcDbLine
 10
-17.4999999881
 20
3.3
 30
0.0
 11
17.499999998
 21
3.3
 31
0.0
  0
LINE
  5
D0
330
1F
100
AcDbEntity
  8
0
  6
Continuous
 62
     8
370
    25
100
AcDbLine
 10
-17.4999999881
 20
131.6155520854
 30
0.0
 11
17.499999998
 21
131.6155520854
 31
0.0
  0
LINE
  5
D1
330
1F
100
AcDbEntity
  8
0
  6
Continuous
 62
     8
370
    25
100
AcDbLine
 10
25.0
 20
2.0
 30
0.0
 11
-25.0
 21
2.0
 31
0.0
  0
ARC
  5
D2
330
1F
100
AcDbEntity
  8
0
  6
Continuous
 62
     7
370
    25
100
AcDbCircle
 10
-17.2
 20
3.3
 30
0.0
 40
0.299999999999855
100
AcDbArc
 50
180.0
 51
270.0
  0
ARC
  5
D3
330
1F
100
AcDbEntity
  8
0
  6
Continuous
 62
     7
370
    25
100
AcDbCircle
 10
17.2
 20
3.3
 30
0.0
 40
0.3000000000003169
100
AcDbArc
 50
270.0000000001
 51
359.9999999999
  0
ARC
  5
D4
330
1F
100
AcDbEntity
  8
0
  6
Continuous
 62
     7
370
    25
100
AcDbCircle
 10
-17.2
 20
104.9
 30
0.0
 40
0.3000000000015888
100
AcDbArc
 50
90.0000000003
 51
179.9999999997
  0
ARC
  5
D5
330
1F
100
AcDbEntity
  8
0
  6
Continuous
 62
     7
370
    25
100
AcDbCircle
 10
17.2
 20
104.9
 30
0.0
 40
0.2999999999992298
100
AcDbArc
 50
359.9999999999
 51
90.0000000001
  0
ARC
  5
D6
330
1F
100
AcDbEntity
  8
0
  6
Continuous
 62
     7
370
    25
100
AcDbCircle
 10
6.1931818182
 20
105.2
 30
0.0
 40
9.05681818182784
100
AcDbArc
 50
0.0
 51
12.2104973725
  0
ARC
  5
D7
330
1F
100
AcDbEntity
  8
0
  6
Continuous
 62
     7
370
    25
100
AcDbCircle
 10
-6.1931818182
 20
105.2
 30
0.0
 40
9.056818181814268
100
AcDbArc
 50
167.7895026275
 51
180.0
  0
ARC
  5
D8
330
1F
100
AcDbEntity
  8
0
  6
Continuous
 62
     7
370
    25
100
AcDbCircle
 10
17.0
 20
131.6155520854
 30
0.0
 40
0.5000000000020215
100
AcDbArc
 50
0.0000000002
 51
89.9999999998
  0
ARC
  5
D9
330
1F
100
AcDbEntity
  8
0
  6
Continuous
 62
     7
370
    25
100
AcDbCircle
 10
-17.0
 20
131.6155520854
 30
0.0
 40
0.4999999999961062
100
AcDbArc
 50
89.9999999996
 51
180.0000000004
  0
ARC
  5
DA
330
1F
100
AcDbEntity
  8
0
  6
Continuous
 62
     7
370
    25
100
AcDbCircle
 10
24.0
 20
2.0
 30
0.0
 40
1.000000000001554
100
AcDbArc
 50
0.0000000001
 51
89.9999999999
  0
ARC
  5
DB
330
1F
100
AcDbEntity
  8
0
  6
Continuous
 62
     7
370
    25
100
AcDbCircle
 10
-24.0
 20
2.0
 30
0.0
 40
0.9999999999969056
100
AcDbArc
 50
89.9999999998
 51
180.0000000002
  0
ARC
  5
DC
330
1F
100
AcDbEntity
  8
0
  6
Continuous
 62
     7
370
    25
100
AcDbCircle
 10
-3.6166120748
 20
121.6649405709
 30
0.0
 40
0.5916282754382681
100
AcDbArc
 50
78.6309816895
 51
130.39073891
  0
ARC
  5
DD
330
1F
100
AcDbEntity
  8
0
  6
Continuous
 62
     7
370
    25
100
AcDbCircle
 10
3.6166120748
 20
121.6649405709
 30
0.0
 40
0.5916282754382682
100
AcDbArc
 50
49.60926109
 51
101.3690183105
  0
ARC
  5
DE
330
1F
100
AcDbEntity
  8
0
  6
Continuous
 62
     7
370
    25
100
AcDbCircle
 10
-0.9453278788
 20
85.954239223
 30
0.0
 40
24.50304104575081
100
AcDbArc
 50
258.3296395721
 51
272.2110211909
  0
ARC
  5
DF
330
1F
100
AcDbEntity
  8
0
  6
Continuous
 62
     7
370
    25
100
AcDbCircle
 10
0.8681569008
 20
86.8623051852
 30
0.0
 40
25.40770120992469
100
AcDbArc
 50
268.0418767462
 51
281.4373268482
  0
ARC
  5
E0
330
1F
100
AcDbEntity
  8
0
  6
Continuous
 62
     7
370
    25
100
AcDbCircle
 10
-0.2435831224
 20
100.1046428569
 30
0.0
 40
38.10314721322454
100
AcDbArc
 50
264.2279130527
 51
270.3662789286
  0
ARC
  5
E1
330
1F
100
AcDbEntity
  8
0
  6
Continuous
 62
     7
370
    25
100
AcDbCircle
 10
0.20727972
 20
100.8736263311
 30
0.0
 40
38.87190474989314
100
AcDbArc
 50
269.6944757532
 51
275.7113322655
  0
ARC
  5
E2
330
1F
100
AcDbEntity
  8
0
  6
Continuous
 62
     8
370
    25
100
AcDbCircle
 10
0.0
 20
91.7656194857
 30
0.0
 40
30.32964261466691
100
AcDbArc
 50
258.9547323397
 51
281.0452676603
  0
ARC
  5
E3
330
1F
100
AcDbEntity
  8
0
  6
Continuous
 62
     8
370
    25
100
AcDbCircle
 10
0.0
 20
93.9731906616
 30
0.0
 40
32.40602309956071
100
AcDbArc
 50
260.1927825559
 51
279.8072174441
  0
SPLINE
  5
F6
330
1B
100
AcDbEntity
 67
     1
  8
0
  6
Continuous
 62
     7
370
    25
100
AcDbSpline
210
0.0
220
0.0
230
1.0
 70
     8
 71
     3
 72
     9
 73
     5
 74
     0
 42
0.000000001
 43
0.00000001
 40
0.0
 40
0.0
 40
0.0
 40
0.0
 40
0.4922036427338473
 40
1.0
 40
1.0
 40
1.0
 40
1.0
 10
54.46121766382962
 20
118.8158544497272
 30
0.0
 10
54.45336756471707
 20
118.8399815771098
 30
0.0
 10
54.43741868008684
 20
118.8890001647183
 30
0.0
 10
54.36214007228998
 20
119.0653906517631
 30
0.0
 10
54.32391386947067
 20
119.1549610985409
 30
0.0
  0
SPLINE
  5
F7
330
1B
100
AcDbEntity
 67
     1
  8
0
  6
Continuous
 62
     7
370
    25
100
AcDbSpline
210
0.0
220
0.0
230
1.0
 70
     8
 71
     3
 72
    11
 73
     7
 74
     0
 42
0.000000001
 43
0.00000001
 40
0.0
 40
0.0
 40
0.0
 40
0.0
 40
0.2271770089375125
 40
0.4791087778143883
 40
0.7424877751367303
 40
1.0
 40
1.0
 40
1.0
 40
1.0
 10
53.97223985521656
 20
118.1912792714442
 30
0.0
 10
54.02573483665314
 20
118.1962386959486
 30
0.0
 10
54.13855397841026
 20
118.2066979577555
 30
0.0
 10
54.29472761612278
 20
118.2937607805634
 30
0.0
 10
54.42073227203328
 20
118.4308831286263
 30
0.0
 10
54.45429088268423
 20
118.5483832026276
 30
0.0
 10
54.47088120351128
 20
118.6064715408237
 30
0.0
  0
SPLINE
  5
FA
330
1B
100
AcDbEntity
 67
     1
  8
0
  6
Continuous
 62
     7
370
    25
100
AcDbSpline
210
0.0
220
0.0
230
1.0
 70
     8
 71
     3
 72
    11
 73
     7
 74
     0
 42
0.000000001
 43
0.00000001
 40
0.0
 40
0.0
 40
0.0
 40
0.0
 40
0.3276682906341709
 40
0.6606585206383329
 40
0.9832381076534272
 40
1.0
 40
1.0
 40
1.0
 40
1.0
 10
52.54406583958102
 20
125.8389456970882
 30
0.0
 10
52.51006493734292
 20
125.8772104398047
 30
0.0
 10
52.44151089529782
 20
125.9543614154659
 30
0.0
 10
52.30072752625244
 20
126.0186318839816
 30
0.0
 10
52.19517375410929
 20
126.0454924600285
 30
0.0
 10
52.14253784164566
 20
126.0384460695575
 30
0.0
 10
52.13993787214019
 20
126.038098010609
 30
0.0
  0
SPLINE
  5
FB
330
1B
100
AcDbEntity
 67
     1
  8
0
  6
Continuous
 62
     7
370
    25
100
AcDbSpline
210
0.0
220
0.0
230
1.0
 70
     8
 71
     3
 72
     9
 73
     5
 74
     0
 42
0.000000001
 43
0.00000001
 40
0.0
 40
0.0
 40
0.0
 40
0.0
 40
0.506775267091386
 40
0.9999999999999999
 40
0.9999999999999999
 40
0.9999999999999999
 40
0.9999999999999999
 10
52.68991139566847
 20
125.2946426717126
 30
0.0
 10
52.67416954957896
 20
125.3935170551892
 30
0.0
 10
52.64310677459419
 20
125.5886220453047
 30
0.0
 10
52.62995909958909
 20
125.6460797461951
 30
0.0
 10
52.62347434109631
 20
125.6744193053703
 30
0.0
  0
SPLINE
  5
FE
330
1B
100
AcDbEntity
 67
     1
  8
0
  6
Continuous
 62
     7
370
    25
100
AcDbSpline
210
0.0
220
0.0
230
1.0
 70
     8
 71
     3
 72
     9
 73
     5
 74
     0
 42
0.000000001
 43
0.00000001
 40
0.0
 40
0.0
 40
0.0
 40
0.0
 40
0.4922036427637759
 40
1.0
 40
1.0
 40
1.0
 40
1.0
 10
54.46121765796448
 20
118.8158544716162
 30
0.0
 10
54.45336755631142
 20
118.8399816084813
 30
0.0
 10
54.43741866652066
 20
118.8890002153522
 30
0.0
 10
54.36214005212116
 20
119.0653907270195
 30
0.0
 10
54.3239138459513
 20
119.1549611862952
 30
0.0
  0
SPLINE
  5
112
330
1B
100
AcDbEntity
 67
     1
  8
0
  6
Continuous
 62
     7
370
    25
100
AcDbSpline
210
0.0
220
0.0
230
1.0
 70
     8
 71
     3
 72
    50
 73
    46
 74
     0
 42
0.000000001
 43
0.00000001
 40
0.0
 40
0.0
 40
0.0
 40
0.0
 40
0.0085882053467508
 40
0.0171822653264894
 40
0.0257881645031558
 40
0.0344118627926814
 40
0.0430592833089277
 40
0.0517363005860254
 40
0.0604487292896371
 40
0.0692023135184084
 40
0.0780027167836625
 40
0.0868555127407716
 40
0.0957661767301461
 40
0.104740078169937
 40
0.1137824738268877
 40
0.1228985019767352
 40
0.1320931774515417
 40
0.1688233357504637
 40
0.2065904566797183
 40
0.2435391897806772
 40
0.280633373522492
 40
0.3449415295286727
 40
0.3998953394811017
 40
0.4245662367587853
 40
0.4473358472188043
 40
0.4698569172538626
 40
0.4921201130062304
 40
0.5219232681514099
 40
0.5549792288919747
 40
0.5921865940937807
 40
0.621903355688189
 40
0.6537163223041965
 40
0.725969871075419
 40
0.7649755035713751
 40
0.8027515965702205
 40
0.8401926676601587
 40
0.8758862653170679
 40
0.8922489676722322
 40
0.9082835766243256
 40
0.9240303578875457
 40
0.9395318202727311
 40
0.9548325173819995
 40
0.9699787746095342
 40
0.9850183445501516
 40
1.0
 40
1.0
 40
1.0
 40
1.0
 10
78.11198123704257
 20
69.95
 30
0.0
 10
78.11266729323677
 20
69.95068282156568
 30
0.0
 10
78.11403987331386
 20
69.95204893018072
 30
0.0
 10
78.12514053612144
 20
69.96309444595636
 30
0.0
 10
78.14285956962058
 20
69.98071659768202
 30
0.0
 10
78.16784715473504
 20
70.0055498747209
 30
0.0
 10
78.19992849057867
 20
70.03740277864176
 30
0.0
 10
78.23915036398974
 20
70.07629947177588
 30
0.0
 10
78.28549992953482
 20
70.12219989887217
 30
0.0
 10
78.33898035849245
 20
70.17507510282547
 30
0.0
 10
78.39959047519
 20
70.23488696799521
 30
0.0
 10
78.46733025119039
 20
70.30159376246385
 30
0.0
 10
78.5421993287276
 20
70.37514852116556
 30
0.0
 10
78.62419742580438
 20
70.4555001514451
 30
0.0
 10
78.7133242302047
 20
70.54259084075656
 30
0.0
 10
78.80957944156586
 20
70.63636566618914
 30
0.0
 10
79.01583277956631
 20
70.83660924275073
 30
0.0
 10
79.37570655710674
 20
71.18368848805734
 30
0.0
 10
79.94336233019868
 20
71.71794452768391
 30
0.0
 10
80.58941063318018
 20
72.30851480011427
 30
0.0
 10
81.47612755598932
 20
73.08246206757174
 30
0.0
 10
82.60537288191367
 20
73.9909532310744
 30
0.0
 10
83.80178773278783
 20
74.76903335320279
 30
0.0
 10
84.74740640420951
 20
75.21047665403566
 30
0.0
 10
85.43420051096697
 20
75.44040718913745
 30
0.0
 10
86.12936555653772
 20
75.56975184528012
 30
0.0
 10
86.91309231905826
 20
75.59691082644048
 30
0.0
 10
87.79915978354009
 20
75.4699694367726
 30
0.0
 10
88.78940770735603
 20
75.15734902907337
 30
0.0
 10
89.71589649398427
 20
74.73354486383202
 30
0.0
 10
90.57889222717256
 20
74.25972345379782
 30
0.0
 10
91.69086878861269
 20
73.57836708175955
 30
0.0
 10
92.78958695098763
 20
72.81954016380728
 30
0.0
 10
93.82302313935448
 20
72.06408301853135
 30
0.0
 10
94.54734973700435
 20
71.51741487251445
 30
0.0
 10
95.1750936011771
 20
71.03430536638443
 30
0.0
 10
95.60839520128336
 20
70.69542518495246
 30
0.0
 10
95.88995066422068
 20
70.47379136878743
 30
0.0
 10
96.06604516409092
 20
70.33458098718947
 30
0.0
 10
96.21508543668439
 20
70.21636244366908
 30
0.0
 10
96.33701311076874
 20
70.1193892871028
 30
0.0
 10
96.43199977792099
 20
70.04369548549361
 30
0.0
 10
96.49935930149724
 20
69.98995121216356
 30
0.0
 10
96.54157610199343
 20
69.95625158800864
 30
0.0
 10
96.54680275705842
 20
69.95208118093356
 30
0.0
 10
96.54941104317335
 20
69.95000000000002
 30
0.0
  0
SPLINE
  5
113
330
1B
100
AcDbEntity
 67
     1
  8
0
  6
Continuous
 62
     7
370
    25
100
AcDbSpline
210
0.0
220
0.0
230
1.0
 70
     8
 71
     3
 72
    45
 73
    41
 74
     0
 42
0.000000001
 43
0.00000001
 40
0.0
 40
0.0
 40
0.0
 40
0.0
 40
0.0091821792750033
 40
0.0183436351441486
 40
0.0274921925032282
 40
0.0366357093632783
 40
0.0457820567269408
 40
0.0549390982980008
 40
0.0641146702847234
 40
0.0733165615548109
 40
0.0825524943893729
 40
0.0918301060658266
 40
0.1011569314759855
 40
0.1105403869569688
 40
0.1199877554803453
 40
0.1520680072448963
 40
0.1845479634527751
 40
0.2178606000881588
 40
0.2511805288057987
 40
0.284835837809703
 40
0.3181744150668065
 40
0.3827004780826331
 40
0.4427670863898482
 40
0.5000064390743987
 40
0.5572457724104677
 40
0.6173123617782865
 40
0.6818383411251209
 40
0.7151731199205119
 40
0.7488318489969248
 40
0.7821480829472163
 40
0.815464551241298
 40
0.8479411753314209
 40
0.8800251225096541
 40
0.8975165898144858
 40
0.9148094052181941
 40
0.9319512905620134
 40
0.9489912358091342
 40
0.9659791128726676
 40
0.9829652522907018
 40
1.0
 40
1.0
 40
1.0
 40
1.0
 10
17.5
 20
90.45
 30
0.0
 10
17.49949504958338
 20
90.44915517060033
 30
0.0
 10
17.49848628838074
 20
90.44746741850983
 30
0.0
 10
17.49034832594986
 20
90.4337687176798
 30
0.0
 10
17.47742022820175
 20
90.4118870793407
 30
0.0
 10
17.45927845727749
 20
90.38102619052837
 30
0.0
 10
17.43610406248235
 20
90.34139911895572
 30
0.0
 10
17.4079179630763
 20
90.29294894347157
 30
0.0
 10
17.37478555724438
 20
90.2356912052812
 30
0.0
 10
17.33676181267761
 20
90.16962197287698
 30
0.0
 10
17.29390597838526
 20
90.09474309250348
 30
0.0
 10
17.24627740089118
 20
90.01105318311697
 30
0.0
 10
17.1939372017749
 20
89.91855835895021
 30
0.0
 10
17.13694543129305
 20
89.81723805644026
 30
0.0
 10
17.02636596736458
 20
89.61957566330449
 30
0.0
 10
16.84247647619065
 20
89.28562051630172
 30
0.0
 10
16.56153585564747
 20
88.75388501740541
 30
0.0
 10
16.24789885895296
 20
88.13222574710092
 30
0.0
 10
15.91256883724429
 20
87.42304368160555
 30
0.0
 10
15.57090427279503
 20
86.63934362840496
 30
0.0
 10
15.13367862448449
 20
85.51946760435234
 30
0.0
 10
14.65255346365278
 20
84.02577193666622
 30
0.0
 10
14.27317554544166
 20
82.12341455075257
 30
0.0
 10
14.13998865258599
 20
80.20000981964611
 30
0.0
 10
14.27317292292459
 20
78.27660480124501
 30
0.0
 10
14.65254833762009
 20
76.37424709546846
 30
0.0
 10
15.13366082658298
 20
74.88058681730662
 30
0.0
 10
15.57088272457805
 20
73.76070767299154
 30
0.0
 10
15.91253369468324
 20
72.97703359672711
 30
0.0
 10
16.2478767197112
 20
72.26781812681324
 30
0.0
 10
16.56150499407607
 20
71.64618035386457
 30
0.0
 10
16.84246375294942
 20
71.1143834087465
 30
0.0
 10
17.04633250591252
 20
70.74421942116538
 30
0.0
 10
17.18754743614289
 20
70.49255115741556
 30
0.0
 10
17.28245147354646
 20
70.32513023688999
 30
0.0
 10
17.36090190347206
 20
70.18823119106428
 30
0.0
 10
17.42263396490445
 20
70.08160881813767
 30
0.0
 10
17.46683413488217
 20
70.00602049324324
 30
0.0
 10
17.49478621556481
 20
69.95872139656358
 30
0.0
 10
17.4982604172341
 20
69.95290989996712
 30
0.0
 10
17.5
 20
69.94999999999999
 30
0.0
  0
SPLINE
  5
115
330
1B
100
AcDbEntity
 67
     1
  8
0
  6
Continuous
 62
     7
370
    25
100
AcDbSpline
210
0.0
220
0.0
230
1.0
 70
     8
 71
     3
 72
    26
 73
    22
 74
     0
 42
0.000000001
 43
0.00000001
 40
0.0
 40
0.0
 40
0.0
 40
0.0
 40
0.0624999999999998
 40
0.0624999999999998
 40
0.1249999999999995
 40
0.1249999999999995
 40
0.2499999999999996
 40
0.2499999999999996
 40
0.3749999999999997
 40
0.3749999999999997
 40
0.4999999999999998
 40
0.4999999999999998
 40
0.6249999999999999
 40
0.6249999999999999
 40
0.7499999999999999
 40
0.7499999999999999
 40
0.875
 40
0.875
 40
0.9375
 40
0.9375
 40
1.0
 40
1.0
 40
1.0
 40
1.0
 10
99.63236241784999
 20
70.53682408881
 30
0.0
 10
99.63235086660502
 20
70.53688959919191
 30
0.0
 10
99.62160560732353
 20
70.59782899342206
 30
0.0
 10
99.57849282506784
 20
70.8423337319632
 30
0.0
 10
99.54615898734006
 20
71.02570803784073
 30
0.0
 10
99.41868074922795
 20
71.74867305194496
 30
0.0
 10
99.29266033867975
 20
72.46337031528181
 30
0.0
 10
98.97576277604581
 20
74.26058570092675
 30
0.0
 10
98.78496287862038
 20
75.34266569035758
 30
0.0
 10
98.36708374105302
 20
77.71257604606319
 30
0.0
 10
98.14020544470392
 20
78.99926680338407
 30
0.0
 10
97.68617337235189
 20
81.57421064085717
 30
0.0
 10
97.45929282898089
 20
82.86091414168541
 30
0.0
 10
97.04140903297491
 20
85.23085091670126
 30
0.0
 10
96.85060630319342
 20
86.31294696924387
 30
0.0
 10
96.53370279829346
 20
88.11019605514433
 30
0.0
 10
96.40767854088669
 20
88.82491513493257
 30
0.0
 10
96.28019605247606
 20
89.54790425388953
 30
0.0
 10
96.24786162835689
 20
89.73128188572666
 30
0.0
 10
96.20474570738924
 20
89.9758044240998
 30
0.0
 10
96.193997516335
 20
90.0367604439975
 30
0.0
 10
96.19398629404
 20
90.03682408881001
 30
0.0
  0
SPLINE
  5
117
330
1B
100
AcDbEntity
 67
     1
  8
0
  6
Continuous
 62
     7
370
    25
100
AcDbSpline
210
0.0
220
0.0
230
1.0
 70
     8
 71
     3
 72
    38
 73
    34
 74
     0
 42
0.000000001
 43
0.00000001
 40
0.0
 40
0.0
 40
0.0
 40
0.0
 40
0.0098402120655777
 40
0.0196979730135711
 40
0.0295735515792969
 40
0.0394672150461141
 40
0.0493792292343207
 40
0.059309858490542
 40
0.0692593656776116
 40
0.0792280121649376
 40
0.0892160578193521
 40
0.0992237609964404
 40
0.1092513785323438
 40
0.1192991657360316
 40
0.181941272209871
 40
0.2476308806746891
 40
0.3073386691373908
 40
0.3733159749746935
 40
0.4205550791460194
 40
0.4999943645954175
 40
0.575700287179102
 40
0.6430053445658921
 40
0.6998190773929871
 40
0.7523747719158322
 40
0.8174166129254298
 40
0.8794796799430521
 40
0.8968768826917994
 40
0.9142118366946411
 40
0.9314858742931795
 40
0.9487003419747774
 40
0.9658566002541967
 40
0.9829560235420741
 40
1.0
 40
1.0
 40
1.0
 40
1.0
 10
99.13995854139726
 20
69.95
 30
0.0
 10
99.13979549062434
 20
69.95095358370078
 30
0.0
 10
99.13946909829629
 20
69.95286245170882
 30
0.0
 10
99.13685986911503
 20
69.9683179124487
 30
0.0
 10
99.1326999153623
 20
69.99303623840244
 30
0.0
 10
99.12683627185599
 20
70.02795074567467
 30
0.0
 10
99.11931003725131
 20
70.0728362926434
 30
0.0
 10
99.1101101726454
 20
70.1277662525286
 30
0.0
 10
99.099239634148
 20
70.19272097656895
 30
0.0
 10
99.08669766928003
 20
70.26769249516447
 30
0.0
 10
99.0724843279647
 20
70.35265754479097
 30
0.0
 10
99.05660017114397
 20
70.44757981390711
 30
0.0
 10
99.03904290253713
 20
70.55242746450857
 30
0.0
 10
98.98629629451565
 20
70.86710206728449
 30
0.0
 10
98.87061101124733
 20
71.5540747870844
 30
0.0
 10
98.65717475534088
 20
72.8296154538552
 30
0.0
 10
98.39125965959119
 20
74.41083165857833
 30
0.0
 10
98.11770918655107
 20
76.0451248709227
 30
0.0
 10
97.79000968268807
 20
77.99899356493712
 30
0.0
 10
97.42738065407747
 20
80.16067988405754
 30
0.0
 10
97.02920740444682
 20
82.53379087603324
 30
0.0
 10
96.68973407916803
 20
84.5559360537951
 30
0.0
 10
96.41664615734318
 20
86.18752947022986
 30
0.0
 10
96.17722805907742
 20
87.61356844100513
 30
0.0
 10
95.97295636316608
 20
88.83372275980543
 30
0.0
 10
95.85156242700646
 20
89.55497665616078
 30
0.0
 10
95.79110958149187
 20
89.91578132155819
 30
0.0
 10
95.7635096210929
 20
90.0807066134847
 30
0.0
 10
95.74093492465981
 20
90.2156211696656
 30
0.0
 10
95.72334688988406
 20
90.32062979033665
 30
0.0
 10
95.71087104110521
 20
90.39496092922147
 30
0.0
 10
95.70304607226099
 20
90.44140429246744
 30
0.0
 10
95.70206977408394
 20
90.44713786781645
 30
0.0
 10
95.7015824177202
 20
90.44999999999997
 30
0.0
  0
SPLINE
  5
118
330
1B
100
AcDbEntity
 67
     1
  8
0
  6
Continuous
 62
     7
370
    25
100
AcDbSpline
210
0.0
220
0.0
230
1.0
 70
     8
 71
     3
 72
    12
 73
     8
 74
     0
 42
0.000000001
 43
0.00000001
 40
0.0
 40
0.0
 40
0.0
 40
0.0
 40
0.2886564345673479
 40
0.5932098469108629
 40
0.7851608269754738
 40
0.9698109174458439
 40
1.0
 40
1.0
 40
1.0
 40
1.0
 10
-17.50272463274585
 20
117.8155520854
 30
0.0
 10
-17.5004366669799
 20
117.8271842950827
 30
0.0
 10
-17.4957347318791
 20
117.8510893271511
 30
0.0
 10
-17.46480909430298
 20
118.0199464734151
 30
0.0
 10
-17.42783906435705
 20
118.2384978194056
 30
0.0
 10
-17.40257519171677
 20
118.3901166696338
 30
0.0
 10
-17.38804409108458
 20
118.4918620606719
 30
0.0
 10
-17.38600218880758
 20
118.5061592671185
 30
0.0
  0
SPLINE
  5
119
330
1B
100
AcDbEntity
 67
     1
  8
0
  6
Continuous
 62
     7
370
    25
100
AcDbSpline
210
0.0
220
0.0
230
1.0
 70
     8
 71
     3
 72
    17
 73
    13
 74
     0
 42
0.000000001
 43
0.00000001
 40
0.0
 40
0.0
 40
0.0
 40
0.0
 40
0.0895521671973718
 40
0.1879421362571582
 40
0.3464809517230821
 40
0.4958093306936244
 40
0.6453396869771921
 40
0.7234475086735876
 40
0.80375324779723
 40
0.9029316577052693
 40
0.9974417911217015
 40
1.0
 40
1.0
 40
1.0
 40
1.0
 10
-17.30169046756742
 20
119.1436634349505
 30
0.0
 10
-17.29037249008067
 20
119.2468977345201
 30
0.0
 10
-17.26661957673931
 20
119.4635544096552
 30
0.0
 10
-17.22911906127911
 20
119.9024935187756
 30
0.0
 10
-17.19788970032432
 20
120.4525874250673
 30
0.0
 10
-17.184653946482
 20
121.0983650659495
 30
0.0
 10
-17.19453252765586
 20
121.6314812919754
 30
0.0
 10
-17.21348180302497
 20
122.0536517068402
 30
0.0
 10
-17.23516582892456
 20
122.3971366911324
 30
0.0
 10
-17.26470207486821
 20
122.7410325189582
 30
0.0
 10
-17.288529411085
 20
122.981518159478
 30
0.0
 10
-17.30132553067831
 20
123.0847198457246
 30
0.0
 10
-17.30166276881361
 20
123.0874396971589
 30
0.0
  0
SPLINE
  5
11A
330
1B
100
AcDbEntity
 67
     1
  8
0
  6
Continuous
 62
     7
370
    25
100
AcDbSpline
210
0.0
220
0.0
230
1.0
 70
     8
 71
     3
 72
    12
 73
     8
 74
     0
 42
0.000000001
 43
0.00000001
 40
0.0
 40
0.0
 40
0.0
 40
0.0
 40
0.0070495836416376
 40
0.1950687816382237
 40
0.3916428750324973
 40
0.7041245997960859
 40
1.0
 40
1.0
 40
1.0
 40
1.0
 10
-17.38922255181483
 20
123.7479105474045
 30
0.0
 10
-17.38969129896866
 20
123.751195417066
 30
0.0
 10
-17.40266198501789
 20
123.8420909302299
 30
0.0
 10
-17.42662351865422
 20
123.9847977917779
 30
0.0
 10
-17.46414667247691
 20
124.2077364504334
 30
0.0
 10
-17.49559787158685
 20
124.379285637661
 30
0.0
 10
-17.50039267359665
 20
124.4036852818511
 30
0.0
 10
-17.50272463274585
 20
124.4155520854
 30
0.0
  0
SPLINE
  5
11D
330
1B
100
AcDbEntity
 67
     1
  8
0
  6
Continuous
 62
     7
370
    25
100
AcDbSpline
210
0.0
220
0.0
230
1.0
 70
     8
 71
     3
 72
    12
 73
     8
 74
     0
 42
0.000000001
 43
0.00000001
 40
0.0
 40
0.0
 40
0.0
 40
0.0
 40
0.1998858314615471
 40
0.3995040380347158
 40
0.5991796260789906
 40
0.7992373224557349
 40
1.0
 40
1.0
 40
1.0
 40
1.0
 10
16.96379491558508
 20
123.0081627081
 30
0.0
 10
16.96102625596573
 20
122.9493627860967
 30
0.0
 10
16.9554926436542
 20
122.8318416686435
 30
0.0
 10
16.94934834933508
 20
122.6540375769023
 30
0.0
 10
16.94487917223325
 20
122.4754147230957
 30
0.0
 10
16.94209557647848
 20
122.2958437417023
 30
0.0
 10
16.94175093104077
 20
122.1757967767278
 30
0.0
 10
16.94157830523283
 20
122.1156677222
 30
0.0
  0
SPLINE
  5
11E
330
1B
100
AcDbEntity
 67
     1
  8
0
  6
Continuous
 62
     7
370
    25
100
AcDbSpline
210
0.0
220
0.0
230
1.0
 70
     8
 71
     3
 72
    11
 73
     7
 74
     0
 42
0.000000001
 43
0.00000001
 40
0.0
 40
0.0
 40
0.0
 40
0.0
 40
0.2506510310918615
 40
0.5004593253414864
 40
0.7500375340857026
 40
1.0
 40
1.0
 40
1.0
 40
1.0
 10
16.94157830523283
 20
122.1156677222
 30
0.0
 10
16.94183578514259
 20
122.0417246691609
 30
0.0
 10
16.94234987926525
 20
121.8940871738097
 30
0.0
 10
16.94661411739704
 20
121.6733964420419
 30
0.0
 10
16.95319643188904
 20
121.453837025865
 30
0.0
 10
16.95981645077647
 20
121.3089352721282
 30
0.0
 10
16.96312900634891
 20
121.236428664525
 30
0.0
  0
SPLINE
  5
11F
330
1B
100
AcDbEntity
 67
     1
  8
0
  6
Continuous
 62
     7
370
    25
100
AcDbSpline
210
0.0
220
0.0
230
1.0
 70
     8
 71
     3
 72
    22
 73
    18
 74
     0
 42
0.000000001
 43
0.00000001
 40
0.0
 40
0.0
 40
0.0
 40
0.0
 40
0.066817625479216
 40
0.1334737639762447
 40
0.2000004510076395
 40
0.2664299093741787
 40
0.332794503503206
 40
0.3991266927672822
 40
0.4654589841110445
 40
0.5318238843297202
 40
0.5982538523487082
 40
0.6647812518537047
 40
0.731438304614781
 40
0.7982570448361256
 40
0.8652692748459914
 40
0.9325065224194427
 40
0.9999999999999999
 40
0.9999999999999999
 40
0.9999999999999999
 40
0.9999999999999999
 10
2.507414503478404
 20
107.1155520854
 30
0.0
 10
2.397337731431214
 20
107.1162491501512
 30
0.0
 10
2.177450224413117
 20
107.1176415949653
 30
0.0
 10
1.847090491325844
 20
107.128941459489
 30
0.0
 10
1.517088930387954
 20
107.1469908693599
 30
0.0
 10
1.187486869269137
 20
107.1724464789838
 30
0.0
 10
0.8584284645823879
 20
107.2051328454205
 30
0.0
 10
0.5300279680545694
 20
107.2450968775454
 30
0.0
 10
0.2024052057915185
 20
107.2923260559512
 30
0.0
 10
-0.1243241040874143
 20
107.3468234795104
 30
0.0
 10
-0.4500452341348951
 20
107.4085890158258
 30
0.0
 10
-0.7746474252731533
 20
107.4776197157694
 30
0.0
 10
-1.098015241128243
 20
107.5539270471068
 30
0.0
 10
-1.42006042181482
 20
107.6374673446694
 30
0.0
 10
-1.740602832996665
 20
107.7284037237102
 30
0.0
 10
-2.059816835966386
 20
107.8261238315548
 30
0.0
 10
-2.270543901125903
 20
107.8971785343295
 30
0.0
 10
-2.376107813379047
 20
107.9327734514
 30
0.0
  0
SPLINE
  5
121
330
1B
100
AcDbEntity
 67
     1
  8
0
  6
Continuous
 62
     7
370
    25
100
AcDbSpline
210
0.0
220
0.0
230
1.0
 70
     8
 71
     3
 72
    14
 73
    10
 74
     0
 42
0.000000001
 43
0.00000001
 40
0.0
 40
0.0
 40
0.0
 40
0.0
 40
0.2499999999999999
 40
0.2499999999999999
 40
0.4999999999999999
 40
0.4999999999999999
 40
0.7499999999999999
 40
0.7499999999999999
 40
1.0
 40
1.0
 40
1.0
 40
1.0
 10
17.99727536726
 20
126.115552085545
 30
0.0
 10
17.99727044636429
 20
126.115546518515
 30
0.0
 10
17.96634743639365
 20
126.0091734965157
 30
0.0
 10
17.86082036601159
 20
125.6043597104166
 30
0.0
 10
17.78687569236557
 20
125.3065889367735
 30
0.0
 10
17.63790418393308
 20
124.5675320543573
 30
0.0
 10
17.56359811879762
 20
124.1260755219162
 30
0.0
 10
17.45703530296394
 20
123.1617774023306
 30
0.0
 10
17.42571784801201
 20
122.6389569550236
 30
0.0
 10
17.4257206135959
 20
122.1156548247874
 30
0.0
  0
LWPOLYLINE
  5
122
330
1B
100
AcDbEntity
 67
     1
  8
0
  6
Continuous
 62
     7
370
    25
100
AcDbPolyline
 90
        9
 70
   128
 43
0.0
 10
16.9416018772
 20
122.1156676642
 10
16.9686565303
 20
122.115665541
 10
17.0080924222
 20
122.115663481
 10
17.0588413109
 20
122.1156615399
 10
17.1195285072
 20
122.1156597704
 10
17.1885101124
 20
122.1156582203
 10
17.2639175482
 20
122.1156569317
 10
17.3437081732
 20
122.1156559395
 10
17.4257206136
 20
122.1156552705
  0
SPLINE
  5
124
330
1B
100
AcDbEntity
 67
     1
  8
0
  6
Continuous
 62
     7
370
    25
100
AcDbSpline
210
0.0
220
0.0
230
1.0
 70
     8
 71
     3
 72
    14
 73
    10
 74
     0
 42
0.000000001
 43
0.00000001
 40
0.0
 40
0.0
 40
0.0
 40
0.0
 40
0.25
 40
0.25
 40
0.5
 40
0.5
 40
0.75
 40
0.75
 40
1.0
 40
1.0
 40
1.0
 40
1.0
 10
17.42572061359235
 20
122.1156548244905
 30
0.0
 10
17.42570794142359
 20
121.5923580934153
 30
0.0
 10
17.45702087264863
 20
121.0695588821109
 30
0.0
 10
17.5635629836363
 20
120.1052685655258
 30
0.0
 10
17.63786356281345
 20
119.6638007525561
 30
0.0
 10
17.78684055677489
 20
118.924678116938
 30
0.0
 10
17.86079050783961
 20
118.6268598614003
 30
0.0
 10
17.96634348627667
 20
118.2219672839219
 30
0.0
 10
17.99723703838044
 20
118.1156020493584
 30
0.0
 10
17.99727536727994
 20
118.1155563099555
 30
0.0
  0
SPLINE
  5
126
330
1B
100
AcDbEntity
 67
     1
  8
0
  6
Continuous
 62
     7
370
    25
100
AcDbSpline
210
0.0
220
0.0
230
1.0
 70
     8
 71
     3
 72
     9
 73
     5
 74
     0
 42
0.000000001
 43
0.00000001
 40
0.0
 40
0.0
 40
0.0
 40
0.0
 40
0.0656386166058456
 40
1.0
 40
1.0
 40
1.0
 40
1.0
 10
53.97862492613667
 20
118.1957216362168
 30
0.0
 10
53.97973917917985
 20
118.1909581757126
 30
0.0
 10
53.99671475089047
 20
118.1183871687274
 30
0.0
 10
53.99700457075467
 20
118.1169237880512
 30
0.0
 10
53.9972753672439
 20
118.115556461658
 30
0.0
  0
LWPOLYLINE
  5
127
330
1B
100
AcDbEntity
 67
     1
  8
0
  6
Continuous
 62
     7
370
    25
100
AcDbPolyline
 90
        9
 70
   128
 43
0.0
 10
53.0594536592
 20
122.1155501394
 10
53.1536749709
 20
122.1407966677
 10
53.2442754167
 20
122.1650729954
 10
53.327773278
 20
122.1874461985
 10
53.4009597842
 20
122.2070564887
 10
53.4610224237
 20
122.223150255
 10
53.5056530269
 20
122.2351090238
 10
53.5331364676
 20
122.2424732273
 10
53.5424165743
 20
122.2449598637
  0
SPLINE
  5
128
330
1B
100
AcDbEntity
 67
     1
  8
0
  6
Continuous
 62
     7
370
    25
100
AcDbSpline
210
0.0
220
0.0
230
1.0
 70
    24
 71
     3
 72
    11
 73
     7
 74
     0
 42
0.000000001
 43
0.00000001
 40
0.0
 40
0.0
 40
0.0
 40
0.0
 40
0.2541917927234777
 40
0.5052112650331634
 40
0.7516283391013219
 40
1.0
 40
1.0
 40
1.0
 40
1.0
 10
53.5424165743
 20
122.2449598636
 30
0.0
 10
53.63541011847379
 20
121.8979032319516
 30
0.0
 10
53.82023664488752
 20
121.2081212447574
 30
0.0
 10
54.07082486025694
 20
120.2729132932802
 30
0.0
 10
54.28396190424308
 20
119.4774750160998
 30
0.0
 10
54.3648516518038
 20
119.1755903684247
 30
0.0
 10
54.4054562968402
 20
119.0240517701421
 30
0.0
  0
SPLINE
  5
12B
330
1B
100
AcDbEntity
 67
     1
  8
0
  6
Continuous
 62
     7
370
    25
100
AcDbSpline
210
0.0
220
0.0
230
1.0
 70
    24
 71
     3
 72
    12
 73
     8
 74
     0
 42
0.000000001
 43
0.00000001
 40
0.0
 40
0.0
 40
0.0
 40
0.0
 40
0.0345197075349605
 40
0.2503536460000116
 40
0.470179790262258
 40
0.7337386321427938
 40
1.0
 40
1.0
 40
1.0
 40
1.0
 10
52.637060291251
 20
125.6237955108708
 30
0.0
 10
52.63890295670225
 20
125.6169185898022
 30
0.0
 10
52.65226685944129
 20
125.5670438259148
 30
0.0
 10
52.75200837889646
 20
125.1948034075774
 30
0.0
 10
52.94197941032501
 20
124.4858218662656
 30
0.0
 10
53.21655699105095
 20
123.4610843844382
 30
0.0
 10
53.43342797211753
 20
122.6517108643973
 30
0.0
 10
53.5424165743
 20
122.2449598636
 30
0.0
  0
SPLINE
  5
12C
330
1B
100
AcDbEntity
 67
     1
  8
0
  6
Continuous
 62
     7
370
    25
100
AcDbSpline
210
0.0
220
0.0
230
1.0
 70
     8
 71
     3
 72
    34
 73
    30
 74
     0
 42
0.000000001
 43
0.00000001
 40
0.0
 40
0.0
 40
0.0
 40
0.0
 40
0.0328761685405068
 40
0.065074148954437
 40
0.0965949361576533
 40
0.1274391059843244
 40
0.1576067314024273
 40
0.1870980673643058
 40
0.2159138427072272
 40
0.2440548650544065
 40
0.2715206609449578
 40
0.2983107089431882
 40
0.3244249110626591
 40
0.3498636884599609
 40
0.3746276869236891
 40
0.3987162673342419
 40
0.4221285347180851
 40
0.4448639522592946
 40
0.4669223680461014
 40
0.4883040046432384
 40
0.5090091771949953
 40
0.5736267459065849
 40
0.6373231204680555
 40
0.7001010918572506
 40
0.7619511736919329
 40
0.822873256959358
 40
0.8828583281831853
 40
0.9419018974189167
 40
0.9999999999999999
 40
0.9999999999999999
 40
0.9999999999999999
 40
0.9999999999999999
 10
53.05945365837927
 20
122.1155501424674
 30
0.0
 10
53.04352129897594
 20
122.1834900860123
 30
0.0
 10
53.0119852418551
 20
122.3179684696704
 30
0.0
 10
52.96525839509655
 20
122.5170930917785
 30
0.0
 10
52.91972072924341
 20
122.711102126119
 30
0.0
 10
52.87546252976232
 20
122.8996321784693
 30
0.0
 10
52.83256276678804
 20
123.0823770005278
 30
0.0
 10
52.79108667087468
 20
123.2590790714882
 30
0.0
 10
52.75108758777303
 20
123.4295270372421
 30
0.0
 10
52.7126080865335
 20
123.5935500172226
 30
0.0
 10
52.67567680479348
 20
123.7510314563446
 30
0.0
 10
52.64031315153009
 20
123.9018897084666
 30
0.0
 10
52.6065272483496
 20
124.0460786068052
 30
0.0
 10
52.57432052733362
 20
124.1835852132534
 30
0.0
 10
52.54368758189602
 20
124.3144222849459
 30
0.0
 10
52.51461159916941
 20
124.4386470886094
 30
0.0
 10
52.48706963764128
 20
124.5563400059646
 30
0.0
 10
52.46103328937859
 20
124.6676028576634
 30
0.0
 10
52.43646857418904
 20
124.7725568103799
 30
0.0
 10
52.41333767639914
 20
124.8713451232884
 30
0.0
 10
52.37598886596248
 20
125.0307019194964
 30
0.0
 10
52.3271404975465
 20
125.2388768203346
 30
0.0
 10
52.27176284360587
 20
125.4747978729447
 30
0.0
 10
52.2248824352845
 20
125.674525648735
 30
0.0
 10
52.18667535989233
 20
125.837395904559
 30
0.0
 10
52.1572236841594
 20
125.9631173561553
 30
0.0
 10
52.13660200477926
 20
126.0512932914375
 30
0.0
 10
52.12395139657573
 20
126.1055566211205
 30
0.0
 10
52.12240030603864
 20
126.1122313849889
 30
0.0
 10
52.12163102030336
 20
126.1155418304514
 30
0.0
  0
SPLINE
  5
135
330
1B
100
AcDbEntity
 67
     1
  8
0
  6
Continuous
 62
     8
370
    25
100
AcDbSpline
210
0.0
220
0.0
230
1.0
 70
     8
 71
     3
 72
    23
 73
    19
 74
     0
 42
0.000000001
 43
0.00000001
 40
0.0
 40
0.0
 40
0.0
 40
0.0
 40
0.0330885130605478
 40
0.0660043150138566
 40
0.0988211869886737
 40
0.131613577883832
 40
0.2009121643093408
 40
0.270290666338794
 40
0.3410086140191227
 40
0.4122577138823359
 40
0.5565844609668809
 40
0.6300507726484874
 40
0.7036078781097096
 40
0.7778035556010641
 40
0.8518596530624992
 40
0.9012514409989043
 40
0.9505590609826786
 40
0.9999999999999999
 40
0.9999999999999999
 40
0.9999999999999999
 40
0.9999999999999999
 10
17.49727536726
 20
126.6155520854
 30
0.0
 10
17.49705149739678
 20
126.614650826453
 30
0.0
 10
17.49660492619707
 20
126.6128530128329
 30
0.0
 10
17.49301528612025
 20
126.5981931396451
 30
0.0
 10
17.48734771351355
 20
126.574774337722
 30
0.0
 10
17.47652408686425
 20
126.5294158721118
 30
0.0
 10
17.45700685954031
 20
126.4471174441158
 30
0.0
 10
17.42450149407864
 20
126.3070700758334
 30
0.0
 10
17.38411998039678
 20
126.1266231101338
 30
0.0
 10
17.32127395445228
 20
125.8311081101654
 30
0.0
 10
17.24864531256398
 20
125.4596693990067
 30
0.0
 10
17.17487216144417
 20
125.0242817789873
 30
0.0
 10
17.12068475707287
 20
124.665085118779
 30
0.0
 10
17.07028338614418
 20
124.2800897437605
 30
0.0
 10
17.03078217613141
 20
123.917698623038
 30
0.0
 10
17.00141584776977
 20
123.5897084525561
 30
0.0
 10
16.97984257746671
 20
123.3021486874356
 30
0.0
 10
16.96914894865132
 20
123.1062461962732
 30
0.0
 10
16.96379491558508
 20
123.0081627081
 30
0.0
  0
SPLINE
  5
136
330
1B
100
AcDbEntity
 67
     1
  8
0
  6
Continuous
 62
     8
370
    25
100
AcDbSpline
210
0.0
220
0.0
230
1.0
 70
     8
 71
     3
 72
    22
 73
    18
 74
     0
 42
0.000000001
 43
0.00000001
 40
0.0
 40
0.0
 40
0.0
 40
0.0
 40
0.0362996839890094
 40
0.0725090828795936
 40
0.1087147900341318
 40
0.1450034250711744
 40
0.2177079871413311
 40
0.2905481120996595
 40
0.3634510407914684
 40
0.4362366265362397
 40
0.5807021215080386
 40
0.6520430269017249
 40
0.7230395937298669
 40
0.7930601850857976
 40
0.8629545427049589
 40
0.93136671407861
 40
0.9999999999999999
 40
0.9999999999999999
 40
0.9999999999999999
 40
0.9999999999999999
 10
16.96312900634891
 20
121.236428664525
 30
0.0
 10
16.9669289829565
 20
121.1641370563019
 30
0.0
 10
16.97451948481496
 20
121.0197336445881
 30
0.0
 10
16.98894740075873
 20
120.806429633822
 30
0.0
 10
17.00545249991339
 20
120.5961508145838
 30
0.0
 10
17.0303445598345
 20
120.3202313453125
 30
0.0
 10
17.06628921961191
 20
119.9848515770644
 30
0.0
 10
17.11556514780259
 20
119.60275249285
 30
0.0
 10
17.1688870936178
 20
119.2443630447546
 30
0.0
 10
17.24239862028417
 20
118.8054589688715
 30
0.0
 10
17.31543893956011
 20
118.4286087312922
 30
0.0
 10
17.37932051862068
 20
118.1265207928347
 30
0.0
 10
17.42070553852583
 20
117.9407133865839
 30
0.0
 10
17.45436906309027
 20
117.79504123307
 30
0.0
 10
17.47879932354434
 20
117.6919535855426
 30
0.0
 10
17.49436575391589
 20
117.6273174317514
 30
0.0
 10
17.49630445348717
 20
117.6194780836216
 30
0.0
 10
17.49727536726
 20
117.6155520854
 30
0.0
  0
SPLINE
  5
138
330
1B
100
AcDbEntity
 67
     1
  8
0
  6
Continuous
 62
     8
370
    25
100
AcDbSpline
210
0.0
220
0.0
230
1.0
 70
     8
 71
     3
 72
    20
 73
    16
 74
     0
 42
0.000000001
 43
0.00000001
 40
0.0
 40
0.0
 40
0.0
 40
0.0
 40
0.1116243373408275
 40
0.1975552811699138
 40
0.2577624499023963
 40
0.2922165525942441
 40
0.3564997841621003
 40
0.4173483478432941
 40
0.4747630432401891
 40
0.5287374011186196
 40
0.5792712501958919
 40
0.654987462661465
 40
0.7291039799872141
 40
0.8723461221469965
 40
1.0
 40
1.0
 40
1.0
 40
1.0
 10
53.05945365836301
 20
122.1155501425284
 30
0.0
 10
53.10695819714495
 20
121.9130554843143
 30
0.0
 10
53.1910328061369
 20
121.5546758505185
 30
0.0
 10
53.29856617038354
 20
121.0963463558666
 30
0.0
 10
53.37183150686798
 20
120.7835186639311
 30
0.0
 10
53.43481904017198
 20
120.5143963302825
 30
0.0
 10
53.49655053013697
 20
120.2513371008353
 30
0.0
 10
53.5641041603131
 20
119.9632230298454
 30
0.0
 10
53.62473310741739
 20
119.7046270146391
 30
0.0
 10
53.67862756834044
 20
119.4746797497984
 30
0.0
 10
53.73501585455595
 20
119.2340904698186
 30
0.0
 10
53.79268220220739
 20
118.9883772640046
 30
0.0
 10
53.86664627109023
 20
118.6735040137715
 30
0.0
 10
53.93759246687807
 20
118.3714125733479
 30
0.0
 10
53.96548239976732
 20
118.2519947140636
 30
0.0
 10
53.97862492613667
 20
118.1957216362168
 30
0.0
  0
LINE
  5
147
330
1B
100
AcDbEntity
 67
     1
  8
0
  6
Continuous
 62
     7
370
    25
100
AcDbLine
 10
-17.5
 20
104.9
 30
0.0
 11
-17.5
 21
3.3
 31
0.0
  0
LINE
  5
148
330
1B
100
AcDbEntity
 67
     1
  8
0
  6
Continuous
 62
     7
370
    25
100
AcDbLine
 10
17.5
 20
90.45
 30
0.0
 11
17.5
 21
104.9
 31
0.0
  0
LINE
  5
149
330
1B
100
AcDbEntity
 67
     1
  8
0
  6
Continuous
 62
     7
370
    25
100
AcDbLine
 10
17.5
 20
3.3
 30
0.0
 11
17.5
 21
69.95
 31
0.0
  0
LINE
  5
14A
330
1B
100
AcDbEntity
 67
     1
  8
0
  6
Continuous
 62
     7
370
    25
100
AcDbLine
 10
96.5494110432
 20
69.95
 30
0.0
 11
99.1399585414
 21
69.95
 31
0.0
  0
LINE
  5
14B
330
1B
100
AcDbEntity
 67
     1
  8
0
  6
Continuous
 62
     7
370
    25
100
AcDbLine
 10
17.5
 20
69.95
 30
0.0
 11
78.1119812373
 21
69.95
 31
0.0
  0
LINE
  5
14C
330
1B
100
AcDbEntity
 67
     1
  8
0
  6
Continuous
 62
     7
370
    25
100
AcDbLine
 10
95.7015824177
 20
90.45
 30
0.0
 11
17.5
 21
90.45
 31
0.0
  0
LINE
  5
14D
330
1B
100
AcDbEntity
 67
     1
  8
0
  6
Continuous
 62
     7
370
    25
100
AcDbLine
 10
-17.5027246327
 20
117.8155520854
 30
0.0
 11
-17.5027246327
 21
113.1209230878
 31
0.0
  0
LINE
  5
14E
330
1B
100
AcDbEntity
 67
     1
  8
0
  6
Continuous
 62
     7
370
    25
100
AcDbLine
 10
-17.5027246327
 20
131.6155520854
 30
0.0
 11
-17.5027246327
 21
124.4155520854
 31
0.0
  0
LINE
  5
14F
330
1B
100
AcDbEntity
 67
     1
  8
0
  6
Continuous
 62
     7
370
    25
100
AcDbLine
 10
17.4972753673
 20
126.6155520854
 30
0.0
 11
17.4972753673
 21
131.6155520854
 31
0.0
  0
LINE
  5
150
330
1B
100
AcDbEntity
 67
     1
  8
0
  6
Continuous
 62
     7
370
    25
100
AcDbLine
 10
17.4972753673
 20
107.1155520854
 30
0.0
 11
17.4972753673
 21
117.6155520854
 31
0.0
  0
LINE
  5
151
330
1B
100
AcDbEntity
 67
     1
  8
0
  6
Continuous
 62
     7
370
    25
100
AcDbLine
 10
54.4761419282
 20
118.6078369629
 30
0.0
 11
54.4963882984
 21
118.6447305164
 31
0.0
  0
LINE
  5
152
330
1B
100
AcDbEntity
 67
     1
  8
0
  6
Continuous
 62
     7
370
    25
100
AcDbLine
 10
52.5738076618
 20
125.8288707691
 30
0.0
 11
52.5514822861
 21
125.8400131907
 31
0.0
  0
LINE
  5
153
330
1B
100
AcDbEntity
 67
     1
  8
0
  6
Continuous
 62
     7
370
    25
100
AcDbLine
 10
17.9972753788
 20
118.1155520854
 30
0.0
 11
53.9972753757
 21
118.1155520854
 31
0.0
  0
LINE
  5
154
330
1B
100
AcDbEntity
 67
     1
  8
0
  6
Continuous
 62
     7
370
    25
100
AcDbLine
 10
52.1216309996
 20
126.1155520854
 30
0.0
 11
17.9972753673
 21
126.1155520854
 31
0.0
  0
LINE
  5
155
330
1B
100
AcDbEntity
 67
     1
  8
0
  6
Continuous
 62
     7
370
    25
100
AcDbLine
 10
-17.5847528617
 20
125.0155520854
 30
0.0
 11
-17.924018854
 21
125.0155520854
 31
0.0
  0
LINE
  5
156
330
1B
100
AcDbEntity
 67
     1
  8
0
  6
Continuous
 62
     7
370
    25
100
AcDbLine
 10
-17.924018854
 20
117.2155520854
 30
0.0
 11
-17.5847528617
 21
117.2155520854
 31
0.0
  0
LINE
  5
157
330
1B
100
AcDbEntity
 67
     1
  8
0
  6
Continuous
 62
     7
370
    25
100
AcDbLine
 10
-17.3744238621
 20
123.7474719098
 30
0.0
 11
-17.5184266084
 21
123.751740201
 31
0.0
  0
LINE
  5
158
330
1B
100
AcDbEntity
 67
     1
  8
0
  6
Continuous
 62
     7
370
    25
100
AcDbLine
 10
-17.5184266094
 20
118.4793639705
 30
0.0
 11
-17.374423861
 21
118.4836322618
 31
0.0
  0
LINE
  5
159
330
1B
100
AcDbEntity
 67
     1
  8
0
  6
Continuous
 62
     7
370
    25
100
AcDbLine
 10
78.2466946127
 20
70.0836739591
 30
0.0
 11
79.4049779108
 21
60.6502135178
 31
0.0
  0
LINE
  5
15A
330
1B
100
AcDbEntity
 67
     1
  8
0
  6
Continuous
 62
     7
370
    25
100
AcDbLine
 10
97.2708086404
 20
62.8438616991
 30
0.0
 11
96.3818814021
 21
70.083593077
 31
0.0
  0
LINE
  5
15B
330
1B
100
AcDbEntity
 67
     1
  8
0
  6
Continuous
 62
     7
370
    25
100
AcDbLine
 10
79.3982914375
 20
60.6554376197
 30
0.0
 11
79.7459890865
 21
60.3837864422
 31
0.0
  0
LINE
  5
15C
330
1B
100
AcDbEntity
 67
     1
  8
0
  6
Continuous
 62
     7
370
    25
100
AcDbLine
 10
97.0043814972
 20
62.5028505761
 30
0.0
 11
97.2760326723
 21
62.850548227
 31
0.0
  0
LINE
  5
15D
330
1B
100
AcDbEntity
 67
     1
  8
0
  6
Continuous
 62
     7
370
    25
100
AcDbLine
 10
25.0
 20
-1.0
 30
0.0
 11
25.0
 21
2.0
 31
0.0
  0
LINE
  5
15E
330
1B
100
AcDbEntity
 67
     1
  8
0
  6
Continuous
 62
     7
370
    25
100
AcDbLine
 10
-25.0
 20
2.0
 30
0.0
 11
-25.0
 21
-1.0
 31
0.0
  0
LINE
  5
15F
330
1B
100
AcDbEntity
 67
     1
  8
0
  6
Continuous
 62
     7
370
    25
100
AcDbLine
 10
17.2
 20
105.2
 30
0.0
 11
-17.1999999889
 21
105.2
 31
0.0
  0
LINE
  5
160
330
1B
100
AcDbEntity
 67
     1
  8
0
  6
Continuous
 62
     7
370
    25
100
AcDbLine
 10
-17.5027246303
 20
113.1412853171
 30
0.0
 11
-2.3761078134
 21
107.9327734514
 31
0.0
  0
LINE
  5
161
330
1B
100
AcDbEntity
 67
     1
  8
0
  6
Continuous
 62
     7
370
    25
100
AcDbLine
 10
17.4972753565
 20
107.1155520854
 30
0.0
 11
2.5074145035
 21
107.1155520854
 31
0.0
  0
LINE
  5
162
330
1B
100
AcDbEntity
 67
     1
  8
0
  6
Continuous
 62
     7
370
    25
100
AcDbLine
 10
16.9972753673
 20
132.1155520854
 30
0.0
 11
-17.0027246327
 21
132.1155520854
 31
0.0
  0
LINE
  5
163
330
1B
100
AcDbEntity
 67
     1
  8
0
  6
Continuous
 62
     7
370
    25
100
AcDbLine
 10
54.4372876288
 20
118.9052556219
 30
0.0
 11
54.4802382804
 21
118.744961608
 31
0.0
  0
LINE
  5
164
330
1B
100
AcDbEntity
 67
     1
  8
0
  6
Continuous
 62
     7
370
    25
100
AcDbLine
 10
-17.5
 20
117.3155521414
 30
0.0
 11
-17.5
 21
124.9155520304
 31
0.0
  0
LINE
  5
165
330
1B
100
AcDbEntity
 67
     1
  8
0
  6
Continuous
 62
     7
370
    25
100
AcDbLine
 10
79.4049779108
 20
60.6502135178
 30
0.0
 11
97.2708086065
 21
62.8438616949
 31
0.0
  0
LINE
  5
166
330
1B
100
AcDbEntity
 67
     1
  8
0
  6
Continuous
 62
     7
370
    25
100
AcDbLine
 10
79.7393025861
 20
60.3890105088
 30
0.0
 11
97.0096053361
 21
62.5095370486
 31
0.0
  0
LINE
  5
167
330
1B
100
AcDbEntity
 67
     1
  8
0
  6
Continuous
 62
     7
370
    25
100
AcDbLine
 10
24.0
 20
3.0
 30
0.0
 11
-23.9999999986
 21
3.0
 31
0.0
  0
LINE
  5
168
330
1B
100
AcDbEntity
 67
     1
  8
0
  6
Continuous
 62
     7
370
    25
100
AcDbLine
 10
25.0
 20
-1.0
 30
0.0
 11
-24.9999999941
 21
-1.0
 31
0.0
  0
LINE
  5
169
330
1B
100
AcDbEntity
 67
     1
  8
0
  6
Continuous
 62
     8
370
    25
100
AcDbLine
 10
17.5
 20
104.9
 30
0.0
 11
-17.4999999879
 21
104.9
 31
0.0
  0
LINE
  5
16A
330
1B
100
AcDbEntity
 67
     1
  8
0
  6
Continuous
 62
     8
370
    25
100
AcDbLine
 10
-17.5
 20
3.3
 30
0.0
 11
17.4999999879
 21
3.3
 31
0.0
  0
LINE
  5
16B
330
1B
100
AcDbEntity
 67
     1
  8
0
  6
Continuous
 62
     8
370
    25
100
AcDbLine
 10
-17.5027246327
 20
131.6155520854
 30
0.0
 11
17.4972753552
 21
131.6155520854
 31
0.0
  0
LINE
  5
16C
330
1B
100
AcDbEntity
 67
     1
  8
0
  6
Continuous
 62
     8
370
    25
100
AcDbLine
 10
-17.9087716957
 20
125.0155520854
 30
0.0
 11
-17.9087716957
 21
117.2155520854
 31
0.0
  0
LINE
  5
16D
330
1B
100
AcDbEntity
 67
     1
  8
0
  6
Continuous
 62
     8
370
    25
100
AcDbLine
 10
-18.6413739241
 20
124.4261571062
 30
0.0
 11
-18.6413739241
 21
117.8049470646
 31
0.0
  0
LINE
  5
16E
330
1B
100
AcDbEntity
 67
     1
  8
0
  6
Continuous
 62
     8
370
    25
100
AcDbLine
 10
-17.6
 20
117.2155520854
 30
0.0
 11
-17.6
 21
125.0155520854
 31
0.0
  0
LINE
  5
16F
330
1B
100
AcDbEntity
 67
     1
  8
0
  6
Continuous
 62
     8
370
    25
100
AcDbLine
 10
-17.5
 20
118.4738866185
 30
0.0
 11
-17.3909733054
 21
118.4771387278
 31
0.0
  0
LINE
  5
170
330
1B
100
AcDbEntity
 67
     1
  8
0
  6
Continuous
 62
     8
370
    25
100
AcDbLine
 10
-17.3030886812
 20
119.1436219152
 30
0.0
 11
-17.5
 21
119.1377746559
 31
0.0
  0
LINE
  5
171
330
1B
100
AcDbEntity
 67
     1
  8
0
  6
Continuous
 62
     8
370
    25
100
AcDbLine
 10
-17.5
 20
123.0933295149
 30
0.0
 11
-17.3030886969
 21
123.0874820415
 31
0.0
  0
LINE
  5
172
330
1B
100
AcDbEntity
 67
     1
  8
0
  6
Continuous
 62
     8
370
    25
100
AcDbLine
 10
-17.3910018411
 20
123.7539664666
 30
0.0
 11
-17.5
 21
123.7572175524
 31
0.0
  0
LINE
  5
173
330
1B
100
AcDbEntity
 67
     1
  8
0
  6
Continuous
 62
     8
370
    25
100
AcDbLine
 10
-17.3074402967
 20
123.2854816039
 30
0.0
 11
-17.5
 21
123.2912059813
 31
0.0
  0
LINE
  5
174
330
1B
100
AcDbEntity
 67
     1
  8
0
  6
Continuous
 62
     8
370
    25
100
AcDbLine
 10
-17.5
 20
123.1902411588
 30
0.0
 11
-17.3050284959
 21
123.1844426846
 31
0.0
  0
LINE
  5
175
330
1B
100
AcDbEntity
 67
     1
  8
0
  6
Continuous
 62
     8
370
    25
100
AcDbLine
 10
-17.5
 20
118.9398981895
 30
0.0
 11
-17.3074403037
 21
118.9456227569
 31
0.0
  0
LINE
  5
176
330
1B
100
AcDbEntity
 67
     1
  8
0
  6
Continuous
 62
     8
370
    25
100
AcDbLine
 10
-17.3050284844
 20
119.0466612563
 30
0.0
 11
-17.5
 21
119.040863012
 31
0.0
  0
LINE
  5
177
330
1B
100
AcDbEntity
 67
     1
  8
0
  6
Continuous
 62
     8
370
    25
100
AcDbLine
 10
-17.5
 20
123.7283150148
 30
0.0
 11
-17.367449208
 21
123.7243964226
 31
0.0
  0
LINE
  5
178
330
1B
100
AcDbEntity
 67
     1
  8
0
  6
Continuous
 62
     8
370
    25
100
AcDbLine
 10
-17.3674492031
 20
118.5067077155
 30
0.0
 11
-17.5
 21
118.502789156
 31
0.0
  0
LINE
  5
179
330
1B
100
AcDbEntity
 67
     1
  8
0
  6
Continuous
 62
     8
370
    25
100
AcDbLine
 10
25.0
 20
2.0
 30
0.0
 11
-25.0
 21
2.0
 31
0.0
  0
ARC
  5
17A
330
1B
100
AcDbEntity
 67
     1
  8
0
  6
Continuous
 62
     7
370
    25
100
AcDbCircle
 10
-17.2
 20
3.3
 30
0.0
 40
0.2999999999998622
100
AcDbArc
 50
180.0
 51
270.0
  0
ARC
  5
17B
330
1B
100
AcDbEntity
 67
     1
  8
0
  6
Continuous
 62
     7
370
    25
100
AcDbCircle
 10
17.2
 20
3.3
 30
0.0
 40
0.3000000000003169
100
AcDbArc
 50
270.0000000001
 51
359.9999999999
  0
ARC
  5
17C
330
1B
100
AcDbEntity
 67
     1
  8
0
  6
Continuous
 62
     7
370
    25
100
AcDbCircle
 10
-17.2
 20
104.9
 30
0.0
 40
0.3000000000015888
100
AcDbArc
 50
90.0000000003
 51
179.9999999997
  0
ARC
  5
17D
330
1B
100
AcDbEntity
 67
     1
  8
0
  6
Continuous
 62
     7
370
    25
100
AcDbCircle
 10
17.2
 20
104.9
 30
0.0
 40
0.2999999999992298
100
AcDbArc
 50
359.9999999999
 51
90.0000000001
  0
ARC
  5
17E
330
1B
100
AcDbEntity
 67
     1
  8
0
  6
Continuous
 62
     7
370
    25
100
AcDbCircle
 10
6.1931818182
 20
105.2
 30
0.0
 40
9.05681818182879
100
AcDbArc
 50
0.0
 51
12.2104973725
  0
ARC
  5
17F
330
1B
100
AcDbEntity
 67
     1
  8
0
  6
Continuous
 62
     7
370
    25
100
AcDbCircle
 10
-6.1931818182
 20
105.2
 30
0.0
 40
9.056818181817794
100
AcDbArc
 50
136.0067773369
 51
180.0
  0
ARC
  5
180
330
1B
100
AcDbEntity
 67
     1
  8
0
  6
Continuous
 62
     7
370
    25
100
AcDbCircle
 10
16.9972753673
 20
131.6155520854
 30
0.0
 40
0.5000000000019327
100
AcDbArc
 50
0.0000000002
 51
89.9999999998
  0
ARC
  5
181
330
1B
100
AcDbEntity
 67
     1
  8
0
  6
Continuous
 62
     7
370
    25
100
AcDbCircle
 10
-17.0027246327
 20
131.6155520854
 30
0.0
 40
0.4999999999960849
100
AcDbArc
 50
89.9999999996
 51
180.0000000005
  0
ARC
  5
182
330
1B
100
AcDbEntity
 67
     1
  8
0
  6
Continuous
 62
     7
370
    25
100
AcDbCircle
 10
-17.9087716942
 20
124.2655520854
 30
0.0
 40
0.7500000000433573
100
AcDbArc
 50
90.0000001158
 51
167.6349204759
  0
ARC
  5
183
330
1B
100
AcDbEntity
 67
     1
  8
0
  6
Continuous
 62
     7
370
    25
100
AcDbCircle
 10
-17.9087716943
 20
117.9655520853
 30
0.0
 40
0.7499999999062936
100
AcDbArc
 50
192.3650795156
 51
269.9999998926
  0
ARC
  5
184
330
1B
100
AcDbEntity
 67
     1
  8
0
  6
Continuous
 62
     7
370
    25
100
AcDbCircle
 10
-17.6
 20
124.9155520854
 30
0.0
 40
0.0999999999882846
100
AcDbArc
 50
13.4054888688
 51
90.0000000051
  0
ARC
  5
185
330
1B
100
AcDbEntity
 67
     1
  8
0
  6
Continuous
 62
     7
370
    25
100
AcDbCircle
 10
-17.6
 20
117.3155520854
 30
0.0
 40
0.1000000000056102
100
AcDbArc
 50
270.0000000026
 51
346.5945111225
  0
ARC
  5
186
330
1B
100
AcDbEntity
 67
     1
  8
0
  6
Continuous
 62
     7
370
    25
100
AcDbCircle
 10
-3.54
 20
121.1155520854
 30
0.0
 40
15.46000000001297
100
AcDbArc
 50
167.6349197487
 51
192.3650802513
  0
ARC
  5
187
330
1B
100
AcDbEntity
 67
     1
  8
0
  6
Continuous
 62
     7
370
    25
100
AcDbCircle
 10
24.0
 20
2.0
 30
0.0
 40
1.000000000001554
100
AcDbArc
 50
0.0000000001
 51
89.9999999999
  0
ARC
  5
188
330
1B
100
AcDbEntity
 67
     1
  8
0
  6
Continuous
 62
     7
370
    25
100
AcDbCircle
 10
-24.0
 20
2.0
 30
0.0
 40
0.9999999999969269
100
AcDbArc
 50
89.9999999998
 51
180.0000000002
  0
ARC
  5
189
330
1B
100
AcDbEntity
 67
     1
  8
0
  6
Continuous
 62
     7
370
    25
100
AcDbCircle
 10
95.7015849968
 20
89.9499853728
 30
0.0
 40
0.4999999999999158
100
AcDbArc
 50
10.0017020145
 51
90.0002955444
  0
ARC
  5
18A
330
1B
100
AcDbEntity
 67
     1
  8
0
  6
Continuous
 62
     7
370
    25
100
AcDbCircle
 10
99.1399559623
 20
70.4500146272
 30
0.0
 40
0.5000000000000437
100
AcDbArc
 50
270.0002955432
 51
9.9982979854
  0
ARC
  5
18B
330
1B
100
AcDbEntity
 67
     1
  8
0
  6
Continuous
 62
     7
370
    25
100
AcDbCircle
 10
17.9972753673
 20
126.6155520855
 30
0.0
 40
0.5000000000103668
100
AcDbArc
 50
180.0000000115
 51
269.9999999931
  0
ARC
  5
18C
330
1B
100
AcDbEntity
 67
     1
  8
0
  6
Continuous
 62
     7
370
    25
100
AcDbCircle
 10
17.9972719965
 20
117.615556838
 30
0.0
 40
0.4999994719359726
100
AcDbArc
 50
89.9996137351
 51
180.0005446105
  0
ARC
  5
18D
330
1B
100
AcDbEntity
 67
     1
  8
0
  6
Continuous
 62
     7
370
    25
100
AcDbCircle
 10
53.9972744096
 20
118.6155556597
 30
0.0
 40
0.5000000000000077
100
AcDbArc
 50
270.000109744
 51
14.9995759732
  0
ARC
  5
18E
330
1B
100
AcDbEntity
 67
     1
  8
0
  6
Continuous
 62
     7
370
    25
100
AcDbCircle
 10
52.1216332636
 20
125.6155437132
 30
0.0
 40
0.4999999999999028
100
AcDbArc
 50
15.0009932352
 51
90.0002570639
  0
VIEWPORT
  5
27F
330
1B
100
AcDbEntity
 67
     1
  8
0
100
AcDbViewport
 10
0.0
 20
0.0
 30
0.0
 40
205.6
 41
156.0
 68
     1
 69
     1
 12
0.0
 22
65.5577760427
 13
0.0
 23
0.0
 14
10.0
 24
10.0
 15
10.0
 25
10.0
 16
0.0
 26
0.0
 36
1.0
 17
0.0
 27
0.0
 37
0.0
 42
50.0
 43
0.0
 44
0.0
 45
135.7778631271
 50
0.0
 51
0.0
 72
   100
 90
   557152
  1

281
     0
 71
     1
 74
     0
110
0.0
120
0.0
130
0.0
111
1.0
121
0.0
131
0.0
112
0.0
122
1.0
132
0.0
 79
     0
146
0.0
  0
ENDSEC
  0
SECTION
  2
OBJECTS
  0
DICTIONARY
  5
C
330
0
100
AcDbDictionary
281
     1
  3
ACAD_GROUP
350
D
  3
ACAD_LAYOUT
350
1A
  3
ACAD_MLINESTYLE
350
17
  3
ACAD_PLOTSETTINGS
350
19
  3
ACAD_PLOTSTYLENAME
350
E
  3
ACAD_SCALELIST
350
47
  0
DICTIONARY
  5
D
102
{ACAD_REACTORS
330
C
102
}
330
C
100
AcDbDictionary
281
     1
  0
DICTIONARY
  5
1A
102
{ACAD_REACTORS
330
C
102
}
330
C
100
AcDbDictionary
281
     1
  3
_Isometric
350
201
  3
_Left
350
1E
  3
_Top
350
26
  3
Model
350
22
  0
DICTIONARY
  5
17
102
{ACAD_REACTORS
330
C
102
}
330
C
100
AcDbDictionary
281
     1
  3
Standard
350
18
  0
DICTIONARY
  5
19
102
{ACAD_REACTORS
330
C
102
}
330
C
100
AcDbDictionary
281
     1
  0
ACDBDICTIONARYWDFLT
  5
E
102
{ACAD_REACTORS
330
C
102
}
330
C
100
AcDbDictionary
281
     1
  3
Normal
350
F
100
AcDbDictionaryWithDefault
340
F
  0
DICTIONARY
  5
47
102
{ACAD_REACTORS
330
C
102
}
330
C
100
AcDbDictionary
281
     1
  3
A0
350
48
  3
A1
350
49
  3
A2
350
4A
  3
A3
350
4B
  3
A4
350
4C
  3
A5
350
4D
  3
A6
350
4E
  3
A7
350
4F
  3
A8
350
50
  3
A9
350
51
  3
B0
350
52
  3
B1
350
53
  3
B2
350
54
  3
B3
350
55
  3
B4
350
56
  3
B5
350
57
  3
B6
350
58
  3
B7
350
59
  3
B8
350
5A
  3
B9
350
5B
  3
C0
350
5C
  3
C1
350
5D
  3
C2
350
5E
  3
C3
350
5F
  3
C4
350
60
  3
C5
350
61
  3
C6
350
62
  3
C7
350
63
  3
C8
350
64
  3
C9
350
65
  3
D0
350
66
  3
D1
350
67
  3
D2
350
68
  0
LAYOUT
  5
201
102
{ACAD_REACTORS
330
1A
102
}
330
1A
100
AcDbPlotSettings
  1

  2
none_device
  4
ISO_A4_(210.00_x_297.00_MM)
  6

 40
7.5
 41
20.0
 42
7.5
 43
20.0
 44
210.0
 45
297.0
 46
0.0
 47
0.0
 48
0.0
 49
0.0
140
0.0
141
0.0
142
1.0
143
0.6826438568
 70
   688
 72
     1
 73
     1
 74
     1
  7

 75
     0
147
1.4648926962
148
25.0
149
1.0
100
AcDbLayout
  1
_Isometric
 70
     1
 71
     3
 10
0.0
 20
0.0
 11
0.0
 21
0.0
 12
0.0
 22
0.0
 32
0.0
 14
0.0
 24
0.0
 34
0.0
 15
0.0
 25
0.0
 35
0.0
146
0.0
 13
0.0
 23
0.0
 33
0.0
 16
1.0
 26
0.0
 36
0.0
 17
0.0
 27
1.0
 37
0.0
 76
     0
330
200
331
283
  0
LAYOUT
  5
1E
102
{ACAD_REACTORS
330
1A
102
}
330
1A
100
AcDbPlotSettings
  1

  2
none_device
  4
ISO_A4_(210.00_x_297.00_MM)
  6

 40
7.5
 41
20.0
 42
7.5
 43
20.0
 44
210.0
 45
297.0
 46
0.0
 47
0.0
 48
0.0
 49
0.0
140
0.0
141
0.0
142
1.0
143
0.6826438568
 70
   688
 72
     1
 73
     1
 74
     1
  7

 75
     0
147
1.4648926962
148
25.0
149
1.0
100
AcDbLayout
  1
_Left
 70
     1
 71
     1
 10
-38.652877137
 20
-6.1198289264
 11
164.092348347
 21
137.2353810118
 12
0.0
 22
0.0
 32
0.0
 14
-25.0
 24
-1.0
 34
0.0
 15
99.6399559623
 25
132.1155520854
 35
0.0
146
0.0
 13
0.0
 23
0.0
 33
0.0
 16
1.0
 26
0.0
 36
0.0
 17
0.0
 27
1.0
 37
0.0
 76
     0
330
1B
331
27F
  0
LAYOUT
  5
26
102
{ACAD_REACTORS
330
1A
102
}
330
1A
100
AcDbPlotSettings
  1

  2
none_device
  4
ISO_A4_(210.00_x_297.00_MM)
  6

 40
7.5
 41
20.0
 42
7.5
 43
20.0
 44
210.0
 45
297.0
 46
0.0
 47
0.0
 48
0.0
 49
0.0
140
0.0
141
0.0
142
1.0
143
0.6826438568
 70
   688
 72
     1
 73
     1
 74
     1
  7

 75
     0
147
1.4648926962
148
25.0
149
1.0
100
AcDbLayout
  1
_Top
 70
     1
 71
     2
 10
0.0
 20
0.0
 11
0.0
 21
0.0
 12
0.0
 22
0.0
 32
0.0
 14
0.0
 24
0.0
 34
0.0
 15
0.0
 25
0.0
 35
0.0
146
0.0
 13
0.0
 23
0.0
 33
0.0
 16
1.0
 26
0.0
 36
0.0
 17
0.0
 27
1.0
 37
0.0
 76
     0
330
23
331
281
  0
LAYOUT
  5
22
102
{ACAD_REACTORS
330
1A
102
}
330
1A
100
AcDbPlotSettings
  1

  2
none_device
  4
ANSI_A_(11.00_x_8.50_Inches)
  6

 40
6.35
 41
19.05
 42
6.35000508
 43
19.05000254
 44
279.4
 45
215.9
 46
133.34999746
 47
-16.3648211173
 48
0.0
 49
0.0
140
0.0
141
0.0
142
0.063215754
143
1.0
 70
  1696
 72
     0
 73
     0
 74
     0
  7

 75
     0
147
0.0179189148
148
-1300.4909072572
149
0.0
100
AcDbLayout
  1
Model
 70
     1
 71
     0
 10
0.0
 20
0.0
 11
420.0
 21
297.0
 12
0.0
 22
0.0
 32
0.0
 14
-25.0
 24
-1.0
 34
0.0
 15
25.0
 25
132.1155520854
 35
0.0
146
0.0
 13
0.0
 23
0.0
 33
0.0
 16
1.0
 26
0.0
 36
0.0
 17
0.0
 27
1.0
 37
0.0
 76
     0
330
1F
331
29
  0
MLINESTYLE
  5
18
102
{ACAD_REACTORS
330
17
102
}
330
17
100
AcDbMlineStyle
  2
Standard
 70
     0
  3

 62
   256
 51
90.0
 52
90.0
 71
     2
 49
0.5
 62
   256
  6
BYLAYER
 49
-0.5
 62
   256
  6
BYLAYER
  0
ACDBPLACEHOLDER
  5
F
102
{ACAD_REACTORS
330
E
102
}
330
E
  0
SCALE
  5
48
102
{ACAD_REACTORS
330
47
102
}
330
47
100
AcDbScale
 70
     0
300
1:1
140
1.0
141
1.0
290
     1
  0
SCALE
  5
49
102
{ACAD_REACTORS
330
47
102
}
330
47
100
AcDbScale
 70
     0
300
1:2
140
1.0
141
2.0
290
     0
  0
SCALE
  5
4A
102
{ACAD_REACTORS
330
47
102
}
330
47
100
AcDbScale
 70
     0
300
1:4
140
1.0
141
4.0
290
     0
  0
SCALE
  5
4B
102
{ACAD_REACTORS
330
47
102
}
330
47
100
AcDbScale
 70
     0
300
1:5
140
1.0
141
5.0
290
     0
  0
SCALE
  5
4C
102
{ACAD_REACTORS
330
47
102
}
330
47
100
AcDbScale
 70
     0
300
1:8
140
1.0
141
8.0
290
     0
  0
SCALE
  5
4D
102
{ACAD_REACTORS
330
47
102
}
330
47
100
AcDbScale
 70
     0
300
1:10
140
1.0
141
10.0
290
     0
  0
SCALE
  5
4E
102
{ACAD_REACTORS
330
47
102
}
330
47
100
AcDbScale
 70
     0
300
1:16
140
1.0
141
16.0
290
     0
  0
SCALE
  5
4F
102
{ACAD_REACTORS
330
47
102
}
330
47
100
AcDbScale
 70
     0
300
1:20
140
1.0
141
20.0
290
     0
  0
SCALE
  5
50
102
{ACAD_REACTORS
330
47
102
}
330
47
100
AcDbScale
 70
     0
300
1:30
140
1.0
141
30.0
290
     0
  0
SCALE
  5
51
102
{ACAD_REACTORS
330
47
102
}
330
47
100
AcDbScale
 70
     0
300
1:40
140
1.0
141
40.0
290
     0
  0
SCALE
  5
52
102
{ACAD_REACTORS
330
47
102
}
330
47
100
AcDbScale
 70
     0
300
1:50
140
1.0
141
50.0
290
     0
  0
SCALE
  5
53
102
{ACAD_REACTORS
330
47
102
}
330
47
100
AcDbScale
 70
     0
300
1:100
140
1.0
141
100.0
290
     0
  0
SCALE
  5
54
102
{ACAD_REACTORS
330
47
102
}
330
47
100
AcDbScale
 70
     0
300
2:1
140
2.0
141
1.0
290
     0
  0
SCALE
  5
55
102
{ACAD_REACTORS
330
47
102
}
330
47
100
AcDbScale
 70
     0
300
4:1
140
4.0
141
1.0
290
     0
  0
SCALE
  5
56
102
{ACAD_REACTORS
330
47
102
}
330
47
100
AcDbScale
 70
     0
300
8:1
140
8.0
141
1.0
290
     0
  0
SCALE
  5
57
102
{ACAD_REACTORS
330
47
102
}
330
47
100
AcDbScale
 70
     0
300
10:1
140
10.0
141
1.0
290
     0
  0
SCALE
  5
58
102
{ACAD_REACTORS
330
47
102
}
330
47
100
AcDbScale
 70
     0
300
100:1
140
100.0
141
1.0
290
     0
  0
SCALE
  5
59
102
{ACAD_REACTORS
330
47
102
}
330
47
100
AcDbScale
 70
     0
300
1/128" = 1'-0"
140
0.0078125
141
12.0
290
     0
  0
SCALE
  5
5A
102
{ACAD_REACTORS
330
47
102
}
330
47
100
AcDbScale
 70
     0
300
1/64" = 1'-0"
140
0.015625
141
12.0
290
     0
  0
SCALE
  5
5B
102
{ACAD_REACTORS
330
47
102
}
330
47
100
AcDbScale
 70
     0
300
1/32" = 1'-0"
140
0.03125
141
12.0
290
     0
  0
SCALE
  5
5C
102
{ACAD_REACTORS
330
47
102
}
330
47
100
AcDbScale
 70
     0
300
1/16" = 1'-0"
140
0.0625
141
12.0
290
     0
  0
SCALE
  5
5D
102
{ACAD_REACTORS
330
47
102
}
330
47
100
AcDbScale
 70
     0
300
3/32" = 1'-0"
140
0.09375
141
12.0
290
     0
  0
SCALE
  5
5E
102
{ACAD_REACTORS
330
47
102
}
330
47
100
AcDbScale
 70
     0
300
1/8" = 1'-0"
140
0.125
141
12.0
290
     0
  0
SCALE
  5
5F
102
{ACAD_REACTORS
330
47
102
}
330
47
100
AcDbScale
 70
     0
300
3/16" = 1'-0"
140
0.1875
141
12.0
290
     0
  0
SCALE
  5
60
102
{ACAD_REACTORS
330
47
102
}
330
47
100
AcDbScale
 70
     0
300
1/4" = 1'-0"
140
0.25
141
12.0
290
     0
  0
SCALE
  5
61
102
{ACAD_REACTORS
330
47
102
}
330
47
100
AcDbScale
 70
     0
300
3/8" = 1'-0"
140
0.375
141
12.0
290
     0
  0
SCALE
  5
62
102
{ACAD_REACTORS
330
47
102
}
330
47
100
AcDbScale
 70
     0
300
1/2" = 1'-0"
140
0.5
141
12.0
290
     0
  0
SCALE
  5
63
102
{ACAD_REACTORS
330
47
102
}
330
47
100
AcDbScale
 70
     0
300
3/4" = 1'-0"
140
0.75
141
12.0
290
     0
  0
SCALE
  5
64
102
{ACAD_REACTORS
330
47
102
}
330
47
100
AcDbScale
 70
     0
300
1" = 1'-0"
140
1.0
141
12.0
290
     0
  0
SCALE
  5
65
102
{ACAD_REACTORS
330
47
102
}
330
47
100
AcDbScale
 70
     0
300
1-1/2" = 1'-0"
140
1.5
141
12.0
290
     0
  0
SCALE
  5
66
102
{ACAD_REACTORS
330
47
102
}
330
47
100
AcDbScale
 70
     0
300
3" = 1'-0"
140
3.0
141
12.0
290
     0
  0
SCALE
  5
67
102
{ACAD_REACTORS
330
47
102
}
330
47
100
AcDbScale
 70
     0
300
6" = 1'-0"
140
6.0
141
12.0
290
     0
  0
SCALE
  5
68
102
{ACAD_REACTORS
330
47
102
}
330
47
100
AcDbScale
 70
     0
300
1'-0" = 1'-0"
140
12.0
141
12.0
290
     0
  0
ENDSEC
  0
EOF
