  0
SECTION
  2
HEADER
  9
$ACADVER
  1
AC1015
  9
$ACADMAINTVER
 70
     6
  9
$DWGCODEPAGE
  3
ANSI_1252
  9
$INSBASE
 10
0.0
 20
0.0
 30
0.0
  9
$EXTMIN
 10
-132.4428843213
 20
220.6057867886
 30
0.0
  9
$EXTMAX
 10
1667.5571156791
 20
755.3223907536
 30
0.0
  9
$LIMMIN
 10
0.0
 20
0.0
  9
$LIMMAX
 10
420.0
 20
297.0
  9
$ORTHOMODE
 70
     0
  9
$REGENMODE
 70
     1
  9
$FILLMODE
 70
     1
  9
$QTEXTMODE
 70
     0
  9
$MIRRTEXT
 70
     1
  9
$LTSCALE
 40
1.0
  9
$ATTMODE
 70
     1
  9
$TEXTSIZE
 40
3.5
  9
$TRACEWID
 40
1.0
  9
$TEXTSTYLE
  7
Standard
  9
$CLAYER
  8
0
  9
$CELTYPE
  6
ByLayer
  9
$CECOLOR
 62
   256
  9
$CELTSCALE
 40
1.0
  9
$DISPSILH
 70
     0
  9
$DIMSCALE
 40
1.0
  9
$DIMASZ
 40
3.302
  9
$DIMEXO
 40
1.0
  9
$DIMDLI
 40
3.75
  9
$DIMRND
 40
0.0
  9
$DIMDLE
 40
0.0
  9
$DIMEXE
 40
1.0
  9
$DIMTP
 40
0.0
  9
$DIMTM
 40
0.0
  9
$DIMTXT
 40
3.5
  9
$DIMCEN
 40
2.5
  9
$DIMTSZ
 40
0.0
  9
$DIMTOL
 70
     0
  9
$DIMLIM
 70
     0
  9
$DIMTIH
 70
     1
  9
$DIMTOH
 70
     1
  9
$DIMSE1
 70
     0
  9
$DIMSE2
 70
     0
  9
$DIMTAD
 70
     1
  9
$DIMZIN
 70
     1
  9
$DIMBLK
  1

  9
$DIMASO
 70
     1
  9
$DIMSHO
 70
     1
  9
$DIMPOST
  1

  9
$DIMAPOST
  1

  9
$DIMALT
 70
     0
  9
$DIMALTD
 70
     3
  9
$DIMALTF
 40
0.0393700787
  9
$DIMLFAC
 40
1.0
  9
$DIMTOFL
 70
     1
  9
$DIMTVP
 40
0.0
  9
$DIMTIX
 70
     0
  9
$DIMSOXD
 70
     0
  9
$DIMSAH
 70
     0
  9
$DIMBLK1
  1

  9
$DIMBLK2
  1

  9
$DIMSTYLE
  2
ISO-25
  9
$DIMCLRD
 70
     0
  9
$DIMCLRE
 70
     0
  9
$DIMCLRT
 70
     0
  9
$DIMTFAC
 40
1.0
  9
$DIMGAP
 40
1.524
  9
$DIMJUST
 70
     0
  9
$DIMSD1
 70
     0
  9
$DIMSD2
 70
     0
  9
$DIMTOLJ
 70
     0
  9
$DIMTZIN
 70
     1
  9
$DIMALTZ
 70
     0
  9
$DIMALTTZ
 70
     0
  9
$DIMUPT
 70
     0
  9
$DIMDEC
 70
     2
  9
$DIMTDEC
 70
     2
  9
$DIMALTU
 70
     2
  9
$DIMALTTD
 70
     3
  9
$DIMTXSTY
  7
Standard
  9
$DIMAUNIT
 70
     0
  9
$DIMADEC
 70
     2
  9
$DIMALTRND
 40
0.0
  9
$DIMAZIN
 70
     0
  9
$DIMDSEP
 70
    44
  9
$DIMATFIT
 70
     3
  9
$DIMFRAC
 70
     0
  9
$DIMLDRBLK
  1

  9
$DIMLUNIT
 70
     2
  9
$DIMLWD
 70
    -2
  9
$DIMLWE
 70
    -2
  9
$DIMTMOVE
 70
     0
  9
$LUNITS
 70
     2
  9
$LUPREC
 70
     2
  9
$SKETCHINC
 40
1.0
  9
$FILLETRAD
 40
10.0
  9
$AUNITS
 70
     0
  9
$AUPREC
 70
     2
  9
$MENU
  1
.
  9
$ELEVATION
 40
0.0
  9
$PELEVATION
 40
0.0
  9
$THICKNESS
 40
0.0
  9
$LIMCHECK
 70
     0
  9
$CHAMFERA
 40
0.0
  9
$CHAMFERB
 40
0.0
  9
$CHAMFERC
 40
0.0
  9
$CHAMFERD
 40
0.0
  9
$SKPOLY
 70
     0
  9
$TDCREATE
 40
2460077.513465648
  9
$TDUCREATE
 40
2460077.471798982
  9
$TDUPDATE
 40
2460077.513496736
  9
$TDUUPDATE
 40
2460077.47183007
  9
$TDINDWG
 40
0.0000000116
  9
$TDUSRTIMER
 40
0.0000000116
  9
$USRTIMER
 70
     1
  9
$ANGBASE
 50
0.0
  9
$ANGDIR
 70
     0
  9
$PDMODE
 70
     0
  9
$PDSIZE
 40
-1.0
  9
$PLINEWID
 40
0.0
  9
$SPLFRAME
 70
     0
  9
$SPLINETYPE
 70
     6
  9
$SPLINESEGS
 70
     8
  9
$HANDSEED
  5
290
  9
$SURFTAB1
 70
     6
  9
$SURFTAB2
 70
     6
  9
$SURFTYPE
 70
     6
  9
$SURFU
 70
     6
  9
$SURFV
 70
     6
  9
$UCSBASE
  2

  9
$UCSNAME
  2

  9
$UCSORG
 10
0.0
 20
0.0
 30
0.0
  9
$UCSXDIR
 10
1.0
 20
0.0
 30
0.0
  9
$UCSYDIR
 10
0.0
 20
1.0
 30
0.0
  9
$UCSORTHOREF
  2

  9
$UCSORTHOVIEW
 70
     0
  9
$UCSORGTOP
 10
0.0
 20
0.0
 30
0.0
  9
$UCSORGBOTTOM
 10
0.0
 20
0.0
 30
0.0
  9
$UCSORGLEFT
 10
0.0
 20
0.0
 30
0.0
  9
$UCSORGRIGHT
 10
0.0
 20
0.0
 30
0.0
  9
$UCSORGFRONT
 10
0.0
 20
0.0
 30
0.0
  9
$UCSORGBACK
 10
0.0
 20
0.0
 30
0.0
  9
$PUCSBASE
  2

  9
$PUCSNAME
  2

  9
$PUCSORG
 10
0.0
 20
0.0
 30
0.0
  9
$PUCSXDIR
 10
1.0
 20
0.0
 30
0.0
  9
$PUCSYDIR
 10
0.0
 20
1.0
 30
0.0
  9
$PUCSORTHOREF
  2

  9
$PUCSORTHOVIEW
 70
     0
  9
$PUCSORGTOP
 10
0.0
 20
0.0
 30
0.0
  9
$PUCSORGBOTTOM
 10
0.0
 20
0.0
 30
0.0
  9
$PUCSORGLEFT
 10
0.0
 20
0.0
 30
0.0
  9
$PUCSORGRIGHT
 10
0.0
 20
0.0
 30
0.0
  9
$PUCSORGFRONT
 10
0.0
 20
0.0
 30
0.0
  9
$PUCSORGBACK
 10
0.0
 20
0.0
 30
0.0
  9
$USERI1
 70
     0
  9
$USERI2
 70
     0
  9
$USERI3
 70
     0
  9
$USERI4
 70
     0
  9
$USERI5
 70
     0
  9
$USERR1
 40
0.0
  9
$USERR2
 40
0.0
  9
$USERR3
 40
0.0
  9
$USERR4
 40
0.0
  9
$USERR5
 40
0.0
  9
$WORLDVIEW
 70
     1
  9
$SHADEDGE
 70
     3
  9
$SHADEDIF
 70
    70
  9
$TILEMODE
 70
     1
  9
$MAXACTVP
 70
    64
  9
$PINSBASE
 10
0.0
 20
0.0
 30
0.0
  9
$PLIMCHECK
 70
     0
  9
$PEXTMIN
 10
-1667.5571156791
 20
220.6057867886
 30
0.0
  9
$PEXTMAX
 10
132.4428843209
 20
755.3223907536
 30
0.0
  9
$PLIMMIN
 10
-1807.6349366908
 20
168.0766039092
  9
$PLIMMAX
 10
272.5207053326
 20
1638.8937245318
  9
$UNITMODE
 70
     0
  9
$VISRETAIN
 70
     1
  9
$PLINEGEN
 70
     0
  9
$PSLTSCALE
 70
     1
  9
$TREEDEPTH
 70
  3020
  9
$CMLSTYLE
  2
Standard
  9
$CMLJUST
 70
     0
  9
$CMLSCALE
 40
20.0
  9
$PROXYGRAPHICS
 70
     1
  9
$MEASUREMENT
 70
     1
  9
$CELWEIGHT
370
    -1
  9
$ENDCAPS
280
     0
  9
$JOINSTYLE
280
     0
  9
$LWDISPLAY
290
     1
  9
$INSUNITS
 70
     4
  9
$HYPERLINKBASE
  1

  9
$STYLESHEET
  1

  9
$XEDIT
290
     1
  9
$CEPSNTYPE
380
     0
  9
$PSTYLEMODE
290
     1
  9
$FINGERPRINTGUID
  2
{3b698740-b22f-49a4-b5eb-d3d3d7fead36}
  9
$VERSIONGUID
  2
{FAEB1C32-E019-11D5-929B-00C0DF256EC4}
  9
$EXTNAMES
290
     1
  9
$PSVPSCALE
 40
0.0
  9
$OLESTARTUP
290
     0
  0
ENDSEC
  0
SECTION
  2
CLASSES
  0
CLASS
  1
ACDBDICTIONARYWDFLT
  2
AcDbDictionaryWithDefault
  3
ObjectDBX Classes
 90
        0
280
     0
281
     0
  0
CLASS
  1
VISUALSTYLE
  2
AcDbVisualStyle
  3
ObjectDBX Classes
 90
     4095
280
     0
281
     0
  0
CLASS
  1
MATERIAL
  2
AcDbMaterial
  3
ObjectDBX Classes
 90
     1153
280
     0
281
     0
  0
CLASS
  1
SCALE
  2
AcDbScale
  3
ObjectDBX Classes
 90
     1153
280
     0
281
     0
  0
CLASS
  1
TABLESTYLE
  2
AcDbTableStyle
  3
ObjectDBX Classes
 90
     4095
280
     0
281
     0
  0
CLASS
  1
MLEADERSTYLE
  2
AcDbMLeaderStyle
  3
ACDB_MLEADERSTYLE_CLASS
 90
     4095
280
     0
281
     0
  0
CLASS
  1
SUN
  2
AcDbSun
  3
SCENEOE
 90
     1153
280
     0
281
     0
  0
CLASS
  1
ACDBPLACEHOLDER
  2
AcDbPlaceHolder
  3
ObjectDBX Classes
 90
        0
280
     0
281
     0
  0
CLASS
  1
LAYOUT
  2
AcDbLayout
  3
ObjectDBX Classes
 90
        0
280
     0
281
     0
  0
ENDSEC
  0
SECTION
  2
TABLES
  0
TABLE
  2
VPORT
  5
8
330
0
100
AcDbSymbolTable
 70
     1
  0
VPORT
  5
29
330
8
100
AcDbSymbolTableRecord
100
AcDbViewportTableRecord
  2
*Active
 70
     0
 10
0.0
 20
0.0
 11
1.0
 21
1.0
 12
767.5571156789
 22
487.9640887711
 13
0.0
 23
0.0
 14
10.0
 24
10.0
 15
10.0
 25
10.0
 16
0.0
 26
0.0
 36
1.0
 17
0.0
 27
0.0
 37
0.0
 40
545.4109360444
 41
3.3662691352
 42
50.0
 43
0.0
 44
0.0
 50
0.0
 51
0.0
 71
     0
 72
   100
 73
     1
 74
     3
 75
     0
 76
     0
 77
     0
 78
     0
281
     0
 65
     1
110
0.0
120
0.0
130
0.0
111
1.0
121
0.0
131
0.0
112
0.0
122
1.0
132
0.0
 79
     0
146
0.0
  0
ENDTAB
  0
TABLE
  2
LTYPE
  5
5
330
0
100
AcDbSymbolTable
 70
     6
  0
LTYPE
  5
14
330
5
100
AcDbSymbolTableRecord
100
AcDbLinetypeTableRecord
  2
ByBlock
 70
     0
  3

 72
    65
 73
     0
 40
0.0
  0
LTYPE
  5
15
330
5
100
AcDbSymbolTableRecord
100
AcDbLinetypeTableRecord
  2
ByLayer
 70
     0
  3

 72
    65
 73
     0
 40
0.0
  0
LTYPE
  5
16
330
5
100
AcDbSymbolTableRecord
100
AcDbLinetypeTableRecord
  2
Continuous
 70
     0
  3
Solid line
 72
    65
 73
     0
 40
0.0
  0
LTYPE
  5
6E
330
5
100
AcDbSymbolTableRecord
100
AcDbLinetypeTableRecord
  2
HIDDEN
 70
     0
  3
Hidden __ __ __ __ __ __ __ __ __ __ __ __ __ __
 72
    65
 73
     2
 40
1.905
 49
1.27
 74
     0
 49
-0.635
 74
     0
  0
LTYPE
  5
6F
330
5
100
AcDbSymbolTableRecord
100
AcDbLinetypeTableRecord
  2
PHANTOM
 70
     0
  3
Phantom ______  __  __  ______  __  __  ______
 72
    65
 73
     6
 40
12.7
 49
6.35
 74
     0
 49
-1.27
 74
     0
 49
1.27
 74
     0
 49
-1.27
 74
     0
 49
1.27
 74
     0
 49
-1.27
 74
     0
  0
LTYPE
  5
70
330
5
100
AcDbSymbolTableRecord
100
AcDbLinetypeTableRecord
  2
CENTER
 70
     0
  3
Center ____ _ ____ _ ____ _ ____ _ ____ _ ____
 72
    65
 73
     4
 40
10.16
 49
6.35
 74
     0
 49
-1.27
 74
     0
 49
1.27
 74
     0
 49
-1.27
 74
     0
  0
LTYPE
  5
71
330
5
100
AcDbSymbolTableRecord
100
AcDbLinetypeTableRecord
  2
CENTERX2
 70
     0
  3
Center (2x) ________  __  ________  __  _____
 72
    65
 73
     4
 40
20.32
 49
12.7
 74
     0
 49
-2.54
 74
     0
 49
2.54
 74
     0
 49
-2.54
 74
     0
  0
LTYPE
  5
72
330
5
100
AcDbSymbolTableRecord
100
AcDbLinetypeTableRecord
  2
DOT2
 70
     0
  3
Dot (.5x) ........................................
 72
    65
 73
     2
 40
0.635
 49
0.0
 74
     0
 49
-0.635
 74
     0
  0
ENDTAB
  0
TABLE
  2
LAYER
  5
2
330
0
100
AcDbSymbolTable
 70
     1
  0
LAYER
  5
10
330
2
100
AcDbSymbolTableRecord
100
AcDbLayerTableRecord
  2
0
 70
     0
 62
     7
  6
Continuous
370
    -3
390
F
  0
ENDTAB
  0
TABLE
  2
STYLE
  5
3
330
0
100
AcDbSymbolTable
 70
     1
  0
STYLE
  5
11
330
3
100
AcDbSymbolTableRecord
100
AcDbTextStyleTableRecord
  2
Standard
 70
     0
 40
0.0
 41
1.0
 50
0.0
 71
     0
 42
3.5
  3
txt
  4

  0
ENDTAB
  0
TABLE
  2
VIEW
  5
6
330
0
100
AcDbSymbolTable
 70
     0
  0
ENDTAB
  0
TABLE
  2
UCS
  5
7
330
0
100
AcDbSymbolTable
 70
     0
  0
ENDTAB
  0
TABLE
  2
APPID
  5
9
330
0
100
AcDbSymbolTable
 70
     1
  0
APPID
  5
12
330
9
100
AcDbSymbolTableRecord
100
AcDbRegAppTableRecord
  2
ACAD
 70
     0
  0
ENDTAB
  0
TABLE
  2
DIMSTYLE
  5
A
330
0
100
AcDbSymbolTable
 70
     1
100
AcDbDimStyleTable
  0
DIMSTYLE
105
27
330
A
100
AcDbSymbolTableRecord
100
AcDbDimStyleTableRecord
  2
ISO-25
 70
     0
 41
2.5
 42
0.625
 43
3.75
 44
1.25
 73
     0
 74
     0
 77
     1
 78
     8
140
2.5
141
2.5
143
0.0393700787
147
0.625
171
     3
172
     1
178
     0
271
     2
272
     2
274
     3
278
    44
283
     0
284
     8
340
11
  0
ENDTAB
  0
TABLE
  2
BLOCK_RECORD
  5
1
330
0
100
AcDbSymbolTable
 70
     3
  0
BLOCK_RECORD
  5
1F
330
1
100
AcDbSymbolTableRecord
100
AcDbBlockTableRecord
  2
*Model_Space
340
22
  0
BLOCK_RECORD
  5
1B
330
1
100
AcDbSymbolTableRecord
100
AcDbBlockTableRecord
  2
*Paper_Space
340
1E
  0
BLOCK_RECORD
  5
23
330
1
100
AcDbSymbolTableRecord
100
AcDbBlockTableRecord
  2
*Paper_Space0
340
26
  0
BLOCK_RECORD
  5
196
330
1
100
AcDbSymbolTableRecord
100
AcDbBlockTableRecord
  2
*Paper_Space1
340
197
  0
BLOCK_RECORD
  5
23C
330
1
100
AcDbSymbolTableRecord
100
AcDbBlockTableRecord
  2
*Paper_Space2
340
23D
  0
ENDTAB
  0
ENDSEC
  0
SECTION
  2
BLOCKS
  0
BLOCK
  5
20
330
1F
100
AcDbEntity
  8
0
100
AcDbBlockBegin
  2
*Model_Space
 70
     0
 10
0.0
 20
0.0
 30
0.0
  3
*Model_Space
  1

  0
ENDBLK
  5
21
330
1F
100
AcDbEntity
  8
0
100
AcDbBlockEnd
  0
BLOCK
  5
1C
330
1B
100
AcDbEntity
 67
     1
  8
0
100
AcDbBlockBegin
  2
*Paper_Space
 70
     0
 10
0.0
 20
0.0
 30
0.0
  3
*Paper_Space
  1

  0
ENDBLK
  5
1D
330
1B
100
AcDbEntity
 67
     1
  8
0
100
AcDbBlockEnd
  0
BLOCK
  5
24
330
23
100
AcDbEntity
  8
0
100
AcDbBlockBegin
  2
*Paper_Space0
 70
     0
 10
0.0
 20
0.0
 30
0.0
  3
*Paper_Space0
  1

  0
SPLINE
  5
125
330
23
100
AcDbEntity
  8
0
  6
Continuous
 62
     7
370
    25
100
AcDbSpline
210
0.0
220
0.0
230
1.0
 70
     8
 71
     3
 72
    16
 73
    12
 74
     0
 42
0.000000001
 43
0.00000001
 40
0.0
 40
0.0
 40
0.0
 40
0.0
 40
0.062163397418238
 40
0.1237951114262317
 40
0.1861489888491482
 40
0.250436216547103
 40
0.3718328016275305
 40
0.5003515393493773
 40
0.6631093402674907
 40
0.8274174894186783
 40
0.9999999999999999
 40
0.9999999999999999
 40
0.9999999999999999
 40
0.9999999999999999
 10
1560.765793057627
 20
310.32239075362
 30
0.0
 10
1560.765132018451
 20
310.3218168545677
 30
0.0
 10
1560.763815593966
 20
310.3206739650204
 30
0.0
 10
1560.754221936404
 20
310.3123522903624
 30
0.0
 10
1560.739010367181
 20
310.2991821083979
 30
0.0
 10
1560.711744538816
 20
310.2756382890312
 30
0.0
 10
1560.6662346756
 20
310.2365260648518
 30
0.0
 10
1560.591838594446
 20
310.1731627322939
 30
0.0
 10
1560.498156841164
 20
310.0943815509735
 30
0.0
 10
1560.38563279033
 20
310.001102960277
 30
0.0
 10
1560.306388405619
 20
309.9368405343567
 30
0.0
 10
1560.265793053781
 20
309.9039201476349
 30
0.0
  0
SPLINE
  5
129
330
23
100
AcDbEntity
  8
0
  6
Continuous
 62
     7
370
    25
100
AcDbSpline
210
0.0
220
0.0
230
1.0
 70
     8
 71
     3
 72
     8
 73
     4
 74
     0
 42
0.000000001
 43
0.00000001
 40
0.0
 40
0.0
 40
0.0
 40
0.0
 40
1.0
 40
1.0
 40
1.0
 40
1.0
 10
1560.265793053781
 20
309.9039201476348
 30
0.0
 10
1556.489515364115
 20
306.8573138136628
 30
0.0
 10
1551.489515365397
 20
305.3301373489912
 30
0.0
 10
1545.265793057627
 20
305.32239075362
 30
0.0
  0
SPLINE
  5
139
330
23
100
AcDbEntity
  8
0
  6
Continuous
 62
     7
370
    25
100
AcDbSpline
210
0.0
220
0.0
230
1.0
 70
    24
 71
     3
 72
     8
 73
     4
 74
     0
 42
0.000000001
 43
0.00000001
 40
0.0
 40
0.0
 40
0.0
 40
0.0
 40
1.0
 40
1.0
 40
1.0
 40
1.0
 10
1550.265793057627
 20
755.32239075362
 30
0.0
 10
1550.265793057627
 20
753.484668413354
 30
0.0
 10
1550.265793057627
 20
751.9846684130788
 30
0.0
 10
1550.265793057627
 20
750.822390752794
 30
0.0
  0
SPLINE
  5
13A
330
23
100
AcDbEntity
  8
0
  6
Continuous
 62
     7
370
    25
100
AcDbSpline
210
0.0
220
0.0
230
1.0
 70
     8
 71
     3
 72
    23
 73
    19
 74
     0
 42
0.000000001
 43
0.00000001
 40
0.0
 40
0.0
 40
0.0
 40
0.0
 40
0.039759866695118
 40
0.0738349560423231
 40
0.1023354764023194
 40
0.1253490844820714
 40
0.1916317204838721
 40
0.2506727832056987
 40
0.3755886628180153
 40
0.4396540118402483
 40
0.4998950337611836
 40
0.632076743850179
 40
0.7494638193454829
 40
0.8043292409765785
 40
0.8566902167058063
 40
0.9066728924042032
 40
0.9544012633464888
 40
1.0
 40
1.0
 40
1.0
 40
1.0
 10
1553.265793057627
 20
747.82239075362
 30
0.0
 10
1553.214351260583
 20
747.8231422756037
 30
0.0
 10
1553.118822700273
 20
747.8245378686283
 30
0.0
 10
1552.985465663036
 20
747.8347324984377
 30
0.0
 10
1552.873554872467
 20
747.8475391344948
 30
0.0
 10
1552.719287420113
 20
747.8706481313255
 30
0.0
 10
1552.525020493719
 20
747.9115830485089
 30
0.0
 10
1552.198512020633
 20
748.0098203869302
 30
0.0
 10
1551.87933825586
 20
748.1510914219034
 30
0.0
 10
1551.571453517951
 20
748.3415672111227
 30
0.0
 10
1551.265923107921
 20
748.571544427086
 30
0.0
 10
1550.924426754337
 20
748.9149956028227
 30
0.0
 10
1550.643590536222
 20
749.340804104763
 30
0.0
 10
1550.478299443238
 20
749.7011438351037
 30
0.0
 10
1550.383711693083
 20
749.9734033490103
 30
0.0
 10
1550.316554568565
 20
750.251690648168
 30
0.0
 10
1550.274031950865
 20
750.5325343486713
 30
0.0
 10
1550.268497256583
 20
750.7272530488606
 30
0.0
 10
1550.265793057627
 20
750.8223907527945
 30
0.0
  0
SPLINE
  5
13C
330
23
100
AcDbEntity
  8
0
  6
Continuous
 62
     7
370
    25
100
AcDbSpline
210
0.0
220
0.0
230
1.0
 70
    24
 71
     3
 72
     8
 73
     4
 74
     0
 42
0.000000001
 43
0.00000001
 40
0.0
 40
0.0
 40
0.0
 40
0.0
 40
1.0
 40
1.0
 40
1.0
 40
1.0
 10
1545.265793057627
 20
755.32239075362
 30
0.0
 10
1545.265793057627
 20
750.32239075362
 30
0.0
 10
1545.265793057627
 20
747.82239075362
 30
0.0
 10
1545.265793057627
 20
747.82239075362
 30
0.0
  0
LINE
  5
163
330
23
100
AcDbEntity
  8
0
  6
Continuous
 62
     7
370
    25
100
AcDbLine
 10
1560.2657930576
 20
309.9039201476
 30
0.0
 11
1560.2657930576
 21
743.9563653498
 31
0.0
  0
LINE
  5
164
330
23
100
AcDbEntity
  8
0
  6
Continuous
 62
     7
370
    25
100
AcDbLine
 10
1560.2657930576
 20
743.9563653498
 30
0.0
 11
1560.7657930576
 21
743.9563653498
 31
0.0
  0
LINE
  5
165
330
23
100
AcDbEntity
  8
0
  6
Continuous
 62
     7
370
    25
100
AcDbLine
 10
1560.7657930576
 20
747.3223907536
 30
0.0
 11
1560.7657930576
 21
310.3223907536
 31
0.0
  0
LINE
  5
166
330
23
100
AcDbEntity
  8
0
  6
Continuous
 62
     7
370
    25
100
AcDbLine
 10
1545.2657930576
 20
221.1057867886
 30
0.0
 11
1545.2657930576
 21
747.8223907536
 31
0.0
  0
LINE
  5
167
330
23
100
AcDbEntity
  8
0
  6
Continuous
 62
     7
370
    25
100
AcDbLine
 10
1556.8997676538
 20
747.3223907536
 30
0.0
 11
1545.2657930576
 21
747.3223907536
 31
0.0
  0
LINE
  5
168
330
23
100
AcDbEntity
  8
0
  6
Continuous
 62
     7
370
    25
100
AcDbLine
 10
1560.2657930576
 20
743.9563653498
 30
0.0
 11
1556.8997676538
 21
747.3223907536
 31
0.0
  0
LINE
  5
169
330
23
100
AcDbEntity
  8
0
  6
Continuous
 62
     7
370
    25
100
AcDbLine
 10
1545.2657930576
 20
747.8223907536
 30
0.0
 11
1560.2657930576
 21
747.8223907536
 31
0.0
  0
LINE
  5
16A
330
23
100
AcDbEntity
  8
0
  6
Continuous
 62
     7
370
    25
100
AcDbLine
 10
1556.8997676538
 20
747.8223907536
 30
0.0
 11
1556.8997676538
 21
747.3223907536
 31
0.0
  0
LINE
  5
16B
330
23
100
AcDbEntity
  8
0
  6
Continuous
 62
     7
370
    25
100
AcDbLine
 10
1560.5544681922
 20
744.2450404844
 30
0.0
 11
1560.2657930576
 21
743.9563653498
 31
0.0
  0
LINE
  5
16C
330
23
100
AcDbEntity
  8
0
  6
Continuous
 62
     7
370
    25
100
AcDbLine
 10
1557.1884427884
 20
747.6110658882
 30
0.0
 11
1560.5544681922
 21
744.2450404844
 31
0.0
  0
LINE
  5
16D
330
23
100
AcDbEntity
  8
0
  6
Continuous
 62
     7
370
    25
100
AcDbLine
 10
1556.8997676538
 20
747.3223907536
 30
0.0
 11
1557.1884427884
 21
747.6110658882
 31
0.0
  0
LINE
  5
16E
330
23
100
AcDbEntity
  8
0
  6
Continuous
 62
     7
370
    25
100
AcDbLine
 10
1560.5544681922
 20
747.6110658882
 30
0.0
 11
1557.1884427884
 21
747.6110658882
 31
0.0
  0
LINE
  5
16F
330
23
100
AcDbEntity
  8
0
  6
Continuous
 62
     7
370
    25
100
AcDbLine
 10
1560.5544681922
 20
744.2450404844
 30
0.0
 11
1560.5544681922
 21
747.6110658882
 31
0.0
  0
LINE
  5
170
330
23
100
AcDbEntity
  8
0
  6
Continuous
 62
     7
370
    25
100
AcDbLine
 10
1545.2657930576
 20
755.3223907536
 30
0.0
 11
1550.2657930576
 21
755.3223907536
 31
0.0
  0
LINE
  5
171
330
23
100
AcDbEntity
  8
0
  6
Continuous
 62
     7
370
    25
100
AcDbLine
 10
1545.2657930576
 20
356.7397613848
 30
0.0
 11
1544.7657930576
 21
356.7397613848
 31
0.0
  0
LINE
  5
172
330
23
100
AcDbEntity
  8
0
  6
Continuous
 62
     7
370
    25
100
AcDbLine
 10
1545.0544681922
 20
357.0284365194
 30
0.0
 11
1544.7657930576
 21
356.7397613848
 31
0.0
  0
LINE
  5
173
330
23
100
AcDbEntity
  8
0
  6
Continuous
 62
     7
370
    25
100
AcDbLine
 10
1541.6884427884
 20
360.3944619232
 30
0.0
 11
1541.3997676538
 21
360.1057867886
 31
0.0
  0
LINE
  5
174
330
23
100
AcDbEntity
  8
0
  6
Continuous
 62
     7
370
    25
100
AcDbLine
 10
1541.3997676538
 20
360.6057867886
 30
0.0
 11
1541.3997676538
 21
360.1057867886
 31
0.0
  0
LINE
  5
175
330
23
100
AcDbEntity
  8
0
  6
Continuous
 62
     7
370
    25
100
AcDbLine
 10
1541.6884427884
 20
360.3944619232
 30
0.0
 11
1545.0544681922
 21
357.0284365194
 31
0.0
  0
LINE
  5
176
330
23
100
AcDbEntity
  8
0
  6
Continuous
 62
     7
370
    25
100
AcDbLine
 10
1544.7657930576
 20
356.7397613848
 30
0.0
 11
1541.3997676538
 21
360.1057867886
 31
0.0
  0
LINE
  5
177
330
23
100
AcDbEntity
  8
0
  6
Continuous
 62
     7
370
    25
100
AcDbLine
 10
1541.3997676538
 20
221.1057867886
 30
0.0
 11
1541.3997676538
 21
220.6057867886
 31
0.0
  0
LINE
  5
178
330
23
100
AcDbEntity
  8
0
  6
Continuous
 62
     7
370
    25
100
AcDbLine
 10
1541.3997676538
 20
221.1057867886
 30
0.0
 11
1541.6884427884
 21
220.817111654
 31
0.0
  0
LINE
  5
179
330
23
100
AcDbEntity
  8
0
  6
Continuous
 62
     7
370
    25
100
AcDbLine
 10
1541.3997676538
 20
360.1057867886
 30
0.0
 11
1529.7657930576
 21
360.1057867886
 31
0.0
  0
LINE
  5
17A
330
23
100
AcDbEntity
  8
0
  6
Continuous
 62
     7
370
    25
100
AcDbLine
 10
1544.7657930576
 20
224.4718121923
 30
0.0
 11
1544.7657930576
 21
356.7397613848
 31
0.0
  0
LINE
  5
17B
330
23
100
AcDbEntity
  8
0
  6
Continuous
 62
     7
370
    25
100
AcDbLine
 10
1541.3997676538
 20
221.1057867886
 30
0.0
 11
1544.7657930576
 21
224.4718121923
 31
0.0
  0
LINE
  5
17C
330
23
100
AcDbEntity
  8
0
  6
Continuous
 62
     7
370
    25
100
AcDbLine
 10
1529.7657930576
 20
221.1057867886
 30
0.0
 11
1541.3997676538
 21
221.1057867886
 31
0.0
  0
LINE
  5
17D
330
23
100
AcDbEntity
  8
0
  6
Continuous
 62
     7
370
    25
100
AcDbLine
 10
1529.7657930576
 20
220.6057867886
 30
0.0
 11
1529.7657930576
 21
360.6057867886
 31
0.0
  0
LINE
  5
17E
330
23
100
AcDbEntity
  8
0
  6
Continuous
 62
     7
370
    25
100
AcDbLine
 10
1545.2657930576
 20
224.4718121923
 30
0.0
 11
1544.7657930576
 21
224.4718121923
 31
0.0
  0
LINE
  5
17F
330
23
100
AcDbEntity
  8
0
  6
Continuous
 62
     7
370
    25
100
AcDbLine
 10
1544.7657930576
 20
220.6057867886
 30
0.0
 11
1529.7657930576
 21
220.6057867886
 31
0.0
  0
LINE
  5
180
330
23
100
AcDbEntity
  8
0
  6
Continuous
 62
     7
370
    25
100
AcDbLine
 10
1529.7657930576
 20
360.6057867886
 30
0.0
 11
1544.7657930576
 21
360.6057867886
 31
0.0
  0
LINE
  5
181
330
23
100
AcDbEntity
  8
0
  6
Continuous
 62
     7
370
    25
100
AcDbLine
 10
1544.7657930576
 20
224.4718121923
 30
0.0
 11
1545.0544681922
 21
224.1831370578
 31
0.0
  0
LINE
  5
182
330
23
100
AcDbEntity
  8
0
  6
Continuous
 62
     7
370
    25
100
AcDbLine
 10
1545.0544681922
 20
224.1831370578
 30
0.0
 11
1541.6884427884
 21
220.817111654
 31
0.0
  0
LINE
  5
183
330
23
100
AcDbEntity
  8
0
  6
Continuous
 62
     7
370
    25
100
AcDbLine
 10
1545.0544681922
 20
357.0284365194
 30
0.0
 11
1545.0544681922
 21
360.3944619232
 31
0.0
  0
LINE
  5
184
330
23
100
AcDbEntity
  8
0
  6
Continuous
 62
     7
370
    25
100
AcDbLine
 10
1545.0544681922
 20
360.3944619232
 30
0.0
 11
1541.6884427884
 21
360.3944619232
 31
0.0
  0
LINE
  5
185
330
23
100
AcDbEntity
  8
0
  6
Continuous
 62
     7
370
    25
100
AcDbLine
 10
1541.6884427884
 20
220.817111654
 30
0.0
 11
1545.0544681922
 21
220.817111654
 31
0.0
  0
LINE
  5
186
330
23
100
AcDbEntity
  8
0
  6
Continuous
 62
     7
370
    25
100
AcDbLine
 10
1545.0544681922
 20
220.817111654
 30
0.0
 11
1545.0544681922
 21
224.1831370578
 31
0.0
  0
ARC
  5
187
330
23
100
AcDbEntity
  8
0
  6
Continuous
 62
     7
370
    25
100
AcDbCircle
 10
1560.4272558651
 20
743.9302267612
 30
0.0
 40
0.3395447783869159
100
AcDbArc
 50
4.4150699904
 51
67.9969762355
  0
ARC
  5
188
330
23
100
AcDbEntity
  8
0
  6
Continuous
 62
     7
370
    25
100
AcDbCircle
 10
1556.8736290652
 20
747.4838535611
 30
0.0
 40
0.3395447783874024
100
AcDbArc
 50
22.0030237645
 51
85.5849300095
  0
ARC
  5
189
330
23
100
AcDbEntity
  8
0
  6
Continuous
 62
     7
370
    25
100
AcDbCircle
 10
1560.2396544689
 20
747.4838535611
 30
0.0
 40
0.3395447783876985
100
AcDbArc
 50
22.0030237645
 51
85.5849300095
  0
ARC
  5
18A
330
23
100
AcDbEntity
  8
0
  6
Continuous
 62
     7
370
    25
100
AcDbCircle
 10
1560.4272558651
 20
747.2962521649
 30
0.0
 40
0.339544778386705
100
AcDbArc
 50
4.4150699904
 51
67.9969762355
  0
ARC
  5
18B
330
23
100
AcDbEntity
  8
0
  6
Continuous
 62
     7
370
    25
100
AcDbCircle
 10
1560.2657930576
 20
747.3223907536
 30
0.0
 40
0.4999999999995453
100
AcDbArc
 50
359.9999999999
 51
90.0
  0
ARC
  5
18C
330
23
100
AcDbEntity
  8
0
  6
Continuous
 62
     7
370
    25
100
AcDbCircle
 10
1544.9272558651
 20
356.7136227961
 30
0.0
 40
0.3395447783864495
100
AcDbArc
 50
4.4150699904
 51
67.9969762356
  0
ARC
  5
18D
330
23
100
AcDbEntity
  8
0
  6
Continuous
 62
     7
370
    25
100
AcDbCircle
 10
1541.3736290652
 20
360.2672495961
 30
0.0
 40
0.3395447783867678
100
AcDbArc
 50
22.0030237644
 51
85.5849300097
  0
ARC
  5
18E
330
23
100
AcDbEntity
  8
0
  6
Continuous
 62
     7
370
    25
100
AcDbCircle
 10
1541.3736290652
 20
220.9443239811
 30
0.0
 40
0.3395447783866401
100
AcDbArc
 50
274.4150699904
 51
337.9969762356
  0
ARC
  5
18F
330
23
100
AcDbEntity
  8
0
  6
Continuous
 62
     7
370
    25
100
AcDbCircle
 10
1544.9272558651
 20
224.497950781
 30
0.0
 40
0.3395447783880283
100
AcDbArc
 50
292.0030237646
 51
355.5849300095
  0
ARC
  5
190
330
23
100
AcDbEntity
  8
0
  6
Continuous
 62
     7
370
    25
100
AcDbCircle
 10
1544.9272558651
 20
360.0796481999
 30
0.0
 40
0.339544778387666
100
AcDbArc
 50
4.4150699905
 51
67.9969762355
  0
ARC
  5
191
330
23
100
AcDbEntity
  8
0
  6
Continuous
 62
     7
370
    25
100
AcDbCircle
 10
1544.7396544689
 20
220.9443239811
 30
0.0
 40
0.3395447783869467
100
AcDbArc
 50
274.4150699904
 51
337.9969762356
  0
ARC
  5
192
330
23
100
AcDbEntity
  8
0
  6
Continuous
 62
     7
370
    25
100
AcDbCircle
 10
1544.7396544689
 20
360.2672495961
 30
0.0
 40
0.3395447783873721
100
AcDbArc
 50
22.0030237645
 51
85.5849300095
  0
ARC
  5
193
330
23
100
AcDbEntity
  8
0
  6
Continuous
 62
     7
370
    25
100
AcDbCircle
 10
1544.9272558651
 20
221.1319253772
 30
0.0
 40
0.3395447783863561
100
AcDbArc
 50
292.0030237644
 51
355.5849300096
  0
ARC
  5
194
330
23
100
AcDbEntity
  8
0
  6
Continuous
 62
     7
370
    25
100
AcDbCircle
 10
1544.7657930576
 20
360.1057867886
 30
0.0
 40
0.5000000000001137
100
AcDbArc
 50
0.0
 51
90.0
  0
ARC
  5
195
330
23
100
AcDbEntity
  8
0
  6
Continuous
 62
     7
370
    25
100
AcDbCircle
 10
1544.7657930576
 20
221.1057867886
 30
0.0
 40
0.4999999999997726
100
AcDbArc
 50
270.0
 51
0.0
  0
VIEWPORT
  5
28A
330
23
100
AcDbEntity
  8
0
100
AcDbViewport
 10
0.0
 20
0.0
 30
0.0
 40
205.6
 41
156.0
 68
     1
 69
     1
 12
767.5571156789
 22
487.9640887711
 13
0.0
 23
0.0
 14
10.0
 24
10.0
 15
10.0
 25
10.0
 16
0.0
 26
0.0
 36
1.0
 17
0.0
 27
0.0
 37
0.0
 42
50.0
 43
0.0
 44
0.0
 45
1393.0739299614
 50
0.0
 51
0.0
 72
   100
 90
   557152
  1

281
     0
 71
     1
 74
     0
110
0.0
120
0.0
130
0.0
111
1.0
121
0.0
131
0.0
112
0.0
122
1.0
132
0.0
 79
     0
146
0.0
  0
ENDBLK
  5
25
330
23
100
AcDbEntity
  8
0
100
AcDbBlockEnd
  0
BLOCK
  5
198
330
196
100
AcDbEntity
  8
0
100
AcDbBlockBegin
  2
*Paper_Space1
 70
     0
 10
0.0
 20
0.0
 30
0.0
  3
*Paper_Space1
  1

  0
SPLINE
  5
19B
330
196
100
AcDbEntity
  8
0
  6
Continuous
 62
     7
370
    25
100
AcDbSpline
210
0.0
220
0.0
230
1.0
 70
    24
 71
     3
 72
     8
 73
     4
 74
     0
 42
0.000000001
 43
0.00000001
 40
0.0
 40
0.0
 40
0.0
 40
0.0
 40
1.0
 40
1.0
 40
1.0
 40
1.0
 10
1602.557115679089
 20
-1545.265793057627
 30
0.0
 10
1606.401341240069
 20
-1545.265793057627
 30
0.0
 10
1611.401341240069
 20
-1545.265793057627
 30
0.0
 10
1617.557115679089
 20
-1545.265793057627
 30
0.0
  0
SPLINE
  5
19D
330
196
100
AcDbEntity
  8
0
  6
Continuous
 62
     7
370
    25
100
AcDbSpline
210
0.0
220
0.0
230
1.0
 70
     8
 71
     3
 72
    25
 73
    21
 74
     0
 42
0.000000001
 43
0.00000001
 40
0.0
 40
0.0
 40
0.0
 40
0.0
 40
0.0250789197050938
 40
0.050797900168458
 40
0.077178648301423
 40
0.1042425489144142
 40
0.1320108293156961
 40
0.1605047166888883
 40
0.1897455878344272
 40
0.2197551110441096
 40
0.2505553800066819
 40
0.3679373697562879
 40
0.5001226872276003
 40
0.5603590284157884
 40
0.6244283642008632
 40
0.7493435850156874
 40
0.8079994255104006
 40
0.874671944090203
 40
0.9276555823882925
 40
1.0
 40
1.0
 40
1.0
 40
1.0
 10
1607.26428421341
 20
-1550.265793057627
 30
0.0
 10
1607.343184436703
 20
-1550.266610555556
 30
0.0
 10
1607.502998563995
 20
-1550.268266415485
 30
0.0
 10
1607.748923361823
 20
-1550.281279267964
 30
0.0
 10
1608.00328587782
 20
-1550.301930443321
 30
0.0
 10
1608.266499388672
 20
-1550.331032335963
 30
0.0
 10
1608.538668155244
 20
-1550.368358462958
 30
0.0
 10
1608.819988296347
 20
-1550.413971644039
 30
0.0
 10
1609.110634460785
 20
-1550.467854350761
 30
0.0
 10
1609.410798062727
 20
-1550.530011177718
 30
0.0
 10
1610.008191772674
 20
-1550.665801228896
 30
0.0
 10
1610.960543479346
 20
-1550.924431394325
 30
0.0
 10
1612.029038598999
 20
-1551.265932719593
 30
0.0
 10
1612.920548204761
 20
-1551.571470560851
 30
0.0
 10
1613.790850645275
 20
-1551.879366013546
 30
0.0
 10
1614.660941203091
 20
-1552.198018308981
 30
0.0
 10
1615.5437039606
 20
-1552.52461164439
 30
0.0
 10
1616.174449572424
 20
-1552.758189606521
 30
0.0
 10
1616.854842374482
 20
-1553.009652246542
 30
0.0
 10
1617.300096821982
 20
-1553.172050325144
 30
0.0
 10
1617.557115679089
 20
-1553.265793057627
 30
0.0
  0
SPLINE
  5
19E
330
196
100
AcDbEntity
  8
0
  6
Continuous
 62
     7
370
    25
100
AcDbSpline
210
0.0
220
0.0
230
1.0
 70
    24
 71
     3
 72
     8
 73
     4
 74
     0
 42
0.000000001
 43
0.00000001
 40
0.0
 40
0.0
 40
0.0
 40
0.0
 40
1.0
 40
1.0
 40
1.0
 40
1.0
 10
1602.557115679089
 20
-1550.265793057627
 30
0.0
 10
1603.970039517976
 20
-1550.265793057627
 30
0.0
 10
1605.539095696083
 20
-1550.265793057627
 30
0.0
 10
1607.264284213409
 20
-1550.265793057627
 30
0.0
  0
SPLINE
  5
19F
330
196
100
AcDbEntity
  8
0
  6
Continuous
 62
     7
370
    25
100
AcDbSpline
210
0.0
220
0.0
230
1.0
 70
     8
 71
     3
 72
    23
 73
    19
 74
     0
 42
0.000000001
 43
0.00000001
 40
0.0
 40
0.0
 40
0.0
 40
0.0
 40
0.039759866695118
 40
0.0738349560423231
 40
0.1023354764023194
 40
0.1253490844820714
 40
0.1916317204838721
 40
0.2506727832056987
 40
0.3755886628180153
 40
0.4396540118402483
 40
0.4998950337611836
 40
0.632076743850179
 40
0.7494638193454829
 40
0.8043292409765785
 40
0.8566902167058063
 40
0.9066728924042032
 40
0.9544012633464888
 40
1.0
 40
1.0
 40
1.0
 40
1.0
 10
-82.44288432091096
 20
-1553.265793057627
 30
0.0
 10
-82.30160989041669
 20
-1553.214351260583
 30
0.0
 10
-82.03926013342588
 20
-1553.118822700273
 30
0.0
 10
-81.67611410082054
 20
-1552.985465663036
 30
0.0
 10
-81.37269665903624
 20
-1552.873554872467
 30
0.0
 10
-80.95546537231712
 20
-1552.719287420113
 30
0.0
 10
-80.43073207747841
 20
-1552.525020493719
 30
0.0
 10
-79.54796315709989
 20
-1552.198512020633
 30
0.0
 10
-78.67655873109037
 20
-1551.87933825586
 30
0.0
 10
-77.80626424878379
 20
-1551.571453517951
 30
0.0
 10
-76.91478284635555
 20
-1551.265923107921
 30
0.0
 10
-75.8462694209332
 20
-1550.924426754337
 30
0.0
 10
-74.81223453309427
 20
-1550.643590536222
 30
0.0
 10
-74.06074991968114
 20
-1550.478299443238
 30
0.0
 10
-73.5404946118393
 20
-1550.383711693083
 30
0.0
 10
-73.05030059843376
 20
-1550.316554568565
 30
0.0
 10
-72.58827634203358
 20
-1550.274031950865
 30
0.0
 10
-72.29388813280735
 20
-1550.268497256583
 30
0.0
 10
-72.15005285523135
 20
-1550.265793057627
 30
0.0
  0
SPLINE
  5
1A1
330
196
100
AcDbEntity
  8
0
  6
Continuous
 62
     7
370
    25
100
AcDbSpline
210
0.0
220
0.0
230
1.0
 70
    24
 71
     3
 72
     8
 73
     4
 74
     0
 42
0.000000001
 43
0.00000001
 40
0.0
 40
0.0
 40
0.0
 40
0.0
 40
1.0
 40
1.0
 40
1.0
 40
1.0
 10
-67.44288432091095
 20
-1545.265793057627
 30
0.0
 10
-71.28710988189091
 20
-1545.265793057627
 30
0.0
 10
-76.28710988189091
 20
-1545.265793057627
 30
0.0
 10
-82.44288432091096
 20
-1545.265793057627
 30
0.0
  0
SPLINE
  5
1A3
330
196
100
AcDbEntity
  8
0
  6
Continuous
 62
     7
370
    25
100
AcDbSpline
210
0.0
220
0.0
230
1.0
 70
    24
 71
     3
 72
     8
 73
     4
 74
     0
 42
0.000000001
 43
0.00000001
 40
0.0
 40
0.0
 40
0.0
 40
0.0
 40
1.0
 40
1.0
 40
1.0
 40
1.0
 10
-67.44288432091095
 20
-1550.265793057627
 30
0.0
 10
-68.85580815979763
 20
-1550.265793057627
 30
0.0
 10
-70.4248643379043
 20
-1550.265793057627
 30
0.0
 10
-72.15005285523102
 20
-1550.265793057627
 30
0.0
  0
LINE
  5
1F3
330
196
100
AcDbEntity
  8
0
  6
Continuous
 62
     7
370
    25
100
AcDbLine
 10
1602.5571156791
 20
-1545.2657930576
 30
0.0
 11
1602.5571156791
 21
-1550.2657930576
 31
0.0
  0
LINE
  5
1F4
330
196
100
AcDbEntity
  8
0
  6
Continuous
 62
     7
370
    25
100
AcDbLine
 10
1617.5571156791
 20
-1545.2657930576
 30
0.0
 11
1617.5571156791
 21
-1553.2657930576
 31
0.0
  0
LINE
  5
1F5
330
196
100
AcDbEntity
  8
0
  6
Continuous
 62
     7
370
    25
100
AcDbLine
 10
-82.4428843209
 20
-1545.2657930576
 30
0.0
 11
-82.4428843209
 21
-1553.2657930576
 31
0.0
  0
LINE
  5
1F6
330
196
100
AcDbEntity
  8
0
  6
Continuous
 62
     7
370
    25
100
AcDbLine
 10
-67.4428843209
 20
-1545.2657930576
 30
0.0
 11
-67.4428843209
 21
-1550.2657930576
 31
0.0
  0
LINE
  5
1F7
330
196
100
AcDbEntity
  8
0
  6
Continuous
 62
     7
370
    25
100
AcDbLine
 10
-67.4428843209
 20
-1545.2657930576
 30
0.0
 11
1602.5571156791
 21
-1545.2657930576
 31
0.0
  0
LINE
  5
1F8
330
196
100
AcDbEntity
  8
0
  6
Continuous
 62
     7
370
    25
100
AcDbLine
 10
-67.4428843209
 20
-1550.2657930576
 30
0.0
 11
1602.5571156791
 21
-1550.2657930576
 31
0.0
  0
LINE
  5
1F9
330
196
100
AcDbEntity
  8
0
  6
Continuous
 62
     7
370
    25
100
AcDbLine
 10
1617.5571156791
 20
-1553.2657930576
 30
0.0
 11
-82.4428843209
 21
-1553.2657930576
 31
0.0
  0
LINE
  5
1FA
330
196
100
AcDbEntity
  8
0
  6
Continuous
 62
     7
370
    25
100
AcDbLine
 10
1667.0571156791
 20
-1556.8997676538
 30
0.0
 11
1667.0571156791
 21
-1545.2657930576
 31
0.0
  0
LINE
  5
1FB
330
196
100
AcDbEntity
  8
0
  6
Continuous
 62
     7
370
    25
100
AcDbLine
 10
1663.6910902753
 20
-1560.2657930576
 30
0.0
 11
1667.0571156791
 21
-1556.8997676538
 31
0.0
  0
LINE
  5
1FC
330
196
100
AcDbEntity
  8
0
  6
Continuous
 62
     7
370
    25
100
AcDbLine
 10
-128.5768589171
 20
-1560.2657930576
 30
0.0
 11
1663.6910902753
 21
-1560.2657930576
 31
0.0
  0
LINE
  5
1FD
330
196
100
AcDbEntity
  8
0
  6
Continuous
 62
     7
370
    25
100
AcDbLine
 10
-131.9428843209
 20
-1556.8997676538
 30
0.0
 11
-128.5768589171
 21
-1560.2657930576
 31
0.0
  0
LINE
  5
1FE
330
196
100
AcDbEntity
  8
0
  6
Continuous
 62
     7
370
    25
100
AcDbLine
 10
-131.9428843209
 20
-1545.2657930576
 30
0.0
 11
-131.9428843209
 21
-1556.8997676538
 31
0.0
  0
LINE
  5
1FF
330
196
100
AcDbEntity
  8
0
  6
Continuous
 62
     7
370
    25
100
AcDbLine
 10
1617.5571156791
 20
-1545.2657930576
 30
0.0
 11
1667.5571156791
 21
-1545.2657930576
 31
0.0
  0
LINE
  5
200
330
196
100
AcDbEntity
  8
0
  6
Continuous
 62
     7
370
    25
100
AcDbLine
 10
-82.4428843209
 20
-1545.2657930576
 30
0.0
 11
-132.4428843209
 21
-1545.2657930576
 31
0.0
  0
LINE
  5
201
330
196
100
AcDbEntity
  8
0
  6
Continuous
 62
     7
370
    25
100
AcDbLine
 10
1667.5571156791
 20
-1545.2657930576
 30
0.0
 11
1667.5571156791
 21
-1560.2657930576
 31
0.0
  0
LINE
  5
202
330
196
100
AcDbEntity
  8
0
  6
Continuous
 62
     7
370
    25
100
AcDbLine
 10
1667.5571156791
 20
-1556.8997676538
 30
0.0
 11
1667.0571156791
 21
-1556.8997676538
 31
0.0
  0
LINE
  5
203
330
196
100
AcDbEntity
  8
0
  6
Continuous
 62
     7
370
    25
100
AcDbLine
 10
1667.3457908137
 20
-1557.1884427884
 30
0.0
 11
1663.9797654099
 21
-1560.5544681922
 31
0.0
  0
LINE
  5
204
330
196
100
AcDbEntity
  8
0
  6
Continuous
 62
     7
370
    25
100
AcDbLine
 10
1663.9797654099
 20
-1560.5544681922
 30
0.0
 11
1663.6910902753
 21
-1560.2657930576
 31
0.0
  0
LINE
  5
205
330
196
100
AcDbEntity
  8
0
  6
Continuous
 62
     7
370
    25
100
AcDbLine
 10
1667.3457908137
 20
-1557.1884427884
 30
0.0
 11
1667.0571156791
 21
-1556.8997676538
 31
0.0
  0
LINE
  5
206
330
196
100
AcDbEntity
  8
0
  6
Continuous
 62
     7
370
    25
100
AcDbLine
 10
-128.5768589171
 20
-1560.2657930576
 30
0.0
 11
-128.5768589171
 21
-1560.7657930576
 31
0.0
  0
LINE
  5
207
330
196
100
AcDbEntity
  8
0
  6
Continuous
 62
     7
370
    25
100
AcDbLine
 10
-128.5768589171
 20
-1560.2657930576
 30
0.0
 11
-128.8655340517
 21
-1560.5544681922
 31
0.0
  0
LINE
  5
208
330
196
100
AcDbEntity
  8
0
  6
Continuous
 62
     7
370
    25
100
AcDbLine
 10
-128.8655340517
 20
-1560.5544681922
 30
0.0
 11
-132.2315594555
 21
-1557.1884427884
 31
0.0
  0
LINE
  5
209
330
196
100
AcDbEntity
  8
0
  6
Continuous
 62
     7
370
    25
100
AcDbLine
 10
-131.9428843209
 20
-1556.8997676538
 30
0.0
 11
-132.2315594555
 21
-1557.1884427884
 31
0.0
  0
LINE
  5
20A
330
196
100
AcDbEntity
  8
0
  6
Continuous
 62
     7
370
    25
100
AcDbLine
 10
-131.9428843209
 20
-1556.8997676538
 30
0.0
 11
-132.4428843209
 21
-1556.8997676538
 31
0.0
  0
LINE
  5
20B
330
196
100
AcDbEntity
  8
0
  6
Continuous
 62
     7
370
    25
100
AcDbLine
 10
-132.4428843209
 20
-1560.2657930576
 30
0.0
 11
-132.4428843209
 21
-1545.2657930576
 31
0.0
  0
LINE
  5
20C
330
196
100
AcDbEntity
  8
0
  6
Continuous
 62
     7
370
    25
100
AcDbLine
 10
1663.6910902753
 20
-1560.2657930576
 30
0.0
 11
1663.6910902753
 21
-1560.7657930576
 31
0.0
  0
LINE
  5
20D
330
196
100
AcDbEntity
  8
0
  6
Continuous
 62
     7
370
    25
100
AcDbLine
 10
1667.0571156791
 20
-1560.7657930576
 30
0.0
 11
-131.9428843209
 21
-1560.7657930576
 31
0.0
  0
LINE
  5
20E
330
196
100
AcDbEntity
  8
0
  6
Continuous
 62
     7
370
    25
100
AcDbLine
 10
-132.2315594555
 20
-1557.1884427884
 30
0.0
 11
-132.2315594555
 21
-1560.5544681922
 31
0.0
  0
LINE
  5
20F
330
196
100
AcDbEntity
  8
0
  6
Continuous
 62
     7
370
    25
100
AcDbLine
 10
-132.2315594555
 20
-1560.5544681922
 30
0.0
 11
-128.8655340517
 21
-1560.5544681922
 31
0.0
  0
LINE
  5
210
330
196
100
AcDbEntity
  8
0
  6
Continuous
 62
     7
370
    25
100
AcDbLine
 10
1663.9797654099
 20
-1560.5544681922
 30
0.0
 11
1667.3457908137
 21
-1560.5544681922
 31
0.0
  0
LINE
  5
211
330
196
100
AcDbEntity
  8
0
  6
Continuous
 62
     7
370
    25
100
AcDbLine
 10
1667.3457908137
 20
-1560.5544681922
 30
0.0
 11
1667.3457908137
 21
-1557.1884427884
 31
0.0
  0
LINE
  5
212
330
196
100
AcDbEntity
  8
0
  6
Continuous
 62
     7
370
    25
100
AcDbLine
 10
-128.5768589171
 20
-1544.7657930576
 30
0.0
 11
-128.8655340517
 21
-1545.0544681922
 31
0.0
  0
LINE
  5
213
330
196
100
AcDbEntity
  8
0
  6
Continuous
 62
     7
370
    25
100
AcDbLine
 10
-128.5768589171
 20
-1545.2657930576
 30
0.0
 11
-128.5768589171
 21
-1544.7657930576
 31
0.0
  0
LINE
  5
214
330
196
100
AcDbEntity
  8
0
  6
Continuous
 62
     7
370
    25
100
AcDbLine
 10
1663.6910902753
 20
-1545.2657930576
 30
0.0
 11
1663.6910902753
 21
-1544.7657930576
 31
0.0
  0
LINE
  5
215
330
196
100
AcDbEntity
  8
0
  6
Continuous
 62
     7
370
    25
100
AcDbLine
 10
1663.9797654099
 20
-1545.0544681922
 30
0.0
 11
1663.6910902753
 21
-1544.7657930576
 31
0.0
  0
LINE
  5
216
330
196
100
AcDbEntity
  8
0
  6
Continuous
 62
     7
370
    25
100
AcDbLine
 10
1667.0571156791
 20
-1541.3997676538
 30
0.0
 11
1667.0571156791
 21
-1529.7657930576
 31
0.0
  0
LINE
  5
217
330
196
100
AcDbEntity
  8
0
  6
Continuous
 62
     7
370
    25
100
AcDbLine
 10
1663.6910902753
 20
-1544.7657930576
 30
0.0
 11
1667.0571156791
 21
-1541.3997676538
 31
0.0
  0
LINE
  5
218
330
196
100
AcDbEntity
  8
0
  6
Continuous
 62
     7
370
    25
100
AcDbLine
 10
-128.5768589171
 20
-1544.7657930576
 30
0.0
 11
1663.6910902753
 21
-1544.7657930576
 31
0.0
  0
LINE
  5
219
330
196
100
AcDbEntity
  8
0
  6
Continuous
 62
     7
370
    25
100
AcDbLine
 10
-131.9428843209
 20
-1541.3997676538
 30
0.0
 11
-128.5768589171
 21
-1544.7657930576
 31
0.0
  0
LINE
  5
21A
330
196
100
AcDbEntity
  8
0
  6
Continuous
 62
     7
370
    25
100
AcDbLine
 10
-131.9428843209
 20
-1529.7657930576
 30
0.0
 11
-131.9428843209
 21
-1541.3997676538
 31
0.0
  0
LINE
  5
21B
330
196
100
AcDbEntity
  8
0
  6
Continuous
 62
     7
370
    25
100
AcDbLine
 10
-132.4428843209
 20
-1529.7657930576
 30
0.0
 11
1667.5571156791
 21
-1529.7657930576
 31
0.0
  0
LINE
  5
21C
330
196
100
AcDbEntity
  8
0
  6
Continuous
 62
     7
370
    25
100
AcDbLine
 10
-131.9428843209
 20
-1541.3997676538
 30
0.0
 11
-132.4428843209
 21
-1541.3997676538
 31
0.0
  0
LINE
  5
21D
330
196
100
AcDbEntity
  8
0
  6
Continuous
 62
     7
370
    25
100
AcDbLine
 10
-132.2315594555
 20
-1541.6884427884
 30
0.0
 11
-131.9428843209
 21
-1541.3997676538
 31
0.0
  0
LINE
  5
21E
330
196
100
AcDbEntity
  8
0
  6
Continuous
 62
     7
370
    25
100
AcDbLine
 10
1667.3457908137
 20
-1541.6884427884
 30
0.0
 11
1663.9797654099
 21
-1545.0544681922
 31
0.0
  0
LINE
  5
21F
330
196
100
AcDbEntity
  8
0
  6
Continuous
 62
     7
370
    25
100
AcDbLine
 10
1667.3457908137
 20
-1541.6884427884
 30
0.0
 11
1667.0571156791
 21
-1541.3997676538
 31
0.0
  0
LINE
  5
220
330
196
100
AcDbEntity
  8
0
  6
Continuous
 62
     7
370
    25
100
AcDbLine
 10
1667.5571156791
 20
-1529.7657930576
 30
0.0
 11
1667.5571156791
 21
-1544.7657930576
 31
0.0
  0
LINE
  5
221
330
196
100
AcDbEntity
  8
0
  6
Continuous
 62
     7
370
    25
100
AcDbLine
 10
1667.5571156791
 20
-1541.3997676538
 30
0.0
 11
1667.0571156791
 21
-1541.3997676538
 31
0.0
  0
LINE
  5
222
330
196
100
AcDbEntity
  8
0
  6
Continuous
 62
     7
370
    25
100
AcDbLine
 10
-132.4428843209
 20
-1544.7657930576
 30
0.0
 11
-132.4428843209
 21
-1529.7657930576
 31
0.0
  0
LINE
  5
223
330
196
100
AcDbEntity
  8
0
  6
Continuous
 62
     7
370
    25
100
AcDbLine
 10
-128.8655340517
 20
-1545.0544681922
 30
0.0
 11
-132.2315594555
 21
-1541.6884427884
 31
0.0
  0
LINE
  5
224
330
196
100
AcDbEntity
  8
0
  6
Continuous
 62
     7
370
    25
100
AcDbLine
 10
1667.3457908137
 20
-1545.0544681922
 30
0.0
 11
1667.3457908137
 21
-1541.6884427884
 31
0.0
  0
LINE
  5
225
330
196
100
AcDbEntity
  8
0
  6
Continuous
 62
     7
370
    25
100
AcDbLine
 10
-132.2315594555
 20
-1545.0544681922
 30
0.0
 11
-128.8655340517
 21
-1545.0544681922
 31
0.0
  0
LINE
  5
226
330
196
100
AcDbEntity
  8
0
  6
Continuous
 62
     7
370
    25
100
AcDbLine
 10
-132.2315594555
 20
-1541.6884427884
 30
0.0
 11
-132.2315594555
 21
-1545.0544681922
 31
0.0
  0
LINE
  5
227
330
196
100
AcDbEntity
  8
0
  6
Continuous
 62
     7
370
    25
100
AcDbLine
 10
1663.9797654099
 20
-1545.0544681922
 30
0.0
 11
1667.3457908137
 21
-1545.0544681922
 31
0.0
  0
ARC
  5
228
330
196
100
AcDbEntity
  8
0
  6
Continuous
 62
     7
370
    25
100
AcDbCircle
 10
1667.2185784866
 20
-1556.8736290652
 30
0.0
 40
0.3395447783873154
100
AcDbArc
 50
292.0030237645
 51
355.5849300095
  0
ARC
  5
229
330
196
100
AcDbEntity
  8
0
  6
Continuous
 62
     7
370
    25
100
AcDbCircle
 10
-128.5507203284
 20
-1560.4272558651
 30
0.0
 40
0.3395447783868368
100
AcDbArc
 50
202.0030237645
 51
265.5849300096
  0
ARC
  5
22A
330
196
100
AcDbEntity
  8
0
  6
Continuous
 62
     7
370
    25
100
AcDbCircle
 10
-132.1043471284
 20
-1556.8736290652
 30
0.0
 40
0.339544778387588
100
AcDbArc
 50
184.4150699905
 51
247.9969762354
  0
ARC
  5
22B
330
196
100
AcDbEntity
  8
0
  6
Continuous
 62
     7
370
    25
100
AcDbCircle
 10
1663.6649516866
 20
-1560.4272558651
 30
0.0
 40
0.3395447783866004
100
AcDbArc
 50
274.4150699904
 51
337.9969762355
  0
ARC
  5
22C
330
196
100
AcDbEntity
  8
0
  6
Continuous
 62
     7
370
    25
100
AcDbCircle
 10
-132.1043471284
 20
-1560.2396544689
 30
0.0
 40
0.3395447783879093
100
AcDbArc
 50
184.4150699905
 51
247.9969762355
  0
ARC
  5
22D
330
196
100
AcDbEntity
  8
0
  6
Continuous
 62
     7
370
    25
100
AcDbCircle
 10
-131.9167457322
 20
-1560.4272558651
 30
0.0
 40
0.3395447783867841
100
AcDbArc
 50
202.0030237645
 51
265.5849300096
  0
ARC
  5
22E
330
196
100
AcDbEntity
  8
0
  6
Continuous
 62
     7
370
    25
100
AcDbCircle
 10
1667.0309770904
 20
-1560.4272558651
 30
0.0
 40
0.3395447783878688
100
AcDbArc
 50
274.4150699905
 51
337.9969762354
  0
ARC
  5
22F
330
196
100
AcDbEntity
  8
0
  6
Continuous
 62
     7
370
    25
100
AcDbCircle
 10
1667.2185784866
 20
-1560.2396544689
 30
0.0
 40
0.3395447783876985
100
AcDbArc
 50
292.0030237645
 51
355.5849300095
  0
ARC
  5
230
330
196
100
AcDbEntity
  8
0
  6
Continuous
 62
     7
370
    25
100
AcDbCircle
 10
-131.9428843209
 20
-1560.2657930576
 30
0.0
 40
0.4999999999996021
100
AcDbArc
 50
180.0
 51
270.0000000001
  0
ARC
  5
231
330
196
100
AcDbEntity
  8
0
  6
Continuous
 62
     7
370
    25
100
AcDbCircle
 10
1667.0571156791
 20
-1560.2657930576
 30
0.0
 40
0.4999999999997726
100
AcDbArc
 50
270.0
 51
0.0
  0
ARC
  5
232
330
196
100
AcDbEntity
  8
0
  6
Continuous
 62
     7
370
    25
100
AcDbCircle
 10
-128.5507203284
 20
-1544.9272558651
 30
0.0
 40
0.3395447783873902
100
AcDbArc
 50
202.0030237644
 51
265.5849300095
  0
ARC
  5
233
330
196
100
AcDbEntity
  8
0
  6
Continuous
 62
     7
370
    25
100
AcDbCircle
 10
1663.6649516866
 20
-1544.9272558651
 30
0.0
 40
0.3395447783870213
100
AcDbArc
 50
274.4150699905
 51
337.9969762355
  0
ARC
  5
234
330
196
100
AcDbEntity
  8
0
  6
Continuous
 62
     7
370
    25
100
AcDbCircle
 10
-132.1043471284
 20
-1541.3736290652
 30
0.0
 40
0.3395447783870426
100
AcDbArc
 50
184.4150699904
 51
247.9969762355
  0
ARC
  5
235
330
196
100
AcDbEntity
  8
0
  6
Continuous
 62
     7
370
    25
100
AcDbCircle
 10
1667.2185784866
 20
-1541.3736290652
 30
0.0
 40
0.3395447783882397
100
AcDbArc
 50
292.0030237646
 51
355.5849300095
  0
ARC
  5
236
330
196
100
AcDbEntity
  8
0
  6
Continuous
 62
     7
370
    25
100
AcDbCircle
 10
1667.2185784866
 20
-1544.7396544689
 30
0.0
 40
0.3395447783882397
100
AcDbArc
 50
292.0030237646
 51
355.5849300095
  0
ARC
  5
237
330
196
100
AcDbEntity
  8
0
  6
Continuous
 62
     7
370
    25
100
AcDbCircle
 10
-131.9167457322
 20
-1544.9272558651
 30
0.0
 40
0.3395447783880218
100
AcDbArc
 50
202.0030237645
 51
265.5849300095
  0
ARC
  5
238
330
196
100
AcDbEntity
  8
0
  6
Continuous
 62
     7
370
    25
100
AcDbCircle
 10
-132.1043471284
 20
-1544.7396544689
 30
0.0
 40
0.3395447783874288
100
AcDbArc
 50
184.4150699905
 51
247.9969762355
  0
ARC
  5
239
330
196
100
AcDbEntity
  8
0
  6
Continuous
 62
     7
370
    25
100
AcDbCircle
 10
1667.0309770904
 20
-1544.9272558651
 30
0.0
 40
0.3395447783861119
100
AcDbArc
 50
274.4150699903
 51
337.9969762356
  0
ARC
  5
23A
330
196
100
AcDbEntity
  8
0
  6
Continuous
 62
     7
370
    25
100
AcDbCircle
 10
1667.0571156791
 20
-1544.7657930576
 30
0.0
 40
0.4999999999997726
100
AcDbArc
 50
270.0
 51
0.0
  0
ARC
  5
23B
330
196
100
AcDbEntity
  8
0
  6
Continuous
 62
     7
370
    25
100
AcDbCircle
 10
-131.9428843209
 20
-1544.7657930576
 30
0.0
 40
0.5
100
AcDbArc
 50
180.0
 51
270.0
  0
VIEWPORT
  5
28C
330
196
100
AcDbEntity
  8
0
100
AcDbViewport
 10
0.0
 20
0.0
 30
0.0
 40
205.6
 41
156.0
 68
     1
 69
     1
 12
767.5571156789
 22
487.9640887711
 13
0.0
 23
0.0
 14
10.0
 24
10.0
 15
10.0
 25
10.0
 16
0.0
 26
0.0
 36
1.0
 17
0.0
 27
0.0
 37
0.0
 42
50.0
 43
0.0
 44
0.0
 45
1393.0739299614
 50
0.0
 51
0.0
 72
   100
 90
   557152
  1

281
     0
 71
     1
 74
     0
110
0.0
120
0.0
130
0.0
111
1.0
121
0.0
131
0.0
112
0.0
122
1.0
132
0.0
 79
     0
146
0.0
  0
ENDBLK
  5
199
330
196
100
AcDbEntity
  8
0
100
AcDbBlockEnd
  0
BLOCK
  5
23E
330
23C
100
AcDbEntity
  8
0
100
AcDbBlockBegin
  2
*Paper_Space2
 70
     0
 10
0.0
 20
0.0
 30
0.0
  3
*Paper_Space2
  1

  0
SPLINE
  5
240
330
23C
100
AcDbEntity
  8
0
  6
Continuous
 62
     7
370
    25
100
AcDbSpline
210
0.0
220
0.0
230
1.0
 70
     8
 71
     3
 72
    16
 73
    12
 74
     0
 42
0.000000001
 43
0.00000001
 40
0.0
 40
0.0
 40
0.0
 40
0.0
 40
0.1047836372660586
 40
0.2057199384765415
 40
0.3041581181501938
 40
0.401550360588065
 40
0.4993947471659285
 40
0.6280585092736507
 40
0.7496845501139903
 40
0.8762635767536487
 40
0.9999999999999999
 40
0.9999999999999999
 40
0.9999999999999999
 40
0.9999999999999999
 10
1667.557115679089
 20
1560.265793053782
 30
0.0
 10
1667.556199323725
 20
1560.290425878625
 30
0.0
 10
1667.554400258777
 20
1560.338787085999
 30
0.0
 10
1667.538994391484
 20
1560.409092977701
 30
0.0
 10
1667.514120713684
 20
1560.475626227165
 30
0.0
 10
1667.478893740178
 20
1560.53835424859
 30
0.0
 10
1667.429357328425
 20
1560.603064412795
 30
0.0
 10
1667.362968371886
 20
1560.666003839306
 30
0.0
 10
1667.273593815543
 20
1560.720283849698
 30
0.0
 10
1667.170560528107
 20
1560.758284105297
 30
0.0
 10
1667.094643254439
 20
1560.763309094919
 30
0.0
 10
1667.05711567909
 20
1560.765793057627
 30
0.0
  0
SPLINE
  5
241
330
23C
100
AcDbEntity
  8
0
  6
Continuous
 62
     7
370
    25
100
AcDbSpline
210
0.0
220
0.0
230
1.0
 70
    24
 71
     3
 72
     8
 73
     4
 74
     0
 42
0.000000001
 43
0.00000001
 40
0.0
 40
0.0
 40
0.0
 40
0.0
 40
1.0
 40
1.0
 40
1.0
 40
1.0
 10
1667.557115679089
 20
1560.265793053781
 30
0.0
 10
1667.557115679089
 20
1556.489515364115
 30
0.0
 10
1667.557115679089
 20
1551.489515365397
 30
0.0
 10
1667.557115679089
 20
1545.265793057627
 30
0.0
  0
SPLINE
  5
244
330
23C
100
AcDbEntity
  8
0
  6
Continuous
 62
     7
370
    25
100
AcDbSpline
210
0.0
220
0.0
230
1.0
 70
    24
 71
     3
 72
     8
 73
     4
 74
     0
 42
0.000000001
 43
0.00000001
 40
0.0
 40
0.0
 40
0.0
 40
0.0
 40
1.0
 40
1.0
 40
1.0
 40
1.0
 10
-132.442884320911
 20
1560.265793053781
 30
0.0
 10
-132.442884320911
 20
1556.489515364115
 30
0.0
 10
-132.442884320911
 20
1551.489515365397
 30
0.0
 10
-132.442884320911
 20
1545.265793057627
 30
0.0
  0
SPLINE
  5
245
330
23C
100
AcDbEntity
  8
0
  6
Continuous
 62
     7
370
    25
100
AcDbSpline
210
0.0
220
0.0
230
1.0
 70
     8
 71
     3
 72
    16
 73
    12
 74
     0
 42
0.000000001
 43
0.00000001
 40
0.0
 40
0.0
 40
0.0
 40
0.0
 40
0.062163397418238
 40
0.1237951114262317
 40
0.1861489888491482
 40
0.250436216547103
 40
0.3718328016275305
 40
0.5003515393493773
 40
0.6631093402674907
 40
0.8274174894186783
 40
0.9999999999999999
 40
0.9999999999999999
 40
0.9999999999999999
 40
0.9999999999999999
 10
-131.9428843209115
 20
1560.765793057627
 30
0.0
 10
-131.9616861724479
 20
1560.765132018451
 30
0.0
 10
-131.9991290633231
 20
1560.763815593966
 30
0.0
 10
-132.054240553769
 20
1560.754221936404
 30
0.0
 10
-132.1076385372727
 20
1560.739010367181
 30
0.0
 10
-132.1736274764599
 20
1560.711744538816
 30
0.0
 10
-132.2483435568035
 20
1560.6662346756
 30
0.0
 10
-132.3271115333158
 20
1560.591838594446
 30
0.0
 10
-132.3920060893062
 20
1560.498156841164
 30
0.0
 10
-132.4355359819619
 20
1560.38563279033
 30
0.0
 10
-132.4403950933667
 20
1560.306388405619
 30
0.0
 10
-132.442884321314
 20
1560.265793053781
 30
0.0
  0
SPLINE
  5
248
330
23C
100
AcDbEntity
  8
0
  6
Continuous
 62
     7
370
    25
100
AcDbSpline
210
0.0
220
0.0
230
1.0
 70
     8
 71
     3
 72
    10
 73
     6
 74
     0
 42
0.000000001
 43
0.00000001
 40
0.0
 40
0.0
 40
0.0
 40
0.0
 40
0.5
 40
0.5
 40
1.0
 40
1.0
 40
1.0
 40
1.0
 10
1667.557115679089
 20
1540.899767653842
 30
0.0
 10
1667.557115679088
 20
1541.008120181733
 30
0.0
 10
1667.538461318085
 20
1541.141550274428
 30
0.0
 10
1667.46384387407
 20
1541.420026366623
 30
0.0
 10
1667.408348174829
 20
1541.563328066147
 30
0.0
 10
1667.345790813684
 20
1541.688442788437
 30
0.0
  0
LINE
  5
26A
330
23C
100
AcDbEntity
  8
0
  6
Continuous
 62
     7
370
    25
100
AcDbLine
 10
-131.9428843209
 20
1560.7657930576
 30
0.0
 11
1667.0571156791
 21
1560.7657930576
 31
0.0
  0
LINE
  5
26B
330
23C
100
AcDbEntity
  8
0
  6
Continuous
 62
     7
370
    25
100
AcDbLine
 10
1667.5571156791
 20
1544.7657930576
 30
0.0
 11
1667.5571156791
 21
1529.7657930576
 31
0.0
  0
LINE
  5
26C
330
23C
100
AcDbEntity
  8
0
  6
Continuous
 62
     7
370
    25
100
AcDbLine
 10
1667.3457908137
 20
1541.6884427884
 30
0.0
 11
1667.3457908137
 21
1545.0544681922
 31
0.0
  0
LINE
  5
26D
330
23C
100
AcDbEntity
  8
0
  6
Continuous
 62
     7
370
    25
100
AcDbLine
 10
1667.5571156791
 20
1540.8997676538
 30
0.0
 11
1663.6910902753
 21
1544.7657930576
 31
0.0
  0
LINE
  5
26E
330
23C
100
AcDbEntity
  8
0
  6
Continuous
 62
     7
370
    25
100
AcDbLine
 10
1663.6910902753
 20
1544.7657930576
 30
0.0
 11
1663.9797654099
 21
1545.0544681922
 31
0.0
  0
LINE
  5
26F
330
23C
100
AcDbEntity
  8
0
  6
Continuous
 62
     7
370
    25
100
AcDbLine
 10
1663.9797654099
 20
1545.0544681922
 30
0.0
 11
1667.3457908137
 21
1541.6884427884
 31
0.0
  0
LINE
  5
270
330
23C
100
AcDbEntity
  8
0
  6
Continuous
 62
     7
370
    25
100
AcDbLine
 10
-132.2315594555
 20
1541.6884427884
 30
0.0
 11
-131.9428843209
 21
1541.3997676538
 31
0.0
  0
LINE
  5
271
330
23C
100
AcDbEntity
  8
0
  6
Continuous
 62
     7
370
    25
100
AcDbLine
 10
-132.4428843209
 20
1541.3997676538
 30
0.0
 11
-131.9428843209
 21
1541.3997676538
 31
0.0
  0
LINE
  5
272
330
23C
100
AcDbEntity
  8
0
  6
Continuous
 62
     7
370
    25
100
AcDbLine
 10
1663.6910902753
 20
1544.7657930576
 30
0.0
 11
-128.5768589171
 21
1544.7657930576
 31
0.0
  0
LINE
  5
273
330
23C
100
AcDbEntity
  8
0
  6
Continuous
 62
     7
370
    25
100
AcDbLine
 10
-128.5768589171
 20
1544.7657930576
 30
0.0
 11
-128.5768589171
 21
1545.2657930576
 31
0.0
  0
LINE
  5
274
330
23C
100
AcDbEntity
  8
0
  6
Continuous
 62
     7
370
    25
100
AcDbLine
 10
-132.4428843209
 20
1545.2657930576
 30
0.0
 11
1667.5571156791
 21
1545.2657930576
 31
0.0
  0
LINE
  5
275
330
23C
100
AcDbEntity
  8
0
  6
Continuous
 62
     7
370
    25
100
AcDbLine
 10
1663.6910902753
 20
1544.7657930576
 30
0.0
 11
1663.6910902753
 21
1545.2657930576
 31
0.0
  0
LINE
  5
276
330
23C
100
AcDbEntity
  8
0
  6
Continuous
 62
     7
370
    25
100
AcDbLine
 10
-132.4428843209
 20
1529.7657930576
 30
0.0
 11
-132.4428843209
 21
1544.7657930576
 31
0.0
  0
LINE
  5
277
330
23C
100
AcDbEntity
  8
0
  6
Continuous
 62
     7
370
    25
100
AcDbLine
 10
-131.9428843209
 20
1541.3997676538
 30
0.0
 11
-131.9428843209
 21
1529.7657930576
 31
0.0
  0
LINE
  5
278
330
23C
100
AcDbEntity
  8
0
  6
Continuous
 62
     7
370
    25
100
AcDbLine
 10
-132.4428843209
 20
1529.7657930576
 30
0.0
 11
1667.5571156791
 21
1529.7657930576
 31
0.0
  0
LINE
  5
279
330
23C
100
AcDbEntity
  8
0
  6
Continuous
 62
     7
370
    25
100
AcDbLine
 10
-132.2315594555
 20
1541.6884427884
 30
0.0
 11
-128.8655340517
 21
1545.0544681922
 31
0.0
  0
LINE
  5
27A
330
23C
100
AcDbEntity
  8
0
  6
Continuous
 62
     7
370
    25
100
AcDbLine
 10
-128.8655340517
 20
1545.0544681922
 30
0.0
 11
-128.5768589171
 21
1544.7657930576
 31
0.0
  0
LINE
  5
27B
330
23C
100
AcDbEntity
  8
0
  6
Continuous
 62
     7
370
    25
100
AcDbLine
 10
-128.5768589171
 20
1544.7657930576
 30
0.0
 11
-131.9428843209
 21
1541.3997676538
 31
0.0
  0
LINE
  5
27C
330
23C
100
AcDbEntity
  8
0
  6
Continuous
 62
     7
370
    25
100
AcDbLine
 10
1667.3457908137
 20
1545.0544681922
 30
0.0
 11
1663.9797654099
 21
1545.0544681922
 31
0.0
  0
LINE
  5
27D
330
23C
100
AcDbEntity
  8
0
  6
Continuous
 62
     7
370
    25
100
AcDbLine
 10
-128.8655340517
 20
1545.0544681922
 30
0.0
 11
-132.2315594555
 21
1545.0544681922
 31
0.0
  0
LINE
  5
27E
330
23C
100
AcDbEntity
  8
0
  6
Continuous
 62
     7
370
    25
100
AcDbLine
 10
-132.2315594555
 20
1545.0544681922
 30
0.0
 11
-132.2315594555
 21
1541.6884427884
 31
0.0
  0
ARC
  5
27F
330
23C
100
AcDbEntity
  8
0
  6
Continuous
 62
     7
370
    25
100
AcDbCircle
 10
1667.2185784866
 20
1544.7396544689
 30
0.0
 40
0.3395447783882397
100
AcDbArc
 50
4.4150699905
 51
67.9969762354
  0
ARC
  5
280
330
23C
100
AcDbEntity
  8
0
  6
Continuous
 62
     7
370
    25
100
AcDbCircle
 10
-132.1043471284
 20
1541.3736290652
 30
0.0
 40
0.3395447783885298
100
AcDbArc
 50
112.0030237647
 51
175.5849300094
  0
ARC
  5
281
330
23C
100
AcDbEntity
  8
0
  6
Continuous
 62
     7
370
    25
100
AcDbCircle
 10
1663.6649516866
 20
1544.9272558651
 30
0.0
 40
0.3395447783861333
100
AcDbArc
 50
22.0030237644
 51
85.5849300097
  0
ARC
  5
282
330
23C
100
AcDbEntity
  8
0
  6
Continuous
 62
     7
370
    25
100
AcDbCircle
 10
-128.5507203284
 20
1544.9272558651
 30
0.0
 40
0.3395447783863452
100
AcDbArc
 50
94.4150699903
 51
157.9969762356
  0
ARC
  5
283
330
23C
100
AcDbEntity
  8
0
  6
Continuous
 62
     7
370
    25
100
AcDbCircle
 10
1667.0309770904
 20
1544.9272558651
 30
0.0
 40
0.3395447783851526
100
AcDbArc
 50
22.0030237643
 51
85.5849300098
  0
ARC
  5
284
330
23C
100
AcDbEntity
  8
0
  6
Continuous
 62
     7
370
    25
100
AcDbCircle
 10
-131.9167457322
 20
1544.9272558651
 30
0.0
 40
0.3395447783882594
100
AcDbArc
 50
94.4150699905
 51
157.9969762354
  0
ARC
  5
285
330
23C
100
AcDbEntity
  8
0
  6
Continuous
 62
     7
370
    25
100
AcDbCircle
 10
-132.1043471284
 20
1544.7396544689
 30
0.0
 40
0.3395447783883248
100
AcDbArc
 50
112.0030237646
 51
175.5849300095
  0
ARC
  5
286
330
23C
100
AcDbEntity
  8
0
  6
Continuous
 62
     7
370
    25
100
AcDbCircle
 10
-131.9428843209
 20
1544.7657930576
 30
0.0
 40
0.5
100
AcDbArc
 50
90.0
 51
180.0
  0
ARC
  5
287
330
23C
100
AcDbEntity
  8
0
  6
Continuous
 62
     7
370
    25
100
AcDbCircle
 10
1667.0571156791
 20
1544.7657930576
 30
0.0
 40
0.4999999999997726
100
AcDbArc
 50
360.0
 51
90.0
  0
VIEWPORT
  5
28E
330
23C
100
AcDbEntity
  8
0
100
AcDbViewport
 10
0.0
 20
0.0
 30
0.0
 40
205.6
 41
156.0
 68
     1
 69
     1
 12
767.5571156789
 22
487.9640887711
 13
0.0
 23
0.0
 14
10.0
 24
10.0
 15
10.0
 25
10.0
 16
0.0
 26
0.0
 36
1.0
 17
0.0
 27
0.0
 37
0.0
 42
50.0
 43
0.0
 44
0.0
 45
1393.0739299614
 50
0.0
 51
0.0
 72
   100
 90
   557152
  1

281
     0
 71
     1
 74
     0
110
0.0
120
0.0
130
0.0
111
1.0
121
0.0
131
0.0
112
0.0
122
1.0
132
0.0
 79
     0
146
0.0
  0
ENDBLK
  5
23F
330
23C
100
AcDbEntity
  8
0
100
AcDbBlockEnd
  0
ENDSEC
  0
SECTION
  2
ENTITIES
  0
SPLINE
  5
73
330
1F
100
AcDbEntity
  8
0
  6
Continuous
 62
     7
370
    25
100
AcDbSpline
210
0.0
220
0.0
230
1.0
 70
     8
 71
     3
 72
    16
 73
    12
 74
     0
 42
0.000000001
 43
0.00000001
 40
0.0
 40
0.0
 40
0.0
 40
0.0
 40
0.1047836372660586
 40
0.2057199384765415
 40
0.3041581181501938
 40
0.401550360588065
 40
0.4993947471659285
 40
0.6280585092736507
 40
0.7496845501139903
 40
0.8762635767536487
 40
0.9999999999999999
 40
0.9999999999999999
 40
0.9999999999999999
 40
0.9999999999999999
 10
1667.557115679089
 20
309.9039201476349
 30
0.0
 10
1667.556199323725
 20
309.9238550732595
 30
0.0
 10
1667.554400258777
 20
309.9629929747492
 30
0.0
 10
1667.538994391484
 20
310.0206579916265
 30
0.0
 10
1667.514120713684
 20
310.0757335337696
 30
0.0
 10
1667.478893740178
 20
310.1281632513684
 30
0.0
 10
1667.429357328425
 20
310.1827285591264
 30
0.0
 10
1667.362968371886
 20
310.2363282914399
 30
0.0
 10
1667.273593815543
 20
310.2829740880151
 30
0.0
 10
1667.170560528107
 20
310.3158666675822
 30
0.0
 10
1667.094643254439
 20
310.3202325848491
 30
0.0
 10
1667.05711567909
 20
310.32239075362
 30
0.0
  0
SPLINE
  5
74
330
1F
100
AcDbEntity
  8
0
  6
Continuous
 62
     7
370
    25
100
AcDbSpline
210
0.0
220
0.0
230
1.0
 70
    24
 71
     3
 72
     8
 73
     4
 74
     0
 42
0.000000001
 43
0.00000001
 40
0.0
 40
0.0
 40
0.0
 40
0.0
 40
1.0
 40
1.0
 40
1.0
 40
1.0
 10
1667.557115679089
 20
309.9039201476348
 30
0.0
 10
1667.557115679089
 20
306.8573138136628
 30
0.0
 10
1667.557115679089
 20
305.3301373489912
 30
0.0
 10
1667.557115679089
 20
305.32239075362
 30
0.0
  0
SPLINE
  5
76
330
1F
100
AcDbEntity
  8
0
  6
Continuous
 62
     7
370
    25
100
AcDbSpline
210
0.0
220
0.0
230
1.0
 70
    24
 71
     3
 72
     8
 73
     4
 74
     0
 42
0.000000001
 43
0.00000001
 40
0.0
 40
0.0
 40
0.0
 40
0.0
 40
1.0
 40
1.0
 40
1.0
 40
1.0
 10
-132.442884320911
 20
309.9039201476348
 30
0.0
 10
-132.442884320911
 20
306.8573138136628
 30
0.0
 10
-132.442884320911
 20
305.3301373489912
 30
0.0
 10
-132.442884320911
 20
305.32239075362
 30
0.0
  0
SPLINE
  5
77
330
1F
100
AcDbEntity
  8
0
  6
Continuous
 62
     7
370
    25
100
AcDbSpline
210
0.0
220
0.0
230
1.0
 70
     8
 71
     3
 72
    16
 73
    12
 74
     0
 42
0.000000001
 43
0.00000001
 40
0.0
 40
0.0
 40
0.0
 40
0.0
 40
0.062163397418238
 40
0.1237951114262317
 40
0.1861489888491482
 40
0.250436216547103
 40
0.3718328016275305
 40
0.5003515393493773
 40
0.6631093402674907
 40
0.8274174894186783
 40
0.9999999999999999
 40
0.9999999999999999
 40
0.9999999999999999
 40
0.9999999999999999
 10
-131.9428843209115
 20
310.32239075362
 30
0.0
 10
-131.9616861724479
 20
310.3218168545677
 30
0.0
 10
-131.9991290633231
 20
310.3206739650204
 30
0.0
 10
-132.054240553769
 20
310.3123522903624
 30
0.0
 10
-132.1076385372727
 20
310.2991821083979
 30
0.0
 10
-132.1736274764599
 20
310.2756382890312
 30
0.0
 10
-132.2483435568035
 20
310.2365260648518
 30
0.0
 10
-132.3271115333158
 20
310.1731627322939
 30
0.0
 10
-132.3920060893062
 20
310.0943815509735
 30
0.0
 10
-132.4355359819619
 20
310.001102960277
 30
0.0
 10
-132.4403950933667
 20
309.9368405343567
 30
0.0
 10
-132.442884321314
 20
309.9039201476349
 30
0.0
  0
SPLINE
  5
9E
330
1F
100
AcDbEntity
  8
0
  6
Continuous
 62
     7
370
    25
100
AcDbSpline
210
0.0
220
0.0
230
1.0
 70
     8
 71
     3
 72
    25
 73
    21
 74
     0
 42
0.000000001
 43
0.00000001
 40
0.0
 40
0.0
 40
0.0
 40
0.0
 40
0.0250789197050938
 40
0.050797900168458
 40
0.077178648301423
 40
0.1042425489144142
 40
0.1320108293156961
 40
0.1605047166888883
 40
0.1897455878344272
 40
0.2197551110441096
 40
0.2505553800066819
 40
0.3679373697562879
 40
0.5001226872276003
 40
0.5603590284157884
 40
0.6244283642008632
 40
0.7493435850156874
 40
0.8079994255104006
 40
0.874671944090203
 40
0.9276555823882925
 40
1.0
 40
1.0
 40
1.0
 40
1.0
 10
1607.26428421341
 20
750.8223907527945
 30
0.0
 10
1607.343184436703
 20
750.7697675899008
 30
0.0
 10
1607.502998563995
 20
750.663178222948
 30
0.0
 10
1607.748923361823
 20
750.5064273785591
 30
0.0
 10
1608.00328587782
 20
750.34988391522
 30
0.0
 10
1608.266499388672
 20
750.1942742054972
 30
0.0
 10
1608.538668155244
 20
750.0398679533214
 30
0.0
 10
1608.819988296347
 20
749.8870738947921
 30
0.0
 10
1609.110634460785
 20
749.7362744679767
 30
0.0
 10
1609.410798062727
 20
749.5878699240154
 30
0.0
 10
1610.008191772674
 20
749.3071610283597
 30
0.0
 10
1610.960543479346
 20
748.9149740510346
 30
0.0
 10
1612.029038598999
 20
748.5715370368663
 30
0.0
 10
1612.920548204761
 20
748.3415554709154
 30
0.0
 10
1613.790850645275
 20
748.1510736441435
 30
0.0
 10
1614.660941203091
 20
748.0100606438288
 30
0.0
 10
1615.5437039606
 20
747.911641550953
 30
0.0
 10
1616.174449572424
 20
747.8626722416993
 30
0.0
 10
1616.854842374482
 20
747.8291292992662
 30
0.0
 10
1617.300096821982
 20
747.8248569349332
 30
0.0
 10
1617.557115679089
 20
747.82239075362
 30
0.0
  0
SPLINE
  5
9F
330
1F
100
AcDbEntity
  8
0
  6
Continuous
 62
     7
370
    25
100
AcDbSpline
210
0.0
220
0.0
230
1.0
 70
     8
 71
     3
 72
    23
 73
    19
 74
     0
 42
0.000000001
 43
0.00000001
 40
0.0
 40
0.0
 40
0.0
 40
0.0
 40
0.039759866695118
 40
0.0738349560423231
 40
0.1023354764023194
 40
0.1253490844820714
 40
0.1916317204838721
 40
0.2506727832056987
 40
0.3755886628180153
 40
0.4396540118402483
 40
0.4998950337611836
 40
0.632076743850179
 40
0.7494638193454829
 40
0.8043292409765785
 40
0.8566902167058063
 40
0.9066728924042032
 40
0.9544012633464888
 40
1.0
 40
1.0
 40
1.0
 40
1.0
 10
-82.44288432091096
 20
747.82239075362
 30
0.0
 10
-82.30160989041669
 20
747.8231422756037
 30
0.0
 10
-82.03926013342588
 20
747.8245378686283
 30
0.0
 10
-81.67611410082054
 20
747.8347324984377
 30
0.0
 10
-81.37269665903624
 20
747.8475391344948
 30
0.0
 10
-80.95546537231712
 20
747.8706481313255
 30
0.0
 10
-80.43073207747841
 20
747.9115830485089
 30
0.0
 10
-79.54796315709989
 20
748.0098203869302
 30
0.0
 10
-78.67655873109037
 20
748.1510914219034
 30
0.0
 10
-77.80626424878379
 20
748.3415672111227
 30
0.0
 10
-76.91478284635555
 20
748.571544427086
 30
0.0
 10
-75.8462694209332
 20
748.9149956028227
 30
0.0
 10
-74.81223453309427
 20
749.340804104763
 30
0.0
 10
-74.06074991968114
 20
749.7011438351037
 30
0.0
 10
-73.5404946118393
 20
749.9734033490103
 30
0.0
 10
-73.05030059843376
 20
750.251690648168
 30
0.0
 10
-72.58827634203358
 20
750.5325343486713
 30
0.0
 10
-72.29388813280735
 20
750.7272530488606
 30
0.0
 10
-72.15005285523135
 20
750.8223907527945
 30
0.0
  0
SPLINE
  5
A1
330
1F
100
AcDbEntity
  8
0
  6
Continuous
 62
     7
370
    25
100
AcDbSpline
210
0.0
220
0.0
230
1.0
 70
     8
 71
     3
 72
     8
 73
     4
 74
     0
 42
0.000000001
 43
0.00000001
 40
0.0
 40
0.0
 40
0.0
 40
0.0
 40
1.0
 40
1.0
 40
1.0
 40
1.0
 10
-67.44288432091095
 20
755.32239075362
 30
0.0
 10
-68.85580815979763
 20
753.484668413354
 30
0.0
 10
-70.4248643379043
 20
751.9846684130788
 30
0.0
 10
-72.15005285523102
 20
750.822390752794
 30
0.0
  0
SPLINE
  5
A2
330
1F
100
AcDbEntity
  8
0
  6
Continuous
 62
     7
370
    25
100
AcDbSpline
210
0.0
220
0.0
230
1.0
 70
     8
 71
     3
 72
     8
 73
     4
 74
     0
 42
0.000000001
 43
0.00000001
 40
0.0
 40
0.0
 40
0.0
 40
0.0
 40
1.0
 40
1.0
 40
1.0
 40
1.0
 10
1602.557115679089
 20
755.32239075362
 30
0.0
 10
1603.970039517976
 20
753.484668413354
 30
0.0
 10
1605.539095696083
 20
751.9846684130788
 30
0.0
 10
1607.264284213409
 20
750.822390752794
 30
0.0
  0
SPLINE
  5
B8
330
1F
100
AcDbEntity
  8
0
  6
Continuous
 62
     7
370
    25
100
AcDbSpline
210
0.0
220
0.0
230
1.0
 70
    24
 71
     3
 72
    10
 73
     6
 74
     0
 42
0.000000001
 43
0.00000001
 40
0.0
 40
0.0
 40
0.0
 40
0.0
 40
0.5
 40
0.5
 40
1.0
 40
1.0
 40
1.0
 40
1.0
 10
1667.557115679089
 20
220.605786788561
 30
0.0
 10
1667.557115679088
 20
220.605786788561
 30
0.0
 10
1667.538461318085
 20
220.6244411495648
 30
0.0
 10
1667.46384387407
 20
220.69905859358
 30
0.0
 10
1667.408348174829
 20
220.7545542928211
 30
0.0
 10
1667.345790813684
 20
220.8171116539661
 30
0.0
  0
LINE
  5
C5
330
1F
100
AcDbEntity
  8
0
  6
Continuous
 62
     7
370
    25
100
AcDbLine
 10
-132.4428843209
 20
305.3223907536
 30
0.0
 11
1667.5571156791
 21
305.3223907536
 31
0.0
  0
LINE
  5
C6
330
1F
100
AcDbEntity
  8
0
  6
Continuous
 62
     7
370
    25
100
AcDbLine
 10
-131.9428843209
 20
310.3223907536
 30
0.0
 11
1667.0571156791
 21
310.3223907536
 31
0.0
  0
LINE
  5
C7
330
1F
100
AcDbEntity
  8
0
  6
Continuous
 62
     7
370
    25
100
AcDbLine
 10
1663.6910902753
 20
747.3223907536
 30
0.0
 11
-128.5768589171
 21
747.3223907536
 31
0.0
  0
LINE
  5
C8
330
1F
100
AcDbEntity
  8
0
  6
Continuous
 62
     7
370
    25
100
AcDbLine
 10
1667.0571156791
 20
743.9563653498
 30
0.0
 11
1663.6910902753
 21
747.3223907536
 31
0.0
  0
LINE
  5
C9
330
1F
100
AcDbEntity
  8
0
  6
Continuous
 62
     7
370
    25
100
AcDbLine
 10
1667.0571156791
 20
310.3223907536
 30
0.0
 11
1667.0571156791
 21
743.9563653498
 31
0.0
  0
LINE
  5
CA
330
1F
100
AcDbEntity
  8
0
  6
Continuous
 62
     7
370
    25
100
AcDbLine
 10
-131.9428843209
 20
743.9563653498
 30
0.0
 11
-131.9428843209
 21
310.3223907536
 31
0.0
  0
LINE
  5
CB
330
1F
100
AcDbEntity
  8
0
  6
Continuous
 62
     7
370
    25
100
AcDbLine
 10
-128.5768589171
 20
747.3223907536
 30
0.0
 11
-131.9428843209
 21
743.9563653498
 31
0.0
  0
LINE
  5
CC
330
1F
100
AcDbEntity
  8
0
  6
Continuous
 62
     7
370
    25
100
AcDbLine
 10
-132.4428843209
 20
309.9039201476
 30
0.0
 11
-132.4428843209
 21
747.3223907536
 31
0.0
  0
LINE
  5
CD
330
1F
100
AcDbEntity
  8
0
  6
Continuous
 62
     7
370
    25
100
AcDbLine
 10
-132.4428843209
 20
743.9563653498
 30
0.0
 11
-131.9428843209
 21
743.9563653498
 31
0.0
  0
LINE
  5
CE
330
1F
100
AcDbEntity
  8
0
  6
Continuous
 62
     7
370
    25
100
AcDbLine
 10
1667.0571156791
 20
743.9563653498
 30
0.0
 11
1667.5571156791
 21
743.9563653498
 31
0.0
  0
LINE
  5
CF
330
1F
100
AcDbEntity
  8
0
  6
Continuous
 62
     7
370
    25
100
AcDbLine
 10
1667.5571156791
 20
747.3223907536
 30
0.0
 11
1667.5571156791
 21
309.9039201476
 31
0.0
  0
LINE
  5
D0
330
1F
100
AcDbEntity
  8
0
  6
Continuous
 62
     7
370
    25
100
AcDbLine
 10
1663.9797654099
 20
747.6110658882
 30
0.0
 11
1663.6910902753
 21
747.3223907536
 31
0.0
  0
LINE
  5
D1
330
1F
100
AcDbEntity
  8
0
  6
Continuous
 62
     7
370
    25
100
AcDbLine
 10
1663.6910902753
 20
747.8223907536
 30
0.0
 11
1663.6910902753
 21
747.3223907536
 31
0.0
  0
LINE
  5
D2
330
1F
100
AcDbEntity
  8
0
  6
Continuous
 62
     7
370
    25
100
AcDbLine
 10
-132.2315594555
 20
744.2450404844
 30
0.0
 11
-131.9428843209
 21
743.9563653498
 31
0.0
  0
LINE
  5
D3
330
1F
100
AcDbEntity
  8
0
  6
Continuous
 62
     7
370
    25
100
AcDbLine
 10
-131.9428843209
 20
747.8223907536
 30
0.0
 11
1667.0571156791
 21
747.8223907536
 31
0.0
  0
LINE
  5
D4
330
1F
100
AcDbEntity
  8
0
  6
Continuous
 62
     7
370
    25
100
AcDbLine
 10
-128.5768589171
 20
747.8223907536
 30
0.0
 11
-128.5768589171
 21
747.3223907536
 31
0.0
  0
LINE
  5
D5
330
1F
100
AcDbEntity
  8
0
  6
Continuous
 62
     7
370
    25
100
AcDbLine
 10
1667.0571156791
 20
743.9563653498
 30
0.0
 11
1667.3457908137
 21
744.2450404844
 31
0.0
  0
LINE
  5
D6
330
1F
100
AcDbEntity
  8
0
  6
Continuous
 62
     7
370
    25
100
AcDbLine
 10
1663.9797654099
 20
747.6110658882
 30
0.0
 11
1667.3457908137
 21
744.2450404844
 31
0.0
  0
LINE
  5
D7
330
1F
100
AcDbEntity
  8
0
  6
Continuous
 62
     7
370
    25
100
AcDbLine
 10
-132.2315594555
 20
744.2450404844
 30
0.0
 11
-128.8655340517
 21
747.6110658882
 31
0.0
  0
LINE
  5
D8
330
1F
100
AcDbEntity
  8
0
  6
Continuous
 62
     7
370
    25
100
AcDbLine
 10
-128.8655340517
 20
747.6110658882
 30
0.0
 11
-128.5768589171
 21
747.3223907536
 31
0.0
  0
LINE
  5
D9
330
1F
100
AcDbEntity
  8
0
  6
Continuous
 62
     7
370
    25
100
AcDbLine
 10
-128.8655340517
 20
747.6110658882
 30
0.0
 11
-132.2315594555
 21
747.6110658882
 31
0.0
  0
LINE
  5
DA
330
1F
100
AcDbEntity
  8
0
  6
Continuous
 62
     7
370
    25
100
AcDbLine
 10
1667.3457908137
 20
744.2450404844
 30
0.0
 11
1667.3457908137
 21
747.6110658882
 31
0.0
  0
LINE
  5
DB
330
1F
100
AcDbEntity
  8
0
  6
Continuous
 62
     7
370
    25
100
AcDbLine
 10
1667.3457908137
 20
747.6110658882
 30
0.0
 11
1663.9797654099
 21
747.6110658882
 31
0.0
  0
LINE
  5
DC
330
1F
100
AcDbEntity
  8
0
  6
Continuous
 62
     7
370
    25
100
AcDbLine
 10
-132.2315594555
 20
747.6110658882
 30
0.0
 11
-132.2315594555
 21
744.2450404844
 31
0.0
  0
LINE
  5
DD
330
1F
100
AcDbEntity
  8
0
  6
Continuous
 62
     7
370
    25
100
AcDbLine
 10
-72.1500528552
 20
750.8223907536
 30
0.0
 11
1607.2642842134
 21
750.8223907536
 31
0.0
  0
LINE
  5
DE
330
1F
100
AcDbEntity
  8
0
  6
Continuous
 62
     7
370
    25
100
AcDbLine
 10
-67.4428843209
 20
755.3223907536
 30
0.0
 11
1602.5571156791
 21
755.3223907536
 31
0.0
  0
LINE
  5
DF
330
1F
100
AcDbEntity
  8
0
  6
Continuous
 62
     7
370
    25
100
AcDbLine
 10
1663.6910902753
 20
220.6057867886
 30
0.0
 11
1663.6910902753
 21
221.1057867886
 31
0.0
  0
LINE
  5
E0
330
1F
100
AcDbEntity
  8
0
  6
Continuous
 62
     7
370
    25
100
AcDbLine
 10
1663.9797654099
 20
220.817111654
 30
0.0
 11
1663.6910902753
 21
221.1057867886
 31
0.0
  0
LINE
  5
E1
330
1F
100
AcDbEntity
  8
0
  6
Continuous
 62
     7
370
    25
100
AcDbLine
 10
1667.3457908137
 20
224.1831370578
 30
0.0
 11
1663.9797654099
 21
220.817111654
 31
0.0
  0
LINE
  5
E2
330
1F
100
AcDbEntity
  8
0
  6
Continuous
 62
     7
370
    25
100
AcDbLine
 10
1663.6910902753
 20
221.1057867886
 30
0.0
 11
1667.0571156791
 21
224.4718121923
 31
0.0
  0
LINE
  5
E3
330
1F
100
AcDbEntity
  8
0
  6
Continuous
 62
     7
370
    25
100
AcDbLine
 10
1667.3457908137
 20
224.1831370578
 30
0.0
 11
1667.0571156791
 21
224.4718121923
 31
0.0
  0
LINE
  5
E4
330
1F
100
AcDbEntity
  8
0
  6
Continuous
 62
     7
370
    25
100
AcDbLine
 10
-128.8655340517
 20
220.817111654
 30
0.0
 11
-128.5768589171
 21
221.1057867886
 31
0.0
  0
LINE
  5
E5
330
1F
100
AcDbEntity
  8
0
  6
Continuous
 62
     7
370
    25
100
AcDbLine
 10
-128.5768589171
 20
220.6057867886
 30
0.0
 11
-128.5768589171
 21
221.1057867886
 31
0.0
  0
LINE
  5
E6
330
1F
100
AcDbEntity
  8
0
  6
Continuous
 62
     7
370
    25
100
AcDbLine
 10
-131.9428843209
 20
224.4718121923
 30
0.0
 11
-132.2315594555
 21
224.1831370578
 31
0.0
  0
LINE
  5
E7
330
1F
100
AcDbEntity
  8
0
  6
Continuous
 62
     7
370
    25
100
AcDbLine
 10
-131.9428843209
 20
224.4718121923
 30
0.0
 11
-132.4428843209
 21
224.4718121923
 31
0.0
  0
LINE
  5
E8
330
1F
100
AcDbEntity
  8
0
  6
Continuous
 62
     7
370
    25
100
AcDbLine
 10
-128.8655340517
 20
220.817111654
 30
0.0
 11
-132.2315594555
 21
224.1831370578
 31
0.0
  0
LINE
  5
E9
330
1F
100
AcDbEntity
  8
0
  6
Continuous
 62
     7
370
    25
100
AcDbLine
 10
-131.9428843209
 20
224.4718121923
 30
0.0
 11
-128.5768589171
 21
221.1057867886
 31
0.0
  0
LINE
  5
EA
330
1F
100
AcDbEntity
  8
0
  6
Continuous
 62
     7
370
    25
100
AcDbLine
 10
-132.4428843209
 20
221.1057867886
 30
0.0
 11
-132.4428843209
 21
305.1473807536
 31
0.0
  0
LINE
  5
EB
330
1F
100
AcDbEntity
  8
0
  6
Continuous
 62
     7
370
    25
100
AcDbLine
 10
-128.5768589171
 20
221.1057867886
 30
0.0
 11
1663.6910902753
 21
221.1057867886
 31
0.0
  0
LINE
  5
EC
330
1F
100
AcDbEntity
  8
0
  6
Continuous
 62
     7
370
    25
100
AcDbLine
 10
1667.5571156791
 20
305.1473807536
 30
0.0
 11
1667.5571156791
 21
220.6057867886
 31
0.0
  0
LINE
  5
ED
330
1F
100
AcDbEntity
  8
0
  6
Continuous
 62
     7
370
    25
100
AcDbLine
 10
1667.5571156791
 20
224.4718121923
 30
0.0
 11
1667.0571156791
 21
224.4718121923
 31
0.0
  0
LINE
  5
EE
330
1F
100
AcDbEntity
  8
0
  6
Continuous
 62
     7
370
    25
100
AcDbLine
 10
1667.5571156791
 20
220.6057867886
 30
0.0
 11
-131.9428843209
 21
220.6057867886
 31
0.0
  0
LINE
  5
EF
330
1F
100
AcDbEntity
  8
0
  6
Continuous
 62
     7
370
    25
100
AcDbLine
 10
1667.3457908137
 20
220.817111654
 30
0.0
 11
1667.3457908137
 21
224.1831370578
 31
0.0
  0
LINE
  5
F0
330
1F
100
AcDbEntity
  8
0
  6
Continuous
 62
     7
370
    25
100
AcDbLine
 10
-132.2315594555
 20
224.1831370578
 30
0.0
 11
-132.2315594555
 21
220.817111654
 31
0.0
  0
LINE
  5
F1
330
1F
100
AcDbEntity
  8
0
  6
Continuous
 62
     7
370
    25
100
AcDbLine
 10
-132.2315594555
 20
220.817111654
 30
0.0
 11
-128.8655340517
 21
220.817111654
 31
0.0
  0
LINE
  5
F2
330
1F
100
AcDbEntity
  8
0
  6
Continuous
 62
     7
370
    25
100
AcDbLine
 10
1663.9797654099
 20
220.817111654
 30
0.0
 11
1667.3457908137
 21
220.817111654
 31
0.0
  0
LINE
  5
F3
330
1F
100
AcDbEntity
  8
0
  6
Continuous
 62
     8
370
    25
100
AcDbLine
 10
-131.9428843209
 20
305.3223907536
 30
0.0
 11
-131.9428843209
 21
224.4718121923
 31
0.0
  0
LINE
  5
F4
330
1F
100
AcDbEntity
  8
0
  6
Continuous
 62
     8
370
    25
100
AcDbLine
 10
1667.0571156791
 20
224.4718121923
 30
0.0
 11
1667.0571156791
 21
305.3223907536
 31
0.0
  0
ARC
  5
F5
330
1F
100
AcDbEntity
  8
0
  6
Continuous
 62
     7
370
    25
100
AcDbCircle
 10
1663.6649516866
 20
747.4838535611
 30
0.0
 40
0.3395447783871064
100
AcDbArc
 50
22.0030237645
 51
85.5849300095
  0
ARC
  5
F6
330
1F
100
AcDbEntity
  8
0
  6
Continuous
 62
     7
370
    25
100
AcDbCircle
 10
-132.1043471284
 20
743.9302267612
 30
0.0
 40
0.3395447783872864
100
AcDbArc
 50
112.0030237645
 51
175.5849300096
  0
ARC
  5
F7
330
1F
100
AcDbEntity
  8
0
  6
Continuous
 62
     7
370
    25
100
AcDbCircle
 10
1667.2185784866
 20
743.9302267612
 30
0.0
 40
0.3395447783883757
100
AcDbArc
 50
4.4150699906
 51
67.9969762354
  0
ARC
  5
F8
330
1F
100
AcDbEntity
  8
0
  6
Continuous
 62
     7
370
    25
100
AcDbCircle
 10
-128.5507203284
 20
747.4838535611
 30
0.0
 40
0.3395447783881486
100
AcDbArc
 50
94.4150699905
 51
157.9969762354
  0
ARC
  5
F9
330
1F
100
AcDbEntity
  8
0
  6
Continuous
 62
     7
370
    25
100
AcDbCircle
 10
-131.9167457322
 20
747.4838535611
 30
0.0
 40
0.3395447783887369
100
AcDbArc
 50
94.4150699906
 51
157.9969762353
  0
ARC
  5
FA
330
1F
100
AcDbEntity
  8
0
  6
Continuous
 62
     7
370
    25
100
AcDbCircle
 10
1667.2185784866
 20
747.2962521649
 30
0.0
 40
0.3395447783885014
100
AcDbArc
 50
4.4150699906
 51
67.9969762354
  0
ARC
  5
FB
330
1F
100
AcDbEntity
  8
0
  6
Continuous
 62
     7
370
    25
100
AcDbCircle
 10
1667.0309770904
 20
747.4838535611
 30
0.0
 40
0.3395447783868105
100
AcDbArc
 50
22.0030237645
 51
85.5849300096
  0
ARC
  5
FC
330
1F
100
AcDbEntity
  8
0
  6
Continuous
 62
     7
370
    25
100
AcDbCircle
 10
-132.1043471284
 20
747.2962521649
 30
0.0
 40
0.3395447783889261
100
AcDbArc
 50
112.0030237647
 51
175.5849300094
  0
ARC
  5
FD
330
1F
100
AcDbEntity
  8
0
  6
Continuous
 62
     7
370
    25
100
AcDbCircle
 10
1667.0571156791
 20
747.3223907536
 30
0.0
 40
0.5
100
AcDbArc
 50
0.0
 51
90.0
  0
ARC
  5
FE
330
1F
100
AcDbEntity
  8
0
  6
Continuous
 62
     7
370
    25
100
AcDbCircle
 10
-131.9428843209
 20
747.3223907536
 30
0.0
 40
0.5000000000001137
100
AcDbArc
 50
90.0
 51
180.0
  0
ARC
  5
FF
330
1F
100
AcDbEntity
  8
0
  6
Continuous
 62
     7
370
    25
100
AcDbCircle
 10
1663.6649516866
 20
220.9443239811
 30
0.0
 40
0.3395447783874463
100
AcDbArc
 50
274.4150699905
 51
337.9969762355
  0
ARC
  5
100
330
1F
100
AcDbEntity
  8
0
  6
Continuous
 62
     7
370
    25
100
AcDbCircle
 10
-128.5507203284
 20
220.9443239811
 30
0.0
 40
0.339544778387185
100
AcDbArc
 50
202.0030237645
 51
265.5849300096
  0
ARC
  5
101
330
1F
100
AcDbEntity
  8
0
  6
Continuous
 62
     7
370
    25
100
AcDbCircle
 10
-132.1043471284
 20
224.497950781
 30
0.0
 40
0.339544778388138
100
AcDbArc
 50
184.4150699906
 51
247.9969762354
  0
ARC
  5
102
330
1F
100
AcDbEntity
  8
0
  6
Continuous
 62
     7
370
    25
100
AcDbCircle
 10
1667.2185784866
 20
224.497950781
 30
0.0
 40
0.3395447783875684
100
AcDbArc
 50
292.0030237645
 51
355.5849300095
  0
ARC
  5
103
330
1F
100
AcDbEntity
  8
0
  6
Continuous
 62
     7
370
    25
100
AcDbCircle
 10
-132.1043471284
 20
221.1319253772
 30
0.0
 40
0.3395447783879455
100
AcDbArc
 50
184.4150699905
 51
247.9969762354
  0
ARC
  5
104
330
1F
100
AcDbEntity
  8
0
  6
Continuous
 62
     7
370
    25
100
AcDbCircle
 10
-131.9167457322
 20
220.9443239811
 30
0.0
 40
0.3395447783867682
100
AcDbArc
 50
202.0030237644
 51
265.5849300096
  0
ARC
  5
105
330
1F
100
AcDbEntity
  8
0
  6
Continuous
 62
     7
370
    25
100
AcDbCircle
 10
-131.9428843209
 20
221.1057867886
 30
0.0
 40
0.4999999999999716
100
AcDbArc
 50
180.0
 51
270.0
  0
SPLINE
  5
109
330
1B
100
AcDbEntity
 67
     1
  8
0
  6
Continuous
 62
     7
370
    25
100
AcDbSpline
210
0.0
220
0.0
230
1.0
 70
     8
 71
     3
 72
     8
 73
     4
 74
     0
 42
0.000000001
 43
0.00000001
 40
0.0
 40
0.0
 40
0.0
 40
0.0
 40
1.0
 40
1.0
 40
1.0
 40
1.0
 10
-1602.557115679089
 20
755.32239075362
 30
0.0
 10
-1606.401341240069
 20
750.32239075362
 30
0.0
 10
-1611.401341240069
 20
747.82239075362
 30
0.0
 10
-1617.557115679089
 20
747.82239075362
 30
0.0
  0
SPLINE
  5
10E
330
1B
100
AcDbEntity
 67
     1
  8
0
  6
Continuous
 62
     7
370
    25
100
AcDbSpline
210
0.0
220
0.0
230
1.0
 70
     8
 71
     3
 72
     8
 73
     4
 74
     0
 42
0.000000001
 43
0.00000001
 40
0.0
 40
0.0
 40
0.0
 40
0.0
 40
1.0
 40
1.0
 40
1.0
 40
1.0
 10
67.44288432091095
 20
755.32239075362
 30
0.0
 10
71.28710988189091
 20
750.32239075362
 30
0.0
 10
76.28710988189091
 20
747.82239075362
 30
0.0
 10
82.44288432091096
 20
747.82239075362
 30
0.0
  0
LINE
  5
116
330
1B
100
AcDbEntity
 67
     1
  8
0
  6
Continuous
 62
     7
370
    25
100
AcDbLine
 10
67.4428843209
 20
755.3223907536
 30
0.0
 11
-1602.5571156791
 21
755.3223907536
 31
0.0
  0
LINE
  5
117
330
1B
100
AcDbEntity
 67
     1
  8
0
  6
Continuous
 62
     7
370
    25
100
AcDbLine
 10
-1667.5571156791
 20
220.6057867886
 30
0.0
 11
-1667.5571156791
 21
747.3223907536
 31
0.0
  0
LINE
  5
118
330
1B
100
AcDbEntity
 67
     1
  8
0
  6
Continuous
 62
     7
370
    25
100
AcDbLine
 10
-1617.5571156791
 20
747.8223907536
 30
0.0
 11
-1667.0571156791
 21
747.8223907536
 31
0.0
  0
LINE
  5
119
330
1B
100
AcDbEntity
 67
     1
  8
0
  6
Continuous
 62
     7
370
    25
100
AcDbLine
 10
82.4428843209
 20
747.8223907536
 30
0.0
 11
131.9428843209
 21
747.8223907536
 31
0.0
  0
LINE
  5
11A
330
1B
100
AcDbEntity
 67
     1
  8
0
  6
Continuous
 62
     7
370
    25
100
AcDbLine
 10
132.4428843209
 20
221.1057867886
 30
0.0
 11
132.4428843209
 21
747.3223907536
 31
0.0
  0
LINE
  5
11B
330
1B
100
AcDbEntity
 67
     1
  8
0
  6
Continuous
 62
     7
370
    25
100
AcDbLine
 10
131.9428843209
 20
220.6057867886
 30
0.0
 11
-1667.5571156791
 21
220.6057867886
 31
0.0
  0
LINE
  5
11C
330
1B
100
AcDbEntity
 67
     1
  8
0
  6
Continuous
 62
     7
370
    25
100
AcDbLine
 10
131.9428843209
 20
360.6057867886
 30
0.0
 11
-1667.0571156791
 21
360.6057867886
 31
0.0
  0
ARC
  5
11D
330
1B
100
AcDbEntity
 67
     1
  8
0
  6
Continuous
 62
     7
370
    25
100
AcDbCircle
 10
-1667.0571156791
 20
747.3223907536
 30
0.0
 40
0.4999999999993179
100
AcDbArc
 50
89.9999999999
 51
180.0000000001
  0
ARC
  5
11E
330
1B
100
AcDbEntity
 67
     1
  8
0
  6
Continuous
 62
     7
370
    25
100
AcDbCircle
 10
131.9428843209
 20
747.3223907536
 30
0.0
 40
0.5000000000001137
100
AcDbArc
 50
0.0
 51
90.0
  0
ARC
  5
11F
330
1B
100
AcDbEntity
 67
     1
  8
0
  6
Continuous
 62
     7
370
    25
100
AcDbCircle
 10
-1667.0571156791
 20
360.1057867886
 30
0.0
 40
0.4999999999994884
100
AcDbArc
 50
89.9999999999
 51
180.0000000001
  0
ARC
  5
120
330
1B
100
AcDbEntity
 67
     1
  8
0
  6
Continuous
 62
     7
370
    25
100
AcDbCircle
 10
131.9428843209
 20
360.1057867886
 30
0.0
 40
0.5000000000001137
100
AcDbArc
 50
0.0
 51
90.0
  0
ARC
  5
121
330
1B
100
AcDbEntity
 67
     1
  8
0
  6
Continuous
 62
     7
370
    25
100
AcDbCircle
 10
131.9428843209
 20
221.1057867886
 30
0.0
 40
0.5000000000001137
100
AcDbArc
 50
270.0
 51
360.0
  0
VIEWPORT
  5
288
330
1B
100
AcDbEntity
 67
     1
  8
0
100
AcDbViewport
 10
0.0
 20
0.0
 30
0.0
 40
205.6
 41
156.0
 68
     1
 69
     1
 12
767.5571156789
 22
487.9640887711
 13
0.0
 23
0.0
 14
10.0
 24
10.0
 15
10.0
 25
10.0
 16
0.0
 26
0.0
 36
1.0
 17
0.0
 27
0.0
 37
0.0
 42
50.0
 43
0.0
 44
0.0
 45
1393.0739299614
 50
0.0
 51
0.0
 72
   100
 90
   557152
  1

281
     0
 71
     1
 74
     0
110
0.0
120
0.0
130
0.0
111
1.0
121
0.0
131
0.0
112
0.0
122
1.0
132
0.0
 79
     0
146
0.0
  0
ENDSEC
  0
SECTION
  2
OBJECTS
  0
DICTIONARY
  5
C
330
0
100
AcDbDictionary
281
     1
  3
ACAD_GROUP
350
D
  3
ACAD_LAYOUT
350
1A
  3
ACAD_MLINESTYLE
350
17
  3
ACAD_PLOTSETTINGS
350
19
  3
ACAD_PLOTSTYLENAME
350
E
  3
ACAD_SCALELIST
350
47
  0
DICTIONARY
  5
D
102
{ACAD_REACTORS
330
C
102
}
330
C
100
AcDbDictionary
281
     1
  0
DICTIONARY
  5
1A
102
{ACAD_REACTORS
330
C
102
}
330
C
100
AcDbDictionary
281
     1
  3
_Back
350
1E
  3
_Bottom
350
23D
  3
_Left
350
26
  3
_Top
350
197
  3
Model
350
22
  0
DICTIONARY
  5
17
102
{ACAD_REACTORS
330
C
102
}
330
C
100
AcDbDictionary
281
     1
  3
Standard
350
18
  0
DICTIONARY
  5
19
102
{ACAD_REACTORS
330
C
102
}
330
C
100
AcDbDictionary
281
     1
  0
ACDBDICTIONARYWDFLT
  5
E
102
{ACAD_REACTORS
330
C
102
}
330
C
100
AcDbDictionary
281
     1
  3
Normal
350
F
100
AcDbDictionaryWithDefault
340
F
  0
DICTIONARY
  5
47
102
{ACAD_REACTORS
330
C
102
}
330
C
100
AcDbDictionary
281
     1
  3
A0
350
48
  3
A1
350
49
  3
A2
350
4A
  3
A3
350
4B
  3
A4
350
4C
  3
A5
350
4D
  3
A6
350
4E
  3
A7
350
4F
  3
A8
350
50
  3
A9
350
51
  3
B0
350
52
  3
B1
350
53
  3
B2
350
54
  3
B3
350
55
  3
B4
350
56
  3
B5
350
57
  3
B6
350
58
  3
B7
350
59
  3
B8
350
5A
  3
B9
350
5B
  3
C0
350
5C
  3
C1
350
5D
  3
C2
350
5E
  3
C3
350
5F
  3
C4
350
60
  3
C5
350
61
  3
C6
350
62
  3
C7
350
63
  3
C8
350
64
  3
C9
350
65
  3
D0
350
66
  3
D1
350
67
  3
D2
350
68
  0
LAYOUT
  5
1E
102
{ACAD_REACTORS
330
1A
102
}
330
1A
100
AcDbPlotSettings
  1

  2
none_device
  4
ISO_A4_(210.00_x_297.00_MM)
  6

 40
7.5
 41
20.0
 42
7.5
 43
20.0
 44
210.0
 45
297.0
 46
0.0
 47
0.0
 48
0.0
 49
0.0
140
0.0
141
0.0
142
1.0
143
7.0038910506
 70
   688
 72
     1
 73
     1
 74
     1
  7

 75
     0
147
0.1427777778
148
1667.5571156791
149
-220.6057867886
100
AcDbLayout
  1
_Back
 70
     1
 71
     1
 10
-1807.6349366908
 20
168.0766039092
 11
272.5207053326
 21
1638.8937245318
 12
0.0
 22
0.0
 32
0.0
 14
-1667.5571156791
 24
220.6057867886
 34
0.0
 15
132.4428843209
 25
755.3223907536
 35
0.0
146
0.0
 13
0.0
 23
0.0
 33
0.0
 16
1.0
 26
0.0
 36
0.0
 17
0.0
 27
1.0
 37
0.0
 76
     0
330
1B
331
288
  0
LAYOUT
  5
23D
102
{ACAD_REACTORS
330
1A
102
}
330
1A
100
AcDbPlotSettings
  1

  2
none_device
  4
ISO_A4_(210.00_x_297.00_MM)
  6

 40
7.5
 41
20.0
 42
7.5
 43
20.0
 44
210.0
 45
297.0
 46
0.0
 47
0.0
 48
0.0
 49
0.0
140
0.0
141
0.0
142
1.0
143
7.0038910506
 70
   688
 72
     1
 73
     1
 74
     1
  7

 75
     0
147
0.1427777778
148
1667.5571156791
149
-220.6057867886
100
AcDbLayout
  1
_Bottom
 70
     1
 71
     4
 10
0.0
 20
0.0
 11
0.0
 21
0.0
 12
0.0
 22
0.0
 32
0.0
 14
0.0
 24
0.0
 34
0.0
 15
0.0
 25
0.0
 35
0.0
146
0.0
 13
0.0
 23
0.0
 33
0.0
 16
1.0
 26
0.0
 36
0.0
 17
0.0
 27
1.0
 37
0.0
 76
     0
330
23C
331
28E
  0
LAYOUT
  5
26
102
{ACAD_REACTORS
330
1A
102
}
330
1A
100
AcDbPlotSettings
  1

  2
none_device
  4
ISO_A4_(210.00_x_297.00_MM)
  6

 40
7.5
 41
20.0
 42
7.5
 43
20.0
 44
210.0
 45
297.0
 46
0.0
 47
0.0
 48
0.0
 49
0.0
140
0.0
141
0.0
142
1.0
143
7.0038910506
 70
   688
 72
     1
 73
     1
 74
     1
  7

 75
     0
147
0.1427777778
148
1667.5571156791
149
-220.6057867886
100
AcDbLayout
  1
_Left
 70
     1
 71
     2
 10
0.0
 20
0.0
 11
0.0
 21
0.0
 12
0.0
 22
0.0
 32
0.0
 14
0.0
 24
0.0
 34
0.0
 15
0.0
 25
0.0
 35
0.0
146
0.0
 13
0.0
 23
0.0
 33
0.0
 16
1.0
 26
0.0
 36
0.0
 17
0.0
 27
1.0
 37
0.0
 76
     0
330
23
331
28A
  0
LAYOUT
  5
197
102
{ACAD_REACTORS
330
1A
102
}
330
1A
100
AcDbPlotSettings
  1

  2
none_device
  4
ISO_A4_(210.00_x_297.00_MM)
  6

 40
7.5
 41
20.0
 42
7.5
 43
20.0
 44
210.0
 45
297.0
 46
0.0
 47
0.0
 48
0.0
 49
0.0
140
0.0
141
0.0
142
1.0
143
7.0038910506
 70
   688
 72
     1
 73
     1
 74
     1
  7

 75
     0
147
0.1427777778
148
1667.5571156791
149
-220.6057867886
100
AcDbLayout
  1
_Top
 70
     1
 71
     3
 10
0.0
 20
0.0
 11
0.0
 21
0.0
 12
0.0
 22
0.0
 32
0.0
 14
0.0
 24
0.0
 34
0.0
 15
0.0
 25
0.0
 35
0.0
146
0.0
 13
0.0
 23
0.0
 33
0.0
 16
1.0
 26
0.0
 36
0.0
 17
0.0
 27
1.0
 37
0.0
 76
     0
330
196
331
28C
  0
LAYOUT
  5
22
102
{ACAD_REACTORS
330
1A
102
}
330
1A
100
AcDbPlotSettings
  1

  2
none_device
  4
ANSI_A_(11.00_x_8.50_Inches)
  6

 40
6.35
 41
19.05
 42
6.35000508
 43
19.05000254
 44
279.4
 45
215.9
 46
15.3994954937
 47
13.9145572086
 48
0.0
 49
0.0
140
0.0
141
0.0
142
0.00605
143
1.0
 70
  1696
 72
     0
 73
     0
 74
     0
  7

 75
     0
147
0.0179189148
148
-1300.4909072572
149
0.0
100
AcDbLayout
  1
Model
 70
     1
 71
     0
 10
0.0
 20
0.0
 11
420.0
 21
297.0
 12
0.0
 22
0.0
 32
0.0
 14
-132.4428843213
 24
220.6057867886
 34
0.0
 15
1667.5571156791
 25
755.3223907536
 35
0.0
146
0.0
 13
0.0
 23
0.0
 33
0.0
 16
1.0
 26
0.0
 36
0.0
 17
0.0
 27
1.0
 37
0.0
 76
     0
330
1F
331
29
  0
MLINESTYLE
  5
18
102
{ACAD_REACTORS
330
17
102
}
330
17
100
AcDbMlineStyle
  2
Standard
 70
     0
  3

 62
   256
 51
90.0
 52
90.0
 71
     2
 49
0.5
 62
   256
  6
BYLAYER
 49
-0.5
 62
   256
  6
BYLAYER
  0
ACDBPLACEHOLDER
  5
F
102
{ACAD_REACTORS
330
E
102
}
330
E
  0
SCALE
  5
48
102
{ACAD_REACTORS
330
47
102
}
330
47
100
AcDbScale
 70
     0
300
1:1
140
1.0
141
1.0
290
     1
  0
SCALE
  5
49
102
{ACAD_REACTORS
330
47
102
}
330
47
100
AcDbScale
 70
     0
300
1:2
140
1.0
141
2.0
290
     0
  0
SCALE
  5
4A
102
{ACAD_REACTORS
330
47
102
}
330
47
100
AcDbScale
 70
     0
300
1:4
140
1.0
141
4.0
290
     0
  0
SCALE
  5
4B
102
{ACAD_REACTORS
330
47
102
}
330
47
100
AcDbScale
 70
     0
300
1:5
140
1.0
141
5.0
290
     0
  0
SCALE
  5
4C
102
{ACAD_REACTORS
330
47
102
}
330
47
100
AcDbScale
 70
     0
300
1:8
140
1.0
141
8.0
290
     0
  0
SCALE
  5
4D
102
{ACAD_REACTORS
330
47
102
}
330
47
100
AcDbScale
 70
     0
300
1:10
140
1.0
141
10.0
290
     0
  0
SCALE
  5
4E
102
{ACAD_REACTORS
330
47
102
}
330
47
100
AcDbScale
 70
     0
300
1:16
140
1.0
141
16.0
290
     0
  0
SCALE
  5
4F
102
{ACAD_REACTORS
330
47
102
}
330
47
100
AcDbScale
 70
     0
300
1:20
140
1.0
141
20.0
290
     0
  0
SCALE
  5
50
102
{ACAD_REACTORS
330
47
102
}
330
47
100
AcDbScale
 70
     0
300
1:30
140
1.0
141
30.0
290
     0
  0
SCALE
  5
51
102
{ACAD_REACTORS
330
47
102
}
330
47
100
AcDbScale
 70
     0
300
1:40
140
1.0
141
40.0
290
     0
  0
SCALE
  5
52
102
{ACAD_REACTORS
330
47
102
}
330
47
100
AcDbScale
 70
     0
300
1:50
140
1.0
141
50.0
290
     0
  0
SCALE
  5
53
102
{ACAD_REACTORS
330
47
102
}
330
47
100
AcDbScale
 70
     0
300
1:100
140
1.0
141
100.0
290
     0
  0
SCALE
  5
54
102
{ACAD_REACTORS
330
47
102
}
330
47
100
AcDbScale
 70
     0
300
2:1
140
2.0
141
1.0
290
     0
  0
SCALE
  5
55
102
{ACAD_REACTORS
330
47
102
}
330
47
100
AcDbScale
 70
     0
300
4:1
140
4.0
141
1.0
290
     0
  0
SCALE
  5
56
102
{ACAD_REACTORS
330
47
102
}
330
47
100
AcDbScale
 70
     0
300
8:1
140
8.0
141
1.0
290
     0
  0
SCALE
  5
57
102
{ACAD_REACTORS
330
47
102
}
330
47
100
AcDbScale
 70
     0
300
10:1
140
10.0
141
1.0
290
     0
  0
SCALE
  5
58
102
{ACAD_REACTORS
330
47
102
}
330
47
100
AcDbScale
 70
     0
300
100:1
140
100.0
141
1.0
290
     0
  0
SCALE
  5
59
102
{ACAD_REACTORS
330
47
102
}
330
47
100
AcDbScale
 70
     0
300
1/128" = 1'-0"
140
0.0078125
141
12.0
290
     0
  0
SCALE
  5
5A
102
{ACAD_REACTORS
330
47
102
}
330
47
100
AcDbScale
 70
     0
300
1/64" = 1'-0"
140
0.015625
141
12.0
290
     0
  0
SCALE
  5
5B
102
{ACAD_REACTORS
330
47
102
}
330
47
100
AcDbScale
 70
     0
300
1/32" = 1'-0"
140
0.03125
141
12.0
290
     0
  0
SCALE
  5
5C
102
{ACAD_REACTORS
330
47
102
}
330
47
100
AcDbScale
 70
     0
300
1/16" = 1'-0"
140
0.0625
141
12.0
290
     0
  0
SCALE
  5
5D
102
{ACAD_REACTORS
330
47
102
}
330
47
100
AcDbScale
 70
     0
300
3/32" = 1'-0"
140
0.09375
141
12.0
290
     0
  0
SCALE
  5
5E
102
{ACAD_REACTORS
330
47
102
}
330
47
100
AcDbScale
 70
     0
300
1/8" = 1'-0"
140
0.125
141
12.0
290
     0
  0
SCALE
  5
5F
102
{ACAD_REACTORS
330
47
102
}
330
47
100
AcDbScale
 70
     0
300
3/16" = 1'-0"
140
0.1875
141
12.0
290
     0
  0
SCALE
  5
60
102
{ACAD_REACTORS
330
47
102
}
330
47
100
AcDbScale
 70
     0
300
1/4" = 1'-0"
140
0.25
141
12.0
290
     0
  0
SCALE
  5
61
102
{ACAD_REACTORS
330
47
102
}
330
47
100
AcDbScale
 70
     0
300
3/8" = 1'-0"
140
0.375
141
12.0
290
     0
  0
SCALE
  5
62
102
{ACAD_REACTORS
330
47
102
}
330
47
100
AcDbScale
 70
     0
300
1/2" = 1'-0"
140
0.5
141
12.0
290
     0
  0
SCALE
  5
63
102
{ACAD_REACTORS
330
47
102
}
330
47
100
AcDbScale
 70
     0
300
3/4" = 1'-0"
140
0.75
141
12.0
290
     0
  0
SCALE
  5
64
102
{ACAD_REACTORS
330
47
102
}
330
47
100
AcDbScale
 70
     0
300
1" = 1'-0"
140
1.0
141
12.0
290
     0
  0
SCALE
  5
65
102
{ACAD_REACTORS
330
47
102
}
330
47
100
AcDbScale
 70
     0
300
1-1/2" = 1'-0"
140
1.5
141
12.0
290
     0
  0
SCALE
  5
66
102
{ACAD_REACTORS
330
47
102
}
330
47
100
AcDbScale
 70
     0
300
3" = 1'-0"
140
3.0
141
12.0
290
     0
  0
SCALE
  5
67
102
{ACAD_REACTORS
330
47
102
}
330
47
100
AcDbScale
 70
     0
300
6" = 1'-0"
140
6.0
141
12.0
290
     0
  0
SCALE
  5
68
102
{ACAD_REACTORS
330
47
102
}
330
47
100
AcDbScale
 70
     0
300
1'-0" = 1'-0"
140
12.0
141
12.0
290
     0
  0
ENDSEC
  0
EOF
