  0
SECTION
  2
HEADER
  9
$ACADVER
  1
AC1015
  9
$ACADMAINTVER
 70
     6
  9
$DWGCODEPAGE
  3
ANSI_1252
  9
$INSBASE
 10
0.0
 20
0.0
 30
0.0
  9
$EXTMIN
 10
-301.0
 20
-224.0
 30
0.0
  9
$EXTMAX
 10
301.0
 20
224.0
 30
0.0
  9
$LIMMIN
 10
0.0
 20
0.0
  9
$LIMMAX
 10
420.0
 20
297.0
  9
$ORTHOMODE
 70
     0
  9
$REGENMODE
 70
     1
  9
$FILLMODE
 70
     1
  9
$QTEXTMODE
 70
     0
  9
$MIRRTEXT
 70
     1
  9
$LTSCALE
 40
1.0
  9
$ATTMODE
 70
     1
  9
$TEXTSIZE
 40
3.5
  9
$TRACEWID
 40
1.0
  9
$TEXTSTYLE
  7
Standard
  9
$CLAYER
  8
0
  9
$CELTYPE
  6
ByLayer
  9
$CECOLOR
 62
   256
  9
$CELTSCALE
 40
1.0
  9
$DISPSILH
 70
     0
  9
$DIMSCALE
 40
1.0
  9
$DIMASZ
 40
3.302
  9
$DIMEXO
 40
1.0
  9
$DIMDLI
 40
3.75
  9
$DIMRND
 40
0.0
  9
$DIMDLE
 40
0.0
  9
$DIMEXE
 40
1.0
  9
$DIMTP
 40
0.0
  9
$DIMTM
 40
0.0
  9
$DIMTXT
 40
3.5
  9
$DIMCEN
 40
2.5
  9
$DIMTSZ
 40
0.0
  9
$DIMTOL
 70
     0
  9
$DIMLIM
 70
     0
  9
$DIMTIH
 70
     1
  9
$DIMTOH
 70
     1
  9
$DIMSE1
 70
     0
  9
$DIMSE2
 70
     0
  9
$DIMTAD
 70
     1
  9
$DIMZIN
 70
     1
  9
$DIMBLK
  1

  9
$DIMASO
 70
     1
  9
$DIMSHO
 70
     1
  9
$DIMPOST
  1

  9
$DIMAPOST
  1

  9
$DIMALT
 70
     0
  9
$DIMALTD
 70
     3
  9
$DIMALTF
 40
0.0393700787
  9
$DIMLFAC
 40
1.0
  9
$DIMTOFL
 70
     1
  9
$DIMTVP
 40
0.0
  9
$DIMTIX
 70
     0
  9
$DIMSOXD
 70
     0
  9
$DIMSAH
 70
     0
  9
$DIMBLK1
  1

  9
$DIMBLK2
  1

  9
$DIMSTYLE
  2
ISO-25
  9
$DIMCLRD
 70
     0
  9
$DIMCLRE
 70
     0
  9
$DIMCLRT
 70
     0
  9
$DIMTFAC
 40
1.0
  9
$DIMGAP
 40
1.524
  9
$DIMJUST
 70
     0
  9
$DIMSD1
 70
     0
  9
$DIMSD2
 70
     0
  9
$DIMTOLJ
 70
     0
  9
$DIMTZIN
 70
     1
  9
$DIMALTZ
 70
     0
  9
$DIMALTTZ
 70
     0
  9
$DIMUPT
 70
     0
  9
$DIMDEC
 70
     2
  9
$DIMTDEC
 70
     2
  9
$DIMALTU
 70
     2
  9
$DIMALTTD
 70
     3
  9
$DIMTXSTY
  7
Standard
  9
$DIMAUNIT
 70
     0
  9
$DIMADEC
 70
     2
  9
$DIMALTRND
 40
0.0
  9
$DIMAZIN
 70
     0
  9
$DIMDSEP
 70
    44
  9
$DIMATFIT
 70
     3
  9
$DIMFRAC
 70
     0
  9
$DIMLDRBLK
  1

  9
$DIMLUNIT
 70
     2
  9
$DIMLWD
 70
    -2
  9
$DIMLWE
 70
    -2
  9
$DIMTMOVE
 70
     0
  9
$LUNITS
 70
     2
  9
$LUPREC
 70
     2
  9
$SKETCHINC
 40
1.0
  9
$FILLETRAD
 40
10.0
  9
$AUNITS
 70
     0
  9
$AUPREC
 70
     2
  9
$MENU
  1
.
  9
$ELEVATION
 40
0.0
  9
$PELEVATION
 40
0.0
  9
$THICKNESS
 40
0.0
  9
$LIMCHECK
 70
     0
  9
$CHAMFERA
 40
0.0
  9
$CHAMFERB
 40
0.0
  9
$CHAMFERC
 40
0.0
  9
$CHAMFERD
 40
0.0
  9
$SKPOLY
 70
     0
  9
$TDCREATE
 40
2458862.479086991
  9
$TDUCREATE
 40
2458862.479086991
  9
$TDUPDATE
 40
2458862.479119016
  9
$TDUUPDATE
 40
2458862.479119016
  9
$TDINDWG
 40
0.0000000116
  9
$TDUSRTIMER
 40
0.0000000116
  9
$USRTIMER
 70
     1
  9
$ANGBASE
 50
0.0
  9
$ANGDIR
 70
     0
  9
$PDMODE
 70
     0
  9
$PDSIZE
 40
-1.0
  9
$PLINEWID
 40
0.0
  9
$SPLFRAME
 70
     0
  9
$SPLINETYPE
 70
     6
  9
$SPLINESEGS
 70
     8
  9
$HANDSEED
  5
2A3
  9
$SURFTAB1
 70
     6
  9
$SURFTAB2
 70
     6
  9
$SURFTYPE
 70
     6
  9
$SURFU
 70
     6
  9
$SURFV
 70
     6
  9
$UCSBASE
  2

  9
$UCSNAME
  2

  9
$UCSORG
 10
0.0
 20
0.0
 30
0.0
  9
$UCSXDIR
 10
1.0
 20
0.0
 30
0.0
  9
$UCSYDIR
 10
0.0
 20
1.0
 30
0.0
  9
$UCSORTHOREF
  2

  9
$UCSORTHOVIEW
 70
     0
  9
$UCSORGTOP
 10
0.0
 20
0.0
 30
0.0
  9
$UCSORGBOTTOM
 10
0.0
 20
0.0
 30
0.0
  9
$UCSORGLEFT
 10
0.0
 20
0.0
 30
0.0
  9
$UCSORGRIGHT
 10
0.0
 20
0.0
 30
0.0
  9
$UCSORGFRONT
 10
0.0
 20
0.0
 30
0.0
  9
$UCSORGBACK
 10
0.0
 20
0.0
 30
0.0
  9
$PUCSBASE
  2

  9
$PUCSNAME
  2

  9
$PUCSORG
 10
0.0
 20
0.0
 30
0.0
  9
$PUCSXDIR
 10
1.0
 20
0.0
 30
0.0
  9
$PUCSYDIR
 10
0.0
 20
1.0
 30
0.0
  9
$PUCSORTHOREF
  2

  9
$PUCSORTHOVIEW
 70
     0
  9
$PUCSORGTOP
 10
0.0
 20
0.0
 30
0.0
  9
$PUCSORGBOTTOM
 10
0.0
 20
0.0
 30
0.0
  9
$PUCSORGLEFT
 10
0.0
 20
0.0
 30
0.0
  9
$PUCSORGRIGHT
 10
0.0
 20
0.0
 30
0.0
  9
$PUCSORGFRONT
 10
0.0
 20
0.0
 30
0.0
  9
$PUCSORGBACK
 10
0.0
 20
0.0
 30
0.0
  9
$USERI1
 70
     0
  9
$USERI2
 70
     0
  9
$USERI3
 70
     0
  9
$USERI4
 70
     0
  9
$USERI5
 70
     0
  9
$USERR1
 40
0.0
  9
$USERR2
 40
0.0
  9
$USERR3
 40
0.0
  9
$USERR4
 40
0.0
  9
$USERR5
 40
0.0
  9
$WORLDVIEW
 70
     1
  9
$SHADEDGE
 70
     3
  9
$SHADEDIF
 70
    70
  9
$TILEMODE
 70
     1
  9
$MAXACTVP
 70
    64
  9
$PINSBASE
 10
0.0
 20
0.0
 30
0.0
  9
$PLIMCHECK
 70
     0
  9
$PEXTMIN
 10
-301.0
 20
0.0
 30
0.0
  9
$PEXTMAX
 10
301.0
 20
24.0
 30
0.0
  9
$PLIMMIN
 10
-347.8482490272
 20
-17.5680933852
  9
$PLIMMAX
 10
347.8482490272
 20
474.3385214008
  9
$UNITMODE
 70
     0
  9
$VISRETAIN
 70
     1
  9
$PLINEGEN
 70
     0
  9
$PSLTSCALE
 70
     1
  9
$TREEDEPTH
 70
  3020
  9
$CMLSTYLE
  2
Standard
  9
$CMLJUST
 70
     0
  9
$CMLSCALE
 40
20.0
  9
$PROXYGRAPHICS
 70
     1
  9
$MEASUREMENT
 70
     1
  9
$CELWEIGHT
370
    -1
  9
$ENDCAPS
280
     0
  9
$JOINSTYLE
280
     0
  9
$LWDISPLAY
290
     1
  9
$INSUNITS
 70
     4
  9
$HYPERLINKBASE
  1

  9
$STYLESHEET
  1

  9
$XEDIT
290
     1
  9
$CEPSNTYPE
380
     0
  9
$PSTYLEMODE
290
     1
  9
$FINGERPRINTGUID
  2
{6a1d75c1-e707-48b7-85f5-a8cbec8a06f5}
  9
$VERSIONGUID
  2
{FAEB1C32-E019-11D5-929B-00C0DF256EC4}
  9
$EXTNAMES
290
     1
  9
$PSVPSCALE
 40
0.0
  9
$OLESTARTUP
290
     0
  0
ENDSEC
  0
SECTION
  2
CLASSES
  0
CLASS
  1
ACDBDICTIONARYWDFLT
  2
AcDbDictionaryWithDefault
  3
ObjectDBX Classes
 90
        0
280
     0
281
     0
  0
CLASS
  1
VISUALSTYLE
  2
AcDbVisualStyle
  3
ObjectDBX Classes
 90
     4095
280
     0
281
     0
  0
CLASS
  1
MATERIAL
  2
AcDbMaterial
  3
ObjectDBX Classes
 90
     1153
280
     0
281
     0
  0
CLASS
  1
SCALE
  2
AcDbScale
  3
ObjectDBX Classes
 90
     1153
280
     0
281
     0
  0
CLASS
  1
TABLESTYLE
  2
AcDbTableStyle
  3
ObjectDBX Classes
 90
     4095
280
     0
281
     0
  0
CLASS
  1
MLEADERSTYLE
  2
AcDbMLeaderStyle
  3
ACDB_MLEADERSTYLE_CLASS
 90
     4095
280
     0
281
     0
  0
CLASS
  1
SUN
  2
AcDbSun
  3
SCENEOE
 90
     1153
280
     0
281
     0
  0
CLASS
  1
ACDBPLACEHOLDER
  2
AcDbPlaceHolder
  3
ObjectDBX Classes
 90
        0
280
     0
281
     0
  0
CLASS
  1
LAYOUT
  2
AcDbLayout
  3
ObjectDBX Classes
 90
        0
280
     0
281
     0
  0
ENDSEC
  0
SECTION
  2
TABLES
  0
TABLE
  2
VPORT
  5
8
330
0
100
AcDbSymbolTable
 70
     1
  0
VPORT
  5
29
330
8
100
AcDbSymbolTableRecord
100
AcDbViewportTableRecord
  2
*Active
 70
     0
 10
0.0
 20
0.0
 11
1.0
 21
1.0
 12
0.0
 22
0.0
 13
0.0
 23
0.0
 14
10.0
 24
10.0
 15
10.0
 25
10.0
 16
0.0
 26
0.0
 36
1.0
 17
0.0
 27
0.0
 37
0.0
 40
456.96
 41
1.34375
 42
50.0
 43
0.0
 44
0.0
 50
0.0
 51
0.0
 71
     0
 72
   100
 73
     1
 74
     3
 75
     0
 76
     0
 77
     0
 78
     0
281
     0
 65
     1
110
0.0
120
0.0
130
0.0
111
1.0
121
0.0
131
0.0
112
0.0
122
1.0
132
0.0
 79
     0
146
0.0
  0
ENDTAB
  0
TABLE
  2
LTYPE
  5
5
330
0
100
AcDbSymbolTable
 70
     6
  0
LTYPE
  5
14
330
5
100
AcDbSymbolTableRecord
100
AcDbLinetypeTableRecord
  2
ByBlock
 70
     0
  3

 72
    65
 73
     0
 40
0.0
  0
LTYPE
  5
15
330
5
100
AcDbSymbolTableRecord
100
AcDbLinetypeTableRecord
  2
ByLayer
 70
     0
  3

 72
    65
 73
     0
 40
0.0
  0
LTYPE
  5
16
330
5
100
AcDbSymbolTableRecord
100
AcDbLinetypeTableRecord
  2
Continuous
 70
     0
  3
Solid line
 72
    65
 73
     0
 40
0.0
  0
LTYPE
  5
6E
330
5
100
AcDbSymbolTableRecord
100
AcDbLinetypeTableRecord
  2
HIDDEN
 70
     0
  3
Hidden __ __ __ __ __ __ __ __ __ __ __ __ __ __
 72
    65
 73
     2
 40
1.905
 49
1.27
 74
     0
 49
-0.635
 74
     0
  0
LTYPE
  5
6F
330
5
100
AcDbSymbolTableRecord
100
AcDbLinetypeTableRecord
  2
PHANTOM
 70
     0
  3
Phantom ______  __  __  ______  __  __  ______
 72
    65
 73
     6
 40
12.7
 49
6.35
 74
     0
 49
-1.27
 74
     0
 49
1.27
 74
     0
 49
-1.27
 74
     0
 49
1.27
 74
     0
 49
-1.27
 74
     0
  0
LTYPE
  5
70
330
5
100
AcDbSymbolTableRecord
100
AcDbLinetypeTableRecord
  2
CENTER
 70
     0
  3
Center ____ _ ____ _ ____ _ ____ _ ____ _ ____
 72
    65
 73
     4
 40
10.16
 49
6.35
 74
     0
 49
-1.27
 74
     0
 49
1.27
 74
     0
 49
-1.27
 74
     0
  0
LTYPE
  5
71
330
5
100
AcDbSymbolTableRecord
100
AcDbLinetypeTableRecord
  2
CENTERX2
 70
     0
  3
Center (2x) ________  __  ________  __  _____
 72
    65
 73
     4
 40
20.32
 49
12.7
 74
     0
 49
-2.54
 74
     0
 49
2.54
 74
     0
 49
-2.54
 74
     0
  0
LTYPE
  5
72
330
5
100
AcDbSymbolTableRecord
100
AcDbLinetypeTableRecord
  2
DOT2
 70
     0
  3
Dot (.5x) ........................................
 72
    65
 73
     2
 40
0.635
 49
0.0
 74
     0
 49
-0.635
 74
     0
  0
ENDTAB
  0
TABLE
  2
LAYER
  5
2
330
0
100
AcDbSymbolTable
 70
     1
  0
LAYER
  5
10
330
2
100
AcDbSymbolTableRecord
100
AcDbLayerTableRecord
  2
0
 70
     0
 62
     7
  6
Continuous
370
    -3
390
F
  0
ENDTAB
  0
TABLE
  2
STYLE
  5
3
330
0
100
AcDbSymbolTable
 70
     1
  0
STYLE
  5
11
330
3
100
AcDbSymbolTableRecord
100
AcDbTextStyleTableRecord
  2
Standard
 70
     0
 40
0.0
 41
1.0
 50
0.0
 71
     0
 42
3.5
  3
txt
  4

  0
ENDTAB
  0
TABLE
  2
VIEW
  5
6
330
0
100
AcDbSymbolTable
 70
     0
  0
ENDTAB
  0
TABLE
  2
UCS
  5
7
330
0
100
AcDbSymbolTable
 70
     0
  0
ENDTAB
  0
TABLE
  2
APPID
  5
9
330
0
100
AcDbSymbolTable
 70
     1
  0
APPID
  5
12
330
9
100
AcDbSymbolTableRecord
100
AcDbRegAppTableRecord
  2
ACAD
 70
     0
  0
ENDTAB
  0
TABLE
  2
DIMSTYLE
  5
A
330
0
100
AcDbSymbolTable
 70
     1
100
AcDbDimStyleTable
  0
DIMSTYLE
105
27
330
A
100
AcDbSymbolTableRecord
100
AcDbDimStyleTableRecord
  2
ISO-25
 70
     0
 41
2.5
 42
0.625
 43
3.75
 44
1.25
 73
     0
 74
     0
 77
     1
 78
     8
140
2.5
141
2.5
143
0.0393700787
147
0.625
171
     3
172
     1
178
     0
271
     2
272
     2
274
     3
278
    44
283
     0
284
     8
340
11
  0
ENDTAB
  0
TABLE
  2
BLOCK_RECORD
  5
1
330
0
100
AcDbSymbolTable
 70
     8
  0
BLOCK_RECORD
  5
1F
330
1
100
AcDbSymbolTableRecord
100
AcDbBlockTableRecord
  2
*Model_Space
340
22
  0
BLOCK_RECORD
  5
1B
330
1
100
AcDbSymbolTableRecord
100
AcDbBlockTableRecord
  2
*Paper_Space
340
1E
  0
BLOCK_RECORD
  5
23
330
1
100
AcDbSymbolTableRecord
100
AcDbBlockTableRecord
  2
*Paper_Space0
340
26
  0
BLOCK_RECORD
  5
D3
330
1
100
AcDbSymbolTableRecord
100
AcDbBlockTableRecord
  2
*Paper_Space1
340
D4
  0
BLOCK_RECORD
  5
F7
330
1
100
AcDbSymbolTableRecord
100
AcDbBlockTableRecord
  2
*Paper_Space2
340
F8
  0
BLOCK_RECORD
  5
11B
330
1
100
AcDbSymbolTableRecord
100
AcDbBlockTableRecord
  2
*Paper_Space3
340
11C
  0
BLOCK_RECORD
  5
13F
330
1
100
AcDbSymbolTableRecord
100
AcDbBlockTableRecord
  2
*Paper_Space4
340
140
  0
BLOCK_RECORD
  5
197
330
1
100
AcDbSymbolTableRecord
100
AcDbBlockTableRecord
  2
*Paper_Space5
340
198
  0
BLOCK_RECORD
  5
1EB
330
1
100
AcDbSymbolTableRecord
100
AcDbBlockTableRecord
  2
*Paper_Space6
340
1EC
  0
BLOCK_RECORD
  5
23B
330
1
100
AcDbSymbolTableRecord
100
AcDbBlockTableRecord
  2
*Paper_Space7
340
23C
  0
ENDTAB
  0
ENDSEC
  0
SECTION
  2
BLOCKS
  0
BLOCK
  5
20
330
1F
100
AcDbEntity
  8
0
100
AcDbBlockBegin
  2
*Model_Space
 70
     0
 10
0.0
 20
0.0
 30
0.0
  3
*Model_Space
  1

  0
ENDBLK
  5
21
330
1F
100
AcDbEntity
  8
0
100
AcDbBlockEnd
  0
BLOCK
  5
1C
330
1B
100
AcDbEntity
 67
     1
  8
0
100
AcDbBlockBegin
  2
*Paper_Space
 70
     0
 10
0.0
 20
0.0
 30
0.0
  3
*Paper_Space
  1

  0
ENDBLK
  5
1D
330
1B
100
AcDbEntity
 67
     1
  8
0
100
AcDbBlockEnd
  0
BLOCK
  5
24
330
23
100
AcDbEntity
  8
0
100
AcDbBlockBegin
  2
*Paper_Space0
 70
     0
 10
0.0
 20
0.0
 30
0.0
  3
*Paper_Space0
  1

  0
LINE
  5
C7
330
23
100
AcDbEntity
  8
0
  6
Continuous
 62
     7
370
    25
100
AcDbLine
 10
-223.0
 20
24.0
 30
0.0
 11
-223.0
 21
0.0
 31
0.0
  0
LINE
  5
C8
330
23
100
AcDbEntity
  8
0
  6
Continuous
 62
     7
370
    25
100
AcDbLine
 10
-224.0
 20
1.0
 30
0.0
 11
224.0
 21
1.0
 31
0.0
  0
LINE
  5
C9
330
23
100
AcDbEntity
  8
0
  6
Continuous
 62
     7
370
    25
100
AcDbLine
 10
-224.0
 20
1.0
 30
0.0
 11
-224.0
 21
23.0
 31
0.0
  0
LINE
  5
CA
330
23
100
AcDbEntity
  8
0
  6
Continuous
 62
     7
370
    25
100
AcDbLine
 10
224.0
 20
23.0
 30
0.0
 11
-224.0
 21
23.0
 31
0.0
  0
LINE
  5
CB
330
23
100
AcDbEntity
  8
0
  6
Continuous
 62
     7
370
    25
100
AcDbLine
 10
223.0
 20
0.0
 30
0.0
 11
-223.0
 21
0.0
 31
0.0
  0
LINE
  5
CC
330
23
100
AcDbEntity
  8
0
  6
Continuous
 62
     7
370
    25
100
AcDbLine
 10
223.0
 20
0.0
 30
0.0
 11
223.0
 21
24.0
 31
0.0
  0
LINE
  5
CD
330
23
100
AcDbEntity
  8
0
  6
Continuous
 62
     7
370
    25
100
AcDbLine
 10
-223.0
 20
24.0
 30
0.0
 11
223.0
 21
24.0
 31
0.0
  0
LINE
  5
CE
330
23
100
AcDbEntity
  8
0
  6
Continuous
 62
     7
370
    25
100
AcDbLine
 10
224.0
 20
23.0
 30
0.0
 11
224.0
 21
1.0
 31
0.0
  0
ARC
  5
CF
330
23
100
AcDbEntity
  8
0
  6
Continuous
 62
     7
370
    25
100
AcDbCircle
 10
-223.0
 20
1.0
 30
0.0
 40
1.000000000000002
100
AcDbArc
 50
180.0
 51
270.0
  0
ARC
  5
D0
330
23
100
AcDbEntity
  8
0
  6
Continuous
 62
     7
370
    25
100
AcDbCircle
 10
-223.0
 20
23.0
 30
0.0
 40
1.0
100
AcDbArc
 50
90.0
 51
180.0
  0
ARC
  5
D1
330
23
100
AcDbEntity
  8
0
  6
Continuous
 62
     7
370
    25
100
AcDbCircle
 10
223.0
 20
23.0
 30
0.0
 40
1.0
100
AcDbArc
 50
0.0
 51
90.0
  0
ARC
  5
D2
330
23
100
AcDbEntity
  8
0
  6
Continuous
 62
     7
370
    25
100
AcDbCircle
 10
223.0
 20
1.0
 30
0.0
 40
1.000000000000002
100
AcDbArc
 50
270.0
 51
0.0
  0
VIEWPORT
  5
293
330
23
100
AcDbEntity
  8
0
100
AcDbViewport
 10
0.0
 20
0.0
 30
0.0
 40
205.6
 41
156.0
 68
     1
 69
     1
 12
0.0
 22
0.0
 13
0.0
 23
0.0
 14
10.0
 24
10.0
 15
10.0
 25
10.0
 16
0.0
 26
0.0
 36
1.0
 17
0.0
 27
0.0
 37
0.0
 42
50.0
 43
0.0
 44
0.0
 45
465.9058365759
 50
0.0
 51
0.0
 72
   100
 90
   557152
  1

281
     0
 71
     1
 74
     0
110
0.0
120
0.0
130
0.0
111
1.0
121
0.0
131
0.0
112
0.0
122
1.0
132
0.0
 79
     0
146
0.0
  0
ENDBLK
  5
25
330
23
100
AcDbEntity
  8
0
100
AcDbBlockEnd
  0
BLOCK
  5
D5
330
D3
100
AcDbEntity
  8
0
100
AcDbBlockBegin
  2
*Paper_Space1
 70
     0
 10
0.0
 20
0.0
 30
0.0
  3
*Paper_Space1
  1

  0
LINE
  5
EB
330
D3
100
AcDbEntity
  8
0
  6
Continuous
 62
     7
370
    25
100
AcDbLine
 10
301.0
 20
23.0
 30
0.0
 11
301.0
 21
1.0
 31
0.0
  0
LINE
  5
EC
330
D3
100
AcDbEntity
  8
0
  6
Continuous
 62
     7
370
    25
100
AcDbLine
 10
-301.0
 20
1.0
 30
0.0
 11
301.0
 21
1.0
 31
0.0
  0
LINE
  5
ED
330
D3
100
AcDbEntity
  8
0
  6
Continuous
 62
     7
370
    25
100
AcDbLine
 10
300.0
 20
0.0
 30
0.0
 11
300.0
 21
24.0
 31
0.0
  0
LINE
  5
EE
330
D3
100
AcDbEntity
  8
0
  6
Continuous
 62
     7
370
    25
100
AcDbLine
 10
301.0
 20
23.0
 30
0.0
 11
-301.0
 21
23.0
 31
0.0
  0
LINE
  5
EF
330
D3
100
AcDbEntity
  8
0
  6
Continuous
 62
     7
370
    25
100
AcDbLine
 10
-300.0
 20
24.0
 30
0.0
 11
-300.0
 21
0.0
 31
0.0
  0
LINE
  5
F0
330
D3
100
AcDbEntity
  8
0
  6
Continuous
 62
     7
370
    25
100
AcDbLine
 10
300.0
 20
0.0
 30
0.0
 11
-300.0
 21
0.0
 31
0.0
  0
LINE
  5
F1
330
D3
100
AcDbEntity
  8
0
  6
Continuous
 62
     7
370
    25
100
AcDbLine
 10
-300.0
 20
24.0
 30
0.0
 11
300.0
 21
24.0
 31
0.0
  0
LINE
  5
F2
330
D3
100
AcDbEntity
  8
0
  6
Continuous
 62
     7
370
    25
100
AcDbLine
 10
-301.0
 20
1.0
 30
0.0
 11
-301.0
 21
23.0
 31
0.0
  0
ARC
  5
F3
330
D3
100
AcDbEntity
  8
0
  6
Continuous
 62
     7
370
    25
100
AcDbCircle
 10
300.0
 20
23.0
 30
0.0
 40
1.000000000000057
100
AcDbArc
 50
0.0
 51
90.0
  0
ARC
  5
F4
330
D3
100
AcDbEntity
  8
0
  6
Continuous
 62
     7
370
    25
100
AcDbCircle
 10
-300.0
 20
23.0
 30
0.0
 40
1.000000000000057
100
AcDbArc
 50
90.0
 51
180.0
  0
ARC
  5
F5
330
D3
100
AcDbEntity
  8
0
  6
Continuous
 62
     7
370
    25
100
AcDbCircle
 10
300.0
 20
1.0
 30
0.0
 40
1.000000000000057
100
AcDbArc
 50
270.0
 51
360.0
  0
ARC
  5
F6
330
D3
100
AcDbEntity
  8
0
  6
Continuous
 62
     7
370
    25
100
AcDbCircle
 10
-300.0
 20
1.0
 30
0.0
 40
1.000000000000057
100
AcDbArc
 50
180.0
 51
270.0
  0
VIEWPORT
  5
295
330
D3
100
AcDbEntity
  8
0
100
AcDbViewport
 10
0.0
 20
0.0
 30
0.0
 40
205.6
 41
156.0
 68
     1
 69
     1
 12
0.0
 22
0.0
 13
0.0
 23
0.0
 14
10.0
 24
10.0
 15
10.0
 25
10.0
 16
0.0
 26
0.0
 36
1.0
 17
0.0
 27
0.0
 37
0.0
 42
50.0
 43
0.0
 44
0.0
 45
465.9058365759
 50
0.0
 51
0.0
 72
   100
 90
   557152
  1

281
     0
 71
     1
 74
     0
110
0.0
120
0.0
130
0.0
111
1.0
121
0.0
131
0.0
112
0.0
122
1.0
132
0.0
 79
     0
146
0.0
  0
ENDBLK
  5
D6
330
D3
100
AcDbEntity
  8
0
100
AcDbBlockEnd
  0
BLOCK
  5
F9
330
F7
100
AcDbEntity
  8
0
100
AcDbBlockBegin
  2
*Paper_Space2
 70
     0
 10
0.0
 20
0.0
 30
0.0
  3
*Paper_Space2
  1

  0
LINE
  5
10F
330
F7
100
AcDbEntity
  8
0
  6
Continuous
 62
     7
370
    25
100
AcDbLine
 10
223.0
 20
0.0
 30
0.0
 11
223.0
 21
24.0
 31
0.0
  0
LINE
  5
110
330
F7
100
AcDbEntity
  8
0
  6
Continuous
 62
     7
370
    25
100
AcDbLine
 10
-224.0
 20
1.0
 30
0.0
 11
224.0
 21
1.0
 31
0.0
  0
LINE
  5
111
330
F7
100
AcDbEntity
  8
0
  6
Continuous
 62
     7
370
    25
100
AcDbLine
 10
-223.0
 20
24.0
 30
0.0
 11
-223.0
 21
0.0
 31
0.0
  0
LINE
  5
112
330
F7
100
AcDbEntity
  8
0
  6
Continuous
 62
     7
370
    25
100
AcDbLine
 10
224.0
 20
23.0
 30
0.0
 11
-224.0
 21
23.0
 31
0.0
  0
LINE
  5
113
330
F7
100
AcDbEntity
  8
0
  6
Continuous
 62
     7
370
    25
100
AcDbLine
 10
-224.0
 20
1.0
 30
0.0
 11
-224.0
 21
23.0
 31
0.0
  0
LINE
  5
114
330
F7
100
AcDbEntity
  8
0
  6
Continuous
 62
     7
370
    25
100
AcDbLine
 10
-223.0
 20
24.0
 30
0.0
 11
223.0
 21
24.0
 31
0.0
  0
LINE
  5
115
330
F7
100
AcDbEntity
  8
0
  6
Continuous
 62
     7
370
    25
100
AcDbLine
 10
223.0
 20
0.0
 30
0.0
 11
-223.0
 21
0.0
 31
0.0
  0
LINE
  5
116
330
F7
100
AcDbEntity
  8
0
  6
Continuous
 62
     7
370
    25
100
AcDbLine
 10
224.0
 20
23.0
 30
0.0
 11
224.0
 21
1.0
 31
0.0
  0
ARC
  5
117
330
F7
100
AcDbEntity
  8
0
  6
Continuous
 62
     7
370
    25
100
AcDbCircle
 10
-223.0
 20
23.0
 30
0.0
 40
1.0
100
AcDbArc
 50
90.0
 51
180.0
  0
ARC
  5
118
330
F7
100
AcDbEntity
  8
0
  6
Continuous
 62
     7
370
    25
100
AcDbCircle
 10
-223.0
 20
1.0
 30
0.0
 40
1.000000000000002
100
AcDbArc
 50
180.0
 51
270.0
  0
ARC
  5
119
330
F7
100
AcDbEntity
  8
0
  6
Continuous
 62
     7
370
    25
100
AcDbCircle
 10
223.0
 20
23.0
 30
0.0
 40
1.0
100
AcDbArc
 50
0.0
 51
90.0
  0
ARC
  5
11A
330
F7
100
AcDbEntity
  8
0
  6
Continuous
 62
     7
370
    25
100
AcDbCircle
 10
223.0
 20
1.0
 30
0.0
 40
1.000000000000002
100
AcDbArc
 50
270.0
 51
0.0
  0
VIEWPORT
  5
297
330
F7
100
AcDbEntity
  8
0
100
AcDbViewport
 10
0.0
 20
0.0
 30
0.0
 40
205.6
 41
156.0
 68
     1
 69
     1
 12
0.0
 22
0.0
 13
0.0
 23
0.0
 14
10.0
 24
10.0
 15
10.0
 25
10.0
 16
0.0
 26
0.0
 36
1.0
 17
0.0
 27
0.0
 37
0.0
 42
50.0
 43
0.0
 44
0.0
 45
465.9058365759
 50
0.0
 51
0.0
 72
   100
 90
   557152
  1

281
     0
 71
     1
 74
     0
110
0.0
120
0.0
130
0.0
111
1.0
121
0.0
131
0.0
112
0.0
122
1.0
132
0.0
 79
     0
146
0.0
  0
ENDBLK
  5
FA
330
F7
100
AcDbEntity
  8
0
100
AcDbBlockEnd
  0
BLOCK
  5
11D
330
11B
100
AcDbEntity
  8
0
100
AcDbBlockBegin
  2
*Paper_Space3
 70
     0
 10
0.0
 20
0.0
 30
0.0
  3
*Paper_Space3
  1

  0
LINE
  5
133
330
11B
100
AcDbEntity
  8
0
  6
Continuous
 62
     7
370
    25
100
AcDbLine
 10
-300.0
 20
224.0
 30
0.0
 11
300.0
 21
224.0
 31
0.0
  0
LINE
  5
134
330
11B
100
AcDbEntity
  8
0
  6
Continuous
 62
     7
370
    25
100
AcDbLine
 10
301.0
 20
223.0
 30
0.0
 11
-301.0
 21
223.0
 31
0.0
  0
LINE
  5
135
330
11B
100
AcDbEntity
  8
0
  6
Continuous
 62
     7
370
    25
100
AcDbLine
 10
-300.0
 20
224.0
 30
0.0
 11
-300.0
 21
-224.0
 31
0.0
  0
LINE
  5
136
330
11B
100
AcDbEntity
  8
0
  6
Continuous
 62
     7
370
    25
100
AcDbLine
 10
-301.0
 20
-223.0
 30
0.0
 11
301.0
 21
-223.0
 31
0.0
  0
LINE
  5
137
330
11B
100
AcDbEntity
  8
0
  6
Continuous
 62
     7
370
    25
100
AcDbLine
 10
-301.0
 20
-223.0
 30
0.0
 11
-301.0
 21
223.0
 31
0.0
  0
LINE
  5
138
330
11B
100
AcDbEntity
  8
0
  6
Continuous
 62
     7
370
    25
100
AcDbLine
 10
300.0
 20
-224.0
 30
0.0
 11
300.0
 21
224.0
 31
0.0
  0
LINE
  5
139
330
11B
100
AcDbEntity
  8
0
  6
Continuous
 62
     7
370
    25
100
AcDbLine
 10
300.0
 20
-224.0
 30
0.0
 11
-300.0
 21
-224.0
 31
0.0
  0
LINE
  5
13A
330
11B
100
AcDbEntity
  8
0
  6
Continuous
 62
     7
370
    25
100
AcDbLine
 10
301.0
 20
223.0
 30
0.0
 11
301.0
 21
-223.0
 31
0.0
  0
ARC
  5
13B
330
11B
100
AcDbEntity
  8
0
  6
Continuous
 62
     7
370
    25
100
AcDbCircle
 10
-300.0
 20
223.0
 30
0.0
 40
1.000000000000114
100
AcDbArc
 50
90.0
 51
180.0
  0
ARC
  5
13C
330
11B
100
AcDbEntity
  8
0
  6
Continuous
 62
     7
370
    25
100
AcDbCircle
 10
300.0
 20
223.0
 30
0.0
 40
1.000000000000114
100
AcDbArc
 50
0.0
 51
90.0
  0
ARC
  5
13D
330
11B
100
AcDbEntity
  8
0
  6
Continuous
 62
     7
370
    25
100
AcDbCircle
 10
300.0
 20
-223.0
 30
0.0
 40
1.000000000000114
100
AcDbArc
 50
270.0
 51
360.0
  0
ARC
  5
13E
330
11B
100
AcDbEntity
  8
0
  6
Continuous
 62
     7
370
    25
100
AcDbCircle
 10
-300.0
 20
-223.0
 30
0.0
 40
1.000000000000114
100
AcDbArc
 50
180.0
 51
270.0
  0
VIEWPORT
  5
299
330
11B
100
AcDbEntity
  8
0
100
AcDbViewport
 10
0.0
 20
0.0
 30
0.0
 40
205.6
 41
156.0
 68
     1
 69
     1
 12
0.0
 22
0.0
 13
0.0
 23
0.0
 14
10.0
 24
10.0
 15
10.0
 25
10.0
 16
0.0
 26
0.0
 36
1.0
 17
0.0
 27
0.0
 37
0.0
 42
50.0
 43
0.0
 44
0.0
 45
465.9058365759
 50
0.0
 51
0.0
 72
   100
 90
   557152
  1

281
     0
 71
     1
 74
     0
110
0.0
120
0.0
130
0.0
111
1.0
121
0.0
131
0.0
112
0.0
122
1.0
132
0.0
 79
     0
146
0.0
  0
ENDBLK
  5
11E
330
11B
100
AcDbEntity
  8
0
100
AcDbBlockEnd
  0
BLOCK
  5
141
330
13F
100
AcDbEntity
  8
0
100
AcDbBlockBegin
  2
*Paper_Space4
 70
     0
 10
0.0
 20
0.0
 30
0.0
  3
*Paper_Space4
  1

  0
LINE
  5
16D
330
13F
100
AcDbEntity
  8
0
  6
Continuous
 62
     7
370
    25
100
AcDbLine
 10
-370.3168059269
 20
31.3822042547
 30
0.0
 11
53.947262785
 21
-213.5402292921
 31
0.0
  0
LINE
  5
16E
330
13F
100
AcDbEntity
  8
0
  6
Continuous
 62
     7
370
    25
100
AcDbLine
 10
54.9471815177
 20
-213.5402292921
 30
0.0
 11
370.3168059269
 21
-31.4812203557
 31
0.0
  0
LINE
  5
16F
330
13F
100
AcDbEntity
  8
0
  6
Continuous
 62
     7
370
    25
100
AcDbLine
 10
370.8168465606
 20
-30.6151714933
 30
0.0
 11
370.8168465606
 21
-12.6512736318
 31
0.0
  0
LINE
  5
170
330
13F
100
AcDbEntity
  8
0
  6
Continuous
 62
     7
370
    25
100
AcDbLine
 10
370.3168059269
 20
-11.7852247694
 30
0.0
 11
-53.947262785
 21
233.1372087774
 31
0.0
  0
LINE
  5
171
330
13F
100
AcDbEntity
  8
0
  6
Continuous
 62
     7
370
    25
100
AcDbLine
 10
-370.8168465606
 20
50.2121509785
 30
0.0
 11
-370.8168465606
 21
32.2482531171
 31
0.0
  0
LINE
  5
172
330
13F
100
AcDbEntity
  8
0
  6
Continuous
 62
     7
370
    25
100
AcDbLine
 10
-54.9471815177
 20
233.1372087774
 30
0.0
 11
-370.3168059269
 21
51.0781998409
 31
0.0
  0
LINE
  5
173
330
13F
100
AcDbEntity
  8
0
  6
Continuous
 62
     7
370
    25
100
AcDbLine
 10
55.1543289326
 20
-195.1184866242
 30
0.0
 11
55.1543289326
 21
-213.0823844857
 31
0.0
  0
LINE
  5
174
330
13F
100
AcDbEntity
  8
0
  6
Continuous
 62
     7
370
    25
100
AcDbLine
 10
53.7401153702
 20
-213.0823844857
 30
0.0
 11
53.7401153702
 21
-195.1184866242
 31
0.0
  0
LINE
  5
175
330
13F
100
AcDbEntity
  8
0
  6
Continuous
 62
     7
370
    25
100
AcDbLine
 10
370.5239533418
 20
-13.0594776877
 30
0.0
 11
55.1543289326
 21
-195.1184866242
 31
0.0
  0
LINE
  5
176
330
13F
100
AcDbEntity
  8
0
  6
Continuous
 62
     7
370
    25
100
AcDbLine
 10
54.4472221514
 20
-193.8937417564
 30
0.0
 11
369.8168465606
 21
-11.8347328199
 31
0.0
  0
LINE
  5
177
330
13F
100
AcDbEntity
  8
0
  6
Continuous
 62
     7
370
    25
100
AcDbLine
 10
-369.8168465606
 20
51.0286917904
 30
0.0
 11
54.4472221514
 21
-193.8937417564
 31
0.0
  0
LINE
  5
178
330
13F
100
AcDbEntity
  8
0
  6
Continuous
 62
     7
370
    25
100
AcDbLine
 10
53.7401153702
 20
-195.1184866242
 30
0.0
 11
-370.5239533418
 21
49.8039469226
 31
0.0
  0
LINE
  5
179
330
13F
100
AcDbEntity
  8
0
  6
Continuous
 62
     7
370
    25
100
AcDbLine
 10
370.5239533418
 20
-31.0233755492
 30
0.0
 11
370.5239533418
 21
-13.0594776877
 31
0.0
  0
LINE
  5
17A
330
13F
100
AcDbEntity
  8
0
  6
Continuous
 62
     7
370
    25
100
AcDbLine
 10
55.1543289326
 20
-213.0823844857
 30
0.0
 11
370.5239533418
 21
-31.0233755492
 31
0.0
  0
LINE
  5
17B
330
13F
100
AcDbEntity
  8
0
  6
Continuous
 62
     7
370
    25
100
AcDbLine
 10
-370.5239533418
 20
31.8400490611
 30
0.0
 11
53.7401153702
 21
-213.0823844857
 31
0.0
  0
LINE
  5
17C
330
13F
100
AcDbEntity
  8
0
  6
Continuous
 62
     7
370
    25
100
AcDbLine
 10
-370.5239533418
 20
49.8039469226
 30
0.0
 11
-370.5239533418
 21
31.8400490611
 31
0.0
  0
LINE
  5
17D
330
13F
100
AcDbEntity
  8
0
  6
Continuous
 62
     7
370
    25
100
AcDbLine
 10
-54.4472221514
 20
233.0877007269
 30
0.0
 11
-369.8168465606
 21
51.0286917904
 31
0.0
  0
LINE
  5
17E
330
13F
100
AcDbEntity
  8
0
  6
Continuous
 62
     7
370
    25
100
AcDbLine
 10
369.8168465606
 20
-11.8347328199
 30
0.0
 11
-54.4472221514
 21
233.0877007269
 31
0.0
  0
ARC
  5
17F
330
13F
100
AcDbEntity
  8
0
  6
Continuous
 62
     7
370
    25
100
AcDbCircle
 10
54.4472221514
 20
-212.6741804298
 30
0.0
 40
1.000000000000243
100
AcDbArc
 50
240.0026882664
 51
299.9973117336
  0
ARC
  5
180
330
13F
100
AcDbEntity
  8
0
  6
Continuous
 62
     7
370
    25
100
AcDbCircle
 10
369.8168465606
 20
-12.6512736318
 30
0.0
 40
0.9999999999995158
100
AcDbArc
 50
360.0
 51
60.0026882664
  0
ARC
  5
181
330
13F
100
AcDbEntity
  8
0
  6
Continuous
 62
     7
370
    25
100
AcDbCircle
 10
369.8168465606
 20
-30.6151714933
 30
0.0
 40
0.9999999999993747
100
AcDbArc
 50
299.9973117336
 51
0.0
  0
ARC
  5
182
330
13F
100
AcDbEntity
  8
0
  6
Continuous
 62
     7
370
    25
100
AcDbCircle
 10
-369.8168465606
 20
50.2121509785
 30
0.0
 40
1.000000000000114
100
AcDbArc
 50
119.9973117337
 51
180.0
  0
ARC
  5
183
330
13F
100
AcDbEntity
  8
0
  6
Continuous
 62
     7
370
    25
100
AcDbCircle
 10
-369.8168465606
 20
32.2482531171
 30
0.0
 40
0.9999999999998349
100
AcDbArc
 50
180.0
 51
240.0026882664
  0
ARC
  5
184
330
13F
100
AcDbEntity
  8
0
  6
Continuous
 62
     7
370
    25
100
AcDbCircle
 10
-54.4472221514
 20
232.271159915
 30
0.0
 40
1.000000000000208
100
AcDbArc
 50
60.0026882664
 51
119.9973117336
  0
ARC
  5
185
330
13F
100
AcDbEntity
  8
0
  6
Continuous
 62
     7
370
    25
100
AcDbCircle
 10
54.4472221514
 20
-193.7537755392
 30
0.0
 40
1.537021907911876
100
AcDbArc
 50
242.6096722366
 51
297.3903277634
  0
ARC
  5
186
330
13F
100
AcDbEntity
  8
0
  6
Continuous
 62
     7
370
    25
100
AcDbCircle
 10
55.2753314715
 20
-195.1883474764
 30
0.0
 40
1.536804807571989
100
AcDbArc
 50
122.60547834
 51
177.3945215143
  0
ARC
  5
187
330
13F
100
AcDbEntity
  8
0
  6
Continuous
 62
     7
370
    25
100
AcDbCircle
 10
53.6191128312
 20
-195.1883474764
 30
0.0
 40
1.536804807572018
100
AcDbArc
 50
2.6054784857
 51
57.39452166
  0
ARC
  5
188
330
13F
100
AcDbEntity
  8
0
  6
Continuous
 62
     7
370
    25
100
AcDbCircle
 10
54.4472221514
 20
-211.7176734007
 30
0.0
 40
1.537021907911639
100
AcDbArc
 50
242.6096722366
 51
297.3903277634
  0
ARC
  5
189
330
13F
100
AcDbEntity
  8
0
  6
Continuous
 62
     7
370
    25
100
AcDbCircle
 10
368.9887372404
 20
-13.12933854
 30
0.0
 40
1.536804807572056
100
AcDbArc
 50
2.6054784857
 51
57.39452166
  0
ARC
  5
18A
330
13F
100
AcDbEntity
  8
0
  6
Continuous
 62
     7
370
    25
100
AcDbCircle
 10
-368.9887372404
 20
49.7340860704
 30
0.0
 40
1.53680480757229
100
AcDbArc
 50
122.60547834
 51
177.3945215143
  0
ARC
  5
18B
330
13F
100
AcDbEntity
  8
0
  6
Continuous
 62
     8
370
    25
100
AcDbCircle
 10
54.6786433766
 20
-213.1429485142
 30
0.0
 40
0.4795255464353263
100
AcDbArc
 50
304.0563508331
 51
7.2558295603
  0
ARC
  5
18C
330
13F
100
AcDbEntity
  8
0
  6
Continuous
 62
     8
370
    25
100
AcDbCircle
 10
54.2158009262
 20
-213.1429485142
 30
0.0
 40
0.4795255464818476
100
AcDbArc
 50
172.7441704431
 51
235.9436491635
  0
ARC
  5
18D
330
13F
100
AcDbEntity
  8
0
  6
Continuous
 62
     8
370
    25
100
AcDbCircle
 10
-370.0482677857
 20
31.7794850326
 30
0.0
 40
0.4795255465094845
100
AcDbArc
 50
172.7441704451
 51
235.9436491615
  0
ARC
  5
18E
330
13F
100
AcDbEntity
  8
0
  6
Continuous
 62
     8
370
    25
100
AcDbCircle
 10
370.0339514394
 20
-31.0774622865
 30
0.0
 40
0.4929779300228703
100
AcDbArc
 50
305.0133328764
 51
6.298847517
  0
ARC
  5
18F
330
13F
100
AcDbEntity
  8
0
  6
Continuous
 62
     8
370
    25
100
AcDbCircle
 10
370.3163894981
 20
-12.6013672549
 30
0.0
 40
0.5029392784935259
100
AcDbArc
 50
294.3746582936
 51
354.3052007488
  0
ARC
  5
190
330
13F
100
AcDbEntity
  8
0
  6
Continuous
 62
     8
370
    25
100
AcDbCircle
 10
370.1097666154
 20
-12.243614149
 30
0.0
 40
0.5029772359018031
100
AcDbArc
 50
65.6928809539
 51
125.6175774752
  0
ARC
  5
191
330
13F
100
AcDbEntity
  8
0
  6
Continuous
 62
     8
370
    25
100
AcDbCircle
 10
370.3163894981
 20
-30.5652651164
 30
0.0
 40
0.5029392784935268
100
AcDbArc
 50
294.3746582936
 51
354.3052007488
  0
ARC
  5
192
330
13F
100
AcDbEntity
  8
0
  6
Continuous
 62
     8
370
    25
100
AcDbCircle
 10
-54.1543020965
 20
232.6788193978
 30
0.0
 40
0.5029772359016056
100
AcDbArc
 50
65.6928809539
 51
125.6175774752
  0
ARC
  5
193
330
13F
100
AcDbEntity
  8
0
  6
Continuous
 62
     8
370
    25
100
AcDbCircle
 10
-370.3163894981
 20
50.2620573554
 30
0.0
 40
0.5029392784938941
100
AcDbArc
 50
185.6947992512
 51
245.6253417064
  0
ARC
  5
194
330
13F
100
AcDbEntity
  8
0
  6
Continuous
 62
     8
370
    25
100
AcDbCircle
 10
-370.1097666154
 20
50.6198104613
 30
0.0
 40
0.5029772359018579
100
AcDbArc
 50
54.3824225248
 51
114.3071190461
  0
ARC
  5
195
330
13F
100
AcDbEntity
  8
0
  6
Continuous
 62
     8
370
    25
100
AcDbCircle
 10
-370.3163894981
 20
32.298159494
 30
0.0
 40
0.5029392784938881
100
AcDbArc
 50
185.6947992512
 51
245.6253417064
  0
ARC
  5
196
330
13F
100
AcDbEntity
  8
0
  6
Continuous
 62
     8
370
    25
100
AcDbCircle
 10
-54.7401422062
 20
232.6788193978
 30
0.0
 40
0.5029772359016539
100
AcDbArc
 50
54.3824225248
 51
114.3071190461
  0
VIEWPORT
  5
29B
330
13F
100
AcDbEntity
  8
0
100
AcDbViewport
 10
0.0
 20
0.0
 30
0.0
 40
205.6
 41
156.0
 68
     1
 69
     1
 12
0.0
 22
0.0
 13
0.0
 23
0.0
 14
10.0
 24
10.0
 15
10.0
 25
10.0
 16
0.0
 26
0.0
 36
1.0
 17
0.0
 27
0.0
 37
0.0
 42
50.0
 43
0.0
 44
0.0
 45
465.9058365759
 50
0.0
 51
0.0
 72
   100
 90
   557152
  1

281
     0
 71
     1
 74
     0
110
0.0
120
0.0
130
0.0
111
1.0
121
0.0
131
0.0
112
0.0
122
1.0
132
0.0
 79
     0
146
0.0
  0
ENDBLK
  5
142
330
13F
100
AcDbEntity
  8
0
100
AcDbBlockEnd
  0
BLOCK
  5
199
330
197
100
AcDbEntity
  8
0
100
AcDbBlockBegin
  2
*Paper_Space5
 70
     0
 10
0.0
 20
0.0
 30
0.0
  3
*Paper_Space5
  1

  0
LWPOLYLINE
  5
1BA
330
197
100
AcDbEntity
  8
0
  6
Continuous
 62
     8
370
    25
100
AcDbPolyline
 90
        6
 70
   128
 43
0.0
 10
160.7856693829
 20
-173.2866186286
 10
160.7946368039
 20
-173.4450911955
 10
160.8211944541
 20
-173.5799687948
 10
160.8643217377
 20
-173.6860681561
 10
160.9223612976
 20
-173.7593119404
 10
160.9900995801
 20
-173.7961054608
  0
LWPOLYLINE
  5
1BB
330
197
100
AcDbEntity
  8
0
  6
Continuous
 62
     8
370
    25
100
AcDbPolyline
 90
        6
 70
   128
 43
0.0
 10
-369.8652036236
 20
-29.0670818183
 10
-369.8562362025
 20
-29.2255543852
 10
-369.8296785524
 20
-29.3604319845
 10
-369.7865512687
 20
-29.4665313458
 10
-369.7285117089
 20
-29.53977513
 10
-369.6607734263
 20
-29.5765686504
  0
LWPOLYLINE
  5
1BD
330
197
100
AcDbEntity
  8
0
  6
Continuous
 62
     8
370
    25
100
AcDbPolyline
 90
        7
 70
   128
 43
0.0
 10
-369.8652036236
 20
-10.2094012028
 10
-370.0287776187
 20
-10.1537556652
 10
-370.1681307148
 20
-10.0827435987
 10
-370.2779076507
 20
-9.9990939572
 10
-370.3538897601
 20
-9.9060213495
 10
-370.3931570934
 20
-9.8071025038
 10
-370.3985082346
 20
-9.753892196
  0
LWPOLYLINE
  5
1BF
330
197
100
AcDbEntity
  8
0
  6
Continuous
 62
     8
370
    25
100
AcDbPolyline
 90
        7
 70
   128
 43
0.0
 10
-369.8652036236
 20
-29.0670818183
 10
-370.0287776187
 20
-29.0114362806
 10
-370.1681307148
 20
-28.9404242141
 10
-370.2779076507
 20
-28.8567745726
 10
-370.3538897601
 20
-28.763701965
 10
-370.3931570934
 20
-28.6647831193
 10
-370.3985082346
 20
-28.6115728115
  0
LINE
  5
1C5
330
197
100
AcDbEntity
  8
0
  6
Continuous
 62
     7
370
    25
100
AcDbLine
 10
-369.6607734263
 20
-29.5765686504
 30
0.0
 11
160.9900995801
 21
-173.7961054608
 31
0.0
  0
LINE
  5
1C6
330
197
100
AcDbEntity
  8
0
  6
Continuous
 62
     7
370
    25
100
AcDbLine
 10
161.9508429305
 20
-173.5467409947
 30
0.0
 11
370.0969863933
 21
29.61027604
 31
0.0
  0
LINE
  5
1C7
330
197
100
AcDbEntity
  8
0
  6
Continuous
 62
     7
370
    25
100
AcDbLine
 10
-370.3985082346
 20
-9.753892196
 30
0.0
 11
-370.3985082346
 21
-28.6115728115
 31
0.0
  0
LINE
  5
1C8
330
197
100
AcDbEntity
  8
0
  6
Continuous
 62
     7
370
    25
100
AcDbLine
 10
-161.9508429305
 20
194.1187562116
 30
0.0
 11
-370.0969863933
 21
-9.0382608231
 31
0.0
  0
LINE
  5
1C9
330
197
100
AcDbEntity
  8
0
  6
Continuous
 62
     7
370
    25
100
AcDbLine
 10
369.6607734263
 20
50.1485838673
 30
0.0
 11
-160.9900995801
 21
194.3681206777
 31
0.0
  0
LINE
  5
1CA
330
197
100
AcDbEntity
  8
0
  6
Continuous
 62
     7
370
    25
100
AcDbLine
 10
370.3985082346
 20
30.3259074129
 30
0.0
 11
370.3985082346
 21
49.1835880283
 31
0.0
  0
LINE
  5
1CB
330
197
100
AcDbEntity
  8
0
  6
Continuous
 62
     7
370
    25
100
AcDbLine
 10
-369.3985082346
 20
-8.8967248953
 30
0.0
 11
161.2523647718
 21
-153.1162617057
 31
0.0
  0
LINE
  5
1CC
330
197
100
AcDbEntity
  8
0
  6
Continuous
 62
     7
370
    25
100
AcDbLine
 10
160.7856693829
 20
-154.4289380132
 30
0.0
 11
-369.8652036236
 21
-10.2094012028
 31
0.0
  0
LINE
  5
1CD
330
197
100
AcDbEntity
  8
0
  6
Continuous
 62
     7
370
    25
100
AcDbLine
 10
162.1367828935
 20
-154.2137949011
 30
0.0
 11
162.1367828935
 21
-173.0714755165
 31
0.0
  0
LINE
  5
1CE
330
197
100
AcDbEntity
  8
0
  6
Continuous
 62
     7
370
    25
100
AcDbLine
 10
160.7856693829
 20
-173.2866186286
 30
0.0
 11
160.7856693829
 21
-154.4289380132
 31
0.0
  0
LINE
  5
1CF
330
197
100
AcDbEntity
  8
0
  6
Continuous
 62
     7
370
    25
100
AcDbLine
 10
370.2829263563
 20
48.9432221336
 30
0.0
 11
162.1367828935
 21
-154.2137949011
 31
0.0
  0
LINE
  5
1D0
330
197
100
AcDbEntity
  8
0
  6
Continuous
 62
     7
370
    25
100
AcDbLine
 10
161.2523647718
 20
-153.1162617057
 30
0.0
 11
369.3985082346
 21
50.040755329
 31
0.0
  0
LINE
  5
1D1
330
197
100
AcDbEntity
  8
0
  6
Continuous
 62
     7
370
    25
100
AcDbLine
 10
-369.8652036236
 20
-29.0670818183
 30
0.0
 11
160.7856693829
 21
-173.2866186286
 31
0.0
  0
LINE
  5
1D2
330
197
100
AcDbEntity
  8
0
  6
Continuous
 62
     7
370
    25
100
AcDbLine
 10
-369.8652036236
 20
-10.2094012028
 30
0.0
 11
-369.8652036236
 21
-29.0670818183
 31
0.0
  0
LINE
  5
1D3
330
197
100
AcDbEntity
  8
0
  6
Continuous
 62
     7
370
    25
100
AcDbLine
 10
-161.2523647718
 20
194.2602921394
 30
0.0
 11
-369.3985082346
 21
-8.8967248953
 31
0.0
  0
LINE
  5
1D4
330
197
100
AcDbEntity
  8
0
  6
Continuous
 62
     7
370
    25
100
AcDbLine
 10
369.3985082346
 20
50.040755329
 30
0.0
 11
-161.2523647718
 21
194.2602921394
 31
0.0
  0
LINE
  5
1D5
330
197
100
AcDbEntity
  8
0
  6
Continuous
 62
     7
370
    25
100
AcDbLine
 10
370.2829263563
 20
30.0855415182
 30
0.0
 11
370.2829263563
 21
48.9432221336
 31
0.0
  0
LINE
  5
1D6
330
197
100
AcDbEntity
  8
0
  6
Continuous
 62
     7
370
    25
100
AcDbLine
 10
162.1367828935
 20
-173.0714755165
 30
0.0
 11
370.2829263563
 21
30.0855415182
 31
0.0
  0
ARC
  5
1D7
330
197
100
AcDbEntity
  8
0
  6
Continuous
 62
     7
370
    25
100
AcDbCircle
 10
161.2523647718
 20
-172.8311096218
 30
0.0
 40
0.9999999999999473
100
AcDbArc
 50
254.7954868413
 51
314.305033619
  0
ARC
  5
1D8
330
197
100
AcDbEntity
  8
0
  6
Continuous
 62
     7
370
    25
100
AcDbCircle
 10
-369.3985082346
 20
-9.753892196
 30
0.0
 40
1.000000000000057
100
AcDbArc
 50
134.305033619
 51
180.0
  0
ARC
  5
1D9
330
197
100
AcDbEntity
  8
0
  6
Continuous
 62
     7
370
    25
100
AcDbCircle
 10
-369.3985082346
 20
-28.6115728115
 30
0.0
 40
1.0
100
AcDbArc
 50
180.0
 51
254.7954868413
  0
ARC
  5
1DA
330
197
100
AcDbEntity
  8
0
  6
Continuous
 62
     7
370
    25
100
AcDbCircle
 10
369.3985082346
 20
49.1835880283
 30
0.0
 40
1.000000000000057
100
AcDbArc
 50
0.0
 51
74.7954868413
  0
ARC
  5
1DB
330
197
100
AcDbEntity
  8
0
  6
Continuous
 62
     7
370
    25
100
AcDbCircle
 10
369.3985082346
 20
30.3259074129
 30
0.0
 40
1.000000000001023
100
AcDbArc
 50
314.305033619
 51
360.0
  0
ARC
  5
1DC
330
197
100
AcDbEntity
  8
0
  6
Continuous
 62
     7
370
    25
100
AcDbCircle
 10
-161.2523647718
 20
193.4031248387
 30
0.0
 40
0.9999999999998301
100
AcDbArc
 50
74.7954868413
 51
134.305033619
  0
ARC
  5
1DD
330
197
100
AcDbEntity
  8
0
  6
Continuous
 62
     7
370
    25
100
AcDbCircle
 10
161.2440627026
 20
-152.9575651763
 30
0.0
 40
1.541123765478916
100
AcDbArc
 50
252.6960345908
 51
305.398914916
  0
ARC
  5
1DE
330
197
100
AcDbEntity
  8
0
  6
Continuous
 62
     7
370
    25
100
AcDbCircle
 10
162.8306248313
 20
-154.4166801864
 30
0.0
 40
2.044992185835741
100
AcDbArc
 50
140.5129436103
 51
180.3434369839
  0
ARC
  5
1DF
330
197
100
AcDbEntity
  8
0
  6
Continuous
 62
     7
370
    25
100
AcDbCircle
 10
160.9244106987
 20
-154.2856439123
 30
0.0
 40
1.214499328616435
100
AcDbArc
 50
3.391562315
 51
74.3338098233
  0
ARC
  5
1E0
330
197
100
AcDbEntity
  8
0
  6
Continuous
 62
     7
370
    25
100
AcDbCircle
 10
-367.8202481752
 20
-10.197143376
 30
0.0
 40
2.044992185835782
100
AcDbArc
 50
140.5129436103
 51
180.3434369839
  0
ARC
  5
1E1
330
197
100
AcDbEntity
  8
0
  6
Continuous
 62
     7
370
    25
100
AcDbCircle
 10
161.2440627026
 20
-171.8152457918
 30
0.0
 40
1.541123765479009
100
AcDbArc
 50
252.6960345908
 51
305.398914916
  0
ARC
  5
1E2
330
197
100
AcDbEntity
  8
0
  6
Continuous
 62
     7
370
    25
100
AcDbCircle
 10
369.0705541615
 20
48.8713731224
 30
0.0
 40
1.214499328616465
100
AcDbArc
 50
3.391562315
 51
74.3338098233
  0
ARC
  5
1E3
330
197
100
AcDbEntity
  8
0
  6
Continuous
 62
     8
370
    25
100
AcDbCircle
 10
161.4914629639
 20
-173.0930102354
 30
0.0
 40
0.6456791429334812
100
AcDbArc
 50
315.3544713609
 51
1.9112857849
  0
ARC
  5
1E4
330
197
100
AcDbEntity
  8
0
  6
Continuous
 62
     8
370
    25
100
AcDbCircle
 10
369.6376064267
 20
30.0640067993
 30
0.0
 40
0.6456791429340718
100
AcDbArc
 50
315.354471361
 51
1.9112857848
  0
ARC
  5
1E5
330
197
100
AcDbEntity
  8
0
  6
Continuous
 62
     8
370
    25
100
AcDbCircle
 10
-369.6267987492
 20
-9.5643726208
 30
0.0
 40
0.7055990676825747
100
AcDbArc
 50
71.12277008
 51
131.7872519911
  0
ARC
  5
1E6
330
197
100
AcDbEntity
  8
0
  6
Continuous
 62
     8
370
    25
100
AcDbCircle
 10
-161.4783912216
 20
193.5814712809
 30
0.0
 40
0.7154618884849214
100
AcDbArc
 50
71.583829316
 51
131.326192755
  0
ARC
  5
1E7
330
197
100
AcDbEntity
  8
0
  6
Continuous
 62
     8
370
    25
100
AcDbCircle
 10
370.0666524059
 20
49.1951913927
 30
0.0
 40
0.3320586230404083
100
AcDbArc
 50
310.6406362013
 51
357.9974645043
  0
ARC
  5
1E8
330
197
100
AcDbEntity
  8
0
  6
Continuous
 62
     8
370
    25
100
AcDbCircle
 10
369.6172160832
 20
49.8816653155
 30
0.0
 40
0.2704491734406134
100
AcDbArc
 50
80.7318299956
 51
143.9675277133
  0
ARC
  5
1E9
330
197
100
AcDbEntity
  8
0
  6
Continuous
 62
     8
370
    25
100
AcDbCircle
 10
-161.0336569233
 20
194.1012021259
 30
0.0
 40
0.2704491734422181
100
AcDbArc
 50
80.7318299958
 51
143.9675277131
  0
ARC
  5
1EA
330
197
100
AcDbEntity
  8
0
  6
Continuous
 62
     8
370
    25
100
AcDbCircle
 10
370.0666524059
 20
30.3375107772
 30
0.0
 40
0.3320586230404087
100
AcDbArc
 50
310.6406362013
 51
357.9974645043
  0
VIEWPORT
  5
29D
330
197
100
AcDbEntity
  8
0
100
AcDbViewport
 10
0.0
 20
0.0
 30
0.0
 40
205.6
 41
156.0
 68
     1
 69
     1
 12
0.0
 22
0.0
 13
0.0
 23
0.0
 14
10.0
 24
10.0
 15
10.0
 25
10.0
 16
0.0
 26
0.0
 36
1.0
 17
0.0
 27
0.0
 37
0.0
 42
50.0
 43
0.0
 44
0.0
 45
465.9058365759
 50
0.0
 51
0.0
 72
   100
 90
   557152
  1

281
     0
 71
     1
 74
     0
110
0.0
120
0.0
130
0.0
111
1.0
121
0.0
131
0.0
112
0.0
122
1.0
132
0.0
 79
     0
146
0.0
  0
ENDBLK
  5
19A
330
197
100
AcDbEntity
  8
0
100
AcDbBlockEnd
  0
BLOCK
  5
1ED
330
1EB
100
AcDbEntity
  8
0
100
AcDbBlockBegin
  2
*Paper_Space6
 70
     0
 10
0.0
 20
0.0
 30
0.0
  3
*Paper_Space6
  1

  0
LWPOLYLINE
  5
20E
330
1EB
100
AcDbEntity
  8
0
  6
Continuous
 62
     8
370
    25
100
AcDbPolyline
 90
        8
 70
   128
 43
0.0
 10
201.4283445425
 20
-104.2568012066
 10
201.4351379718
 20
-104.4347428847
 10
201.4552571919
 20
-104.593863881
 10
201.4879290325
 20
-104.7280492648
 10
201.5318979331
 20
-104.832142367
 10
201.5854741935
 20
-104.9021429483
 10
201.646598908
 20
-104.9353609254
 10
201.6568979331
 20
-104.9371531661
  0
LWPOLYLINE
  5
20F
330
1EB
100
AcDbEntity
  8
0
  6
Continuous
 62
     8
370
    25
100
AcDbPolyline
 90
        8
 70
   128
 43
0.0
 10
-359.820263492
 20
-33.546123121
 10
-359.8134700627
 20
-33.7240647991
 10
-359.7933508426
 20
-33.8831857954
 10
-359.760679002
 20
-34.0173711792
 10
-359.7167101014
 20
-34.1214642814
 10
-359.663133841
 20
-34.1914648627
 10
-359.6020091265
 20
-34.2246828397
 10
-359.5917101014
 20
-34.2264750805
  0
LWPOLYLINE
  5
211
330
1EB
100
AcDbEntity
  8
0
  6
Continuous
 62
     8
370
    25
100
AcDbPolyline
 90
        8
 70
   128
 43
0.0
 10
-359.820263492
 20
-12.8043242056
 10
-359.9959603488
 20
-12.7753413492
 10
-360.1513184155
 20
-12.7354898048
 10
-360.2803673686
 20
-12.686301045
 10
-360.3781479292
 20
-12.629665366
 10
-360.4409024452
 20
-12.5677592454
 10
-360.4662192958
 20
-12.5029617007
 10
-360.4667101015
 20
-12.4925194234
  0
LWPOLYLINE
  5
213
330
1EB
100
AcDbEntity
  8
0
  6
Continuous
 62
     8
370
    25
100
AcDbPolyline
 90
        8
 70
   128
 43
0.0
 10
-359.820263492
 20
-33.546123121
 10
-359.9959603488
 20
-33.5171402646
 10
-360.1513184155
 20
-33.4772887203
 10
-360.2803673686
 20
-33.4280999604
 10
-360.3781479292
 20
-33.3714642815
 10
-360.4409024452
 20
-33.3095581609
 10
-360.4662192958
 20
-33.2447606161
 10
-360.4667101015
 20
-33.2343183389
  0
LWPOLYLINE
  5
215
330
1EB
100
AcDbEntity
  8
0
  6
Continuous
 62
     8
370
    25
100
AcDbPolyline
 90
        3
 70
   128
 43
0.0
 10
360.4667101015
 20
55.8617353375
 10
360.4531255686
 20
55.8069787791
 10
360.4021244482
 20
55.7438842074
  0
LWPOLYLINE
  5
216
330
1EB
100
AcDbEntity
  8
0
  6
Continuous
 62
     8
370
    25
100
AcDbPolyline
 90
        3
 70
   128
 43
0.0
 10
359.5917101014
 20
56.8538920792
 10
359.5356849463
 20
56.8472586631
 10
359.4667101015
 20
56.8045443791
  0
LWPOLYLINE
  5
217
330
1EB
100
AcDbEntity
  8
0
  6
Continuous
 62
     8
370
    25
100
AcDbPolyline
 90
        3
 70
   128
 43
0.0
 10
360.4667101015
 20
35.1199364221
 10
360.4531255686
 20
35.0651798637
 10
360.4021244482
 20
35.0020852919
  0
LWPOLYLINE
  5
218
330
1EB
100
AcDbEntity
  8
0
  6
Continuous
 62
     8
370
    25
100
AcDbPolyline
 90
        3
 70
   128
 43
0.0
 10
-201.6568979331
 20
127.5645701648
 10
-201.7129230882
 20
127.5579367487
 10
-201.781897933
 20
127.5152224647
  0
LINE
  5
219
330
1EB
100
AcDbEntity
  8
0
  6
Continuous
 62
     7
370
    25
100
AcDbLine
 10
-359.5917101014
 20
-34.2264750805
 30
0.0
 11
201.6568979331
 21
-104.9371531661
 31
0.0
  0
LINE
  5
21A
330
1EB
100
AcDbEntity
  8
0
  6
Continuous
 62
     7
370
    25
100
AcDbLine
 10
202.4433357608
 20
-104.6949964245
 30
0.0
 11
360.1281479292
 21
34.3699364221
 31
0.0
  0
LINE
  5
21B
330
1EB
100
AcDbEntity
  8
0
  6
Continuous
 62
     7
370
    25
100
AcDbLine
 10
-360.4667101015
 20
-12.4925194234
 30
0.0
 11
-360.4667101015
 21
-33.2343183389
 31
0.0
  0
LINE
  5
21C
330
1EB
100
AcDbEntity
  8
0
  6
Continuous
 62
     7
370
    25
100
AcDbLine
 10
-202.4433357608
 20
127.3224134231
 30
0.0
 11
-360.1281479292
 21
-11.7425194235
 31
0.0
  0
LINE
  5
21D
330
1EB
100
AcDbEntity
  8
0
  6
Continuous
 62
     7
370
    25
100
AcDbLine
 10
360.4667101015
 20
35.1199364221
 30
0.0
 11
360.4667101015
 21
55.8617353375
 31
0.0
  0
LINE
  5
21E
330
1EB
100
AcDbEntity
  8
0
  6
Continuous
 62
     7
370
    25
100
AcDbLine
 10
359.5917101014
 20
56.8538920792
 30
0.0
 11
-201.6568979331
 21
127.5645701648
 31
0.0
  0
LINE
  5
21F
330
1EB
100
AcDbEntity
  8
0
  6
Continuous
 62
     7
370
    25
100
AcDbLine
 10
202.7173122798
 20
-83.3210486392
 30
0.0
 11
202.7173122798
 21
-104.0628475546
 31
0.0
  0
LINE
  5
220
330
1EB
100
AcDbEntity
  8
0
  6
Continuous
 62
     7
370
    25
100
AcDbLine
 10
201.4283445425
 20
-104.2568012066
 30
0.0
 11
201.4283445425
 21
-83.5150022912
 31
0.0
  0
LINE
  5
221
330
1EB
100
AcDbEntity
  8
0
  6
Continuous
 62
     7
370
    25
100
AcDbLine
 10
-359.4667101015
 20
-11.5497103818
 30
0.0
 11
201.781897933
 21
-82.2603884674
 31
0.0
  0
LINE
  5
222
330
1EB
100
AcDbEntity
  8
0
  6
Continuous
 62
     7
370
    25
100
AcDbLine
 10
201.4283445425
 20
-83.5150022912
 30
0.0
 11
-359.820263492
 21
-12.8043242056
 31
0.0
  0
LINE
  5
223
330
1EB
100
AcDbEntity
  8
0
  6
Continuous
 62
     7
370
    25
100
AcDbLine
 10
-359.820263492
 20
-33.546123121
 30
0.0
 11
201.4283445425
 21
-104.2568012066
 31
0.0
  0
LINE
  5
224
330
1EB
100
AcDbEntity
  8
0
  6
Continuous
 62
     7
370
    25
100
AcDbLine
 10
-359.820263492
 20
-12.8043242056
 30
0.0
 11
-359.820263492
 21
-33.546123121
 31
0.0
  0
LINE
  5
225
330
1EB
100
AcDbEntity
  8
0
  6
Continuous
 62
     7
370
    25
100
AcDbLine
 10
360.4021244482
 20
55.7438842074
 30
0.0
 11
202.7173122798
 21
-83.3210486392
 31
0.0
  0
LINE
  5
226
330
1EB
100
AcDbEntity
  8
0
  6
Continuous
 62
     7
370
    25
100
AcDbLine
 10
201.781897933
 20
-82.2603884674
 30
0.0
 11
359.4667101015
 21
56.8045443791
 31
0.0
  0
LINE
  5
227
330
1EB
100
AcDbEntity
  8
0
  6
Continuous
 62
     7
370
    25
100
AcDbLine
 10
360.4021244482
 20
35.0020852919
 30
0.0
 11
360.4021244482
 21
55.7438842074
 31
0.0
  0
LINE
  5
228
330
1EB
100
AcDbEntity
  8
0
  6
Continuous
 62
     7
370
    25
100
AcDbLine
 10
202.7173122798
 20
-104.0628475546
 30
0.0
 11
360.4021244482
 21
35.0020852919
 31
0.0
  0
LINE
  5
229
330
1EB
100
AcDbEntity
  8
0
  6
Continuous
 62
     7
370
    25
100
AcDbLine
 10
-201.781897933
 20
127.5152224647
 30
0.0
 11
-359.4667101015
 21
-11.5497103818
 31
0.0
  0
LINE
  5
22A
330
1EB
100
AcDbEntity
  8
0
  6
Continuous
 62
     7
370
    25
100
AcDbLine
 10
359.4667101015
 20
56.8045443791
 30
0.0
 11
-201.781897933
 21
127.5152224647
 31
0.0
  0
ARC
  5
22B
330
1EB
100
AcDbEntity
  8
0
  6
Continuous
 62
     7
370
    25
100
AcDbCircle
 10
201.781897933
 20
-103.9449964245
 30
0.0
 40
1.00000000000037
100
AcDbArc
 50
262.8192442221
 51
311.40962211
  0
ARC
  5
22C
330
1EB
100
AcDbEntity
  8
0
  6
Continuous
 62
     7
370
    25
100
AcDbCircle
 10
-359.4667101015
 20
-12.4925194234
 30
0.0
 40
1.000000000000114
100
AcDbArc
 50
131.40962211
 51
180.0
  0
ARC
  5
22D
330
1EB
100
AcDbEntity
  8
0
  6
Continuous
 62
     7
370
    25
100
AcDbCircle
 10
-359.4667101015
 20
-33.2343183389
 30
0.0
 40
0.9999999999998869
100
AcDbArc
 50
180.0
 51
262.8192442221
  0
ARC
  5
22E
330
1EB
100
AcDbEntity
  8
0
  6
Continuous
 62
     7
370
    25
100
AcDbCircle
 10
359.4667101015
 20
55.8617353375
 30
0.0
 40
1.0
100
AcDbArc
 50
0.0
 51
82.8192442221
  0
ARC
  5
22F
330
1EB
100
AcDbEntity
  8
0
  6
Continuous
 62
     7
370
    25
100
AcDbCircle
 10
359.4667101015
 20
35.1199364221
 30
0.0
 40
0.9999999999997158
100
AcDbArc
 50
311.40962211
 51
0.0
  0
ARC
  5
230
330
1EB
100
AcDbEntity
  8
0
  6
Continuous
 62
     7
370
    25
100
AcDbCircle
 10
-201.781897933
 20
126.5724134231
 30
0.0
 40
1.000000000000003
100
AcDbArc
 50
82.8192442221
 51
131.40962211
  0
ARC
  5
231
330
1EB
100
AcDbEntity
  8
0
  6
Continuous
 62
     7
370
    25
100
AcDbCircle
 10
201.7963869309
 20
-81.5808641357
 30
0.0
 40
1.968843722644234
100
AcDbArc
 50
259.2261330329
 51
297.8883001309
  0
ARC
  5
232
330
1EB
100
AcDbEntity
  8
0
  6
Continuous
 62
     7
370
    25
100
AcDbCircle
 10
203.3933180512
 20
-83.3916138237
 30
0.0
 40
1.968843722547968
100
AcDbArc
 50
144.9309440897
 51
183.5931111895
  0
ARC
  5
233
330
1EB
100
AcDbEntity
  8
0
  6
Continuous
 62
     7
370
    25
100
AcDbCircle
 10
201.6253866431
 20
-83.3412274926
 30
0.0
 40
1.092112073957781
100
AcDbArc
 50
1.0587090425
 51
81.7605351794
  0
ARC
  5
234
330
1EB
100
AcDbEntity
  8
0
  6
Continuous
 62
     7
370
    25
100
AcDbCircle
 10
201.7963869309
 20
-102.3226630512
 30
0.0
 40
1.968843722644248
100
AcDbArc
 50
259.2261330329
 51
297.8883001309
  0
ARC
  5
235
330
1EB
100
AcDbEntity
  8
0
  6
Continuous
 62
     7
370
    25
100
AcDbCircle
 10
-357.8552899833
 20
-12.680935738
 30
0.0
 40
1.968843722547533
100
AcDbArc
 50
144.9309440897
 51
183.5931111895
  0
ARC
  5
236
330
1EB
100
AcDbEntity
  8
0
  6
Continuous
 62
     7
370
    25
100
AcDbCircle
 10
359.3101988115
 20
55.723705354
 30
0.0
 40
1.092112073957768
100
AcDbArc
 50
1.0587090425
 51
81.7605351794
  0
ARC
  5
237
330
1EB
100
AcDbEntity
  8
0
  6
Continuous
 62
     8
370
    25
100
AcDbCircle
 10
201.8838587879
 20
-104.0770704336
 30
0.0
 40
0.833574839732813
100
AcDbArc
 50
312.158037431
 51
0.9776572489
  0
ARC
  5
238
330
1EB
100
AcDbEntity
  8
0
  6
Continuous
 62
     8
370
    25
100
AcDbCircle
 10
359.5686709563
 20
34.987862413
 30
0.0
 40
0.8335748397326056
100
AcDbArc
 50
312.158037431
 51
0.9776572489
  0
ARC
  5
239
330
1EB
100
AcDbEntity
  8
0
  6
Continuous
 62
     8
370
    25
100
AcDbCircle
 10
-359.5850031132
 20
-12.3748490228
 30
0.0
 40
0.8335748397241757
100
AcDbArc
 50
81.8415869733
 51
130.6612067915
  0
ARC
  5
23A
330
1EB
100
AcDbEntity
  8
0
  6
Continuous
 62
     8
370
    25
100
AcDbCircle
 10
-201.9001909447
 20
126.6900838238
 30
0.0
 40
0.8335748397240081
100
AcDbArc
 50
81.8415869733
 51
130.6612067915
  0
VIEWPORT
  5
29F
330
1EB
100
AcDbEntity
  8
0
100
AcDbViewport
 10
0.0
 20
0.0
 30
0.0
 40
205.6
 41
156.0
 68
     1
 69
     1
 12
0.0
 22
0.0
 13
0.0
 23
0.0
 14
10.0
 24
10.0
 15
10.0
 25
10.0
 16
0.0
 26
0.0
 36
1.0
 17
0.0
 27
0.0
 37
0.0
 42
50.0
 43
0.0
 44
0.0
 45
465.9058365759
 50
0.0
 51
0.0
 72
   100
 90
   557152
  1

281
     0
 71
     1
 74
     0
110
0.0
120
0.0
130
0.0
111
1.0
121
0.0
131
0.0
112
0.0
122
1.0
132
0.0
 79
     0
146
0.0
  0
ENDBLK
  5
1EE
330
1EB
100
AcDbEntity
  8
0
100
AcDbBlockEnd
  0
BLOCK
  5
23D
330
23B
100
AcDbEntity
  8
0
100
AcDbBlockBegin
  2
*Paper_Space7
 70
     0
 10
0.0
 20
0.0
 30
0.0
  3
*Paper_Space7
  1

  0
LWPOLYLINE
  5
265
330
23B
100
AcDbEntity
  8
0
  6
Continuous
 62
     8
370
    25
100
AcDbPolyline
 90
        6
 70
   128
 43
0.0
 10
-374.550077127
 20
-6.0235015878
 10
-374.688485717
 20
-5.985918898
 10
-374.7973964916
 20
-5.936872009
 10
-374.8726240709
 20
-5.8782457653
 10
-374.9112775012
 20
-5.8122931406
 10
-374.9156983911
 20
-5.7894828202
  0
LWPOLYLINE
  5
267
330
23B
100
AcDbEntity
  8
0
  6
Continuous
 62
     8
370
    25
100
AcDbPolyline
 90
        6
 70
   128
 43
0.0
 10
-372.4585324454
 20
-26.4457533108
 10
-372.5969410354
 20
-26.408170621
 10
-372.70585181
 20
-26.359123732
 10
-372.7810793893
 20
-26.3004974883
 10
-372.8197328196
 20
-26.2345448636
 10
-372.8241537094
 20
-26.2117345432
  0
LINE
  5
269
330
23B
100
AcDbEntity
  8
0
  6
Continuous
 62
     7
370
    25
100
AcDbLine
 10
-372.0319062285
 20
-27.0891246009
 30
0.0
 11
90.8245198924
 21
-122.824625202
 31
0.0
  0
LINE
  5
26A
330
23B
100
AcDbEntity
  8
0
  6
Continuous
 62
     7
370
    25
100
AcDbLine
 10
91.4980290148
 20
-122.7275075756
 30
0.0
 11
372.1101769201
 21
27.0842663089
 31
0.0
  0
LINE
  5
26B
330
23B
100
AcDbEntity
  8
0
  6
Continuous
 62
     7
370
    25
100
AcDbLine
 10
372.6340132838
 20
28.0683028817
 30
0.0
 11
370.5424686022
 21
48.4905546047
 31
0.0
  0
LINE
  5
26C
330
23B
100
AcDbEntity
  8
0
  6
Continuous
 62
     7
370
    25
100
AcDbLine
 10
369.7502211213
 20
49.3679446624
 30
0.0
 11
-93.1062049996
 21
145.1034452634
 31
0.0
  0
LINE
  5
26D
330
23B
100
AcDbEntity
  8
0
  6
Continuous
 62
     7
370
    25
100
AcDbLine
 10
-374.9156983911
 20
-5.7894828202
 30
0.0
 11
-372.8241537094
 21
-26.2117345432
 31
0.0
  0
LINE
  5
26E
330
23B
100
AcDbEntity
  8
0
  6
Continuous
 62
     7
370
    25
100
AcDbLine
 10
-93.779714122
 20
145.006327637
 30
0.0
 11
-374.3918620273
 21
-4.8054462474
 31
0.0
  0
LINE
  5
26F
330
23B
100
AcDbEntity
  8
0
  6
Continuous
 62
     7
370
    25
100
AcDbLine
 10
89.7069515902
 20
-101.5826605182
 30
0.0
 11
91.7984962718
 21
-122.0049122412
 31
0.0
  0
LINE
  5
270
330
23B
100
AcDbEntity
  8
0
  6
Continuous
 62
     7
370
    25
100
AcDbLine
 10
90.3978936754
 20
-122.1812539118
 30
0.0
 11
88.3063489938
 21
-101.7590021888
 31
0.0
  0
LINE
  5
271
330
23B
100
AcDbEntity
  8
0
  6
Continuous
 62
     7
370
    25
100
AcDbLine
 10
-374.0159721203
 20
-4.7593165803
 30
0.0
 11
88.8404540005
 21
-100.4948171813
 31
0.0
  0
LINE
  5
272
330
23B
100
AcDbEntity
  8
0
  6
Continuous
 62
     7
370
    25
100
AcDbLine
 10
88.3063489938
 20
-101.7590021888
 30
0.0
 11
-374.550077127
 21
-6.0235015878
 31
0.0
  0
LINE
  5
273
330
23B
100
AcDbEntity
  8
0
  6
Continuous
 62
     7
370
    25
100
AcDbLine
 10
370.3190994956
 20
48.2291133663
 30
0.0
 11
89.7069515902
 21
-101.5826605182
 31
0.0
  0
LINE
  5
274
330
23B
100
AcDbEntity
  8
0
  6
Continuous
 62
     7
370
    25
100
AcDbLine
 10
88.8404540005
 20
-100.4948171813
 30
0.0
 11
369.4526019059
 21
49.3169567032
 31
0.0
  0
LINE
  5
275
330
23B
100
AcDbEntity
  8
0
  6
Continuous
 62
     7
370
    25
100
AcDbLine
 10
-372.4585324454
 20
-26.4457533108
 30
0.0
 11
90.3978936754
 21
-122.1812539118
 31
0.0
  0
LINE
  5
276
330
23B
100
AcDbEntity
  8
0
  6
Continuous
 62
     7
370
    25
100
AcDbLine
 10
-374.550077127
 20
-6.0235015878
 30
0.0
 11
-372.4585324454
 21
-26.4457533108
 31
0.0
  0
LINE
  5
277
330
23B
100
AcDbEntity
  8
0
  6
Continuous
 62
     7
370
    25
100
AcDbLine
 10
372.4106441772
 20
27.8068616433
 30
0.0
 11
370.3190994956
 21
48.2291133663
 31
0.0
  0
LINE
  5
278
330
23B
100
AcDbEntity
  8
0
  6
Continuous
 62
     7
370
    25
100
AcDbLine
 10
91.7984962718
 20
-122.0049122412
 30
0.0
 11
372.4106441772
 21
27.8068616433
 31
0.0
  0
LINE
  5
279
330
23B
100
AcDbEntity
  8
0
  6
Continuous
 62
     7
370
    25
100
AcDbLine
 10
-93.403824215
 20
145.0524573042
 30
0.0
 11
-374.0159721203
 21
-4.7593165803
 31
0.0
  0
LINE
  5
27A
330
23B
100
AcDbEntity
  8
0
  6
Continuous
 62
     7
370
    25
100
AcDbLine
 10
369.4526019059
 20
49.3169567032
 30
0.0
 11
-93.403824215
 21
145.0524573042
 31
0.0
  0
ARC
  5
27B
330
23B
100
AcDbEntity
  8
0
  6
Continuous
 62
     7
370
    25
100
AcDbCircle
 10
91.027068895
 20
-121.8453530735
 30
0.0
 40
0.9999999999997848
100
AcDbArc
 50
258.3139425136
 51
298.0966380529
  0
ARC
  5
27C
330
23B
100
AcDbEntity
  8
0
  6
Continuous
 62
     7
370
    25
100
AcDbCircle
 10
369.5476721187
 20
48.388672534
 30
0.0
 40
0.9999999999999187
100
AcDbArc
 50
5.8475588064
 51
78.3139425136
  0
ARC
  5
27D
330
23B
100
AcDbEntity
  8
0
  6
Continuous
 62
     7
370
    25
100
AcDbCircle
 10
371.6392168003
 20
27.966420811
 30
0.0
 40
1.000000000000347
100
AcDbArc
 50
298.0966380529
 51
5.8475588064
  0
ARC
  5
27E
330
23B
100
AcDbEntity
  8
0
  6
Continuous
 62
     7
370
    25
100
AcDbCircle
 10
-373.9209019075
 20
-5.6876007495
 30
0.0
 40
1.000000000000275
100
AcDbArc
 50
118.0966380529
 51
185.8475588064
  0
ARC
  5
27F
330
23B
100
AcDbEntity
  8
0
  6
Continuous
 62
     7
370
    25
100
AcDbCircle
 10
-371.8293572259
 20
-26.1098524725
 30
0.0
 40
1.000000000000039
100
AcDbArc
 50
185.8475588064
 51
258.3139425136
  0
ARC
  5
280
330
23B
100
AcDbEntity
  8
0
  6
Continuous
 62
     7
370
    25
100
AcDbCircle
 10
-93.3087540022
 20
144.124173135
 30
0.0
 40
1.000000000000252
100
AcDbArc
 50
78.3139425136
 51
118.0966380529
  0
ARC
  5
281
330
23B
100
AcDbEntity
  8
0
  6
Continuous
 62
     7
370
    25
100
AcDbCircle
 10
88.7260229452
 20
-99.4419345237
 30
0.0
 40
2.354767247548794
100
AcDbArc
 50
259.7337217083
 51
294.6183128966
  0
ARC
  5
282
330
23B
100
AcDbEntity
  8
0
  6
Continuous
 62
     7
370
    25
100
AcDbCircle
 10
89.6282897177
 20
-101.5725889778
 30
0.0
 40
1.335019536403226
100
AcDbArc
 50
126.1662678599
 51
188.0266286562
  0
ARC
  5
283
330
23B
100
AcDbEntity
  8
0
  6
Continuous
 62
     7
370
    25
100
AcDbCircle
 10
88.4643807956
 20
-101.6833864182
 30
0.0
 40
1.246646656636385
100
AcDbArc
 50
4.6344059913
 51
72.4421949321
  0
ARC
  5
284
330
23B
100
AcDbEntity
  8
0
  6
Continuous
 62
     7
370
    25
100
AcDbCircle
 10
90.8175676268
 20
-119.8641862467
 30
0.0
 40
2.354767247548666
100
AcDbArc
 50
259.7337217083
 51
294.6183128966
  0
ARC
  5
285
330
23B
100
AcDbEntity
  8
0
  6
Continuous
 62
     7
370
    25
100
AcDbCircle
 10
-373.2281364032
 20
-5.8370883768
 30
0.0
 40
1.335019536403348
100
AcDbArc
 50
126.1662678599
 51
188.0266286562
  0
ARC
  5
286
330
23B
100
AcDbEntity
  8
0
  6
Continuous
 62
     7
370
    25
100
AcDbCircle
 10
369.076528701
 20
48.1283874662
 30
0.0
 40
1.246646656636267
100
AcDbArc
 50
4.6344059913
 51
72.4421949321
  0
ARC
  5
287
330
23B
100
AcDbEntity
  8
0
  6
Continuous
 62
     8
370
    25
100
AcDbCircle
 10
91.1192305675
 20
-122.1462295001
 30
0.0
 40
0.693810107132953
100
AcDbArc
 50
303.0908708109
 51
11.7524084831
  0
ARC
  5
288
330
23B
100
AcDbEntity
  8
0
  6
Continuous
 62
     8
370
    25
100
AcDbCircle
 10
91.055567007
 20
-122.2082796555
 30
0.0
 40
0.6582283812211973
100
AcDbArc
 50
177.6468707733
 51
249.4506759687
  0
ARC
  5
289
330
23B
100
AcDbEntity
  8
0
  6
Continuous
 62
     8
370
    25
100
AcDbCircle
 10
-371.8008591139
 20
-26.4727790545
 30
0.0
 40
0.6582283812211973
100
AcDbArc
 50
177.6468707733
 51
249.4506759687
  0
ARC
  5
28A
330
23B
100
AcDbEntity
  8
0
  6
Continuous
 62
     8
370
    25
100
AcDbCircle
 10
371.7313784728
 20
27.6655443844
 30
0.0
 40
0.6938101071332697
100
AcDbArc
 50
303.0908708109
 51
11.7524084831
  0
ARC
  5
28B
330
23B
100
AcDbEntity
  8
0
  6
Continuous
 62
     8
370
    25
100
AcDbCircle
 10
370.2282098556
 20
48.5329085045
 30
0.0
 40
0.3171000041955396
100
AcDbArc
 50
286.6561677033
 51
352.3242712079
  0
ARC
  5
28C
330
23B
100
AcDbEntity
  8
0
  6
Continuous
 62
     8
370
    25
100
AcDbCircle
 10
369.669824871
 20
48.9431185646
 30
0.0
 40
0.4323664770339228
100
AcDbArc
 50
79.2837851803
 51
120.1592238946
  0
ARC
  5
28D
330
23B
100
AcDbEntity
  8
0
  6
Continuous
 62
     8
370
    25
100
AcDbCircle
 10
372.3197545372
 20
28.1106567815
 30
0.0
 40
0.3171000041956612
100
AcDbArc
 50
286.6561677033
 51
352.3242712079
  0
ARC
  5
28E
330
23B
100
AcDbEntity
  8
0
  6
Continuous
 62
     8
370
    25
100
AcDbCircle
 10
-93.1866012499
 20
144.6786191656
 30
0.0
 40
0.4323664770344628
100
AcDbArc
 50
79.2837851803
 51
120.1592238946
  0
ARC
  5
28F
330
23B
100
AcDbEntity
  8
0
  6
Continuous
 62
     8
370
    25
100
AcDbCircle
 10
-374.1412276649
 20
-5.2932092077
 30
0.0
 40
0.5483888119883245
100
AcDbArc
 50
76.7967287644
 51
117.1961204001
  0
ARC
  5
290
330
23B
100
AcDbEntity
  8
0
  6
Continuous
 62
     8
370
    25
100
AcDbCircle
 10
-93.5290797595
 20
144.5185646767
 30
0.0
 40
0.5483888119891779
100
AcDbArc
 50
76.7967287644
 51
117.1961204
  0
VIEWPORT
  5
2A1
330
23B
100
AcDbEntity
  8
0
100
AcDbViewport
 10
0.0
 20
0.0
 30
0.0
 40
205.6
 41
156.0
 68
     1
 69
     1
 12
0.0
 22
0.0
 13
0.0
 23
0.0
 14
10.0
 24
10.0
 15
10.0
 25
10.0
 16
0.0
 26
0.0
 36
1.0
 17
0.0
 27
0.0
 37
0.0
 42
50.0
 43
0.0
 44
0.0
 45
465.9058365759
 50
0.0
 51
0.0
 72
   100
 90
   557152
  1

281
     0
 71
     1
 74
     0
110
0.0
120
0.0
130
0.0
111
1.0
121
0.0
131
0.0
112
0.0
122
1.0
132
0.0
 79
     0
146
0.0
  0
ENDBLK
  5
23E
330
23B
100
AcDbEntity
  8
0
100
AcDbBlockEnd
  0
ENDSEC
  0
SECTION
  2
ENTITIES
  0
LINE
  5
87
330
1F
100
AcDbEntity
  8
0
  6
Continuous
 62
     7
370
    25
100
AcDbLine
 10
-301.0
 20
-223.0
 30
0.0
 11
-301.0
 21
223.0
 31
0.0
  0
LINE
  5
88
330
1F
100
AcDbEntity
  8
0
  6
Continuous
 62
     7
370
    25
100
AcDbLine
 10
301.0
 20
223.0
 30
0.0
 11
-301.0
 21
223.0
 31
0.0
  0
LINE
  5
89
330
1F
100
AcDbEntity
  8
0
  6
Continuous
 62
     7
370
    25
100
AcDbLine
 10
-300.0
 20
224.0
 30
0.0
 11
-300.0
 21
-224.0
 31
0.0
  0
LINE
  5
8A
330
1F
100
AcDbEntity
  8
0
  6
Continuous
 62
     7
370
    25
100
AcDbLine
 10
300.0
 20
-224.0
 30
0.0
 11
300.0
 21
224.0
 31
0.0
  0
LINE
  5
8B
330
1F
100
AcDbEntity
  8
0
  6
Continuous
 62
     7
370
    25
100
AcDbLine
 10
-301.0
 20
-223.0
 30
0.0
 11
301.0
 21
-223.0
 31
0.0
  0
LINE
  5
8C
330
1F
100
AcDbEntity
  8
0
  6
Continuous
 62
     7
370
    25
100
AcDbLine
 10
301.0
 20
223.0
 30
0.0
 11
301.0
 21
-223.0
 31
0.0
  0
LINE
  5
8D
330
1F
100
AcDbEntity
  8
0
  6
Continuous
 62
     7
370
    25
100
AcDbLine
 10
-300.0
 20
224.0
 30
0.0
 11
300.0
 21
224.0
 31
0.0
  0
LINE
  5
8E
330
1F
100
AcDbEntity
  8
0
  6
Continuous
 62
     7
370
    25
100
AcDbLine
 10
300.0
 20
-224.0
 30
0.0
 11
-300.0
 21
-224.0
 31
0.0
  0
ARC
  5
8F
330
1F
100
AcDbEntity
  8
0
  6
Continuous
 62
     7
370
    25
100
AcDbCircle
 10
-300.0
 20
-223.0
 30
0.0
 40
1.000000000000114
100
AcDbArc
 50
180.0
 51
270.0
  0
ARC
  5
90
330
1F
100
AcDbEntity
  8
0
  6
Continuous
 62
     7
370
    25
100
AcDbCircle
 10
-300.0
 20
223.0
 30
0.0
 40
1.000000000000114
100
AcDbArc
 50
90.0
 51
180.0
  0
ARC
  5
91
330
1F
100
AcDbEntity
  8
0
  6
Continuous
 62
     7
370
    25
100
AcDbCircle
 10
300.0
 20
-223.0
 30
0.0
 40
1.000000000000114
100
AcDbArc
 50
270.0
 51
360.0
  0
ARC
  5
92
330
1F
100
AcDbEntity
  8
0
  6
Continuous
 62
     7
370
    25
100
AcDbCircle
 10
300.0
 20
223.0
 30
0.0
 40
1.000000000000114
100
AcDbArc
 50
0.0
 51
90.0
  0
LINE
  5
A7
330
1B
100
AcDbEntity
 67
     1
  8
0
  6
Continuous
 62
     7
370
    25
100
AcDbLine
 10
-301.0
 20
1.0
 30
0.0
 11
301.0
 21
1.0
 31
0.0
  0
LINE
  5
A8
330
1B
100
AcDbEntity
 67
     1
  8
0
  6
Continuous
 62
     7
370
    25
100
AcDbLine
 10
300.0
 20
0.0
 30
0.0
 11
300.0
 21
24.0
 31
0.0
  0
LINE
  5
A9
330
1B
100
AcDbEntity
 67
     1
  8
0
  6
Continuous
 62
     7
370
    25
100
AcDbLine
 10
300.0
 20
0.0
 30
0.0
 11
-300.0
 21
0.0
 31
0.0
  0
LINE
  5
AA
330
1B
100
AcDbEntity
 67
     1
  8
0
  6
Continuous
 62
     7
370
    25
100
AcDbLine
 10
301.0
 20
23.0
 30
0.0
 11
-301.0
 21
23.0
 31
0.0
  0
LINE
  5
AB
330
1B
100
AcDbEntity
 67
     1
  8
0
  6
Continuous
 62
     7
370
    25
100
AcDbLine
 10
-300.0
 20
24.0
 30
0.0
 11
-300.0
 21
0.0
 31
0.0
  0
LINE
  5
AC
330
1B
100
AcDbEntity
 67
     1
  8
0
  6
Continuous
 62
     7
370
    25
100
AcDbLine
 10
-300.0
 20
24.0
 30
0.0
 11
300.0
 21
24.0
 31
0.0
  0
LINE
  5
AD
330
1B
100
AcDbEntity
 67
     1
  8
0
  6
Continuous
 62
     7
370
    25
100
AcDbLine
 10
-301.0
 20
1.0
 30
0.0
 11
-301.0
 21
23.0
 31
0.0
  0
LINE
  5
AE
330
1B
100
AcDbEntity
 67
     1
  8
0
  6
Continuous
 62
     7
370
    25
100
AcDbLine
 10
301.0
 20
23.0
 30
0.0
 11
301.0
 21
1.0
 31
0.0
  0
ARC
  5
AF
330
1B
100
AcDbEntity
 67
     1
  8
0
  6
Continuous
 62
     7
370
    25
100
AcDbCircle
 10
-300.0
 20
23.0
 30
0.0
 40
1.000000000000057
100
AcDbArc
 50
90.0
 51
180.0
  0
ARC
  5
B0
330
1B
100
AcDbEntity
 67
     1
  8
0
  6
Continuous
 62
     7
370
    25
100
AcDbCircle
 10
-300.0
 20
1.0
 30
0.0
 40
1.000000000000057
100
AcDbArc
 50
180.0
 51
270.0
  0
ARC
  5
B1
330
1B
100
AcDbEntity
 67
     1
  8
0
  6
Continuous
 62
     7
370
    25
100
AcDbCircle
 10
300.0
 20
1.0
 30
0.0
 40
1.000000000000057
100
AcDbArc
 50
270.0
 51
360.0
  0
ARC
  5
B2
330
1B
100
AcDbEntity
 67
     1
  8
0
  6
Continuous
 62
     7
370
    25
100
AcDbCircle
 10
300.0
 20
23.0
 30
0.0
 40
1.000000000000057
100
AcDbArc
 50
0.0
 51
90.0
  0
VIEWPORT
  5
291
330
1B
100
AcDbEntity
 67
     1
  8
0
100
AcDbViewport
 10
0.0
 20
0.0
 30
0.0
 40
205.6
 41
156.0
 68
     1
 69
     1
 12
0.0
 22
0.0
 13
0.0
 23
0.0
 14
10.0
 24
10.0
 15
10.0
 25
10.0
 16
0.0
 26
0.0
 36
1.0
 17
0.0
 27
0.0
 37
0.0
 42
50.0
 43
0.0
 44
0.0
 45
465.9058365759
 50
0.0
 51
0.0
 72
   100
 90
   557152
  1

281
     0
 71
     1
 74
     0
110
0.0
120
0.0
130
0.0
111
1.0
121
0.0
131
0.0
112
0.0
122
1.0
132
0.0
 79
     0
146
0.0
  0
ENDSEC
  0
SECTION
  2
OBJECTS
  0
DICTIONARY
  5
C
330
0
100
AcDbDictionary
281
     1
  3
ACAD_GROUP
350
D
  3
ACAD_LAYOUT
350
1A
  3
ACAD_MLINESTYLE
350
17
  3
ACAD_PLOTSETTINGS
350
19
  3
ACAD_PLOTSTYLENAME
350
E
  3
ACAD_SCALELIST
350
47
  0
DICTIONARY
  5
D
102
{ACAD_REACTORS
330
C
102
}
330
C
100
AcDbDictionary
281
     1
  0
DICTIONARY
  5
1A
102
{ACAD_REACTORS
330
C
102
}
330
C
100
AcDbDictionary
281
     1
  3
_Back
350
D4
  3
_Bottom
350
11C
  3
_Dimetric
350
1EC
  3
_Front
350
1E
  3
_Isometric
350
140
  3
_Left
350
26
  3
_Right
350
F8
  3
_Trimetric
350
198
  3
ISO PERSP
350
23C
  3
Model
350
22
  0
DICTIONARY
  5
17
102
{ACAD_REACTORS
330
C
102
}
330
C
100
AcDbDictionary
281
     1
  3
Standard
350
18
  0
DICTIONARY
  5
19
102
{ACAD_REACTORS
330
C
102
}
330
C
100
AcDbDictionary
281
     1
  0
ACDBDICTIONARYWDFLT
  5
E
102
{ACAD_REACTORS
330
C
102
}
330
C
100
AcDbDictionary
281
     1
  3
Normal
350
F
100
AcDbDictionaryWithDefault
340
F
  0
DICTIONARY
  5
47
102
{ACAD_REACTORS
330
C
102
}
330
C
100
AcDbDictionary
281
     1
  3
A0
350
48
  3
A1
350
49
  3
A2
350
4A
  3
A3
350
4B
  3
A4
350
4C
  3
A5
350
4D
  3
A6
350
4E
  3
A7
350
4F
  3
A8
350
50
  3
A9
350
51
  3
B0
350
52
  3
B1
350
53
  3
B2
350
54
  3
B3
350
55
  3
B4
350
56
  3
B5
350
57
  3
B6
350
58
  3
B7
350
59
  3
B8
350
5A
  3
B9
350
5B
  3
C0
350
5C
  3
C1
350
5D
  3
C2
350
5E
  3
C3
350
5F
  3
C4
350
60
  3
C5
350
61
  3
C6
350
62
  3
C7
350
63
  3
C8
350
64
  3
C9
350
65
  3
D0
350
66
  3
D1
350
67
  3
D2
350
68
  0
LAYOUT
  5
D4
102
{ACAD_REACTORS
330
1A
102
}
330
1A
100
AcDbPlotSettings
  1

  2
none_device
  4
ISO_A4_(210.00_x_297.00_MM)
  6

 40
7.5
 41
20.0
 42
7.5
 43
20.0
 44
210.0
 45
297.0
 46
0.0
 47
0.0
 48
0.0
 49
0.0
140
0.0
141
0.0
142
1.0
143
2.3424124514
 70
   688
 72
     1
 73
     1
 74
     1
  7

 75
     0
147
0.426910299
148
301.0
149
0.0
100
AcDbLayout
  1
_Back
 70
     1
 71
     3
 10
0.0
 20
0.0
 11
0.0
 21
0.0
 12
0.0
 22
0.0
 32
0.0
 14
0.0
 24
0.0
 34
0.0
 15
0.0
 25
0.0
 35
0.0
146
0.0
 13
0.0
 23
0.0
 33
0.0
 16
1.0
 26
0.0
 36
0.0
 17
0.0
 27
1.0
 37
0.0
 76
     0
330
D3
331
295
  0
LAYOUT
  5
11C
102
{ACAD_REACTORS
330
1A
102
}
330
1A
100
AcDbPlotSettings
  1

  2
none_device
  4
ISO_A4_(210.00_x_297.00_MM)
  6

 40
7.5
 41
20.0
 42
7.5
 43
20.0
 44
210.0
 45
297.0
 46
0.0
 47
0.0
 48
0.0
 49
0.0
140
0.0
141
0.0
142
1.0
143
2.3424124514
 70
   688
 72
     1
 73
     1
 74
     1
  7

 75
     0
147
0.426910299
148
301.0
149
0.0
100
AcDbLayout
  1
_Bottom
 70
     1
 71
     5
 10
0.0
 20
0.0
 11
0.0
 21
0.0
 12
0.0
 22
0.0
 32
0.0
 14
0.0
 24
0.0
 34
0.0
 15
0.0
 25
0.0
 35
0.0
146
0.0
 13
0.0
 23
0.0
 33
0.0
 16
1.0
 26
0.0
 36
0.0
 17
0.0
 27
1.0
 37
0.0
 76
     0
330
11B
331
299
  0
LAYOUT
  5
1EC
102
{ACAD_REACTORS
330
1A
102
}
330
1A
100
AcDbPlotSettings
  1

  2
none_device
  4
ISO_A4_(210.00_x_297.00_MM)
  6

 40
7.5
 41
20.0
 42
7.5
 43
20.0
 44
210.0
 45
297.0
 46
0.0
 47
0.0
 48
0.0
 49
0.0
140
0.0
141
0.0
142
1.0
143
2.3424124514
 70
   688
 72
     1
 73
     1
 74
     1
  7

 75
     0
147
0.426910299
148
301.0
149
0.0
100
AcDbLayout
  1
_Dimetric
 70
     1
 71
     8
 10
0.0
 20
0.0
 11
0.0
 21
0.0
 12
0.0
 22
0.0
 32
0.0
 14
0.0
 24
0.0
 34
0.0
 15
0.0
 25
0.0
 35
0.0
146
0.0
 13
0.0
 23
0.0
 33
0.0
 16
1.0
 26
0.0
 36
0.0
 17
0.0
 27
1.0
 37
0.0
 76
     0
330
1EB
331
29F
  0
LAYOUT
  5
1E
102
{ACAD_REACTORS
330
1A
102
}
330
1A
100
AcDbPlotSettings
  1

  2
none_device
  4
ISO_A4_(210.00_x_297.00_MM)
  6

 40
7.5
 41
20.0
 42
7.5
 43
20.0
 44
210.0
 45
297.0
 46
0.0
 47
0.0
 48
0.0
 49
0.0
140
0.0
141
0.0
142
1.0
143
2.3424124514
 70
   688
 72
     1
 73
     1
 74
     1
  7

 75
     0
147
0.426910299
148
301.0
149
0.0
100
AcDbLayout
  1
_Front
 70
     1
 71
     1
 10
-347.8482490272
 20
-17.5680933852
 11
347.8482490272
 21
474.3385214008
 12
0.0
 22
0.0
 32
0.0
 14
-301.0
 24
0.0
 34
0.0
 15
301.0
 25
24.0
 35
0.0
146
0.0
 13
0.0
 23
0.0
 33
0.0
 16
1.0
 26
0.0
 36
0.0
 17
0.0
 27
1.0
 37
0.0
 76
     0
330
1B
331
291
  0
LAYOUT
  5
140
102
{ACAD_REACTORS
330
1A
102
}
330
1A
100
AcDbPlotSettings
  1

  2
none_device
  4
ISO_A4_(210.00_x_297.00_MM)
  6

 40
7.5
 41
20.0
 42
7.5
 43
20.0
 44
210.0
 45
297.0
 46
0.0
 47
0.0
 48
0.0
 49
0.0
140
0.0
141
0.0
142
1.0
143
2.3424124514
 70
   688
 72
     1
 73
     1
 74
     1
  7

 75
     0
147
0.426910299
148
301.0
149
0.0
100
AcDbLayout
  1
_Isometric
 70
     1
 71
     6
 10
0.0
 20
0.0
 11
0.0
 21
0.0
 12
0.0
 22
0.0
 32
0.0
 14
0.0
 24
0.0
 34
0.0
 15
0.0
 25
0.0
 35
0.0
146
0.0
 13
0.0
 23
0.0
 33
0.0
 16
1.0
 26
0.0
 36
0.0
 17
0.0
 27
1.0
 37
0.0
 76
     0
330
13F
331
29B
  0
LAYOUT
  5
26
102
{ACAD_REACTORS
330
1A
102
}
330
1A
100
AcDbPlotSettings
  1

  2
none_device
  4
ISO_A4_(210.00_x_297.00_MM)
  6

 40
7.5
 41
20.0
 42
7.5
 43
20.0
 44
210.0
 45
297.0
 46
0.0
 47
0.0
 48
0.0
 49
0.0
140
0.0
141
0.0
142
1.0
143
2.3424124514
 70
   688
 72
     1
 73
     1
 74
     1
  7

 75
     0
147
0.426910299
148
301.0
149
0.0
100
AcDbLayout
  1
_Left
 70
     1
 71
     2
 10
0.0
 20
0.0
 11
0.0
 21
0.0
 12
0.0
 22
0.0
 32
0.0
 14
0.0
 24
0.0
 34
0.0
 15
0.0
 25
0.0
 35
0.0
146
0.0
 13
0.0
 23
0.0
 33
0.0
 16
1.0
 26
0.0
 36
0.0
 17
0.0
 27
1.0
 37
0.0
 76
     0
330
23
331
293
  0
LAYOUT
  5
F8
102
{ACAD_REACTORS
330
1A
102
}
330
1A
100
AcDbPlotSettings
  1

  2
none_device
  4
ISO_A4_(210.00_x_297.00_MM)
  6

 40
7.5
 41
20.0
 42
7.5
 43
20.0
 44
210.0
 45
297.0
 46
0.0
 47
0.0
 48
0.0
 49
0.0
140
0.0
141
0.0
142
1.0
143
2.3424124514
 70
   688
 72
     1
 73
     1
 74
     1
  7

 75
     0
147
0.426910299
148
301.0
149
0.0
100
AcDbLayout
  1
_Right
 70
     1
 71
     4
 10
0.0
 20
0.0
 11
0.0
 21
0.0
 12
0.0
 22
0.0
 32
0.0
 14
0.0
 24
0.0
 34
0.0
 15
0.0
 25
0.0
 35
0.0
146
0.0
 13
0.0
 23
0.0
 33
0.0
 16
1.0
 26
0.0
 36
0.0
 17
0.0
 27
1.0
 37
0.0
 76
     0
330
F7
331
297
  0
LAYOUT
  5
198
102
{ACAD_REACTORS
330
1A
102
}
330
1A
100
AcDbPlotSettings
  1

  2
none_device
  4
ISO_A4_(210.00_x_297.00_MM)
  6

 40
7.5
 41
20.0
 42
7.5
 43
20.0
 44
210.0
 45
297.0
 46
0.0
 47
0.0
 48
0.0
 49
0.0
140
0.0
141
0.0
142
1.0
143
2.3424124514
 70
   688
 72
     1
 73
     1
 74
     1
  7

 75
     0
147
0.426910299
148
301.0
149
0.0
100
AcDbLayout
  1
_Trimetric
 70
     1
 71
     7
 10
0.0
 20
0.0
 11
0.0
 21
0.0
 12
0.0
 22
0.0
 32
0.0
 14
0.0
 24
0.0
 34
0.0
 15
0.0
 25
0.0
 35
0.0
146
0.0
 13
0.0
 23
0.0
 33
0.0
 16
1.0
 26
0.0
 36
0.0
 17
0.0
 27
1.0
 37
0.0
 76
     0
330
197
331
29D
  0
LAYOUT
  5
23C
102
{ACAD_REACTORS
330
1A
102
}
330
1A
100
AcDbPlotSettings
  1

  2
none_device
  4
ISO_A4_(210.00_x_297.00_MM)
  6

 40
7.5
 41
20.0
 42
7.5
 43
20.0
 44
210.0
 45
297.0
 46
0.0
 47
0.0
 48
0.0
 49
0.0
140
0.0
141
0.0
142
1.0
143
2.3424124514
 70
   688
 72
     1
 73
     1
 74
     1
  7

 75
     0
147
0.426910299
148
301.0
149
0.0
100
AcDbLayout
  1
ISO PERSP
 70
     1
 71
     9
 10
0.0
 20
0.0
 11
0.0
 21
0.0
 12
0.0
 22
0.0
 32
0.0
 14
0.0
 24
0.0
 34
0.0
 15
0.0
 25
0.0
 35
0.0
146
0.0
 13
0.0
 23
0.0
 33
0.0
 16
1.0
 26
0.0
 36
0.0
 17
0.0
 27
1.0
 37
0.0
 76
     0
330
23B
331
2A1
  0
LAYOUT
  5
22
102
{ACAD_REACTORS
330
1A
102
}
330
1A
100
AcDbPlotSettings
  1

  2
none_device
  4
ANSI_A_(11.00_x_8.50_Inches)
  6

 40
6.35
 41
19.05
 42
6.35000508
 43
19.05000254
 44
279.4
 45
215.9
 46
133.34999746
 47
88.89999873
 48
0.0
 49
0.0
140
0.0
141
0.0
142
0.018089701
143
1.0
 70
  1696
 72
     0
 73
     0
 74
     0
  7

 75
     0
147
0.0179189148
148
-1300.4909072572
149
0.0
100
AcDbLayout
  1
Model
 70
     1
 71
     0
 10
0.0
 20
0.0
 11
420.0
 21
297.0
 12
0.0
 22
0.0
 32
0.0
 14
-301.0
 24
-224.0
 34
0.0
 15
301.0
 25
224.0
 35
0.0
146
0.0
 13
0.0
 23
0.0
 33
0.0
 16
1.0
 26
0.0
 36
0.0
 17
0.0
 27
1.0
 37
0.0
 76
     0
330
1F
331
29
  0
MLINESTYLE
  5
18
102
{ACAD_REACTORS
330
17
102
}
330
17
100
AcDbMlineStyle
  2
Standard
 70
     0
  3

 62
   256
 51
90.0
 52
90.0
 71
     2
 49
0.5
 62
   256
  6
BYLAYER
 49
-0.5
 62
   256
  6
BYLAYER
  0
ACDBPLACEHOLDER
  5
F
102
{ACAD_REACTORS
330
E
102
}
330
E
  0
SCALE
  5
48
102
{ACAD_REACTORS
330
47
102
}
330
47
100
AcDbScale
 70
     0
300
1:1
140
1.0
141
1.0
290
     1
  0
SCALE
  5
49
102
{ACAD_REACTORS
330
47
102
}
330
47
100
AcDbScale
 70
     0
300
1:2
140
1.0
141
2.0
290
     0
  0
SCALE
  5
4A
102
{ACAD_REACTORS
330
47
102
}
330
47
100
AcDbScale
 70
     0
300
1:4
140
1.0
141
4.0
290
     0
  0
SCALE
  5
4B
102
{ACAD_REACTORS
330
47
102
}
330
47
100
AcDbScale
 70
     0
300
1:5
140
1.0
141
5.0
290
     0
  0
SCALE
  5
4C
102
{ACAD_REACTORS
330
47
102
}
330
47
100
AcDbScale
 70
     0
300
1:8
140
1.0
141
8.0
290
     0
  0
SCALE
  5
4D
102
{ACAD_REACTORS
330
47
102
}
330
47
100
AcDbScale
 70
     0
300
1:10
140
1.0
141
10.0
290
     0
  0
SCALE
  5
4E
102
{ACAD_REACTORS
330
47
102
}
330
47
100
AcDbScale
 70
     0
300
1:16
140
1.0
141
16.0
290
     0
  0
SCALE
  5
4F
102
{ACAD_REACTORS
330
47
102
}
330
47
100
AcDbScale
 70
     0
300
1:20
140
1.0
141
20.0
290
     0
  0
SCALE
  5
50
102
{ACAD_REACTORS
330
47
102
}
330
47
100
AcDbScale
 70
     0
300
1:30
140
1.0
141
30.0
290
     0
  0
SCALE
  5
51
102
{ACAD_REACTORS
330
47
102
}
330
47
100
AcDbScale
 70
     0
300
1:40
140
1.0
141
40.0
290
     0
  0
SCALE
  5
52
102
{ACAD_REACTORS
330
47
102
}
330
47
100
AcDbScale
 70
     0
300
1:50
140
1.0
141
50.0
290
     0
  0
SCALE
  5
53
102
{ACAD_REACTORS
330
47
102
}
330
47
100
AcDbScale
 70
     0
300
1:100
140
1.0
141
100.0
290
     0
  0
SCALE
  5
54
102
{ACAD_REACTORS
330
47
102
}
330
47
100
AcDbScale
 70
     0
300
2:1
140
2.0
141
1.0
290
     0
  0
SCALE
  5
55
102
{ACAD_REACTORS
330
47
102
}
330
47
100
AcDbScale
 70
     0
300
4:1
140
4.0
141
1.0
290
     0
  0
SCALE
  5
56
102
{ACAD_REACTORS
330
47
102
}
330
47
100
AcDbScale
 70
     0
300
8:1
140
8.0
141
1.0
290
     0
  0
SCALE
  5
57
102
{ACAD_REACTORS
330
47
102
}
330
47
100
AcDbScale
 70
     0
300
10:1
140
10.0
141
1.0
290
     0
  0
SCALE
  5
58
102
{ACAD_REACTORS
330
47
102
}
330
47
100
AcDbScale
 70
     0
300
100:1
140
100.0
141
1.0
290
     0
  0
SCALE
  5
59
102
{ACAD_REACTORS
330
47
102
}
330
47
100
AcDbScale
 70
     0
300
1/128" = 1'-0"
140
0.0078125
141
12.0
290
     0
  0
SCALE
  5
5A
102
{ACAD_REACTORS
330
47
102
}
330
47
100
AcDbScale
 70
     0
300
1/64" = 1'-0"
140
0.015625
141
12.0
290
     0
  0
SCALE
  5
5B
102
{ACAD_REACTORS
330
47
102
}
330
47
100
AcDbScale
 70
     0
300
1/32" = 1'-0"
140
0.03125
141
12.0
290
     0
  0
SCALE
  5
5C
102
{ACAD_REACTORS
330
47
102
}
330
47
100
AcDbScale
 70
     0
300
1/16" = 1'-0"
140
0.0625
141
12.0
290
     0
  0
SCALE
  5
5D
102
{ACAD_REACTORS
330
47
102
}
330
47
100
AcDbScale
 70
     0
300
3/32" = 1'-0"
140
0.09375
141
12.0
290
     0
  0
SCALE
  5
5E
102
{ACAD_REACTORS
330
47
102
}
330
47
100
AcDbScale
 70
     0
300
1/8" = 1'-0"
140
0.125
141
12.0
290
     0
  0
SCALE
  5
5F
102
{ACAD_REACTORS
330
47
102
}
330
47
100
AcDbScale
 70
     0
300
3/16" = 1'-0"
140
0.1875
141
12.0
290
     0
  0
SCALE
  5
60
102
{ACAD_REACTORS
330
47
102
}
330
47
100
AcDbScale
 70
     0
300
1/4" = 1'-0"
140
0.25
141
12.0
290
     0
  0
SCALE
  5
61
102
{ACAD_REACTORS
330
47
102
}
330
47
100
AcDbScale
 70
     0
300
3/8" = 1'-0"
140
0.375
141
12.0
290
     0
  0
SCALE
  5
62
102
{ACAD_REACTORS
330
47
102
}
330
47
100
AcDbScale
 70
     0
300
1/2" = 1'-0"
140
0.5
141
12.0
290
     0
  0
SCALE
  5
63
102
{ACAD_REACTORS
330
47
102
}
330
47
100
AcDbScale
 70
     0
300
3/4" = 1'-0"
140
0.75
141
12.0
290
     0
  0
SCALE
  5
64
102
{ACAD_REACTORS
330
47
102
}
330
47
100
AcDbScale
 70
     0
300
1" = 1'-0"
140
1.0
141
12.0
290
     0
  0
SCALE
  5
65
102
{ACAD_REACTORS
330
47
102
}
330
47
100
AcDbScale
 70
     0
300
1-1/2" = 1'-0"
140
1.5
141
12.0
290
     0
  0
SCALE
  5
66
102
{ACAD_REACTORS
330
47
102
}
330
47
100
AcDbScale
 70
     0
300
3" = 1'-0"
140
3.0
141
12.0
290
     0
  0
SCALE
  5
67
102
{ACAD_REACTORS
330
47
102
}
330
47
100
AcDbScale
 70
     0
300
6" = 1'-0"
140
6.0
141
12.0
290
     0
  0
SCALE
  5
68
102
{ACAD_REACTORS
330
47
102
}
330
47
100
AcDbScale
 70
     0
300
1'-0" = 1'-0"
140
12.0
141
12.0
290
     0
  0
ENDSEC
  0
EOF
