  0
SECTION
  2
HEADER
  9
$ACADVER
  1
AC1015
  9
$ACADMAINTVER
 70
     6
  9
$DWGCODEPAGE
  3
ANSI_1252
  9
$INSBASE
 10
0.0
 20
0.0
 30
0.0
  9
$EXTMIN
 10
-248.0
 20
0.0
 30
0.0
  9
$EXTMAX
 10
248.0
 20
480.0
 30
0.0
  9
$LIMMIN
 10
0.0
 20
0.0
  9
$LIMMAX
 10
420.0
 20
297.0
  9
$ORTHOMODE
 70
     0
  9
$REGENMODE
 70
     1
  9
$FILLMODE
 70
     1
  9
$QTEXTMODE
 70
     0
  9
$MIRRTEXT
 70
     1
  9
$LTSCALE
 40
1.0
  9
$ATTMODE
 70
     1
  9
$TEXTSIZE
 40
3.5
  9
$TRACEWID
 40
1.0
  9
$TEXTSTYLE
  7
Standard
  9
$CLAYER
  8
0
  9
$CELTYPE
  6
ByLayer
  9
$CECOLOR
 62
   256
  9
$CELTSCALE
 40
1.0
  9
$DISPSILH
 70
     0
  9
$DIMSCALE
 40
1.0
  9
$DIMASZ
 40
3.302
  9
$DIMEXO
 40
1.0
  9
$DIMDLI
 40
3.75
  9
$DIMRND
 40
0.0
  9
$DIMDLE
 40
0.0
  9
$DIMEXE
 40
1.0
  9
$DIMTP
 40
0.0
  9
$DIMTM
 40
0.0
  9
$DIMTXT
 40
3.5
  9
$DIMCEN
 40
2.5
  9
$DIMTSZ
 40
0.0
  9
$DIMTOL
 70
     0
  9
$DIMLIM
 70
     0
  9
$DIMTIH
 70
     1
  9
$DIMTOH
 70
     1
  9
$DIMSE1
 70
     0
  9
$DIMSE2
 70
     0
  9
$DIMTAD
 70
     1
  9
$DIMZIN
 70
     1
  9
$DIMBLK
  1

  9
$DIMASO
 70
     1
  9
$DIMSHO
 70
     1
  9
$DIMPOST
  1

  9
$DIMAPOST
  1

  9
$DIMALT
 70
     0
  9
$DIMALTD
 70
     3
  9
$DIMALTF
 40
0.0393700787
  9
$DIMLFAC
 40
1.0
  9
$DIMTOFL
 70
     1
  9
$DIMTVP
 40
0.0
  9
$DIMTIX
 70
     0
  9
$DIMSOXD
 70
     0
  9
$DIMSAH
 70
     0
  9
$DIMBLK1
  1

  9
$DIMBLK2
  1

  9
$DIMSTYLE
  2
ISO-25
  9
$DIMCLRD
 70
     0
  9
$DIMCLRE
 70
     0
  9
$DIMCLRT
 70
     0
  9
$DIMTFAC
 40
1.0
  9
$DIMGAP
 40
1.524
  9
$DIMJUST
 70
     0
  9
$DIMSD1
 70
     0
  9
$DIMSD2
 70
     0
  9
$DIMTOLJ
 70
     0
  9
$DIMTZIN
 70
     1
  9
$DIMALTZ
 70
     0
  9
$DIMALTTZ
 70
     0
  9
$DIMUPT
 70
     0
  9
$DIMDEC
 70
     2
  9
$DIMTDEC
 70
     2
  9
$DIMALTU
 70
     2
  9
$DIMALTTD
 70
     3
  9
$DIMTXSTY
  7
Standard
  9
$DIMAUNIT
 70
     0
  9
$DIMADEC
 70
     2
  9
$DIMALTRND
 40
0.0
  9
$DIMAZIN
 70
     0
  9
$DIMDSEP
 70
    44
  9
$DIMATFIT
 70
     3
  9
$DIMFRAC
 70
     0
  9
$DIMLDRBLK
  1

  9
$DIMLUNIT
 70
     2
  9
$DIMLWD
 70
    -2
  9
$DIMLWE
 70
    -2
  9
$DIMTMOVE
 70
     0
  9
$LUNITS
 70
     2
  9
$LUPREC
 70
     2
  9
$SKETCHINC
 40
1.0
  9
$FILLETRAD
 40
10.0
  9
$AUNITS
 70
     0
  9
$AUPREC
 70
     2
  9
$MENU
  1
.
  9
$ELEVATION
 40
0.0
  9
$PELEVATION
 40
0.0
  9
$THICKNESS
 40
0.0
  9
$LIMCHECK
 70
     0
  9
$CHAMFERA
 40
0.0
  9
$CHAMFERB
 40
0.0
  9
$CHAMFERC
 40
0.0
  9
$CHAMFERD
 40
0.0
  9
$SKPOLY
 70
     0
  9
$TDCREATE
 40
2459257.660032141
  9
$TDUCREATE
 40
2459257.660032141
  9
$TDUPDATE
 40
2459257.660068831
  9
$TDUUPDATE
 40
2459257.660068831
  9
$TDINDWG
 40
0.0000000116
  9
$TDUSRTIMER
 40
0.0000000116
  9
$USRTIMER
 70
     1
  9
$ANGBASE
 50
0.0
  9
$ANGDIR
 70
     0
  9
$PDMODE
 70
     0
  9
$PDSIZE
 40
-1.0
  9
$PLINEWID
 40
0.0
  9
$SPLFRAME
 70
     0
  9
$SPLINETYPE
 70
     6
  9
$SPLINESEGS
 70
     8
  9
$HANDSEED
  5
56E
  9
$SURFTAB1
 70
     6
  9
$SURFTAB2
 70
     6
  9
$SURFTYPE
 70
     6
  9
$SURFU
 70
     6
  9
$SURFV
 70
     6
  9
$UCSBASE
  2

  9
$UCSNAME
  2

  9
$UCSORG
 10
0.0
 20
0.0
 30
0.0
  9
$UCSXDIR
 10
1.0
 20
0.0
 30
0.0
  9
$UCSYDIR
 10
0.0
 20
1.0
 30
0.0
  9
$UCSORTHOREF
  2

  9
$UCSORTHOVIEW
 70
     0
  9
$UCSORGTOP
 10
0.0
 20
0.0
 30
0.0
  9
$UCSORGBOTTOM
 10
0.0
 20
0.0
 30
0.0
  9
$UCSORGLEFT
 10
0.0
 20
0.0
 30
0.0
  9
$UCSORGRIGHT
 10
0.0
 20
0.0
 30
0.0
  9
$UCSORGFRONT
 10
0.0
 20
0.0
 30
0.0
  9
$UCSORGBACK
 10
0.0
 20
0.0
 30
0.0
  9
$PUCSBASE
  2

  9
$PUCSNAME
  2

  9
$PUCSORG
 10
0.0
 20
0.0
 30
0.0
  9
$PUCSXDIR
 10
1.0
 20
0.0
 30
0.0
  9
$PUCSYDIR
 10
0.0
 20
1.0
 30
0.0
  9
$PUCSORTHOREF
  2

  9
$PUCSORTHOVIEW
 70
     0
  9
$PUCSORGTOP
 10
0.0
 20
0.0
 30
0.0
  9
$PUCSORGBOTTOM
 10
0.0
 20
0.0
 30
0.0
  9
$PUCSORGLEFT
 10
0.0
 20
0.0
 30
0.0
  9
$PUCSORGRIGHT
 10
0.0
 20
0.0
 30
0.0
  9
$PUCSORGFRONT
 10
0.0
 20
0.0
 30
0.0
  9
$PUCSORGBACK
 10
0.0
 20
0.0
 30
0.0
  9
$USERI1
 70
     0
  9
$USERI2
 70
     0
  9
$USERI3
 70
     0
  9
$USERI4
 70
     0
  9
$USERI5
 70
     0
  9
$USERR1
 40
0.0
  9
$USERR2
 40
0.0
  9
$USERR3
 40
0.0
  9
$USERR4
 40
0.0
  9
$USERR5
 40
0.0
  9
$WORLDVIEW
 70
     1
  9
$SHADEDGE
 70
     3
  9
$SHADEDIF
 70
    70
  9
$TILEMODE
 70
     1
  9
$MAXACTVP
 70
    64
  9
$PINSBASE
 10
0.0
 20
0.0
 30
0.0
  9
$PLIMCHECK
 70
     0
  9
$PEXTMIN
 10
-248.0
 20
0.0
 30
0.0
  9
$PEXTMAX
 10
248.0
 20
480.0
 30
0.0
  9
$PLIMMIN
 10
-297.2307692308
 20
-18.4615384615
  9
$PLIMMAX
 10
433.8461538462
 20
498.4615384615
  9
$UNITMODE
 70
     0
  9
$VISRETAIN
 70
     1
  9
$PLINEGEN
 70
     0
  9
$PSLTSCALE
 70
     1
  9
$TREEDEPTH
 70
  3020
  9
$CMLSTYLE
  2
Standard
  9
$CMLJUST
 70
     0
  9
$CMLSCALE
 40
20.0
  9
$PROXYGRAPHICS
 70
     1
  9
$MEASUREMENT
 70
     1
  9
$CELWEIGHT
370
    -1
  9
$ENDCAPS
280
     0
  9
$JOINSTYLE
280
     0
  9
$LWDISPLAY
290
     1
  9
$INSUNITS
 70
     4
  9
$HYPERLINKBASE
  1

  9
$STYLESHEET
  1

  9
$XEDIT
290
     1
  9
$CEPSNTYPE
380
     0
  9
$PSTYLEMODE
290
     1
  9
$FINGERPRINTGUID
  2
{0e18ce58-b8a5-4e34-9f7f-8bb5f5ebc997}
  9
$VERSIONGUID
  2
{FAEB1C32-E019-11D5-929B-00C0DF256EC4}
  9
$EXTNAMES
290
     1
  9
$PSVPSCALE
 40
0.0
  9
$OLESTARTUP
290
     0
  0
ENDSEC
  0
SECTION
  2
CLASSES
  0
CLASS
  1
ACDBDICTIONARYWDFLT
  2
AcDbDictionaryWithDefault
  3
ObjectDBX Classes
 90
        0
280
     0
281
     0
  0
CLASS
  1
VISUALSTYLE
  2
AcDbVisualStyle
  3
ObjectDBX Classes
 90
     4095
280
     0
281
     0
  0
CLASS
  1
MATERIAL
  2
AcDbMaterial
  3
ObjectDBX Classes
 90
     1153
280
     0
281
     0
  0
CLASS
  1
SCALE
  2
AcDbScale
  3
ObjectDBX Classes
 90
     1153
280
     0
281
     0
  0
CLASS
  1
TABLESTYLE
  2
AcDbTableStyle
  3
ObjectDBX Classes
 90
     4095
280
     0
281
     0
  0
CLASS
  1
MLEADERSTYLE
  2
AcDbMLeaderStyle
  3
ACDB_MLEADERSTYLE_CLASS
 90
     4095
280
     0
281
     0
  0
CLASS
  1
SUN
  2
AcDbSun
  3
SCENEOE
 90
     1153
280
     0
281
     0
  0
CLASS
  1
ACDBPLACEHOLDER
  2
AcDbPlaceHolder
  3
ObjectDBX Classes
 90
        0
280
     0
281
     0
  0
CLASS
  1
LAYOUT
  2
AcDbLayout
  3
ObjectDBX Classes
 90
        0
280
     0
281
     0
  0
ENDSEC
  0
SECTION
  2
TABLES
  0
TABLE
  2
VPORT
  5
8
330
0
100
AcDbSymbolTable
 70
     1
  0
VPORT
  5
29
330
8
100
AcDbSymbolTableRecord
100
AcDbViewportTableRecord
  2
*Active
 70
     0
 10
0.0
 20
0.0
 11
1.0
 21
1.0
 12
0.0
 22
240.0
 13
0.0
 23
0.0
 14
10.0
 24
10.0
 15
10.0
 25
10.0
 16
0.0
 26
0.0
 36
1.0
 17
0.0
 27
0.0
 37
0.0
 40
489.6
 41
1.0333333333
 42
50.0
 43
0.0
 44
0.0
 50
0.0
 51
0.0
 71
     0
 72
   100
 73
     1
 74
     3
 75
     0
 76
     0
 77
     0
 78
     0
281
     0
 65
     1
110
0.0
120
0.0
130
0.0
111
1.0
121
0.0
131
0.0
112
0.0
122
1.0
132
0.0
 79
     0
146
0.0
  0
ENDTAB
  0
TABLE
  2
LTYPE
  5
5
330
0
100
AcDbSymbolTable
 70
     6
  0
LTYPE
  5
14
330
5
100
AcDbSymbolTableRecord
100
AcDbLinetypeTableRecord
  2
ByBlock
 70
     0
  3

 72
    65
 73
     0
 40
0.0
  0
LTYPE
  5
15
330
5
100
AcDbSymbolTableRecord
100
AcDbLinetypeTableRecord
  2
ByLayer
 70
     0
  3

 72
    65
 73
     0
 40
0.0
  0
LTYPE
  5
16
330
5
100
AcDbSymbolTableRecord
100
AcDbLinetypeTableRecord
  2
Continuous
 70
     0
  3
Solid line
 72
    65
 73
     0
 40
0.0
  0
LTYPE
  5
6E
330
5
100
AcDbSymbolTableRecord
100
AcDbLinetypeTableRecord
  2
HIDDEN
 70
     0
  3
Hidden __ __ __ __ __ __ __ __ __ __ __ __ __ __
 72
    65
 73
     2
 40
1.905
 49
1.27
 74
     0
 49
-0.635
 74
     0
  0
LTYPE
  5
6F
330
5
100
AcDbSymbolTableRecord
100
AcDbLinetypeTableRecord
  2
PHANTOM
 70
     0
  3
Phantom ______  __  __  ______  __  __  ______
 72
    65
 73
     6
 40
12.7
 49
6.35
 74
     0
 49
-1.27
 74
     0
 49
1.27
 74
     0
 49
-1.27
 74
     0
 49
1.27
 74
     0
 49
-1.27
 74
     0
  0
LTYPE
  5
70
330
5
100
AcDbSymbolTableRecord
100
AcDbLinetypeTableRecord
  2
CENTER
 70
     0
  3
Center ____ _ ____ _ ____ _ ____ _ ____ _ ____
 72
    65
 73
     4
 40
10.16
 49
6.35
 74
     0
 49
-1.27
 74
     0
 49
1.27
 74
     0
 49
-1.27
 74
     0
  0
LTYPE
  5
71
330
5
100
AcDbSymbolTableRecord
100
AcDbLinetypeTableRecord
  2
CENTERX2
 70
     0
  3
Center (2x) ________  __  ________  __  _____
 72
    65
 73
     4
 40
20.32
 49
12.7
 74
     0
 49
-2.54
 74
     0
 49
2.54
 74
     0
 49
-2.54
 74
     0
  0
LTYPE
  5
72
330
5
100
AcDbSymbolTableRecord
100
AcDbLinetypeTableRecord
  2
DOT2
 70
     0
  3
Dot (.5x) ........................................
 72
    65
 73
     2
 40
0.635
 49
0.0
 74
     0
 49
-0.635
 74
     0
  0
ENDTAB
  0
TABLE
  2
LAYER
  5
2
330
0
100
AcDbSymbolTable
 70
     1
  0
LAYER
  5
10
330
2
100
AcDbSymbolTableRecord
100
AcDbLayerTableRecord
  2
0
 70
     0
 62
     7
  6
Continuous
370
    -3
390
F
  0
ENDTAB
  0
TABLE
  2
STYLE
  5
3
330
0
100
AcDbSymbolTable
 70
     1
  0
STYLE
  5
11
330
3
100
AcDbSymbolTableRecord
100
AcDbTextStyleTableRecord
  2
Standard
 70
     0
 40
0.0
 41
1.0
 50
0.0
 71
     0
 42
3.5
  3
txt
  4

  0
ENDTAB
  0
TABLE
  2
VIEW
  5
6
330
0
100
AcDbSymbolTable
 70
     0
  0
ENDTAB
  0
TABLE
  2
UCS
  5
7
330
0
100
AcDbSymbolTable
 70
     0
  0
ENDTAB
  0
TABLE
  2
APPID
  5
9
330
0
100
AcDbSymbolTable
 70
     1
  0
APPID
  5
12
330
9
100
AcDbSymbolTableRecord
100
AcDbRegAppTableRecord
  2
ACAD
 70
     0
  0
ENDTAB
  0
TABLE
  2
DIMSTYLE
  5
A
330
0
100
AcDbSymbolTable
 70
     1
100
AcDbDimStyleTable
  0
DIMSTYLE
105
27
330
A
100
AcDbSymbolTableRecord
100
AcDbDimStyleTableRecord
  2
ISO-25
 70
     0
 41
2.5
 42
0.625
 43
3.75
 44
1.25
 73
     0
 74
     0
 77
     1
 78
     8
140
2.5
141
2.5
143
0.0393700787
147
0.625
171
     3
172
     1
178
     0
271
     2
272
     2
274
     3
278
    44
283
     0
284
     8
340
11
  0
ENDTAB
  0
TABLE
  2
BLOCK_RECORD
  5
1
330
0
100
AcDbSymbolTable
 70
     3
  0
BLOCK_RECORD
  5
1F
330
1
100
AcDbSymbolTableRecord
100
AcDbBlockTableRecord
  2
*Model_Space
340
22
  0
BLOCK_RECORD
  5
1B
330
1
100
AcDbSymbolTableRecord
100
AcDbBlockTableRecord
  2
*Paper_Space
340
1E
  0
BLOCK_RECORD
  5
23
330
1
100
AcDbSymbolTableRecord
100
AcDbBlockTableRecord
  2
*Paper_Space0
340
26
  0
BLOCK_RECORD
  5
32F
330
1
100
AcDbSymbolTableRecord
100
AcDbBlockTableRecord
  2
*Paper_Space1
340
330
  0
BLOCK_RECORD
  5
400
330
1
100
AcDbSymbolTableRecord
100
AcDbBlockTableRecord
  2
*Paper_Space2
340
401
  0
ENDTAB
  0
ENDSEC
  0
SECTION
  2
BLOCKS
  0
BLOCK
  5
20
330
1F
100
AcDbEntity
  8
0
100
AcDbBlockBegin
  2
*Model_Space
 70
     0
 10
0.0
 20
0.0
 30
0.0
  3
*Model_Space
  1

  0
ENDBLK
  5
21
330
1F
100
AcDbEntity
  8
0
100
AcDbBlockEnd
  0
BLOCK
  5
1C
330
1B
100
AcDbEntity
 67
     1
  8
0
100
AcDbBlockBegin
  2
*Paper_Space
 70
     0
 10
0.0
 20
0.0
 30
0.0
  3
*Paper_Space
  1

  0
ENDBLK
  5
1D
330
1B
100
AcDbEntity
 67
     1
  8
0
100
AcDbBlockEnd
  0
BLOCK
  5
24
330
23
100
AcDbEntity
  8
0
100
AcDbBlockBegin
  2
*Paper_Space0
 70
     0
 10
0.0
 20
0.0
 30
0.0
  3
*Paper_Space0
  1

  0
LINE
  5
30D
330
23
100
AcDbEntity
  8
0
  6
Continuous
 62
     7
370
    25
100
AcDbLine
 10
181.5
 20
3.0
 30
0.0
 11
200.5
 21
3.0
 31
0.0
  0
LINE
  5
30E
330
23
100
AcDbEntity
  8
0
  6
Continuous
 62
     7
370
    25
100
AcDbLine
 10
199.5
 20
2.0
 30
0.0
 11
182.5
 21
2.0
 31
0.0
  0
LINE
  5
30F
330
23
100
AcDbEntity
  8
0
  6
Continuous
 62
     7
370
    25
100
AcDbLine
 10
182.5
 20
262.0
 30
0.0
 11
182.5
 21
2.0
 31
0.0
  0
LINE
  5
310
330
23
100
AcDbEntity
  8
0
  6
Continuous
 62
     7
370
    25
100
AcDbLine
 10
199.5
 20
2.0
 30
0.0
 11
199.5
 21
262.0
 31
0.0
  0
LINE
  5
311
330
23
100
AcDbEntity
  8
0
  6
Continuous
 62
     7
370
    25
100
AcDbLine
 10
200.5
 20
261.0
 30
0.0
 11
181.5
 21
261.0
 31
0.0
  0
LINE
  5
312
330
23
100
AcDbEntity
  8
0
  6
Continuous
 62
     7
370
    25
100
AcDbLine
 10
200.5
 20
261.0
 30
0.0
 11
200.5
 21
3.0
 31
0.0
  0
LINE
  5
313
330
23
100
AcDbEntity
  8
0
  6
Continuous
 62
     7
370
    25
100
AcDbLine
 10
182.5
 20
262.0
 30
0.0
 11
199.5
 21
262.0
 31
0.0
  0
LINE
  5
314
330
23
100
AcDbEntity
  8
0
  6
Continuous
 62
     7
370
    25
100
AcDbLine
 10
181.5
 20
480.0
 30
0.0
 11
181.5
 21
1.0
 31
0.0
  0
LINE
  5
315
330
23
100
AcDbEntity
  8
0
  6
Continuous
 62
     7
370
    25
100
AcDbLine
 10
181.5
 20
479.0
 30
0.0
 11
-179.5
 21
479.0
 31
0.0
  0
LINE
  5
316
330
23
100
AcDbEntity
  8
0
  6
Continuous
 62
     7
370
    25
100
AcDbLine
 10
180.5
 20
0.0
 30
0.0
 11
180.5
 21
480.0
 31
0.0
  0
LINE
  5
317
330
23
100
AcDbEntity
  8
0
  6
Continuous
 62
     7
370
    25
100
AcDbLine
 10
-179.5
 20
1.0
 30
0.0
 11
181.5
 21
1.0
 31
0.0
  0
LINE
  5
318
330
23
100
AcDbEntity
  8
0
  6
Continuous
 62
     7
370
    25
100
AcDbLine
 10
-178.5
 20
480.0
 30
0.0
 11
-178.5
 21
0.0
 31
0.0
  0
LINE
  5
319
330
23
100
AcDbEntity
  8
0
  6
Continuous
 62
     7
370
    25
100
AcDbLine
 10
-178.5
 20
480.0
 30
0.0
 11
181.5
 21
480.0
 31
0.0
  0
LINE
  5
31A
330
23
100
AcDbEntity
  8
0
  6
Continuous
 62
     7
370
    25
100
AcDbLine
 10
-179.5
 20
1.0
 30
0.0
 11
-179.5
 21
479.0
 31
0.0
  0
LINE
  5
31B
330
23
100
AcDbEntity
  8
0
  6
Continuous
 62
     7
370
    25
100
AcDbLine
 10
180.5
 20
0.0
 30
0.0
 11
-178.5
 21
0.0
 31
0.0
  0
LINE
  5
31C
330
23
100
AcDbEntity
  8
0
  6
Continuous
 62
     7
370
    25
100
AcDbLine
 10
181.5
 20
265.0
 30
0.0
 11
200.5
 21
265.0
 31
0.0
  0
LINE
  5
31D
330
23
100
AcDbEntity
  8
0
  6
Continuous
 62
     7
370
    25
100
AcDbLine
 10
199.5
 20
264.0
 30
0.0
 11
199.5
 21
478.0
 31
0.0
  0
LINE
  5
31E
330
23
100
AcDbEntity
  8
0
  6
Continuous
 62
     7
370
    25
100
AcDbLine
 10
199.5
 20
264.0
 30
0.0
 11
182.5
 21
264.0
 31
0.0
  0
LINE
  5
31F
330
23
100
AcDbEntity
  8
0
  6
Continuous
 62
     7
370
    25
100
AcDbLine
 10
200.5
 20
477.0
 30
0.0
 11
200.5
 21
265.0
 31
0.0
  0
LINE
  5
320
330
23
100
AcDbEntity
  8
0
  6
Continuous
 62
     7
370
    25
100
AcDbLine
 10
200.5
 20
477.0
 30
0.0
 11
181.5
 21
477.0
 31
0.0
  0
LINE
  5
321
330
23
100
AcDbEntity
  8
0
  6
Continuous
 62
     7
370
    25
100
AcDbLine
 10
182.5
 20
478.0
 30
0.0
 11
182.5
 21
264.0
 31
0.0
  0
LINE
  5
322
330
23
100
AcDbEntity
  8
0
  6
Continuous
 62
     7
370
    25
100
AcDbLine
 10
182.5
 20
478.0
 30
0.0
 11
199.5
 21
478.0
 31
0.0
  0
ARC
  5
323
330
23
100
AcDbEntity
  8
0
  6
Continuous
 62
     7
370
    25
100
AcDbCircle
 10
182.5
 20
3.0
 30
0.0
 40
1.000000000000028
100
AcDbArc
 50
180.0
 51
270.0
  0
ARC
  5
324
330
23
100
AcDbEntity
  8
0
  6
Continuous
 62
     7
370
    25
100
AcDbCircle
 10
199.5
 20
3.0
 30
0.0
 40
1.0
100
AcDbArc
 50
270.0
 51
0.0
  0
ARC
  5
325
330
23
100
AcDbEntity
  8
0
  6
Continuous
 62
     7
370
    25
100
AcDbCircle
 10
182.5
 20
261.0
 30
0.0
 40
0.9999999999999716
100
AcDbArc
 50
90.0
 51
180.0
  0
ARC
  5
326
330
23
100
AcDbEntity
  8
0
  6
Continuous
 62
     7
370
    25
100
AcDbCircle
 10
199.5
 20
261.0
 30
0.0
 40
0.9999999999998863
100
AcDbArc
 50
360.0
 51
90.0
  0
ARC
  5
327
330
23
100
AcDbEntity
  8
0
  6
Continuous
 62
     7
370
    25
100
AcDbCircle
 10
180.5
 20
479.0
 30
0.0
 40
1.000000000000057
100
AcDbArc
 50
0.0
 51
90.0
  0
ARC
  5
328
330
23
100
AcDbEntity
  8
0
  6
Continuous
 62
     7
370
    25
100
AcDbCircle
 10
-178.5
 20
479.0
 30
0.0
 40
1.000000000000114
100
AcDbArc
 50
90.0
 51
180.0
  0
ARC
  5
329
330
23
100
AcDbEntity
  8
0
  6
Continuous
 62
     7
370
    25
100
AcDbCircle
 10
-178.5
 20
1.0
 30
0.0
 40
1.000000000000028
100
AcDbArc
 50
180.0
 51
270.0
  0
ARC
  5
32A
330
23
100
AcDbEntity
  8
0
  6
Continuous
 62
     7
370
    25
100
AcDbCircle
 10
180.5
 20
1.0
 30
0.0
 40
1.000000000000085
100
AcDbArc
 50
270.0
 51
360.0
  0
ARC
  5
32B
330
23
100
AcDbEntity
  8
0
  6
Continuous
 62
     7
370
    25
100
AcDbCircle
 10
199.5
 20
477.0
 30
0.0
 40
1.000000000000028
100
AcDbArc
 50
0.0
 51
90.0
  0
ARC
  5
32C
330
23
100
AcDbEntity
  8
0
  6
Continuous
 62
     7
370
    25
100
AcDbCircle
 10
182.5
 20
477.0
 30
0.0
 40
1.000000000000057
100
AcDbArc
 50
90.0
 51
180.0
  0
ARC
  5
32D
330
23
100
AcDbEntity
  8
0
  6
Continuous
 62
     7
370
    25
100
AcDbCircle
 10
182.5
 20
265.0
 30
0.0
 40
1.000000000000057
100
AcDbArc
 50
180.0
 51
270.0
  0
ARC
  5
32E
330
23
100
AcDbEntity
  8
0
  6
Continuous
 62
     7
370
    25
100
AcDbCircle
 10
199.5
 20
265.0
 30
0.0
 40
1.000000000000057
100
AcDbArc
 50
270.0
 51
0.0
  0
VIEWPORT
  5
568
330
23
100
AcDbEntity
  8
0
100
AcDbViewport
 10
0.0
 20
0.0
 30
0.0
 40
205.6
 41
156.0
 68
     1
 69
     1
 12
0.0
 22
240.0
 13
0.0
 23
0.0
 14
10.0
 24
10.0
 15
10.0
 25
10.0
 16
0.0
 26
0.0
 36
1.0
 17
0.0
 27
0.0
 37
0.0
 42
50.0
 43
0.0
 44
0.0
 45
489.6
 50
0.0
 51
0.0
 72
   100
 90
   557152
  1

281
     0
 71
     1
 74
     0
110
0.0
120
0.0
130
0.0
111
1.0
121
0.0
131
0.0
112
0.0
122
1.0
132
0.0
 79
     0
146
0.0
  0
ENDBLK
  5
25
330
23
100
AcDbEntity
  8
0
100
AcDbBlockEnd
  0
BLOCK
  5
331
330
32F
100
AcDbEntity
  8
0
100
AcDbBlockBegin
  2
*Paper_Space1
 70
     0
 10
0.0
 20
0.0
 30
0.0
  3
*Paper_Space1
  1

  0
LINE
  5
3B7
330
32F
100
AcDbEntity
  8
0
  6
Continuous
 62
     7
370
    25
100
AcDbLine
 10
-194.0
 20
122.5
 30
0.0
 11
194.0
 21
122.5
 31
0.0
  0
LINE
  5
3B8
330
32F
100
AcDbEntity
  8
0
  6
Continuous
 62
     7
370
    25
100
AcDbLine
 10
248.0
 20
178.5
 30
0.0
 11
229.0
 21
178.5
 31
0.0
  0
LINE
  5
3B9
330
32F
100
AcDbEntity
  8
0
  6
Continuous
 62
     7
370
    25
100
AcDbLine
 10
248.0
 20
178.5
 30
0.0
 11
248.0
 21
-180.5
 31
0.0
  0
LINE
  5
3BA
330
32F
100
AcDbEntity
  8
0
  6
Continuous
 62
     7
370
    25
100
AcDbLine
 10
229.0
 20
-180.5
 30
0.0
 11
248.0
 21
-180.5
 31
0.0
  0
LINE
  5
3BB
330
32F
100
AcDbEntity
  8
0
  6
Continuous
 62
     7
370
    25
100
AcDbLine
 10
230.0
 20
179.5
 30
0.0
 11
230.0
 21
-181.5
 31
0.0
  0
LINE
  5
3BC
330
32F
100
AcDbEntity
  8
0
  6
Continuous
 62
     7
370
    25
100
AcDbLine
 10
230.0
 20
179.5
 30
0.0
 11
247.0
 21
179.5
 31
0.0
  0
LINE
  5
3BD
330
32F
100
AcDbEntity
  8
0
  6
Continuous
 62
     7
370
    25
100
AcDbLine
 10
229.0
 20
-181.5
 30
0.0
 11
229.0
 21
179.5
 31
0.0
  0
LINE
  5
3BE
330
32F
100
AcDbEntity
  8
0
  6
Continuous
 62
     7
370
    25
100
AcDbLine
 10
-204.0
 20
141.9
 30
0.0
 11
-200.0
 21
141.9
 31
0.0
  0
LINE
  5
3BF
330
32F
100
AcDbEntity
  8
0
  6
Continuous
 62
     7
370
    25
100
AcDbLine
 10
-204.0
 20
141.9
 30
0.0
 11
-204.0
 21
138.5
 31
0.0
  0
LINE
  5
3C0
330
32F
100
AcDbEntity
  8
0
  6
Continuous
 62
     7
370
    25
100
AcDbLine
 10
-200.0
 20
141.9
 30
0.0
 11
-200.0
 21
138.5
 31
0.0
  0
LINE
  5
3C1
330
32F
100
AcDbEntity
  8
0
  6
Continuous
 62
     7
370
    25
100
AcDbLine
 10
-209.0
 20
148.2
 30
0.0
 11
-195.0
 21
148.2
 31
0.0
  0
LINE
  5
3C2
330
32F
100
AcDbEntity
  8
0
  6
Continuous
 62
     7
370
    25
100
AcDbLine
 10
-195.0
 20
148.2
 30
0.0
 11
-195.0
 21
138.5
 31
0.0
  0
LINE
  5
3C3
330
32F
100
AcDbEntity
  8
0
  6
Continuous
 62
     7
370
    25
100
AcDbLine
 10
-209.0
 20
148.2
 30
0.0
 11
-209.0
 21
138.5
 31
0.0
  0
LINE
  5
3C4
330
32F
100
AcDbEntity
  8
0
  6
Continuous
 62
     7
370
    25
100
AcDbLine
 10
229.0
 20
57.5
 30
0.0
 11
210.0
 21
57.5
 31
0.0
  0
LINE
  5
3C5
330
32F
100
AcDbEntity
  8
0
  6
Continuous
 62
     7
370
    25
100
AcDbLine
 10
227.62
 20
-165.5
 30
0.0
 11
227.62
 21
57.5
 31
0.0
  0
LINE
  5
3C6
330
32F
100
AcDbEntity
  8
0
  6
Continuous
 62
     7
370
    25
100
AcDbLine
 10
-194.0
 20
138.5
 30
0.0
 11
-194.0
 21
-165.5
 31
0.0
  0
LINE
  5
3C7
330
32F
100
AcDbEntity
  8
0
  6
Continuous
 62
     7
370
    25
100
AcDbLine
 10
-210.0
 20
138.5
 30
0.0
 11
-210.0
 21
-165.5
 31
0.0
  0
LINE
  5
3C8
330
32F
100
AcDbEntity
  8
0
  6
Continuous
 62
     7
370
    25
100
AcDbLine
 10
-210.0
 20
138.5
 30
0.0
 11
210.0
 21
138.5
 31
0.0
  0
LINE
  5
3C9
330
32F
100
AcDbEntity
  8
0
  6
Continuous
 62
     7
370
    25
100
AcDbLine
 10
210.0
 20
138.5
 30
0.0
 11
210.0
 21
-165.5
 31
0.0
  0
LINE
  5
3CA
330
32F
100
AcDbEntity
  8
0
  6
Continuous
 62
     7
370
    25
100
AcDbLine
 10
194.0
 20
138.5
 30
0.0
 11
194.0
 21
-165.5
 31
0.0
  0
LINE
  5
3CB
330
32F
100
AcDbEntity
  8
0
  6
Continuous
 62
     7
370
    25
100
AcDbLine
 10
60.0
 20
138.5
 30
0.0
 11
60.0
 21
-61.5
 31
0.0
  0
LINE
  5
3CC
330
32F
100
AcDbEntity
  8
0
  6
Continuous
 62
     7
370
    25
100
AcDbLine
 10
-60.0
 20
138.5
 30
0.0
 11
-60.0
 21
-61.5
 31
0.0
  0
LINE
  5
3CD
330
32F
100
AcDbEntity
  8
0
  6
Continuous
 62
     7
370
    25
100
AcDbLine
 10
-227.62
 20
-165.5
 30
0.0
 11
-227.62
 21
57.5
 31
0.0
  0
LINE
  5
3CE
330
32F
100
AcDbEntity
  8
0
  6
Continuous
 62
     7
370
    25
100
AcDbLine
 10
-229.0
 20
57.5
 30
0.0
 11
-210.0
 21
57.5
 31
0.0
  0
LINE
  5
3CF
330
32F
100
AcDbEntity
  8
0
  6
Continuous
 62
     7
370
    25
100
AcDbLine
 10
-248.0
 20
-180.5
 30
0.0
 11
-229.0
 21
-180.5
 31
0.0
  0
LINE
  5
3D0
330
32F
100
AcDbEntity
  8
0
  6
Continuous
 62
     7
370
    25
100
AcDbLine
 10
-230.0
 20
-181.5
 30
0.0
 11
-230.0
 21
179.5
 31
0.0
  0
LINE
  5
3D1
330
32F
100
AcDbEntity
  8
0
  6
Continuous
 62
     7
370
    25
100
AcDbLine
 10
-229.0
 20
179.5
 30
0.0
 11
-229.0
 21
-181.5
 31
0.0
  0
LINE
  5
3D2
330
32F
100
AcDbEntity
  8
0
  6
Continuous
 62
     7
370
    25
100
AcDbLine
 10
-248.0
 20
-180.5
 30
0.0
 11
-248.0
 21
178.5
 31
0.0
  0
LINE
  5
3D3
330
32F
100
AcDbEntity
  8
0
  6
Continuous
 62
     7
370
    25
100
AcDbLine
 10
-229.0
 20
178.5
 30
0.0
 11
-248.0
 21
178.5
 31
0.0
  0
LINE
  5
3D4
330
32F
100
AcDbEntity
  8
0
  6
Continuous
 62
     7
370
    25
100
AcDbLine
 10
-247.0
 20
179.5
 30
0.0
 11
-230.0
 21
179.5
 31
0.0
  0
LINE
  5
3D5
330
32F
100
AcDbEntity
  8
0
  6
Continuous
 62
     7
370
    25
100
AcDbLine
 10
229.0
 20
-165.5
 30
0.0
 11
-229.0
 21
-165.5
 31
0.0
  0
LINE
  5
3D6
330
32F
100
AcDbEntity
  8
0
  6
Continuous
 62
     7
370
    25
100
AcDbLine
 10
247.0
 20
-181.5
 30
0.0
 11
-247.0
 21
-181.5
 31
0.0
  0
LINE
  5
3D7
330
32F
100
AcDbEntity
  8
0
  6
Continuous
 62
     7
370
    25
100
AcDbLine
 10
229.0
 20
163.5
 30
0.0
 11
-229.0
 21
163.5
 31
0.0
  0
LINE
  5
3D8
330
32F
100
AcDbEntity
  8
0
  6
Continuous
 62
     7
370
    25
100
AcDbLine
 10
229.0
 20
179.5
 30
0.0
 11
-229.0
 21
179.5
 31
0.0
  0
LINE
  5
3D9
330
32F
100
AcDbEntity
  8
0
  6
Continuous
 62
     7
370
    25
100
AcDbLine
 10
204.0
 20
141.9
 30
0.0
 11
200.0
 21
141.9
 31
0.0
  0
LINE
  5
3DA
330
32F
100
AcDbEntity
  8
0
  6
Continuous
 62
     7
370
    25
100
AcDbLine
 10
200.0
 20
141.9
 30
0.0
 11
200.0
 21
138.5
 31
0.0
  0
LINE
  5
3DB
330
32F
100
AcDbEntity
  8
0
  6
Continuous
 62
     7
370
    25
100
AcDbLine
 10
204.0
 20
141.9
 30
0.0
 11
204.0
 21
138.5
 31
0.0
  0
LINE
  5
3DC
330
32F
100
AcDbEntity
  8
0
  6
Continuous
 62
     7
370
    25
100
AcDbLine
 10
209.0
 20
148.2
 30
0.0
 11
195.0
 21
148.2
 31
0.0
  0
LINE
  5
3DD
330
32F
100
AcDbEntity
  8
0
  6
Continuous
 62
     7
370
    25
100
AcDbLine
 10
195.0
 20
148.2
 30
0.0
 11
195.0
 21
138.5
 31
0.0
  0
LINE
  5
3DE
330
32F
100
AcDbEntity
  8
0
  6
Continuous
 62
     7
370
    25
100
AcDbLine
 10
209.0
 20
148.2
 30
0.0
 11
209.0
 21
138.5
 31
0.0
  0
LINE
  5
3DF
330
32F
100
AcDbEntity
  8
0
  6
Continuous
 62
     7
370
    25
100
AcDbLine
 10
-76.0
 20
122.5
 30
0.0
 11
-76.0
 21
-77.5
 31
0.0
  0
LINE
  5
3E0
330
32F
100
AcDbEntity
  8
0
  6
Continuous
 62
     7
370
    25
100
AcDbLine
 10
76.0
 20
-61.5
 30
0.0
 11
-76.0
 21
-61.5
 31
0.0
  0
LINE
  5
3E1
330
32F
100
AcDbEntity
  8
0
  6
Continuous
 62
     7
370
    25
100
AcDbLine
 10
76.0
 20
-77.5
 30
0.0
 11
-76.0
 21
-77.5
 31
0.0
  0
LINE
  5
3E2
330
32F
100
AcDbEntity
  8
0
  6
Continuous
 62
     7
370
    25
100
AcDbLine
 10
76.0
 20
122.5
 30
0.0
 11
76.0
 21
-77.5
 31
0.0
  0
LINE
  5
3E3
330
32F
100
AcDbEntity
  8
0
  6
Continuous
 62
     7
370
    25
100
AcDbLine
 10
-247.0
 20
179.5
 30
0.0
 11
-247.0
 21
-200.5
 31
0.0
  0
LINE
  5
3E4
330
32F
100
AcDbEntity
  8
0
  6
Continuous
 62
     7
370
    25
100
AcDbLine
 10
-248.0
 20
-199.5
 30
0.0
 11
248.0
 21
-199.5
 31
0.0
  0
LINE
  5
3E5
330
32F
100
AcDbEntity
  8
0
  6
Continuous
 62
     7
370
    25
100
AcDbLine
 10
-248.0
 20
-199.5
 30
0.0
 11
-248.0
 21
-182.5
 31
0.0
  0
LINE
  5
3E6
330
32F
100
AcDbEntity
  8
0
  6
Continuous
 62
     7
370
    25
100
AcDbLine
 10
247.0
 20
-200.5
 30
0.0
 11
-247.0
 21
-200.5
 31
0.0
  0
LINE
  5
3E7
330
32F
100
AcDbEntity
  8
0
  6
Continuous
 62
     7
370
    25
100
AcDbLine
 10
247.0
 20
-200.5
 30
0.0
 11
247.0
 21
179.5
 31
0.0
  0
LINE
  5
3E8
330
32F
100
AcDbEntity
  8
0
  6
Continuous
 62
     7
370
    25
100
AcDbLine
 10
248.0
 20
-182.5
 30
0.0
 11
-248.0
 21
-182.5
 31
0.0
  0
LINE
  5
3E9
330
32F
100
AcDbEntity
  8
0
  6
Continuous
 62
     7
370
    25
100
AcDbLine
 10
248.0
 20
-182.5
 30
0.0
 11
248.0
 21
-199.5
 31
0.0
  0
LINE
  5
3EA
330
32F
100
AcDbEntity
  8
0
  6
Continuous
 62
     8
370
    25
100
AcDbLine
 10
-205.5
 20
138.5
 30
0.0
 11
-205.5
 21
148.2
 31
0.0
  0
LINE
  5
3EB
330
32F
100
AcDbEntity
  8
0
  6
Continuous
 62
     8
370
    25
100
AcDbLine
 10
-198.5
 20
148.2
 30
0.0
 11
-198.5
 21
138.5
 31
0.0
  0
LINE
  5
3EC
330
32F
100
AcDbEntity
  8
0
  6
Continuous
 62
     8
370
    25
100
AcDbLine
 10
227.2
 20
57.5
 30
0.0
 11
227.2
 21
-165.5
 31
0.0
  0
LINE
  5
3ED
330
32F
100
AcDbEntity
  8
0
  6
Continuous
 62
     8
370
    25
100
AcDbLine
 10
228.0
 20
57.5
 30
0.0
 11
228.0
 21
163.5
 31
0.0
  0
LINE
  5
3EE
330
32F
100
AcDbEntity
  8
0
  6
Continuous
 62
     8
370
    25
100
AcDbLine
 10
-228.0
 20
163.5
 30
0.0
 11
-228.0
 21
57.5
 31
0.0
  0
LINE
  5
3EF
330
32F
100
AcDbEntity
  8
0
  6
Continuous
 62
     8
370
    25
100
AcDbLine
 10
-227.2
 20
57.5
 30
0.0
 11
-227.2
 21
-165.5
 31
0.0
  0
LINE
  5
3F0
330
32F
100
AcDbEntity
  8
0
  6
Continuous
 62
     8
370
    25
100
AcDbLine
 10
198.5
 20
148.2
 30
0.0
 11
198.5
 21
138.5
 31
0.0
  0
LINE
  5
3F1
330
32F
100
AcDbEntity
  8
0
  6
Continuous
 62
     8
370
    25
100
AcDbLine
 10
205.5
 20
138.5
 30
0.0
 11
205.5
 21
148.2
 31
0.0
  0
ARC
  5
3F2
330
32F
100
AcDbEntity
  8
0
  6
Continuous
 62
     7
370
    25
100
AcDbCircle
 10
230.0
 20
178.5
 30
0.0
 40
1.000000000000085
100
AcDbArc
 50
90.0
 51
180.0
  0
ARC
  5
3F3
330
32F
100
AcDbEntity
  8
0
  6
Continuous
 62
     7
370
    25
100
AcDbCircle
 10
247.0
 20
-180.5
 30
0.0
 40
1.000000000000028
100
AcDbArc
 50
270.0
 51
360.0
  0
ARC
  5
3F4
330
32F
100
AcDbEntity
  8
0
  6
Continuous
 62
     7
370
    25
100
AcDbCircle
 10
230.0
 20
-180.5
 30
0.0
 40
1.000000000000114
100
AcDbArc
 50
180.0
 51
270.0
  0
ARC
  5
3F5
330
32F
100
AcDbEntity
  8
0
  6
Continuous
 62
     7
370
    25
100
AcDbCircle
 10
247.0
 20
178.5
 30
0.0
 40
1.000000000000057
100
AcDbArc
 50
0.0
 51
90.0
  0
ARC
  5
3F6
330
32F
100
AcDbEntity
  8
0
  6
Continuous
 62
     7
370
    25
100
AcDbCircle
 10
194.0
 20
144.5
 30
0.0
 40
7.000000000000028
100
AcDbArc
 50
31.9089827353
 51
238.9972808661
  0
ARC
  5
3F7
330
32F
100
AcDbEntity
  8
0
  6
Continuous
 62
     7
370
    25
100
AcDbCircle
 10
-194.0
 20
144.5
 30
0.0
 40
7.000000000000024
100
AcDbArc
 50
301.0027191339
 51
148.0910172647
  0
ARC
  5
3F8
330
32F
100
AcDbEntity
  8
0
  6
Continuous
 62
     7
370
    25
100
AcDbCircle
 10
-247.0
 20
-180.5
 30
0.0
 40
1.000000000000057
100
AcDbArc
 50
180.0
 51
270.0
  0
ARC
  5
3F9
330
32F
100
AcDbEntity
  8
0
  6
Continuous
 62
     7
370
    25
100
AcDbCircle
 10
-230.0
 20
-180.5
 30
0.0
 40
1.000000000000085
100
AcDbArc
 50
270.0
 51
360.0
  0
ARC
  5
3FA
330
32F
100
AcDbEntity
  8
0
  6
Continuous
 62
     7
370
    25
100
AcDbCircle
 10
-230.0
 20
178.5
 30
0.0
 40
1.000000000000114
100
AcDbArc
 50
0.0
 51
90.0
  0
ARC
  5
3FB
330
32F
100
AcDbEntity
  8
0
  6
Continuous
 62
     7
370
    25
100
AcDbCircle
 10
-247.0
 20
178.5
 30
0.0
 40
1.000000000000028
100
AcDbArc
 50
90.0
 51
180.0
  0
ARC
  5
3FC
330
32F
100
AcDbEntity
  8
0
  6
Continuous
 62
     7
370
    25
100
AcDbCircle
 10
247.0
 20
-199.5
 30
0.0
 40
1.0
100
AcDbArc
 50
270.0
 51
0.0
  0
ARC
  5
3FD
330
32F
100
AcDbEntity
  8
0
  6
Continuous
 62
     7
370
    25
100
AcDbCircle
 10
247.0
 20
-182.5
 30
0.0
 40
1.000000000000028
100
AcDbArc
 50
0.0
 51
90.0
  0
ARC
  5
3FE
330
32F
100
AcDbEntity
  8
0
  6
Continuous
 62
     7
370
    25
100
AcDbCircle
 10
-247.0
 20
-199.5
 30
0.0
 40
1.0
100
AcDbArc
 50
180.0
 51
270.0
  0
ARC
  5
3FF
330
32F
100
AcDbEntity
  8
0
  6
Continuous
 62
     7
370
    25
100
AcDbCircle
 10
-247.0
 20
-182.5
 30
0.0
 40
0.9999999999999716
100
AcDbArc
 50
90.0
 51
180.0
  0
VIEWPORT
  5
56A
330
32F
100
AcDbEntity
  8
0
100
AcDbViewport
 10
0.0
 20
0.0
 30
0.0
 40
205.6
 41
156.0
 68
     1
 69
     1
 12
0.0
 22
240.0
 13
0.0
 23
0.0
 14
10.0
 24
10.0
 15
10.0
 25
10.0
 16
0.0
 26
0.0
 36
1.0
 17
0.0
 27
0.0
 37
0.0
 42
50.0
 43
0.0
 44
0.0
 45
489.6
 50
0.0
 51
0.0
 72
   100
 90
   557152
  1

281
     0
 71
     1
 74
     0
110
0.0
120
0.0
130
0.0
111
1.0
121
0.0
131
0.0
112
0.0
122
1.0
132
0.0
 79
     0
146
0.0
  0
ENDBLK
  5
332
330
32F
100
AcDbEntity
  8
0
100
AcDbBlockEnd
  0
BLOCK
  5
402
330
400
100
AcDbEntity
  8
0
100
AcDbBlockBegin
  2
*Paper_Space2
 70
     0
 10
0.0
 20
0.0
 30
0.0
  3
*Paper_Space2
  1

  0
LINE
  5
4B9
330
400
100
AcDbEntity
  8
0
  6
Continuous
 62
     7
370
    25
100
AcDbLine
 10
46.6083873865
 20
-172.8740195783
 30
0.0
 11
46.6083873865
 21
37.7935098883
 31
0.0
  0
LINE
  5
4BA
330
400
100
AcDbEntity
  8
0
  6
Continuous
 62
     7
370
    25
100
AcDbLine
 10
46.1083467528
 20
38.6595587506
 30
0.0
 11
44.7796630734
 21
39.426591512
 31
0.0
  0
LINE
  5
4BB
330
400
100
AcDbEntity
  8
0
  6
Continuous
 62
     7
370
    25
100
AcDbLine
 10
34.0875314727
 20
-180.6795373911
 30
0.0
 11
46.1083467528
 21
-173.7400684407
 31
0.0
  0
LINE
  5
4BC
330
400
100
AcDbEntity
  8
0
  6
Continuous
 62
     7
370
    25
100
AcDbLine
 10
-316.2231371661
 20
20.9732662291
 30
0.0
 11
33.08761274
 21
-180.6795373911
 31
0.0
  0
LINE
  5
4BD
330
400
100
AcDbEntity
  8
0
  6
Continuous
 62
     7
370
    25
100
AcDbLine
 10
-316.7231777998
 20
232.506844558
 30
0.0
 11
-316.7231777998
 21
21.8393150914
 31
0.0
  0
LINE
  5
4BE
330
400
100
AcDbEntity
  8
0
  6
Continuous
 62
     7
370
    25
100
AcDbLine
 10
-314.8944534867
 20
234.1399261817
 30
0.0
 11
-316.2231371661
 21
233.3728934204
 31
0.0
  0
LINE
  5
4BF
330
400
100
AcDbEntity
  8
0
  6
Continuous
 62
     7
370
    25
100
AcDbLine
 10
34.0017856687
 20
223.5552839417
 30
0.0
 11
34.0017856687
 21
222.0213430674
 31
0.0
  0
LINE
  5
4C0
330
400
100
AcDbEntity
  8
0
  6
Continuous
 62
     7
370
    25
100
AcDbLine
 10
288.3531607484
 20
370.9665888762
 30
0.0
 11
34.5018263024
 21
224.421332804
 31
0.0
  0
LINE
  5
4C1
330
400
100
AcDbEntity
  8
0
  6
Continuous
 62
     7
370
    25
100
AcDbLine
 10
301.8739353949
 20
-27.145437018
 30
0.0
 11
301.8739353949
 21
363.1610710633
 31
0.0
  0
LINE
  5
4C2
330
400
100
AcDbEntity
  8
0
  6
Continuous
 62
     7
370
    25
100
AcDbLine
 10
301.3738947612
 20
364.0271199257
 30
0.0
 11
289.353079481
 21
370.9665888762
 31
0.0
  0
LINE
  5
4C3
330
400
100
AcDbEntity
  8
0
  6
Continuous
 62
     7
370
    25
100
AcDbLine
 10
45.6081575184
 20
-174.0288215394
 30
0.0
 11
46.5226415826
 21
-174.5567419526
 31
0.0
  0
LINE
  5
4C4
330
400
100
AcDbEntity
  8
0
  6
Continuous
 62
     7
370
    25
100
AcDbLine
 10
47.5225603152
 20
-174.5567419526
 30
0.0
 11
301.3738947612
 21
-28.0114858804
 31
0.0
  0
LINE
  5
4C5
330
400
100
AcDbEntity
  8
0
  6
Continuous
 62
     7
370
    25
100
AcDbLine
 10
-303.2881489572
 20
418.2686186114
 30
0.0
 11
-303.2881489572
 21
416.7293085969
 31
0.0
  0
LINE
  5
4C6
330
400
100
AcDbEntity
  8
0
  6
Continuous
 62
     7
370
    25
100
AcDbLine
 10
-48.9367738776
 20
565.6799235459
 30
0.0
 11
-302.7881083236
 21
419.1346674738
 31
0.0
  0
LINE
  5
4C7
330
400
100
AcDbEntity
  8
0
  6
Continuous
 62
     7
370
    25
100
AcDbLine
 10
-35.4159992311
 20
436.0461154585
 30
0.0
 11
-35.4159992311
 21
557.8744057331
 31
0.0
  0
LINE
  5
4C8
330
400
100
AcDbEntity
  8
0
  6
Continuous
 62
     7
370
    25
100
AcDbLine
 10
-35.9160398648
 20
558.7404545954
 30
0.0
 11
-47.936855145
 21
565.6799235459
 31
0.0
  0
LINE
  5
4C9
330
400
100
AcDbEntity
  8
0
  6
Continuous
 62
     7
370
    25
100
AcDbLine
 10
46.6083873865
 20
41.0596731358
 30
0.0
 11
46.6083873865
 21
214.1663252556
 31
0.0
  0
LINE
  5
4CA
330
400
100
AcDbEntity
  8
0
  6
Continuous
 62
     7
370
    25
100
AcDbLine
 10
46.1083467528
 20
215.032374118
 30
0.0
 11
-303.2024031533
 21
416.6851777382
 31
0.0
  0
LINE
  5
4CB
330
400
100
AcDbEntity
  8
0
  6
Continuous
 62
     7
370
    25
100
AcDbLine
 10
34.0875314727
 20
33.2541553229
 30
0.0
 11
46.1083467528
 21
40.1936242734
 31
0.0
  0
LINE
  5
4CC
330
400
100
AcDbEntity
  8
0
  6
Continuous
 62
     7
370
    25
100
AcDbLine
 10
-316.2231371661
 20
234.9069589431
 30
0.0
 11
33.08761274
 21
33.2541553229
 31
0.0
  0
LINE
  5
4CD
330
400
100
AcDbEntity
  8
0
  6
Continuous
 62
     7
370
    25
100
AcDbLine
 10
-316.7231777998
 20
408.8796599253
 30
0.0
 11
-316.7231777998
 21
235.7730078055
 31
0.0
  0
LINE
  5
4CE
330
400
100
AcDbEntity
  8
0
  6
Continuous
 62
     7
370
    25
100
AcDbLine
 10
-304.2023218859
 20
416.6851777382
 30
0.0
 11
-316.2231371661
 21
409.7457087877
 31
0.0
  0
LINE
  5
4CF
330
400
100
AcDbEntity
  8
0
  6
Continuous
 62
     7
370
    25
100
AcDbLine
 10
32.8804653252
 20
-180.2216925847
 30
0.0
 11
32.8804653252
 21
30.4458368818
 31
0.0
  0
LINE
  5
4D0
330
400
100
AcDbEntity
  8
0
  6
Continuous
 62
     7
370
    25
100
AcDbLine
 10
34.2946788875
 20
30.4458368818
 30
0.0
 11
34.2946788875
 21
-180.2216925847
 31
0.0
  0
LINE
  5
4D1
330
400
100
AcDbEntity
  8
0
  6
Continuous
 62
     7
370
    25
100
AcDbLine
 10
33.5875721064
 20
31.6705817496
 30
0.0
 11
45.6083873865
 21
38.6100507001
 31
0.0
  0
LINE
  5
4D2
330
400
100
AcDbEntity
  8
0
  6
Continuous
 62
     7
370
    25
100
AcDbLine
 10
46.3154941677
 20
37.3853058323
 30
0.0
 11
34.2946788875
 21
30.4458368818
 31
0.0
  0
LINE
  5
4D3
330
400
100
AcDbEntity
  8
0
  6
Continuous
 62
     7
370
    25
100
AcDbLine
 10
32.8804653252
 20
30.4458368818
 30
0.0
 11
-316.430284581
 21
232.0986405021
 31
0.0
  0
LINE
  5
4D4
330
400
100
AcDbEntity
  8
0
  6
Continuous
 62
     7
370
    25
100
AcDbLine
 10
-315.7231777998
 20
233.3233853699
 30
0.0
 11
33.5875721064
 21
31.6705817496
 31
0.0
  0
LINE
  5
4D5
330
400
100
AcDbEntity
  8
0
  6
Continuous
 62
     7
370
    25
100
AcDbLine
 10
-316.430284581
 20
21.4311110355
 30
0.0
 11
32.8804653252
 21
-180.2216925847
 31
0.0
  0
LINE
  5
4D6
330
400
100
AcDbEntity
  8
0
  6
Continuous
 62
     7
370
    25
100
AcDbLine
 10
-316.430284581
 20
232.0986405021
 30
0.0
 11
-316.430284581
 21
21.4311110355
 31
0.0
  0
LINE
  5
4D7
330
400
100
AcDbEntity
  8
0
  6
Continuous
 62
     7
370
    25
100
AcDbLine
 10
46.3154941677
 20
-173.2822236342
 30
0.0
 11
46.3154941677
 21
37.3853058323
 31
0.0
  0
LINE
  5
4D8
330
400
100
AcDbEntity
  8
0
  6
Continuous
 62
     7
370
    25
100
AcDbLine
 10
34.2946788875
 20
-180.2216925847
 30
0.0
 11
46.3154941677
 21
-173.2822236342
 31
0.0
  0
LINE
  5
4D9
330
400
100
AcDbEntity
  8
0
  6
Continuous
 62
     7
370
    25
100
AcDbLine
 10
47.7297077301
 20
216.2076109353
 30
0.0
 11
47.7297077301
 21
-174.0988971461
 31
0.0
  0
LINE
  5
4DA
330
400
100
AcDbEntity
  8
0
  6
Continuous
 62
     7
370
    25
100
AcDbLine
 10
46.3154941677
 20
216.2076109353
 30
0.0
 11
34.2946788875
 21
223.1470798858
 31
0.0
  0
LINE
  5
4DB
330
400
100
AcDbEntity
  8
0
  6
Continuous
 62
     7
370
    25
100
AcDbLine
 10
35.0017856687
 20
224.3718247535
 30
0.0
 11
47.0226009489
 21
217.4323558031
 31
0.0
  0
LINE
  5
4DC
330
400
100
AcDbEntity
  8
0
  6
Continuous
 62
     7
370
    25
100
AcDbLine
 10
47.0226009489
 20
217.4323558031
 30
0.0
 11
300.8739353949
 21
363.9776118752
 31
0.0
  0
LINE
  5
4DD
330
400
100
AcDbEntity
  8
0
  6
Continuous
 62
     7
370
    25
100
AcDbLine
 10
301.5810421761
 20
362.7528670074
 30
0.0
 11
47.7297077301
 21
216.2076109353
 31
0.0
  0
LINE
  5
4DE
330
400
100
AcDbEntity
  8
0
  6
Continuous
 62
     7
370
    25
100
AcDbLine
 10
301.5810421761
 20
-27.553641074
 30
0.0
 11
301.5810421761
 21
362.7528670074
 31
0.0
  0
LINE
  5
4DF
330
400
100
AcDbEntity
  8
0
  6
Continuous
 62
     7
370
    25
100
AcDbLine
 10
47.7297077301
 20
-174.0988971461
 30
0.0
 11
301.5810421761
 21
-27.553641074
 31
0.0
  0
LINE
  5
4E0
330
400
100
AcDbEntity
  8
0
  6
Continuous
 62
     7
370
    25
100
AcDbLine
 10
288.8531201147
 20
370.9170808257
 30
0.0
 11
35.0017856687
 21
224.3718247535
 31
0.0
  0
LINE
  5
4E1
330
400
100
AcDbEntity
  8
0
  6
Continuous
 62
     7
370
    25
100
AcDbLine
 10
300.8739353949
 20
363.9776118752
 30
0.0
 11
288.8531201147
 21
370.9170808257
 31
0.0
  0
LINE
  5
4E2
330
400
100
AcDbEntity
  8
0
  6
Continuous
 62
     7
370
    25
100
AcDbLine
 10
-50.5581348548
 20
380.6911537568
 30
0.0
 11
-11.3208918789
 21
358.0399755306
 31
0.0
  0
LINE
  5
4E3
330
400
100
AcDbEntity
  8
0
  6
Continuous
 62
     7
370
    25
100
AcDbLine
 10
-132.5627528109
 20
333.3508954765
 30
0.0
 11
-50.5581348548
 21
380.6911537568
 31
0.0
  0
LINE
  5
4E4
330
400
100
AcDbEntity
  8
0
  6
Continuous
 62
     7
370
    25
100
AcDbLine
 10
-50.5581348548
 20
444.7874842888
 30
0.0
 11
55.5078823231
 21
383.5568759021
 31
0.0
  0
LINE
  5
4E5
330
400
100
AcDbEntity
  8
0
  6
Continuous
 62
     7
370
    25
100
AcDbLine
 10
-39.2444263559
 20
438.2562193942
 30
0.0
 11
-176.764110015
 21
358.8677958479
 31
0.0
  0
LINE
  5
4E6
330
400
100
AcDbEntity
  8
0
  6
Continuous
 62
     7
370
    25
100
AcDbLine
 10
-50.5581348548
 20
444.7874842888
 30
0.0
 11
-188.077818514
 21
365.3990607425
 31
0.0
  0
LINE
  5
4E7
330
400
100
AcDbEntity
  8
0
  6
Continuous
 62
     7
370
    25
100
AcDbLine
 10
129.0469875665
 20
328.0411242981
 30
0.0
 11
171.521502988
 21
303.5211084686
 31
0.0
  0
LINE
  5
4E8
330
400
100
AcDbEntity
  8
0
  6
Continuous
 62
     7
370
    25
100
AcDbLine
 10
140.3606960655
 20
334.5723891927
 30
0.0
 11
2.8410124064
 21
255.1839656464
 31
0.0
  0
LINE
  5
4E9
330
400
100
AcDbEntity
  8
0
  6
Continuous
 62
     7
370
    25
100
AcDbLine
 10
140.3606960655
 20
334.5723891927
 30
0.0
 11
182.835211487
 21
310.0523733631
 31
0.0
  0
LINE
  5
4EA
330
400
100
AcDbEntity
  8
0
  6
Continuous
 62
     7
370
    25
100
AcDbLine
 10
55.5078823231
 20
383.5568759021
 30
0.0
 11
-82.011801336
 21
304.1684523558
 31
0.0
  0
LINE
  5
4EB
330
400
100
AcDbEntity
  8
0
  6
Continuous
 62
     7
370
    25
100
AcDbLine
 10
-50.5581348548
 20
431.7249544996
 30
0.0
 11
44.1941738242
 21
377.0256110075
 31
0.0
  0
LINE
  5
4EC
330
400
100
AcDbEntity
  8
0
  6
Continuous
 62
     7
370
    25
100
AcDbLine
 10
-26.4948966876
 20
272.1192254893
 30
0.0
 11
55.5078823231
 21
319.458422169
 31
0.0
  0
LINE
  5
4ED
330
400
100
AcDbEntity
  8
0
  6
Continuous
 62
     7
370
    25
100
AcDbLine
 10
44.1941738242
 20
312.9271572745
 30
0.0
 11
44.1941738242
 21
377.0256110075
 31
0.0
  0
LINE
  5
4EE
330
400
100
AcDbEntity
  8
0
  6
Continuous
 62
     7
370
    25
100
AcDbLine
 10
55.5078823231
 20
319.458422169
 30
0.0
 11
55.5078823231
 21
383.5568759021
 31
0.0
  0
LINE
  5
4EF
330
400
100
AcDbEntity
  8
0
  6
Continuous
 62
     7
370
    25
100
AcDbLine
 10
-50.5581348548
 20
380.6911537568
 30
0.0
 11
-50.5581348548
 21
431.7249544996
 31
0.0
  0
LINE
  5
4F0
330
400
100
AcDbEntity
  8
0
  6
Continuous
 62
     7
370
    25
100
AcDbLine
 10
-302.2881489572
 20
419.0851594233
 30
0.0
 11
-290.2673336771
 21
412.1456904728
 31
0.0
  0
LINE
  5
4F1
330
400
100
AcDbEntity
  8
0
  6
Continuous
 62
     7
370
    25
100
AcDbLine
 10
-290.9744404583
 20
410.920945605
 30
0.0
 11
-302.9952557384
 21
417.8604145555
 31
0.0
  0
LINE
  5
4F2
330
400
100
AcDbEntity
  8
0
  6
Continuous
 62
     7
370
    25
100
AcDbLine
 10
-290.2673336771
 20
412.1456904728
 30
0.0
 11
-36.4159992311
 21
558.6909465449
 31
0.0
  0
LINE
  5
4F3
330
400
100
AcDbEntity
  8
0
  6
Continuous
 62
     7
370
    25
100
AcDbLine
 10
-48.4368145113
 20
565.6304154954
 30
0.0
 11
-302.2881489572
 21
419.0851594233
 31
0.0
  0
LINE
  5
4F4
330
400
100
AcDbEntity
  8
0
  6
Continuous
 62
     7
370
    25
100
AcDbLine
 10
-36.4159992311
 20
558.6909465449
 30
0.0
 11
-48.4368145113
 21
565.6304154954
 31
0.0
  0
LINE
  5
4F5
330
400
100
AcDbEntity
  8
0
  6
Continuous
 62
     7
370
    25
100
AcDbLine
 10
33.5875721064
 20
224.3718247535
 30
0.0
 11
44.9012806053
 21
230.9030896481
 31
0.0
  0
LINE
  5
4F6
330
400
100
AcDbEntity
  8
0
  6
Continuous
 62
     7
370
    25
100
AcDbLine
 10
33.5875721064
 20
224.3718247535
 30
0.0
 11
-290.2673336771
 21
411.3292823609
 31
0.0
  0
LINE
  5
4F7
330
400
100
AcDbEntity
  8
0
  6
Continuous
 62
     7
370
    25
100
AcDbLine
 10
-290.2673336771
 20
411.3292823609
 30
0.0
 11
-278.9536251781
 21
417.8605472555
 31
0.0
  0
LINE
  5
4F8
330
400
100
AcDbEntity
  8
0
  6
Continuous
 62
     7
370
    25
100
AcDbLine
 10
44.9012806053
 20
230.9030896481
 30
0.0
 11
-278.9536251781
 21
417.8605472555
 31
0.0
  0
LINE
  5
4F9
330
400
100
AcDbEntity
  8
0
  6
Continuous
 62
     7
370
    25
100
AcDbLine
 10
-290.2673336771
 20
411.3292823609
 30
0.0
 11
-290.2673336771
 21
409.2179210746
 31
0.0
  0
LINE
  5
4FA
330
400
100
AcDbEntity
  8
0
  6
Continuous
 62
     7
370
    25
100
AcDbLine
 10
33.5875721064
 20
222.2604634672
 30
0.0
 11
33.5875721064
 21
224.3718247535
 31
0.0
  0
LINE
  5
4FB
330
400
100
AcDbEntity
  8
0
  6
Continuous
 62
     7
370
    25
100
AcDbLine
 10
44.9012806053
 20
230.4248099855
 30
0.0
 11
44.9012806053
 21
230.9030896481
 31
0.0
  0
LINE
  5
4FC
330
400
100
AcDbEntity
  8
0
  6
Continuous
 62
     7
370
    25
100
AcDbLine
 10
34.2946788875
 20
206.8186522492
 30
0.0
 11
34.2946788875
 21
33.7120001294
 31
0.0
  0
LINE
  5
4FD
330
400
100
AcDbEntity
  8
0
  6
Continuous
 62
     7
370
    25
100
AcDbLine
 10
32.8804653252
 20
33.7120001294
 30
0.0
 11
32.8804653252
 21
206.8186522492
 31
0.0
  0
LINE
  5
4FE
330
400
100
AcDbEntity
  8
0
  6
Continuous
 62
     7
370
    25
100
AcDbLine
 10
46.3154941677
 20
213.7581211997
 30
0.0
 11
34.2946788875
 21
206.8186522492
 31
0.0
  0
LINE
  5
4FF
330
400
100
AcDbEntity
  8
0
  6
Continuous
 62
     7
370
    25
100
AcDbLine
 10
33.5875721064
 20
208.043397117
 30
0.0
 11
45.6083873865
 21
214.9828660675
 31
0.0
  0
LINE
  5
500
330
400
100
AcDbEntity
  8
0
  6
Continuous
 62
     7
370
    25
100
AcDbLine
 10
32.8804653252
 20
206.8186522492
 30
0.0
 11
-316.430284581
 21
408.4714558694
 31
0.0
  0
LINE
  5
501
330
400
100
AcDbEntity
  8
0
  6
Continuous
 62
     7
370
    25
100
AcDbLine
 10
-315.7231777998
 20
409.6962007372
 30
0.0
 11
33.5875721064
 21
208.043397117
 31
0.0
  0
LINE
  5
502
330
400
100
AcDbEntity
  8
0
  6
Continuous
 62
     7
370
    25
100
AcDbLine
 10
-316.430284581
 20
235.3648037496
 30
0.0
 11
32.8804653252
 21
33.7120001294
 31
0.0
  0
LINE
  5
503
330
400
100
AcDbEntity
  8
0
  6
Continuous
 62
     7
370
    25
100
AcDbLine
 10
-316.430284581
 20
408.4714558694
 30
0.0
 11
-316.430284581
 21
235.3648037496
 31
0.0
  0
LINE
  5
504
330
400
100
AcDbEntity
  8
0
  6
Continuous
 62
     7
370
    25
100
AcDbLine
 10
46.3154941677
 20
40.6514690799
 30
0.0
 11
46.3154941677
 21
213.7581211997
 31
0.0
  0
LINE
  5
505
330
400
100
AcDbEntity
  8
0
  6
Continuous
 62
     7
370
    25
100
AcDbLine
 10
34.2946788875
 20
33.7120001294
 30
0.0
 11
46.3154941677
 21
40.6514690799
 31
0.0
  0
LINE
  5
506
330
400
100
AcDbEntity
  8
0
  6
Continuous
 62
     7
370
    25
100
AcDbLine
 10
45.6083873865
 20
214.9828660675
 30
0.0
 11
-303.7023625196
 21
416.6356696877
 31
0.0
  0
LINE
  5
507
330
400
100
AcDbEntity
  8
0
  6
Continuous
 62
     7
370
    25
100
AcDbLine
 10
-303.7023625196
 20
416.6356696877
 30
0.0
 11
-315.7231777998
 21
409.6962007372
 31
0.0
  0
LINE
  5
508
330
400
100
AcDbEntity
  8
0
  6
Continuous
 62
     7
370
    25
100
AcDbLine
 10
140.3606960655
 20
321.5098594035
 30
0.0
 11
14.1547209054
 21
248.6527007518
 31
0.0
  0
LINE
  5
509
330
400
100
AcDbEntity
  8
0
  6
Continuous
 62
     7
370
    25
100
AcDbLine
 10
140.3606960655
 20
285.5323575336
 30
0.0
 11
140.3606960655
 21
321.5098594035
 31
0.0
  0
LINE
  5
50A
330
400
100
AcDbEntity
  8
0
  6
Continuous
 62
     7
370
    25
100
AcDbLine
 10
32.8804653252
 20
383.5568759021
 30
0.0
 11
-93.325509835
 21
310.6997172503
 31
0.0
  0
LINE
  5
50B
330
400
100
AcDbEntity
  8
0
  6
Continuous
 62
     8
370
    25
100
AcDbLine
 10
-314.601593928
 20
233.9708619571
 30
0.0
 11
-315.7231777998
 21
233.3233853699
 31
0.0
  0
LINE
  5
50C
330
400
100
AcDbEntity
  8
0
  6
Continuous
 62
     8
370
    25
100
AcDbLine
 10
45.6083873865
 20
38.6100507001
 30
0.0
 11
44.4868035147
 21
39.2575272874
 31
0.0
  0
LINE
  5
50D
330
400
100
AcDbEntity
  8
0
  6
Continuous
 62
     8
370
    25
100
AcDbLine
 10
46.3154941677
 20
-174.0988971461
 30
0.0
 11
46.3154941677
 21
-173.5811263595
 31
0.0
  0
LINE
  5
50E
330
400
100
AcDbEntity
  8
0
  6
Continuous
 62
     8
370
    25
100
AcDbLine
 10
46.3154941677
 20
38.5006166694
 30
0.0
 11
46.3154941677
 21
40.3525663546
 31
0.0
  0
LINE
  5
50F
330
400
100
AcDbEntity
  8
0
  6
Continuous
 62
     8
370
    25
100
AcDbLine
 10
46.3154941677
 20
214.8734320368
 30
0.0
 11
46.3154941677
 21
216.2076109353
 31
0.0
  0
LINE
  5
510
330
400
100
AcDbEntity
  8
0
  6
Continuous
 62
     8
370
    25
100
AcDbLine
 10
45.9011320112
 20
-173.8596909648
 30
0.0
 11
46.3154941677
 21
-174.0988971461
 31
0.0
  0
LINE
  5
511
330
400
100
AcDbEntity
  8
0
  6
Continuous
 62
     8
370
    25
100
AcDbLine
 10
34.2946788875
 20
223.1470798858
 30
0.0
 11
34.2946788875
 21
221.8522594113
 31
0.0
  0
LINE
  5
512
330
400
100
AcDbEntity
  8
0
  6
Continuous
 62
     8
370
    25
100
AcDbLine
 10
-290.9744404583
 20
409.6261251305
 30
0.0
 11
-290.9744404583
 21
410.920945605
 31
0.0
  0
LINE
  5
513
330
400
100
AcDbEntity
  8
0
  6
Continuous
 62
     8
370
    25
100
AcDbLine
 10
-35.7088924499
 20
557.4662016772
 30
0.0
 11
-278.2464034628
 21
417.4522768496
 31
0.0
  0
LINE
  5
514
330
400
100
AcDbEntity
  8
0
  6
Continuous
 62
     8
370
    25
100
AcDbLine
 10
-35.7088924499
 20
436.2151991146
 30
0.0
 11
-35.7088924499
 21
557.4662016772
 31
0.0
  0
LINE
  5
515
330
400
100
AcDbEntity
  8
0
  6
Continuous
 62
     8
370
    25
100
AcDbLine
 10
-302.9952557384
 20
417.8604145555
 30
0.0
 11
-302.9952557384
 21
416.565594081
 31
0.0
  0
ARC
  5
516
330
400
100
AcDbEntity
  8
0
  6
Continuous
 62
     7
370
    25
100
AcDbCircle
 10
45.6083873865
 20
37.7935098883
 30
0.0
 40
0.9999999999999716
100
AcDbArc
 50
0.0
 51
60.0026882664
  0
ARC
  5
517
330
400
100
AcDbEntity
  8
0
  6
Continuous
 62
     7
370
    25
100
AcDbCircle
 10
33.5875721064
 20
-179.8134885288
 30
0.0
 40
1.000000000000225
100
AcDbArc
 50
240.0026882664
 51
299.9973117336
  0
ARC
  5
518
330
400
100
AcDbEntity
  8
0
  6
Continuous
 62
     7
370
    25
100
AcDbCircle
 10
45.6083873865
 20
-172.8740195783
 30
0.0
 40
0.9999999999998269
100
AcDbArc
 50
299.9973117336
 51
0.0
  0
ARC
  5
519
330
400
100
AcDbEntity
  8
0
  6
Continuous
 62
     7
370
    25
100
AcDbCircle
 10
-315.7231777998
 20
232.506844558
 30
0.0
 40
0.9999999999998295
100
AcDbArc
 50
119.9973117336
 51
180.0
  0
ARC
  5
51A
330
400
100
AcDbEntity
  8
0
  6
Continuous
 62
     7
370
    25
100
AcDbCircle
 10
-315.7231777998
 20
21.8393150914
 30
0.0
 40
1.000000000000063
100
AcDbArc
 50
180.0
 51
240.0026882663
  0
ARC
  5
51B
330
400
100
AcDbEntity
  8
0
  6
Continuous
 62
     7
370
    25
100
AcDbCircle
 10
35.0017856687
 20
223.5552839417
 30
0.0
 40
1.000000000000107
100
AcDbArc
 50
119.9973117337
 51
180.0
  0
ARC
  5
51C
330
400
100
AcDbEntity
  8
0
  6
Continuous
 62
     7
370
    25
100
AcDbCircle
 10
300.8739353949
 20
363.1610710633
 30
0.0
 40
0.9999999999996021
100
AcDbArc
 50
360.0
 51
60.0026882664
  0
ARC
  5
51D
330
400
100
AcDbEntity
  8
0
  6
Continuous
 62
     7
370
    25
100
AcDbCircle
 10
288.8531201147
 20
370.1005400138
 30
0.0
 40
0.9999999999998102
100
AcDbArc
 50
60.0026882663
 51
119.9973117337
  0
ARC
  5
51E
330
400
100
AcDbEntity
  8
0
  6
Continuous
 62
     7
370
    25
100
AcDbCircle
 10
47.0226009489
 20
-173.6906930902
 30
0.0
 40
1.000000000000018
100
AcDbArc
 50
240.0026882664
 51
299.9973117337
  0
ARC
  5
51F
330
400
100
AcDbEntity
  8
0
  6
Continuous
 62
     7
370
    25
100
AcDbCircle
 10
300.8739353949
 20
-27.145437018
 30
0.0
 40
1.000000000000114
100
AcDbArc
 50
299.9973117337
 51
360.0
  0
ARC
  5
520
330
400
100
AcDbEntity
  8
0
  6
Continuous
 62
     7
370
    25
100
AcDbCircle
 10
-302.2881489572
 20
418.2686186114
 30
0.0
 40
0.9999999999998295
100
AcDbArc
 50
119.9973117336
 51
180.0
  0
ARC
  5
521
330
400
100
AcDbEntity
  8
0
  6
Continuous
 62
     7
370
    25
100
AcDbCircle
 10
-36.4159992311
 20
557.8744057331
 30
0.0
 40
0.9999999999996163
100
AcDbArc
 50
360.0
 51
60.0026882664
  0
ARC
  5
522
330
400
100
AcDbEntity
  8
0
  6
Continuous
 62
     7
370
    25
100
AcDbCircle
 10
-48.4368145113
 20
564.8138746836
 30
0.0
 40
1.000000000000503
100
AcDbArc
 50
60.0026882664
 51
119.9973117336
  0
ARC
  5
523
330
400
100
AcDbEntity
  8
0
  6
Continuous
 62
     7
370
    25
100
AcDbCircle
 10
45.6083873865
 20
214.1663252556
 30
0.0
 40
0.9999999999996945
100
AcDbArc
 50
360.0
 51
60.0026882664
  0
ARC
  5
524
330
400
100
AcDbEntity
  8
0
  6
Continuous
 62
     7
370
    25
100
AcDbCircle
 10
33.5875721064
 20
34.1202041853
 30
0.0
 40
1.000000000000301
100
AcDbArc
 50
240.0026882664
 51
299.9973117336
  0
ARC
  5
525
330
400
100
AcDbEntity
  8
0
  6
Continuous
 62
     7
370
    25
100
AcDbCircle
 10
45.6083873865
 20
41.0596731358
 30
0.0
 40
1.000000000000002
100
AcDbArc
 50
299.9973117337
 51
0.0
  0
ARC
  5
526
330
400
100
AcDbEntity
  8
0
  6
Continuous
 62
     7
370
    25
100
AcDbCircle
 10
-315.7231777998
 20
408.8796599253
 30
0.0
 40
1.00000000000046
100
AcDbArc
 50
119.9973117337
 51
180.0
  0
ARC
  5
527
330
400
100
AcDbEntity
  8
0
  6
Continuous
 62
     7
370
    25
100
AcDbCircle
 10
-303.7023625196
 20
415.8191288758
 30
0.0
 40
0.999999999999564
100
AcDbArc
 50
60.0026882663
 51
119.9973117337
  0
ARC
  5
528
330
400
100
AcDbEntity
  8
0
  6
Continuous
 62
     7
370
    25
100
AcDbCircle
 10
-315.7231777998
 20
235.7730078055
 30
0.0
 40
0.9999999999999294
100
AcDbArc
 50
180.0
 51
240.0026882664
  0
ARC
  5
529
330
400
100
AcDbEntity
  8
0
  6
Continuous
 62
     7
370
    25
100
AcDbCircle
 10
32.7594627862
 20
30.3759760296
 30
0.0
 40
1.536804807572165
100
AcDbArc
 50
2.6054784857
 51
57.39452166
  0
ARC
  5
52A
330
400
100
AcDbEntity
  8
0
  6
Continuous
 62
     7
370
    25
100
AcDbCircle
 10
33.5875721064
 20
31.8105479668
 30
0.0
 40
1.537021907911648
100
AcDbArc
 50
242.6096722366
 51
297.3903277634
  0
ARC
  5
52B
330
400
100
AcDbEntity
  8
0
  6
Continuous
 62
     7
370
    25
100
AcDbCircle
 10
34.4156814265
 20
30.3759760296
 30
0.0
 40
1.536804807572095
100
AcDbArc
 50
122.60547834
 51
177.3945215143
  0
ARC
  5
52C
330
400
100
AcDbEntity
  8
0
  6
Continuous
 62
     7
370
    25
100
AcDbCircle
 10
33.5875721064
 20
-178.8569814997
 30
0.0
 40
1.537021907911876
100
AcDbArc
 50
242.6096722366
 51
297.3903277634
  0
ARC
  5
52D
330
400
100
AcDbEntity
  8
0
  6
Continuous
 62
     7
370
    25
100
AcDbCircle
 10
44.7802780664
 20
37.3154449801
 30
0.0
 40
1.536804807572093
100
AcDbArc
 50
2.6054784857
 51
57.39452166
  0
ARC
  5
52E
330
400
100
AcDbEntity
  8
0
  6
Continuous
 62
     7
370
    25
100
AcDbCircle
 10
-314.8950684796
 20
232.0287796498
 30
0.0
 40
1.53680480757218
100
AcDbArc
 50
122.60547834
 51
177.3945215143
  0
ARC
  5
52F
330
400
100
AcDbEntity
  8
0
  6
Continuous
 62
     7
370
    25
100
AcDbCircle
 10
47.8507102691
 20
216.137750083
 30
0.0
 40
1.536804807571836
100
AcDbArc
 50
122.60547834
 51
177.3945215143
  0
ARC
  5
530
330
400
100
AcDbEntity
  8
0
  6
Continuous
 62
     7
370
    25
100
AcDbCircle
 10
46.1944916287
 20
216.137750083
 30
0.0
 40
1.536804807571807
100
AcDbArc
 50
2.6054784857
 51
57.39452166
  0
ARC
  5
531
330
400
100
AcDbEntity
  8
0
  6
Continuous
 62
     7
370
    25
100
AcDbCircle
 10
47.0226009489
 20
217.5723220202
 30
0.0
 40
1.537021907911835
100
AcDbArc
 50
242.6096722366
 51
297.3903277634
  0
ARC
  5
532
330
400
100
AcDbEntity
  8
0
  6
Continuous
 62
     7
370
    25
100
AcDbCircle
 10
47.0226009489
 20
-172.7341860612
 30
0.0
 40
1.537021907912113
100
AcDbArc
 50
242.6096722366
 51
297.3903277634
  0
ARC
  5
533
330
400
100
AcDbEntity
  8
0
  6
Continuous
 62
     7
370
    25
100
AcDbCircle
 10
35.8298949889
 20
223.0772190335
 30
0.0
 40
1.536804807571836
100
AcDbArc
 50
122.60547834
 51
177.3945215143
  0
ARC
  5
534
330
400
100
AcDbEntity
  8
0
  6
Continuous
 62
     7
370
    25
100
AcDbCircle
 10
300.0458260747
 20
362.6830061552
 30
0.0
 40
1.53680480757148
100
AcDbArc
 50
2.6054784856
 51
57.39452166
  0
ARC
  5
535
330
400
100
AcDbEntity
  8
0
  6
Continuous
 62
     7
370
    25
100
AcDbCircle
 10
-289.4392243569
 20
410.8510847527
 30
0.0
 40
1.536804807571883
100
AcDbArc
 50
122.60547834
 51
177.3945215144
  0
ARC
  5
536
330
400
100
AcDbEntity
  8
0
  6
Continuous
 62
     7
370
    25
100
AcDbCircle
 10
-301.4600396371
 20
417.7905537032
 30
0.0
 40
1.536804807571774
100
AcDbArc
 50
122.60547834
 51
177.3945215144
  0
ARC
  5
537
330
400
100
AcDbEntity
  8
0
  6
Continuous
 62
     7
370
    25
100
AcDbCircle
 10
-37.2441085513
 20
557.3963408249
 30
0.0
 40
1.536804807572689
100
AcDbArc
 50
2.6054784857
 51
57.39452166
  0
ARC
  5
538
330
400
100
AcDbEntity
  8
0
  6
Continuous
 62
     7
370
    25
100
AcDbCircle
 10
33.5875721064
 20
208.1833633341
 30
0.0
 40
1.537021907911529
100
AcDbArc
 50
242.6096722366
 51
297.3903277634
  0
ARC
  5
539
330
400
100
AcDbEntity
  8
0
  6
Continuous
 62
     7
370
    25
100
AcDbCircle
 10
34.4156814265
 20
206.7487913969
 30
0.0
 40
1.53680480757238
100
AcDbArc
 50
122.60547834
 51
177.3945215143
  0
ARC
  5
53A
330
400
100
AcDbEntity
  8
0
  6
Continuous
 62
     7
370
    25
100
AcDbCircle
 10
32.7594627862
 20
206.7487913969
 30
0.0
 40
1.53680480757235
100
AcDbArc
 50
2.6054784857
 51
57.39452166
  0
ARC
  5
53B
330
400
100
AcDbEntity
  8
0
  6
Continuous
 62
     7
370
    25
100
AcDbCircle
 10
33.5875721064
 20
35.0767112143
 30
0.0
 40
1.537021907911923
100
AcDbArc
 50
242.6096722366
 51
297.3903277634
  0
ARC
  5
53C
330
400
100
AcDbEntity
  8
0
  6
Continuous
 62
     7
370
    25
100
AcDbCircle
 10
44.7802780664
 20
213.6882603474
 30
0.0
 40
1.53680480757238
100
AcDbArc
 50
2.6054784857
 51
57.39452166
  0
ARC
  5
53D
330
400
100
AcDbEntity
  8
0
  6
Continuous
 62
     7
370
    25
100
AcDbCircle
 10
-314.8950684796
 20
408.4015950171
 30
0.0
 40
1.536804807572056
100
AcDbArc
 50
122.60547834
 51
177.3945215143
  0
ARC
  5
53E
330
400
100
AcDbEntity
  8
0
  6
Continuous
 62
     8
370
    25
100
AcDbCircle
 10
45.9013074414
 20
38.201169371
 30
0.0
 40
0.5029772359016044
100
AcDbArc
 50
65.6928809539
 51
125.6175774752
  0
ARC
  5
53F
330
400
100
AcDbEntity
  8
0
  6
Continuous
 62
     8
370
    25
100
AcDbCircle
 10
46.107930324
 20
37.8434162652
 30
0.0
 40
0.5029392784937579
100
AcDbArc
 50
294.3746582936
 51
354.3052007488
  0
ARC
  5
540
330
400
100
AcDbEntity
  8
0
  6
Continuous
 62
     8
370
    25
100
AcDbCircle
 10
46.107930324
 20
-172.8241132014
 30
0.0
 40
0.5029392784937431
100
AcDbArc
 50
294.3746582936
 51
354.3052007488
  0
ARC
  5
541
330
400
100
AcDbEntity
  8
0
  6
Continuous
 62
     8
370
    25
100
AcDbCircle
 10
33.3704672276
 20
-180.275779322
 30
0.0
 40
0.4929779300645817
100
AcDbArc
 50
173.7011524859
 51
234.9866671208
  0
ARC
  5
542
330
400
100
AcDbEntity
  8
0
  6
Continuous
 62
     8
370
    25
100
AcDbCircle
 10
33.8189933313
 20
-180.2822566131
 30
0.0
 40
0.479525546702027
100
AcDbArc
 50
304.0563508527
 51
7.2558295407
  0
ARC
  5
543
330
400
100
AcDbEntity
  8
0
  6
Continuous
 62
     8
370
    25
100
AcDbCircle
 10
45.8398086117
 20
-173.3427876627
 30
0.0
 40
0.4795255464816326
100
AcDbArc
 50
304.0563508365
 51
7.2558295569
  0
ARC
  5
544
330
400
100
AcDbEntity
  8
0
  6
Continuous
 62
     8
370
    25
100
AcDbCircle
 10
-315.9402826786
 20
21.3770242982
 30
0.0
 40
0.4929779299814677
100
AcDbArc
 50
173.7011524802
 51
234.9866671265
  0
ARC
  5
545
330
400
100
AcDbEntity
  8
0
  6
Continuous
 62
     8
370
    25
100
AcDbCircle
 10
-316.0160978546
 20
232.9145040407
 30
0.0
 40
0.5029772359014995
100
AcDbArc
 50
54.3824225248
 51
114.3071190461
  0
ARC
  5
546
330
400
100
AcDbEntity
  8
0
  6
Continuous
 62
     8
370
    25
100
AcDbCircle
 10
-316.2227207373
 20
232.5567509349
 30
0.0
 40
0.5029392784933724
100
AcDbArc
 50
185.6947992512
 51
245.6253417064
  0
ARC
  5
547
330
400
100
AcDbEntity
  8
0
  6
Continuous
 62
     8
370
    25
100
AcDbCircle
 10
-316.2227207373
 20
21.8892214683
 30
0.0
 40
0.5029392784937476
100
AcDbArc
 50
185.6947992512
 51
245.6253417064
  0
ARC
  5
548
330
400
100
AcDbEntity
  8
0
  6
Continuous
 62
     8
370
    25
100
AcDbCircle
 10
34.5022427312
 20
223.6051903186
 30
0.0
 40
0.5029392784938678
100
AcDbArc
 50
185.6947992512
 51
245.6253417064
  0
ARC
  5
549
330
400
100
AcDbEntity
  8
0
  6
Continuous
 62
     8
370
    25
100
AcDbCircle
 10
34.7088656139
 20
223.9629434244
 30
0.0
 40
0.5029772359013553
100
AcDbArc
 50
54.3824225248
 51
114.3071190461
  0
ARC
  5
54A
330
400
100
AcDbEntity
  8
0
  6
Continuous
 62
     8
370
    25
100
AcDbCircle
 10
288.5602000599
 20
370.5081994966
 30
0.0
 40
0.5029772359014335
100
AcDbArc
 50
54.3824225248
 51
114.3071190461
  0
ARC
  5
54B
330
400
100
AcDbEntity
  8
0
  6
Continuous
 62
     8
370
    25
100
AcDbCircle
 10
301.3734783324
 20
363.2109774402
 30
0.0
 40
0.5029392784937954
100
AcDbArc
 50
294.3746582936
 51
354.3052007488
  0
ARC
  5
54C
330
400
100
AcDbEntity
  8
0
  6
Continuous
 62
     8
370
    25
100
AcDbCircle
 10
301.1668554497
 20
363.5687305461
 30
0.0
 40
0.5029772359015279
100
AcDbArc
 50
65.6928809539
 51
125.6175774752
  0
ARC
  5
54D
330
400
100
AcDbEntity
  8
0
  6
Continuous
 62
     8
370
    25
100
AcDbCircle
 10
301.3734783324
 20
-27.0955306411
 30
0.0
 40
0.5029392784939661
100
AcDbArc
 50
294.3746582936
 51
354.3052007488
  0
ARC
  5
54E
330
400
100
AcDbEntity
  8
0
  6
Continuous
 62
     8
370
    25
100
AcDbCircle
 10
289.1460401696
 20
370.5081994966
 30
0.0
 40
0.5029772359015591
100
AcDbArc
 50
65.6928809539
 51
125.6175774752
  0
ARC
  5
54F
330
400
100
AcDbEntity
  8
0
  6
Continuous
 62
     8
370
    25
100
AcDbCircle
 10
46.8054960701
 20
-174.1529838835
 30
0.0
 40
0.4929779300645258
100
AcDbArc
 50
173.7011524859
 51
234.9866671208
  0
ARC
  5
550
330
400
100
AcDbEntity
  8
0
  6
Continuous
 62
     8
370
    25
100
AcDbCircle
 10
47.2397058277
 20
-174.1529838834
 30
0.0
 40
0.4929779300807169
100
AcDbArc
 50
305.0133328804
 51
6.298847513
  0
ARC
  5
551
330
400
100
AcDbEntity
  8
0
  6
Continuous
 62
     8
370
    25
100
AcDbCircle
 10
301.1053566201
 20
-27.6142051025
 30
0.0
 40
0.4795255464953946
100
AcDbArc
 50
304.0563508375
 51
7.2558295559
  0
ARC
  5
552
330
400
100
AcDbEntity
  8
0
  6
Continuous
 62
     8
370
    25
100
AcDbCircle
 10
-290.2961440152
 20
412.1944771693
 30
0.0
 40
1.442902876102639
100
AcDbArc
 50
241.9597608846
 51
271.1440967458
  0
ARC
  5
553
330
400
100
AcDbEntity
  8
0
  6
Continuous
 62
     8
370
    25
100
AcDbCircle
 10
-291.0308341918
 20
410.9216784731
 30
0.0
 40
1.442615129305865
100
AcDbArc
 50
28.8567998288
 51
58.0453714773
  0
ARC
  5
554
330
400
100
AcDbEntity
  8
0
  6
Continuous
 62
     8
370
    25
100
AcDbCircle
 10
-302.7876918948
 20
418.3185249883
 30
0.0
 40
0.5029392784936965
100
AcDbArc
 50
185.6947992512
 51
245.6253417064
  0
ARC
  5
555
330
400
100
AcDbEntity
  8
0
  6
Continuous
 62
     8
370
    25
100
AcDbCircle
 10
-302.5810690121
 20
418.6762780941
 30
0.0
 40
0.5029772359015229
100
AcDbArc
 50
54.3824225248
 51
114.3071190461
  0
ARC
  5
556
330
400
100
AcDbEntity
  8
0
  6
Continuous
 62
     8
370
    25
100
AcDbCircle
 10
-48.7297345661
 20
565.2215341663
 30
0.0
 40
0.5029772359010135
100
AcDbArc
 50
54.3824225247
 51
114.3071190461
  0
ARC
  5
557
330
400
100
AcDbEntity
  8
0
  6
Continuous
 62
     8
370
    25
100
AcDbCircle
 10
-35.9164562936
 20
557.92431211
 30
0.0
 40
0.5029392784936979
100
AcDbArc
 50
294.3746582936
 51
354.3052007488
  0
ARC
  5
558
330
400
100
AcDbEntity
  8
0
  6
Continuous
 62
     8
370
    25
100
AcDbCircle
 10
-36.1230791763
 20
558.2820652158
 30
0.0
 40
0.5029772359017487
100
AcDbArc
 50
65.6928809539
 51
125.6175774752
  0
ARC
  5
559
330
400
100
AcDbEntity
  8
0
  6
Continuous
 62
     8
370
    25
100
AcDbCircle
 10
-48.1438944564
 20
565.2215341663
 30
0.0
 40
0.5029772359017117
100
AcDbArc
 50
65.6928809539
 51
125.6175774752
  0
ARC
  5
55A
330
400
100
AcDbEntity
  8
0
  6
Continuous
 62
     8
370
    25
100
AcDbCircle
 10
45.9013074414
 20
214.5739847383
 30
0.0
 40
0.5029772359018685
100
AcDbArc
 50
65.6928809539
 51
125.6175774752
  0
ARC
  5
55B
330
400
100
AcDbEntity
  8
0
  6
Continuous
 62
     8
370
    25
100
AcDbCircle
 10
46.107930324
 20
214.2162316325
 30
0.0
 40
0.5029392784936003
100
AcDbArc
 50
294.3746582936
 51
354.3052007488
  0
ARC
  5
55C
330
400
100
AcDbEntity
  8
0
  6
Continuous
 62
     8
370
    25
100
AcDbCircle
 10
46.107930324
 20
41.1095795127
 30
0.0
 40
0.5029392784937154
100
AcDbArc
 50
294.3746582936
 51
354.3052007488
  0
ARC
  5
55D
330
400
100
AcDbEntity
  8
0
  6
Continuous
 62
     8
370
    25
100
AcDbCircle
 10
-303.4094424648
 20
416.2267883586
 30
0.0
 40
0.5029772359016645
100
AcDbArc
 50
65.6928809539
 51
125.6175774752
  0
ARC
  5
55E
330
400
100
AcDbEntity
  8
0
  6
Continuous
 62
     8
370
    25
100
AcDbCircle
 10
33.3704672275
 20
33.657913392
 30
0.0
 40
0.4929779299971545
100
AcDbArc
 50
173.7011524812
 51
234.9866671254
  0
ARC
  5
55F
330
400
100
AcDbEntity
  8
0
  6
Continuous
 62
     8
370
    25
100
AcDbCircle
 10
33.8046769852
 20
33.657913392
 30
0.0
 40
0.4929779299811486
100
AcDbArc
 50
305.0133328735
 51
6.2988475199
  0
ARC
  5
560
330
400
100
AcDbEntity
  8
0
  6
Continuous
 62
     8
370
    25
100
AcDbCircle
 10
45.8254922654
 20
40.5973823425
 30
0.0
 40
0.4929779299341892
100
AcDbArc
 50
305.0133328703
 51
6.2988475231
  0
ARC
  5
561
330
400
100
AcDbEntity
  8
0
  6
Continuous
 62
     8
370
    25
100
AcDbCircle
 10
-315.9545990251
 20
235.304239721
 30
0.0
 40
0.4795255463719001
100
AcDbArc
 50
172.744170435
 51
235.9436491716
  0
ARC
  5
562
330
400
100
AcDbEntity
  8
0
  6
Continuous
 62
     8
370
    25
100
AcDbCircle
 10
-316.2227207373
 20
408.9295663022
 30
0.0
 40
0.5029392784939645
100
AcDbArc
 50
185.6947992512
 51
245.6253417064
  0
ARC
  5
563
330
400
100
AcDbEntity
  8
0
  6
Continuous
 62
     8
370
    25
100
AcDbCircle
 10
-316.0160978546
 20
409.2873194081
 30
0.0
 40
0.5029772359016977
100
AcDbArc
 50
54.3824225248
 51
114.3071190461
  0
ARC
  5
564
330
400
100
AcDbEntity
  8
0
  6
Continuous
 62
     8
370
    25
100
AcDbCircle
 10
-316.2227207373
 20
235.8229141824
 30
0.0
 40
0.5029392784938399
100
AcDbArc
 50
185.6947992512
 51
245.6253417064
  0
ARC
  5
565
330
400
100
AcDbEntity
  8
0
  6
Continuous
 62
     8
370
    25
100
AcDbCircle
 10
-303.9952825745
 20
416.2267883586
 30
0.0
 40
0.5029772359016977
100
AcDbArc
 50
54.3824225248
 51
114.3071190461
  0
VIEWPORT
  5
56C
330
400
100
AcDbEntity
  8
0
100
AcDbViewport
 10
0.0
 20
0.0
 30
0.0
 40
205.6
 41
156.0
 68
     1
 69
     1
 12
0.0
 22
240.0
 13
0.0
 23
0.0
 14
10.0
 24
10.0
 15
10.0
 25
10.0
 16
0.0
 26
0.0
 36
1.0
 17
0.0
 27
0.0
 37
0.0
 42
50.0
 43
0.0
 44
0.0
 45
489.6
 50
0.0
 51
0.0
 72
   100
 90
   557152
  1

281
     0
 71
     1
 74
     0
110
0.0
120
0.0
130
0.0
111
1.0
121
0.0
131
0.0
112
0.0
122
1.0
132
0.0
 79
     0
146
0.0
  0
ENDBLK
  5
403
330
400
100
AcDbEntity
  8
0
100
AcDbBlockEnd
  0
ENDSEC
  0
SECTION
  2
ENTITIES
  0
LINE
  5
DE
330
1F
100
AcDbEntity
  8
0
  6
Continuous
 62
     7
370
    25
100
AcDbLine
 10
248.0
 20
261.0
 30
0.0
 11
-248.0
 21
261.0
 31
0.0
  0
LINE
  5
DF
330
1F
100
AcDbEntity
  8
0
  6
Continuous
 62
     7
370
    25
100
AcDbLine
 10
-248.0
 20
3.0
 30
0.0
 11
248.0
 21
3.0
 31
0.0
  0
LINE
  5
E0
330
1F
100
AcDbEntity
  8
0
  6
Continuous
 62
     7
370
    25
100
AcDbLine
 10
247.0
 20
2.0
 30
0.0
 11
-247.0
 21
2.0
 31
0.0
  0
LINE
  5
E1
330
1F
100
AcDbEntity
  8
0
  6
Continuous
 62
     7
370
    25
100
AcDbLine
 10
-247.0
 20
262.0
 30
0.0
 11
247.0
 21
262.0
 31
0.0
  0
LINE
  5
E2
330
1F
100
AcDbEntity
  8
0
  6
Continuous
 62
     7
370
    25
100
AcDbLine
 10
230.0
 20
480.0
 30
0.0
 11
230.0
 21
478.0
 31
0.0
  0
LINE
  5
E3
330
1F
100
AcDbEntity
  8
0
  6
Continuous
 62
     7
370
    25
100
AcDbLine
 10
229.0
 20
1.0
 30
0.0
 11
229.0
 21
2.0
 31
0.0
  0
LINE
  5
E4
330
1F
100
AcDbEntity
  8
0
  6
Continuous
 62
     7
370
    25
100
AcDbLine
 10
229.0
 20
262.0
 30
0.0
 11
229.0
 21
264.0
 31
0.0
  0
LINE
  5
E5
330
1F
100
AcDbEntity
  8
0
  6
Continuous
 62
     7
370
    25
100
AcDbLine
 10
248.0
 20
479.0
 30
0.0
 11
229.0
 21
479.0
 31
0.0
  0
LINE
  5
E6
330
1F
100
AcDbEntity
  8
0
  6
Continuous
 62
     7
370
    25
100
AcDbLine
 10
230.0
 20
480.0
 30
0.0
 11
247.0
 21
480.0
 31
0.0
  0
LINE
  5
E7
330
1F
100
AcDbEntity
  8
0
  6
Continuous
 62
     7
370
    25
100
AcDbLine
 10
248.0
 20
479.0
 30
0.0
 11
248.0
 21
1.0
 31
0.0
  0
LINE
  5
E8
330
1F
100
AcDbEntity
  8
0
  6
Continuous
 62
     7
370
    25
100
AcDbLine
 10
247.0
 20
0.0
 30
0.0
 11
230.0
 21
0.0
 31
0.0
  0
LINE
  5
E9
330
1F
100
AcDbEntity
  8
0
  6
Continuous
 62
     7
370
    25
100
AcDbLine
 10
230.0
 20
2.0
 30
0.0
 11
230.0
 21
0.0
 31
0.0
  0
LINE
  5
EA
330
1F
100
AcDbEntity
  8
0
  6
Continuous
 62
     7
370
    25
100
AcDbLine
 10
-228.0
 20
2.0
 30
0.0
 11
-228.0
 21
0.0
 31
0.0
  0
LINE
  5
EB
330
1F
100
AcDbEntity
  8
0
  6
Continuous
 62
     7
370
    25
100
AcDbLine
 10
228.0
 20
0.0
 30
0.0
 11
228.0
 21
2.0
 31
0.0
  0
LINE
  5
EC
330
1F
100
AcDbEntity
  8
0
  6
Continuous
 62
     7
370
    25
100
AcDbLine
 10
228.0
 20
0.0
 30
0.0
 11
-228.0
 21
0.0
 31
0.0
  0
LINE
  5
ED
330
1F
100
AcDbEntity
  8
0
  6
Continuous
 62
     7
370
    25
100
AcDbLine
 10
-248.0
 20
1.0
 30
0.0
 11
248.0
 21
1.0
 31
0.0
  0
LINE
  5
EE
330
1F
100
AcDbEntity
  8
0
  6
Continuous
 62
     7
370
    25
100
AcDbLine
 10
-229.0
 20
479.0
 30
0.0
 11
-248.0
 21
479.0
 31
0.0
  0
LINE
  5
EF
330
1F
100
AcDbEntity
  8
0
  6
Continuous
 62
     7
370
    25
100
AcDbLine
 10
-248.0
 20
1.0
 30
0.0
 11
-248.0
 21
479.0
 31
0.0
  0
LINE
  5
F0
330
1F
100
AcDbEntity
  8
0
  6
Continuous
 62
     7
370
    25
100
AcDbLine
 10
-247.0
 20
480.0
 30
0.0
 11
-230.0
 21
480.0
 31
0.0
  0
LINE
  5
F1
330
1F
100
AcDbEntity
  8
0
  6
Continuous
 62
     7
370
    25
100
AcDbLine
 10
-230.0
 20
478.0
 30
0.0
 11
-230.0
 21
480.0
 31
0.0
  0
LINE
  5
F2
330
1F
100
AcDbEntity
  8
0
  6
Continuous
 62
     7
370
    25
100
AcDbLine
 10
-229.0
 20
264.0
 30
0.0
 11
-229.0
 21
262.0
 31
0.0
  0
LINE
  5
F3
330
1F
100
AcDbEntity
  8
0
  6
Continuous
 62
     7
370
    25
100
AcDbLine
 10
-229.0
 20
2.0
 30
0.0
 11
-229.0
 21
1.0
 31
0.0
  0
LINE
  5
F4
330
1F
100
AcDbEntity
  8
0
  6
Continuous
 62
     7
370
    25
100
AcDbLine
 10
-230.0
 20
0.0
 30
0.0
 11
-230.0
 21
2.0
 31
0.0
  0
LINE
  5
F5
330
1F
100
AcDbEntity
  8
0
  6
Continuous
 62
     7
370
    25
100
AcDbLine
 10
-230.0
 20
0.0
 30
0.0
 11
-247.0
 21
0.0
 31
0.0
  0
LINE
  5
F6
330
1F
100
AcDbEntity
  8
0
  6
Continuous
 62
     7
370
    25
100
AcDbLine
 10
-229.0
 20
480.0
 30
0.0
 11
-229.0
 21
478.0
 31
0.0
  0
LINE
  5
F7
330
1F
100
AcDbEntity
  8
0
  6
Continuous
 62
     7
370
    25
100
AcDbLine
 10
229.0
 20
480.0
 30
0.0
 11
-229.0
 21
480.0
 31
0.0
  0
LINE
  5
F8
330
1F
100
AcDbEntity
  8
0
  6
Continuous
 62
     7
370
    25
100
AcDbLine
 10
229.0
 20
478.0
 30
0.0
 11
229.0
 21
480.0
 31
0.0
  0
LINE
  5
F9
330
1F
100
AcDbEntity
  8
0
  6
Continuous
 62
     7
370
    25
100
AcDbLine
 10
-247.0
 20
480.0
 30
0.0
 11
-247.0
 21
0.0
 31
0.0
  0
LINE
  5
FA
330
1F
100
AcDbEntity
  8
0
  6
Continuous
 62
     7
370
    25
100
AcDbLine
 10
248.0
 20
477.0
 30
0.0
 11
-248.0
 21
477.0
 31
0.0
  0
LINE
  5
FB
330
1F
100
AcDbEntity
  8
0
  6
Continuous
 62
     7
370
    25
100
AcDbLine
 10
247.0
 20
0.0
 30
0.0
 11
247.0
 21
480.0
 31
0.0
  0
LINE
  5
FC
330
1F
100
AcDbEntity
  8
0
  6
Continuous
 62
     7
370
    25
100
AcDbLine
 10
-248.0
 20
265.0
 30
0.0
 11
248.0
 21
265.0
 31
0.0
  0
LINE
  5
FD
330
1F
100
AcDbEntity
  8
0
  6
Continuous
 62
     7
370
    25
100
AcDbLine
 10
247.0
 20
264.0
 30
0.0
 11
-247.0
 21
264.0
 31
0.0
  0
LINE
  5
FE
330
1F
100
AcDbEntity
  8
0
  6
Continuous
 62
     7
370
    25
100
AcDbLine
 10
-247.0
 20
478.0
 30
0.0
 11
247.0
 21
478.0
 31
0.0
  0
LINE
  5
FF
330
1F
100
AcDbEntity
  8
0
  6
Continuous
 62
     8
370
    25
100
AcDbLine
 10
230.0
 20
264.0
 30
0.0
 11
230.0
 21
262.0
 31
0.0
  0
LINE
  5
100
330
1F
100
AcDbEntity
  8
0
  6
Continuous
 62
     8
370
    25
100
AcDbLine
 10
-230.0
 20
262.0
 30
0.0
 11
-230.0
 21
264.0
 31
0.0
  0
ARC
  5
101
330
1F
100
AcDbEntity
  8
0
  6
Continuous
 62
     7
370
    25
100
AcDbCircle
 10
247.0
 20
3.0
 30
0.0
 40
1.000000000000028
100
AcDbArc
 50
270.0
 51
0.0
  0
ARC
  5
102
330
1F
100
AcDbEntity
  8
0
  6
Continuous
 62
     7
370
    25
100
AcDbCircle
 10
-247.0
 20
3.0
 30
0.0
 40
1.000000000000028
100
AcDbArc
 50
180.0
 51
270.0
  0
ARC
  5
103
330
1F
100
AcDbEntity
  8
0
  6
Continuous
 62
     7
370
    25
100
AcDbCircle
 10
-247.0
 20
261.0
 30
0.0
 40
0.9999999999999716
100
AcDbArc
 50
90.0
 51
180.0
  0
ARC
  5
104
330
1F
100
AcDbEntity
  8
0
  6
Continuous
 62
     7
370
    25
100
AcDbCircle
 10
247.0
 20
261.0
 30
0.0
 40
0.9999999999999716
100
AcDbArc
 50
360.0
 51
90.0
  0
ARC
  5
105
330
1F
100
AcDbEntity
  8
0
  6
Continuous
 62
     7
370
    25
100
AcDbCircle
 10
230.0
 20
479.0
 30
0.0
 40
1.000000000000171
100
AcDbArc
 50
90.0
 51
180.0
  0
ARC
  5
106
330
1F
100
AcDbEntity
  8
0
  6
Continuous
 62
     7
370
    25
100
AcDbCircle
 10
247.0
 20
479.0
 30
0.0
 40
1.000000000000028
100
AcDbArc
 50
0.0
 51
90.0
  0
ARC
  5
107
330
1F
100
AcDbEntity
  8
0
  6
Continuous
 62
     7
370
    25
100
AcDbCircle
 10
247.0
 20
1.0
 30
0.0
 40
1.000000000000032
100
AcDbArc
 50
270.0
 51
360.0
  0
ARC
  5
108
330
1F
100
AcDbEntity
  8
0
  6
Continuous
 62
     7
370
    25
100
AcDbCircle
 10
230.0
 20
1.0
 30
0.0
 40
1.000000000000085
100
AcDbArc
 50
180.0
 51
270.0
  0
ARC
  5
109
330
1F
100
AcDbEntity
  8
0
  6
Continuous
 62
     7
370
    25
100
AcDbCircle
 10
-228.0
 20
1.0
 30
0.0
 40
1.000000000000028
100
AcDbArc
 50
180.0
 51
270.0
  0
ARC
  5
10A
330
1F
100
AcDbEntity
  8
0
  6
Continuous
 62
     7
370
    25
100
AcDbCircle
 10
228.0
 20
1.0
 30
0.0
 40
1.000000000000028
100
AcDbArc
 50
270.0
 51
0.0
  0
ARC
  5
10B
330
1F
100
AcDbEntity
  8
0
  6
Continuous
 62
     7
370
    25
100
AcDbCircle
 10
-247.0
 20
479.0
 30
0.0
 40
1.000000000000057
100
AcDbArc
 50
90.0
 51
180.0
  0
ARC
  5
10C
330
1F
100
AcDbEntity
  8
0
  6
Continuous
 62
     7
370
    25
100
AcDbCircle
 10
-230.0
 20
479.0
 30
0.0
 40
1.000000000000171
100
AcDbArc
 50
0.0
 51
90.0
  0
ARC
  5
10D
330
1F
100
AcDbEntity
  8
0
  6
Continuous
 62
     7
370
    25
100
AcDbCircle
 10
-230.0
 20
1.0
 30
0.0
 40
1.000000000000085
100
AcDbArc
 50
270.0
 51
360.0
  0
ARC
  5
10E
330
1F
100
AcDbEntity
  8
0
  6
Continuous
 62
     7
370
    25
100
AcDbCircle
 10
-247.0
 20
1.0
 30
0.0
 40
1.000000000000004
100
AcDbArc
 50
180.0
 51
270.0
  0
ARC
  5
10F
330
1F
100
AcDbEntity
  8
0
  6
Continuous
 62
     7
370
    25
100
AcDbCircle
 10
-247.0
 20
477.0
 30
0.0
 40
1.000000000000057
100
AcDbArc
 50
90.0
 51
180.0
  0
ARC
  5
110
330
1F
100
AcDbEntity
  8
0
  6
Continuous
 62
     7
370
    25
100
AcDbCircle
 10
247.0
 20
477.0
 30
0.0
 40
1.000000000000028
100
AcDbArc
 50
0.0
 51
90.0
  0
ARC
  5
111
330
1F
100
AcDbEntity
  8
0
  6
Continuous
 62
     7
370
    25
100
AcDbCircle
 10
247.0
 20
265.0
 30
0.0
 40
1.000000000000057
100
AcDbArc
 50
270.0
 51
360.0
  0
ARC
  5
112
330
1F
100
AcDbEntity
  8
0
  6
Continuous
 62
     7
370
    25
100
AcDbCircle
 10
-247.0
 20
265.0
 30
0.0
 40
1.000000000000057
100
AcDbArc
 50
180.0
 51
270.0
  0
CIRCLE
  5
113
330
1B
100
AcDbEntity
 67
     1
  8
0
  6
Continuous
 62
     7
370
    25
100
AcDbCircle
 10
80.0
 20
202.0
 30
0.0
 40
2.400000000000006
  0
CIRCLE
  5
114
330
1B
100
AcDbEntity
 67
     1
  8
0
  6
Continuous
 62
     7
370
    25
100
AcDbCircle
 10
160.0
 20
202.0
 30
0.0
 40
2.399999999999977
  0
CIRCLE
  5
115
330
1B
100
AcDbEntity
 67
     1
  8
0
  6
Continuous
 62
     7
370
    25
100
AcDbCircle
 10
-16.0
 20
202.0
 30
0.0
 40
2.400000000000032
  0
CIRCLE
  5
116
330
1B
100
AcDbEntity
 67
     1
  8
0
  6
Continuous
 62
     7
370
    25
100
AcDbCircle
 10
-80.0
 20
202.0
 30
0.0
 40
2.399999999999963
  0
CIRCLE
  5
117
330
1B
100
AcDbEntity
 67
     1
  8
0
  6
Continuous
 62
     7
370
    25
100
AcDbCircle
 10
48.0
 20
202.0
 30
0.0
 40
2.40000000000002
  0
CIRCLE
  5
118
330
1B
100
AcDbEntity
 67
     1
  8
0
  6
Continuous
 62
     7
370
    25
100
AcDbCircle
 10
-8.0
 20
202.0
 30
0.0
 40
2.399999999999964
  0
CIRCLE
  5
119
330
1B
100
AcDbEntity
 67
     1
  8
0
  6
Continuous
 62
     7
370
    25
100
AcDbCircle
 10
8.0
 20
202.0
 30
0.0
 40
2.400000000000015
  0
CIRCLE
  5
11A
330
1B
100
AcDbEntity
 67
     1
  8
0
  6
Continuous
 62
     7
370
    25
100
AcDbCircle
 10
-48.0
 20
202.0
 30
0.0
 40
2.39999999999997
  0
CIRCLE
  5
11B
330
1B
100
AcDbEntity
 67
     1
  8
0
  6
Continuous
 62
     7
370
    25
100
AcDbCircle
 10
-160.0
 20
202.0
 30
0.0
 40
2.400000000000034
  0
CIRCLE
  5
11C
330
1B
100
AcDbEntity
 67
     1
  8
0
  6
Continuous
 62
     7
370
    25
100
AcDbCircle
 10
16.0
 20
202.0
 30
0.0
 40
2.399999999999991
  0
CIRCLE
  5
11D
330
1B
100
AcDbEntity
 67
     1
  8
0
  6
Continuous
 62
     7
370
    25
100
AcDbCircle
 10
0.0
 20
202.0
 30
0.0
 40
2.400000000000001
  0
CIRCLE
  5
1E7
330
1B
100
AcDbEntity
 67
     1
  8
0
  6
Continuous
 62
     7
370
    25
100
AcDbCircle
 10
220.0
 20
430.0
 30
0.0
 40
4.999999999999915
  0
CIRCLE
  5
1E8
330
1B
100
AcDbEntity
 67
     1
  8
0
  6
Continuous
 62
     7
370
    25
100
AcDbCircle
 10
-220.0
 20
430.0
 30
0.0
 40
4.999999999999972
  0
CIRCLE
  5
1E9
330
1B
100
AcDbEntity
 67
     1
  8
0
  6
Continuous
 62
     7
370
    25
100
AcDbCircle
 10
-220.0
 20
460.0
 30
0.0
 40
4.999999999999915
  0
CIRCLE
  5
1EA
330
1B
100
AcDbEntity
 67
     1
  8
0
  6
Continuous
 62
     7
370
    25
100
AcDbCircle
 10
220.0
 20
460.0
 30
0.0
 40
4.999999999999972
  0
CIRCLE
  5
1F2
330
1B
100
AcDbEntity
 67
     1
  8
0
  6
Continuous
 62
     7
370
    25
100
AcDbCircle
 10
-220.0
 20
38.0
 30
0.0
 40
5.000000000000028
  0
CIRCLE
  5
1F3
330
1B
100
AcDbEntity
 67
     1
  8
0
  6
Continuous
 62
     7
370
    25
100
AcDbCircle
 10
220.0
 20
38.0
 30
0.0
 40
4.999999999999972
  0
CIRCLE
  5
1F5
330
1B
100
AcDbEntity
 67
     1
  8
0
  6
Continuous
 62
     7
370
    25
100
AcDbCircle
 10
220.0
 20
68.0
 30
0.0
 40
4.999999999999972
  0
CIRCLE
  5
1F6
330
1B
100
AcDbEntity
 67
     1
  8
0
  6
Continuous
 62
     7
370
    25
100
AcDbCircle
 10
-220.0
 20
68.0
 30
0.0
 40
4.999999999999972
  0
LINE
  5
218
330
1B
100
AcDbEntity
 67
     1
  8
0
  6
Continuous
 62
     7
370
    25
100
AcDbLine
 10
-229.0
 20
262.0
 30
0.0
 11
229.0
 21
262.0
 31
0.0
  0
LINE
  5
219
330
1B
100
AcDbEntity
 67
     1
  8
0
  6
Continuous
 62
     7
370
    25
100
AcDbLine
 10
210.0
 20
176.0
 30
0.0
 11
210.0
 21
88.0
 31
0.0
  0
LINE
  5
21A
330
1B
100
AcDbEntity
 67
     1
  8
0
  6
Continuous
 62
     7
370
    25
100
AcDbLine
 10
194.0
 20
176.0
 30
0.0
 11
194.0
 21
88.0
 31
0.0
  0
LINE
  5
21B
330
1B
100
AcDbEntity
 67
     1
  8
0
  6
Continuous
 62
     7
370
    25
100
AcDbLine
 10
210.0
 20
176.0
 30
0.0
 11
194.0
 21
176.0
 31
0.0
  0
LINE
  5
21C
330
1B
100
AcDbEntity
 67
     1
  8
0
  6
Continuous
 62
     7
370
    25
100
AcDbLine
 10
-194.0
 20
176.0
 30
0.0
 11
-194.0
 21
88.0
 31
0.0
  0
LINE
  5
21D
330
1B
100
AcDbEntity
 67
     1
  8
0
  6
Continuous
 62
     7
370
    25
100
AcDbLine
 10
194.0
 20
124.0
 30
0.0
 11
-194.0
 21
124.0
 31
0.0
  0
LINE
  5
21E
330
1B
100
AcDbEntity
 67
     1
  8
0
  6
Continuous
 62
     7
370
    25
100
AcDbLine
 10
-230.0
 20
0.0
 30
0.0
 11
-230.0
 21
480.0
 31
0.0
  0
LINE
  5
21F
330
1B
100
AcDbEntity
 67
     1
  8
0
  6
Continuous
 62
     7
370
    25
100
AcDbLine
 10
-247.0
 20
480.0
 30
0.0
 11
-247.0
 21
0.0
 31
0.0
  0
LINE
  5
220
330
1B
100
AcDbEntity
 67
     1
  8
0
  6
Continuous
 62
     7
370
    25
100
AcDbLine
 10
-248.0
 20
1.0
 30
0.0
 11
-248.0
 21
479.0
 31
0.0
  0
LINE
  5
221
330
1B
100
AcDbEntity
 67
     1
  8
0
  6
Continuous
 62
     7
370
    25
100
AcDbLine
 10
-229.0
 20
479.0
 30
0.0
 11
-248.0
 21
479.0
 31
0.0
  0
LINE
  5
222
330
1B
100
AcDbEntity
 67
     1
  8
0
  6
Continuous
 62
     7
370
    25
100
AcDbLine
 10
-230.0
 20
0.0
 30
0.0
 11
-247.0
 21
0.0
 31
0.0
  0
LINE
  5
223
330
1B
100
AcDbEntity
 67
     1
  8
0
  6
Continuous
 62
     7
370
    25
100
AcDbLine
 10
-229.0
 20
480.0
 30
0.0
 11
-229.0
 21
1.0
 31
0.0
  0
LINE
  5
224
330
1B
100
AcDbEntity
 67
     1
  8
0
  6
Continuous
 62
     7
370
    25
100
AcDbLine
 10
-247.0
 20
480.0
 30
0.0
 11
-230.0
 21
480.0
 31
0.0
  0
LINE
  5
225
330
1B
100
AcDbEntity
 67
     1
  8
0
  6
Continuous
 62
     7
370
    25
100
AcDbLine
 10
204.7
 20
278.25
 30
0.0
 11
204.7
 21
279.75
 31
0.0
  0
LINE
  5
226
330
1B
100
AcDbEntity
 67
     1
  8
0
  6
Continuous
 62
     7
370
    25
100
AcDbLine
 10
207.5
 20
288.75
 30
0.0
 11
207.5
 21
281.75
 31
0.0
  0
LINE
  5
227
330
1B
100
AcDbEntity
 67
     1
  8
0
  6
Continuous
 62
     7
370
    25
100
AcDbLine
 10
198.5
 20
290.75
 30
0.0
 11
205.5
 21
290.75
 31
0.0
  0
LINE
  5
228
330
1B
100
AcDbEntity
 67
     1
  8
0
  6
Continuous
 62
     7
370
    25
100
AcDbLine
 10
196.5
 20
281.75
 30
0.0
 11
196.5
 21
288.75
 31
0.0
  0
LINE
  5
229
330
1B
100
AcDbEntity
 67
     1
  8
0
  6
Continuous
 62
     7
370
    25
100
AcDbLine
 10
198.5
 20
279.75
 30
0.0
 11
199.3
 21
279.75
 31
0.0
  0
LINE
  5
22A
330
1B
100
AcDbEntity
 67
     1
  8
0
  6
Continuous
 62
     7
370
    25
100
AcDbLine
 10
198.5
 20
278.25
 30
0.0
 11
199.3
 21
278.25
 31
0.0
  0
LINE
  5
22B
330
1B
100
AcDbEntity
 67
     1
  8
0
  6
Continuous
 62
     7
370
    25
100
AcDbLine
 10
195.0
 20
281.75
 30
0.0
 11
195.0
 21
288.75
 31
0.0
  0
LINE
  5
22C
330
1B
100
AcDbEntity
 67
     1
  8
0
  6
Continuous
 62
     7
370
    25
100
AcDbLine
 10
205.5
 20
292.25
 30
0.0
 11
198.5
 21
292.25
 31
0.0
  0
LINE
  5
22D
330
1B
100
AcDbEntity
 67
     1
  8
0
  6
Continuous
 62
     7
370
    25
100
AcDbLine
 10
209.0
 20
281.75
 30
0.0
 11
209.0
 21
288.75
 31
0.0
  0
LINE
  5
22E
330
1B
100
AcDbEntity
 67
     1
  8
0
  6
Continuous
 62
     7
370
    25
100
AcDbLine
 10
205.5
 20
278.25
 30
0.0
 11
204.7
 21
278.25
 31
0.0
  0
LINE
  5
22F
330
1B
100
AcDbEntity
 67
     1
  8
0
  6
Continuous
 62
     7
370
    25
100
AcDbLine
 10
204.7
 20
279.75
 30
0.0
 11
205.5
 21
279.75
 31
0.0
  0
LINE
  5
230
330
1B
100
AcDbEntity
 67
     1
  8
0
  6
Continuous
 62
     7
370
    25
100
AcDbLine
 10
199.3
 20
279.75
 30
0.0
 11
199.3
 21
278.25
 31
0.0
  0
LINE
  5
231
330
1B
100
AcDbEntity
 67
     1
  8
0
  6
Continuous
 62
     7
370
    25
100
AcDbLine
 10
200.0
 20
302.8
 30
0.0
 11
200.0
 21
292.25
 31
0.0
  0
LINE
  5
232
330
1B
100
AcDbEntity
 67
     1
  8
0
  6
Continuous
 62
     7
370
    25
100
AcDbLine
 10
204.0
 20
299.3
 30
0.0
 11
200.0
 21
299.3
 31
0.0
  0
LINE
  5
233
330
1B
100
AcDbEntity
 67
     1
  8
0
  6
Continuous
 62
     7
370
    25
100
AcDbLine
 10
204.0
 20
292.25
 30
0.0
 11
204.0
 21
302.8
 31
0.0
  0
LINE
  5
234
330
1B
100
AcDbEntity
 67
     1
  8
0
  6
Continuous
 62
     7
370
    25
100
AcDbLine
 10
-227.62
 20
307.4
 30
0.0
 11
-229.0
 21
307.4
 31
0.0
  0
LINE
  5
235
330
1B
100
AcDbEntity
 67
     1
  8
0
  6
Continuous
 62
     7
370
    25
100
AcDbLine
 10
-227.62
 20
307.4
 30
0.0
 11
-227.62
 21
274.8
 31
0.0
  0
LINE
  5
236
330
1B
100
AcDbEntity
 67
     1
  8
0
  6
Continuous
 62
     7
370
    25
100
AcDbLine
 10
-227.2
 20
274.38
 30
0.0
 11
-202.3
 21
274.38
 31
0.0
  0
LINE
  5
237
330
1B
100
AcDbEntity
 67
     1
  8
0
  6
Continuous
 62
     7
370
    25
100
AcDbLine
 10
-201.88
 20
274.8
 30
0.0
 11
-201.88
 21
282.5
 31
0.0
  0
LINE
  5
238
330
1B
100
AcDbEntity
 67
     1
  8
0
  6
Continuous
 62
     7
370
    25
100
AcDbLine
 10
-201.7957396742
 20
282.5
 30
0.0
 11
-201.88
 21
282.5
 31
0.0
  0
LINE
  5
239
330
1B
100
AcDbEntity
 67
     1
  8
0
  6
Continuous
 62
     7
370
    25
100
AcDbLine
 10
-199.25
 20
285.4542603258
 30
0.0
 11
-199.25
 21
285.0457396742
 31
0.0
  0
LINE
  5
23A
330
1B
100
AcDbEntity
 67
     1
  8
0
  6
Continuous
 62
     7
370
    25
100
AcDbLine
 10
-202.2042603258
 20
288.0
 30
0.0
 11
-201.7957396742
 21
288.0
 31
0.0
  0
LINE
  5
23B
330
1B
100
AcDbEntity
 67
     1
  8
0
  6
Continuous
 62
     7
370
    25
100
AcDbLine
 10
-204.75
 20
285.0457396742
 30
0.0
 11
-204.75
 21
285.4542603258
 31
0.0
  0
LINE
  5
23C
330
1B
100
AcDbEntity
 67
     1
  8
0
  6
Continuous
 62
     7
370
    25
100
AcDbLine
 10
-202.12
 20
282.5
 30
0.0
 11
-202.2042603258
 21
282.5
 31
0.0
  0
LINE
  5
23D
330
1B
100
AcDbEntity
 67
     1
  8
0
  6
Continuous
 62
     7
370
    25
100
AcDbLine
 10
-202.12
 20
282.5
 30
0.0
 11
-202.12
 21
278.25
 31
0.0
  0
LINE
  5
23E
330
1B
100
AcDbEntity
 67
     1
  8
0
  6
Continuous
 62
     7
370
    25
100
AcDbLine
 10
-203.5
 20
278.25
 30
0.0
 11
-202.12
 21
278.25
 31
0.0
  0
LINE
  5
23F
330
1B
100
AcDbEntity
 67
     1
  8
0
  6
Continuous
 62
     7
370
    25
100
AcDbLine
 10
-206.25
 20
285.7604348142
 30
0.0
 11
-206.25
 21
284.7395651858
 31
0.0
  0
LINE
  5
240
330
1B
100
AcDbEntity
 67
     1
  8
0
  6
Continuous
 62
     7
370
    25
100
AcDbLine
 10
-201.4895651858
 20
289.5
 30
0.0
 11
-202.5104348142
 21
289.5
 31
0.0
  0
LINE
  5
241
330
1B
100
AcDbEntity
 67
     1
  8
0
  6
Continuous
 62
     7
370
    25
100
AcDbLine
 10
-198.0
 20
284.7080398915
 30
0.0
 11
-198.0
 21
285.7919601085
 31
0.0
  0
LINE
  5
242
330
1B
100
AcDbEntity
 67
     1
  8
0
  6
Continuous
 62
     7
370
    25
100
AcDbLine
 10
-200.5
 20
273.0
 30
0.0
 11
-227.2
 21
273.0
 31
0.0
  0
LINE
  5
243
330
1B
100
AcDbEntity
 67
     1
  8
0
  6
Continuous
 62
     7
370
    25
100
AcDbLine
 10
-203.5
 20
278.25
 30
0.0
 11
-203.5
 21
281.75
 31
0.0
  0
LINE
  5
244
330
1B
100
AcDbEntity
 67
     1
  8
0
  6
Continuous
 62
     7
370
    25
100
AcDbLine
 10
-200.5
 20
281.75
 30
0.0
 11
-200.5
 21
268.0
 31
0.0
  0
LINE
  5
245
330
1B
100
AcDbEntity
 67
     1
  8
0
  6
Continuous
 62
     7
370
    25
100
AcDbLine
 10
-193.54
 20
268.0
 30
0.0
 11
-218.14
 21
268.0
 31
0.0
  0
LINE
  5
246
330
1B
100
AcDbEntity
 67
     1
  8
0
  6
Continuous
 62
     7
370
    25
100
AcDbLine
 10
-218.14
 20
273.0
 30
0.0
 11
-218.14
 21
268.0
 31
0.0
  0
LINE
  5
247
330
1B
100
AcDbEntity
 67
     1
  8
0
  6
Continuous
 62
     7
370
    25
100
AcDbLine
 10
-193.54
 20
276.7
 30
0.0
 11
-200.5
 21
276.7
 31
0.0
  0
LINE
  5
248
330
1B
100
AcDbEntity
 67
     1
  8
0
  6
Continuous
 62
     7
370
    25
100
AcDbLine
 10
-193.54
 20
276.7
 30
0.0
 11
-193.54
 21
268.0
 31
0.0
  0
LINE
  5
249
330
1B
100
AcDbEntity
 67
     1
  8
0
  6
Continuous
 62
     7
370
    25
100
AcDbLine
 10
60.0
 20
308.0
 30
0.0
 11
-60.0
 21
308.0
 31
0.0
  0
LINE
  5
24A
330
1B
100
AcDbEntity
 67
     1
  8
0
  6
Continuous
 62
     7
370
    25
100
AcDbLine
 10
206.7990381057
 20
292.0
 30
0.0
 11
210.0
 21
292.0
 31
0.0
  0
LINE
  5
24B
330
1B
100
AcDbEntity
 67
     1
  8
0
  6
Continuous
 62
     7
370
    25
100
AcDbLine
 10
194.0
 20
292.0
 30
0.0
 11
194.0
 21
370.5
 31
0.0
  0
LINE
  5
24C
330
1B
100
AcDbEntity
 67
     1
  8
0
  6
Continuous
 62
     7
370
    25
100
AcDbLine
 10
210.0
 20
292.0
 30
0.0
 11
210.0
 21
370.5
 31
0.0
  0
LINE
  5
24D
330
1B
100
AcDbEntity
 67
     1
  8
0
  6
Continuous
 62
     7
370
    25
100
AcDbLine
 10
-210.0
 20
292.0
 30
0.0
 11
-206.7990381057
 21
292.0
 31
0.0
  0
LINE
  5
24E
330
1B
100
AcDbEntity
 67
     1
  8
0
  6
Continuous
 62
     7
370
    25
100
AcDbLine
 10
197.2009618943
 20
292.0
 30
0.0
 11
-197.2009618943
 21
292.0
 31
0.0
  0
LINE
  5
24F
330
1B
100
AcDbEntity
 67
     1
  8
0
  6
Continuous
 62
     7
370
    25
100
AcDbLine
 10
-210.0
 20
292.0
 30
0.0
 11
-210.0
 21
370.5
 31
0.0
  0
LINE
  5
250
330
1B
100
AcDbEntity
 67
     1
  8
0
  6
Continuous
 62
     7
370
    25
100
AcDbLine
 10
-194.0
 20
292.0
 30
0.0
 11
-194.0
 21
370.5
 31
0.0
  0
LINE
  5
251
330
1B
100
AcDbEntity
 67
     1
  8
0
  6
Continuous
 62
     7
370
    25
100
AcDbLine
 10
210.0
 20
370.5
 30
0.0
 11
-210.0
 21
370.5
 31
0.0
  0
LINE
  5
252
330
1B
100
AcDbEntity
 67
     1
  8
0
  6
Continuous
 62
     7
370
    25
100
AcDbLine
 10
-60.0
 20
292.0
 30
0.0
 11
-60.0
 21
370.5
 31
0.0
  0
LINE
  5
253
330
1B
100
AcDbEntity
 67
     1
  8
0
  6
Continuous
 62
     7
370
    25
100
AcDbLine
 10
60.0
 20
292.0
 30
0.0
 11
60.0
 21
370.5
 31
0.0
  0
LINE
  5
254
330
1B
100
AcDbEntity
 67
     1
  8
0
  6
Continuous
 62
     7
370
    25
100
AcDbLine
 10
228.0
 20
0.0
 30
0.0
 11
-228.0
 21
0.0
 31
0.0
  0
LINE
  5
255
330
1B
100
AcDbEntity
 67
     1
  8
0
  6
Continuous
 62
     7
370
    25
100
AcDbLine
 10
228.0
 20
0.0
 30
0.0
 11
228.0
 21
18.0
 31
0.0
  0
LINE
  5
256
330
1B
100
AcDbEntity
 67
     1
  8
0
  6
Continuous
 62
     7
370
    25
100
AcDbLine
 10
229.0
 20
17.0
 30
0.0
 11
-229.0
 21
17.0
 31
0.0
  0
LINE
  5
257
330
1B
100
AcDbEntity
 67
     1
  8
0
  6
Continuous
 62
     7
370
    25
100
AcDbLine
 10
-228.0
 20
18.0
 30
0.0
 11
-228.0
 21
0.0
 31
0.0
  0
LINE
  5
258
330
1B
100
AcDbEntity
 67
     1
  8
0
  6
Continuous
 62
     7
370
    25
100
AcDbLine
 10
198.0
 20
284.7080398915
 30
0.0
 11
198.0
 21
285.7919601085
 31
0.0
  0
LINE
  5
259
330
1B
100
AcDbEntity
 67
     1
  8
0
  6
Continuous
 62
     7
370
    25
100
AcDbLine
 10
201.4895651858
 20
289.5
 30
0.0
 11
202.5104348142
 21
289.5
 31
0.0
  0
LINE
  5
25A
330
1B
100
AcDbEntity
 67
     1
  8
0
  6
Continuous
 62
     7
370
    25
100
AcDbLine
 10
206.25
 20
285.7604348142
 30
0.0
 11
206.25
 21
284.7395651858
 31
0.0
  0
LINE
  5
25B
330
1B
100
AcDbEntity
 67
     1
  8
0
  6
Continuous
 62
     7
370
    25
100
AcDbLine
 10
203.5
 20
278.25
 30
0.0
 11
203.5
 21
281.75
 31
0.0
  0
LINE
  5
25C
330
1B
100
AcDbEntity
 67
     1
  8
0
  6
Continuous
 62
     7
370
    25
100
AcDbLine
 10
203.5
 20
278.25
 30
0.0
 11
202.12
 21
278.25
 31
0.0
  0
LINE
  5
25D
330
1B
100
AcDbEntity
 67
     1
  8
0
  6
Continuous
 62
     7
370
    25
100
AcDbLine
 10
202.12
 20
282.5
 30
0.0
 11
202.12
 21
278.25
 31
0.0
  0
LINE
  5
25E
330
1B
100
AcDbEntity
 67
     1
  8
0
  6
Continuous
 62
     7
370
    25
100
AcDbLine
 10
202.12
 20
282.5
 30
0.0
 11
202.2042603258
 21
282.5
 31
0.0
  0
LINE
  5
25F
330
1B
100
AcDbEntity
 67
     1
  8
0
  6
Continuous
 62
     7
370
    25
100
AcDbLine
 10
204.75
 20
285.0457396742
 30
0.0
 11
204.75
 21
285.4542603258
 31
0.0
  0
LINE
  5
260
330
1B
100
AcDbEntity
 67
     1
  8
0
  6
Continuous
 62
     7
370
    25
100
AcDbLine
 10
202.2042603258
 20
288.0
 30
0.0
 11
201.7957396742
 21
288.0
 31
0.0
  0
LINE
  5
261
330
1B
100
AcDbEntity
 67
     1
  8
0
  6
Continuous
 62
     7
370
    25
100
AcDbLine
 10
199.25
 20
285.4542603258
 30
0.0
 11
199.25
 21
285.0457396742
 31
0.0
  0
LINE
  5
262
330
1B
100
AcDbEntity
 67
     1
  8
0
  6
Continuous
 62
     7
370
    25
100
AcDbLine
 10
201.7957396742
 20
282.5
 30
0.0
 11
201.88
 21
282.5
 31
0.0
  0
LINE
  5
263
330
1B
100
AcDbEntity
 67
     1
  8
0
  6
Continuous
 62
     7
370
    25
100
AcDbLine
 10
201.88
 20
274.8
 30
0.0
 11
201.88
 21
282.5
 31
0.0
  0
LINE
  5
264
330
1B
100
AcDbEntity
 67
     1
  8
0
  6
Continuous
 62
     7
370
    25
100
AcDbLine
 10
227.2
 20
274.38
 30
0.0
 11
202.3
 21
274.38
 31
0.0
  0
LINE
  5
265
330
1B
100
AcDbEntity
 67
     1
  8
0
  6
Continuous
 62
     7
370
    25
100
AcDbLine
 10
227.62
 20
307.4
 30
0.0
 11
227.62
 21
274.8
 31
0.0
  0
LINE
  5
266
330
1B
100
AcDbEntity
 67
     1
  8
0
  6
Continuous
 62
     7
370
    25
100
AcDbLine
 10
227.62
 20
307.4
 30
0.0
 11
229.0
 21
307.4
 31
0.0
  0
LINE
  5
267
330
1B
100
AcDbEntity
 67
     1
  8
0
  6
Continuous
 62
     7
370
    25
100
AcDbLine
 10
200.5
 20
273.0
 30
0.0
 11
227.2
 21
273.0
 31
0.0
  0
LINE
  5
268
330
1B
100
AcDbEntity
 67
     1
  8
0
  6
Continuous
 62
     7
370
    25
100
AcDbLine
 10
218.14
 20
273.0
 30
0.0
 11
218.14
 21
268.0
 31
0.0
  0
LINE
  5
269
330
1B
100
AcDbEntity
 67
     1
  8
0
  6
Continuous
 62
     7
370
    25
100
AcDbLine
 10
193.54
 20
268.0
 30
0.0
 11
218.14
 21
268.0
 31
0.0
  0
LINE
  5
26A
330
1B
100
AcDbEntity
 67
     1
  8
0
  6
Continuous
 62
     7
370
    25
100
AcDbLine
 10
200.5
 20
281.75
 30
0.0
 11
200.5
 21
268.0
 31
0.0
  0
LINE
  5
26B
330
1B
100
AcDbEntity
 67
     1
  8
0
  6
Continuous
 62
     7
370
    25
100
AcDbLine
 10
193.54
 20
276.7
 30
0.0
 11
193.54
 21
268.0
 31
0.0
  0
LINE
  5
26C
330
1B
100
AcDbEntity
 67
     1
  8
0
  6
Continuous
 62
     7
370
    25
100
AcDbLine
 10
193.54
 20
276.7
 30
0.0
 11
200.5
 21
276.7
 31
0.0
  0
LINE
  5
26D
330
1B
100
AcDbEntity
 67
     1
  8
0
  6
Continuous
 62
     7
370
    25
100
AcDbLine
 10
248.0
 20
479.0
 30
0.0
 11
248.0
 21
1.0
 31
0.0
  0
LINE
  5
26E
330
1B
100
AcDbEntity
 67
     1
  8
0
  6
Continuous
 62
     7
370
    25
100
AcDbLine
 10
-248.0
 20
1.0
 30
0.0
 11
248.0
 21
1.0
 31
0.0
  0
LINE
  5
26F
330
1B
100
AcDbEntity
 67
     1
  8
0
  6
Continuous
 62
     7
370
    25
100
AcDbLine
 10
247.0
 20
0.0
 30
0.0
 11
247.0
 21
480.0
 31
0.0
  0
LINE
  5
270
330
1B
100
AcDbEntity
 67
     1
  8
0
  6
Continuous
 62
     7
370
    25
100
AcDbLine
 10
230.0
 20
480.0
 30
0.0
 11
230.0
 21
0.0
 31
0.0
  0
LINE
  5
271
330
1B
100
AcDbEntity
 67
     1
  8
0
  6
Continuous
 62
     7
370
    25
100
AcDbLine
 10
229.0
 20
1.0
 30
0.0
 11
229.0
 21
480.0
 31
0.0
  0
LINE
  5
272
330
1B
100
AcDbEntity
 67
     1
  8
0
  6
Continuous
 62
     7
370
    25
100
AcDbLine
 10
248.0
 20
479.0
 30
0.0
 11
229.0
 21
479.0
 31
0.0
  0
LINE
  5
273
330
1B
100
AcDbEntity
 67
     1
  8
0
  6
Continuous
 62
     7
370
    25
100
AcDbLine
 10
247.0
 20
0.0
 30
0.0
 11
230.0
 21
0.0
 31
0.0
  0
LINE
  5
274
330
1B
100
AcDbEntity
 67
     1
  8
0
  6
Continuous
 62
     7
370
    25
100
AcDbLine
 10
230.0
 20
480.0
 30
0.0
 11
247.0
 21
480.0
 31
0.0
  0
LINE
  5
275
330
1B
100
AcDbEntity
 67
     1
  8
0
  6
Continuous
 62
     7
370
    25
100
AcDbLine
 10
-229.0
 20
480.0
 30
0.0
 11
229.0
 21
480.0
 31
0.0
  0
LINE
  5
276
330
1B
100
AcDbEntity
 67
     1
  8
0
  6
Continuous
 62
     7
370
    25
100
AcDbLine
 10
229.0
 20
410.0
 30
0.0
 11
-229.0
 21
410.0
 31
0.0
  0
LINE
  5
277
330
1B
100
AcDbEntity
 67
     1
  8
0
  6
Continuous
 62
     7
370
    25
100
AcDbLine
 10
-229.0
 20
88.0
 30
0.0
 11
229.0
 21
88.0
 31
0.0
  0
LINE
  5
278
330
1B
100
AcDbEntity
 67
     1
  8
0
  6
Continuous
 62
     7
370
    25
100
AcDbLine
 10
229.0
 20
18.0
 30
0.0
 11
-229.0
 21
18.0
 31
0.0
  0
LINE
  5
279
330
1B
100
AcDbEntity
 67
     1
  8
0
  6
Continuous
 62
     7
370
    25
100
AcDbLine
 10
-209.0
 20
281.75
 30
0.0
 11
-209.0
 21
288.75
 31
0.0
  0
LINE
  5
27A
330
1B
100
AcDbEntity
 67
     1
  8
0
  6
Continuous
 62
     7
370
    25
100
AcDbLine
 10
-205.5
 20
292.25
 30
0.0
 11
-198.5
 21
292.25
 31
0.0
  0
LINE
  5
27B
330
1B
100
AcDbEntity
 67
     1
  8
0
  6
Continuous
 62
     7
370
    25
100
AcDbLine
 10
-195.0
 20
281.75
 30
0.0
 11
-195.0
 21
288.75
 31
0.0
  0
LINE
  5
27C
330
1B
100
AcDbEntity
 67
     1
  8
0
  6
Continuous
 62
     7
370
    25
100
AcDbLine
 10
-198.5
 20
278.25
 30
0.0
 11
-199.3
 21
278.25
 31
0.0
  0
LINE
  5
27D
330
1B
100
AcDbEntity
 67
     1
  8
0
  6
Continuous
 62
     7
370
    25
100
AcDbLine
 10
-196.5
 20
281.75
 30
0.0
 11
-196.5
 21
288.75
 31
0.0
  0
LINE
  5
27E
330
1B
100
AcDbEntity
 67
     1
  8
0
  6
Continuous
 62
     7
370
    25
100
AcDbLine
 10
-198.5
 20
290.75
 30
0.0
 11
-205.5
 21
290.75
 31
0.0
  0
LINE
  5
27F
330
1B
100
AcDbEntity
 67
     1
  8
0
  6
Continuous
 62
     7
370
    25
100
AcDbLine
 10
-207.5
 20
288.75
 30
0.0
 11
-207.5
 21
281.75
 31
0.0
  0
LINE
  5
280
330
1B
100
AcDbEntity
 67
     1
  8
0
  6
Continuous
 62
     7
370
    25
100
AcDbLine
 10
-204.7
 20
278.25
 30
0.0
 11
-204.7
 21
279.75
 31
0.0
  0
LINE
  5
281
330
1B
100
AcDbEntity
 67
     1
  8
0
  6
Continuous
 62
     7
370
    25
100
AcDbLine
 10
-204.7
 20
279.75
 30
0.0
 11
-205.5
 21
279.75
 31
0.0
  0
LINE
  5
282
330
1B
100
AcDbEntity
 67
     1
  8
0
  6
Continuous
 62
     7
370
    25
100
AcDbLine
 10
-198.5
 20
279.75
 30
0.0
 11
-199.3
 21
279.75
 31
0.0
  0
LINE
  5
283
330
1B
100
AcDbEntity
 67
     1
  8
0
  6
Continuous
 62
     7
370
    25
100
AcDbLine
 10
-205.5
 20
278.25
 30
0.0
 11
-204.7
 21
278.25
 31
0.0
  0
LINE
  5
284
330
1B
100
AcDbEntity
 67
     1
  8
0
  6
Continuous
 62
     7
370
    25
100
AcDbLine
 10
-199.3
 20
279.75
 30
0.0
 11
-199.3
 21
278.25
 31
0.0
  0
LINE
  5
285
330
1B
100
AcDbEntity
 67
     1
  8
0
  6
Continuous
 62
     7
370
    25
100
AcDbLine
 10
-200.0
 20
302.8
 30
0.0
 11
-200.0
 21
292.25
 31
0.0
  0
LINE
  5
286
330
1B
100
AcDbEntity
 67
     1
  8
0
  6
Continuous
 62
     7
370
    25
100
AcDbLine
 10
-204.0
 20
299.3
 30
0.0
 11
-200.0
 21
299.3
 31
0.0
  0
LINE
  5
287
330
1B
100
AcDbEntity
 67
     1
  8
0
  6
Continuous
 62
     7
370
    25
100
AcDbLine
 10
-204.0
 20
292.25
 30
0.0
 11
-204.0
 21
302.8
 31
0.0
  0
LINE
  5
288
330
1B
100
AcDbEntity
 67
     1
  8
0
  6
Continuous
 62
     7
370
    25
100
AcDbLine
 10
229.0
 20
264.0
 30
0.0
 11
-229.0
 21
264.0
 31
0.0
  0
LINE
  5
289
330
1B
100
AcDbEntity
 67
     1
  8
0
  6
Continuous
 62
     7
370
    25
100
AcDbLine
 10
-194.0
 20
176.0
 30
0.0
 11
-210.0
 21
176.0
 31
0.0
  0
LINE
  5
28A
330
1B
100
AcDbEntity
 67
     1
  8
0
  6
Continuous
 62
     7
370
    25
100
AcDbLine
 10
-210.0
 20
176.0
 30
0.0
 11
-210.0
 21
88.0
 31
0.0
  0
LINE
  5
28B
330
1B
100
AcDbEntity
 67
     1
  8
0
  6
Continuous
 62
     8
370
    25
100
AcDbLine
 10
229.0
 20
261.0
 30
0.0
 11
-229.0
 21
261.0
 31
0.0
  0
LINE
  5
28C
330
1B
100
AcDbEntity
 67
     1
  8
0
  6
Continuous
 62
     8
370
    25
100
AcDbLine
 10
-229.0
 20
265.0
 30
0.0
 11
229.0
 21
265.0
 31
0.0
  0
ARC
  5
28D
330
1B
100
AcDbEntity
 67
     1
  8
0
  6
Continuous
 62
     7
370
    25
100
AcDbCircle
 10
-230.0
 20
1.0
 30
0.0
 40
1.000000000000085
100
AcDbArc
 50
270.0
 51
360.0
  0
ARC
  5
28E
330
1B
100
AcDbEntity
 67
     1
  8
0
  6
Continuous
 62
     7
370
    25
100
AcDbCircle
 10
-247.0
 20
1.0
 30
0.0
 40
1.000000000000004
100
AcDbArc
 50
180.0
 51
270.0
  0
ARC
  5
28F
330
1B
100
AcDbEntity
 67
     1
  8
0
  6
Continuous
 62
     7
370
    25
100
AcDbCircle
 10
-230.0
 20
479.0
 30
0.0
 40
1.000000000000171
100
AcDbArc
 50
0.0
 51
90.0
  0
ARC
  5
290
330
1B
100
AcDbEntity
 67
     1
  8
0
  6
Continuous
 62
     7
370
    25
100
AcDbCircle
 10
-247.0
 20
479.0
 30
0.0
 40
1.000000000000057
100
AcDbArc
 50
90.0
 51
180.0
  0
ARC
  5
291
330
1B
100
AcDbEntity
 67
     1
  8
0
  6
Continuous
 62
     7
370
    25
100
AcDbCircle
 10
205.5
 20
281.75
 30
0.0
 40
2.000000000000057
100
AcDbArc
 50
270.0
 51
360.0
  0
ARC
  5
292
330
1B
100
AcDbEntity
 67
     1
  8
0
  6
Continuous
 62
     7
370
    25
100
AcDbCircle
 10
205.5
 20
288.75
 30
0.0
 40
2.000000000000057
100
AcDbArc
 50
0.0
 51
90.0
  0
ARC
  5
293
330
1B
100
AcDbEntity
 67
     1
  8
0
  6
Continuous
 62
     7
370
    25
100
AcDbCircle
 10
198.5
 20
288.75
 30
0.0
 40
1.999999999999943
100
AcDbArc
 50
90.0
 51
180.0
  0
ARC
  5
294
330
1B
100
AcDbEntity
 67
     1
  8
0
  6
Continuous
 62
     7
370
    25
100
AcDbCircle
 10
198.5
 20
281.75
 30
0.0
 40
2.0
100
AcDbArc
 50
180.0
 51
270.0
  0
ARC
  5
295
330
1B
100
AcDbEntity
 67
     1
  8
0
  6
Continuous
 62
     7
370
    25
100
AcDbCircle
 10
198.5
 20
281.75
 30
0.0
 40
3.500000000000114
100
AcDbArc
 50
180.0
 51
270.0
  0
ARC
  5
296
330
1B
100
AcDbEntity
 67
     1
  8
0
  6
Continuous
 62
     7
370
    25
100
AcDbCircle
 10
198.5
 20
288.75
 30
0.0
 40
3.500000000000114
100
AcDbArc
 50
90.0
 51
180.0
  0
ARC
  5
297
330
1B
100
AcDbEntity
 67
     1
  8
0
  6
Continuous
 62
     7
370
    25
100
AcDbCircle
 10
205.5
 20
288.75
 30
0.0
 40
3.500000000000114
100
AcDbArc
 50
0.0
 51
90.0
  0
ARC
  5
298
330
1B
100
AcDbEntity
 67
     1
  8
0
  6
Continuous
 62
     7
370
    25
100
AcDbCircle
 10
205.5
 20
281.75
 30
0.0
 40
3.500000000000114
100
AcDbArc
 50
270.0
 51
360.0
  0
ARC
  5
299
330
1B
100
AcDbEntity
 67
     1
  8
0
  6
Continuous
 62
     7
370
    25
100
AcDbCircle
 10
-227.2
 20
274.8
 30
0.0
 40
1.79999999999967
100
AcDbArc
 50
180.0
 51
270.0
  0
ARC
  5
29A
330
1B
100
AcDbEntity
 67
     1
  8
0
  6
Continuous
 62
     7
370
    25
100
AcDbCircle
 10
-227.2
 20
274.8
 30
0.0
 40
0.4200000000005844
100
AcDbArc
 50
180.0
 51
270.0
  0
ARC
  5
29B
330
1B
100
AcDbEntity
 67
     1
  8
0
  6
Continuous
 62
     7
370
    25
100
AcDbCircle
 10
-202.3
 20
274.8
 30
0.0
 40
0.4200000000013802
100
AcDbArc
 50
270.0000000001
 51
359.9999999999
  0
ARC
  5
29C
330
1B
100
AcDbEntity
 67
     1
  8
0
  6
Continuous
 62
     7
370
    25
100
AcDbCircle
 10
-198.5
 20
281.75
 30
0.0
 40
3.379999999993258
100
AcDbArc
 50
102.8202712195
 51
167.1797287805
  0
ARC
  5
29D
330
1B
100
AcDbEntity
 67
     1
  8
0
  6
Continuous
 62
     7
370
    25
100
AcDbCircle
 10
-198.5
 20
288.75
 30
0.0
 40
3.379999999993524
100
AcDbArc
 50
192.8202712195
 51
257.1797287805
  0
ARC
  5
29E
330
1B
100
AcDbEntity
 67
     1
  8
0
  6
Continuous
 62
     7
370
    25
100
AcDbCircle
 10
-205.5
 20
288.75
 30
0.0
 40
3.379999999993685
100
AcDbArc
 50
282.8202712195
 51
347.1797287805
  0
ARC
  5
29F
330
1B
100
AcDbEntity
 67
     1
  8
0
  6
Continuous
 62
     7
370
    25
100
AcDbCircle
 10
-205.5
 20
281.75
 30
0.0
 40
3.379999999993592
100
AcDbArc
 50
12.8202712195
 51
77.1797287805
  0
ARC
  5
2A0
330
1B
100
AcDbEntity
 67
     1
  8
0
  6
Continuous
 62
     7
370
    25
100
AcDbCircle
 10
-205.5
 20
281.75
 30
0.0
 40
1.999999999999318
100
AcDbArc
 50
360.0
 51
85.2198074134
  0
ARC
  5
2A1
330
1B
100
AcDbEntity
 67
     1
  8
0
  6
Continuous
 62
     7
370
    25
100
AcDbCircle
 10
-205.25
 20
284.7395651858
 30
0.0
 40
0.9999999999999147
100
AcDbArc
 50
180.0
 51
265.2198096316
  0
ARC
  5
2A2
330
1B
100
AcDbEntity
 67
     1
  8
0
  6
Continuous
 62
     7
370
    25
100
AcDbCircle
 10
-205.25
 20
285.7604348142
 30
0.0
 40
1.000000000000284
100
AcDbArc
 50
94.7801904314
 51
180.0
  0
ARC
  5
2A3
330
1B
100
AcDbEntity
 67
     1
  8
0
  6
Continuous
 62
     7
370
    25
100
AcDbCircle
 10
-205.5
 20
288.75
 30
0.0
 40
2.000000000001285
100
AcDbArc
 50
274.7801925551
 51
355.2198081528
  0
ARC
  5
2A4
330
1B
100
AcDbEntity
 67
     1
  8
0
  6
Continuous
 62
     7
370
    25
100
AcDbCircle
 10
-202.5104348142
 20
288.5
 30
0.0
 40
0.9999999999990905
100
AcDbArc
 50
90.0
 51
175.2198081528
  0
ARC
  5
2A5
330
1B
100
AcDbEntity
 67
     1
  8
0
  6
Continuous
 62
     7
370
    25
100
AcDbCircle
 10
-201.4895651858
 20
288.5
 30
0.0
 40
0.9999999999999432
100
AcDbArc
 50
4.7801929766
 51
90.0
  0
ARC
  5
2A6
330
1B
100
AcDbEntity
 67
     1
  8
0
  6
Continuous
 62
     7
370
    25
100
AcDbCircle
 10
-198.5
 20
288.75
 30
0.0
 40
2.000000000000835
100
AcDbArc
 50
184.7801912825
 51
260.4059317731
  0
ARC
  5
2A7
330
1B
100
AcDbEntity
 67
     1
  8
0
  6
Continuous
 62
     7
370
    25
100
AcDbCircle
 10
-199.0
 20
285.7919601085
 30
0.0
 40
0.9999999999992671
100
AcDbArc
 50
360.0
 51
80.4059317732
  0
ARC
  5
2A8
330
1B
100
AcDbEntity
 67
     1
  8
0
  6
Continuous
 62
     7
370
    25
100
AcDbCircle
 10
-199.0
 20
284.7080398915
 30
0.0
 40
0.9999999999990621
100
AcDbArc
 50
279.5940682268
 51
0.0
  0
ARC
  5
2A9
330
1B
100
AcDbEntity
 67
     1
  8
0
  6
Continuous
 62
     7
370
    25
100
AcDbCircle
 10
-198.5
 20
281.75
 30
0.0
 40
2.000000000000296
100
AcDbArc
 50
99.5940682269
 51
180.0
  0
ARC
  5
2AA
330
1B
100
AcDbEntity
 67
     1
  8
0
  6
Continuous
 62
     7
370
    25
100
AcDbCircle
 10
-202.3
 20
274.8
 30
0.0
 40
1.799999999999443
100
AcDbArc
 50
270.0
 51
0.0
  0
ARC
  5
2AB
330
1B
100
AcDbEntity
 67
     1
  8
0
  6
Continuous
 62
     7
370
    25
100
AcDbCircle
 10
-197.04
 20
272.0
 30
0.0
 40
3.60000000000019
100
AcDbArc
 50
346.4637972626
 51
13.5362027374
  0
ARC
  5
2AC
330
1B
100
AcDbEntity
 67
     1
  8
0
  6
Continuous
 62
     7
370
    25
100
AcDbCircle
 10
228.0
 20
1.0
 30
0.0
 40
0.9999999999999717
100
AcDbArc
 50
270.0
 51
0.0
  0
ARC
  5
2AD
330
1B
100
AcDbEntity
 67
     1
  8
0
  6
Continuous
 62
     7
370
    25
100
AcDbCircle
 10
-228.0
 20
1.0
 30
0.0
 40
1.0
100
AcDbArc
 50
180.0
 51
270.0
  0
ARC
  5
2AE
330
1B
100
AcDbEntity
 67
     1
  8
0
  6
Continuous
 62
     7
370
    25
100
AcDbCircle
 10
228.0
 20
17.0
 30
0.0
 40
0.9999999999999716
100
AcDbArc
 50
360.0
 51
90.0
  0
ARC
  5
2AF
330
1B
100
AcDbEntity
 67
     1
  8
0
  6
Continuous
 62
     7
370
    25
100
AcDbCircle
 10
-228.0
 20
17.0
 30
0.0
 40
0.9999999999999716
100
AcDbArc
 50
90.0
 51
180.0
  0
ARC
  5
2B0
330
1B
100
AcDbEntity
 67
     1
  8
0
  6
Continuous
 62
     7
370
    25
100
AcDbCircle
 10
202.3
 20
274.8
 30
0.0
 40
1.799999999999358
100
AcDbArc
 50
180.0
 51
270.0
  0
ARC
  5
2B1
330
1B
100
AcDbEntity
 67
     1
  8
0
  6
Continuous
 62
     7
370
    25
100
AcDbCircle
 10
198.5
 20
281.75
 30
0.0
 40
2.000000000000362
100
AcDbArc
 50
360.0
 51
80.4059317731
  0
ARC
  5
2B2
330
1B
100
AcDbEntity
 67
     1
  8
0
  6
Continuous
 62
     7
370
    25
100
AcDbCircle
 10
199.0
 20
284.7080398915
 30
0.0
 40
0.9999999999992042
100
AcDbArc
 50
180.0
 51
260.4059317732
  0
ARC
  5
2B3
330
1B
100
AcDbEntity
 67
     1
  8
0
  6
Continuous
 62
     7
370
    25
100
AcDbCircle
 10
199.0
 20
285.7919601085
 30
0.0
 40
0.9999999999992895
100
AcDbArc
 50
99.5940682269
 51
180.0
  0
ARC
  5
2B4
330
1B
100
AcDbEntity
 67
     1
  8
0
  6
Continuous
 62
     7
370
    25
100
AcDbCircle
 10
198.5
 20
288.75
 30
0.0
 40
2.00000000000083
100
AcDbArc
 50
279.5940682269
 51
355.2198087175
  0
ARC
  5
2B5
330
1B
100
AcDbEntity
 67
     1
  8
0
  6
Continuous
 62
     7
370
    25
100
AcDbCircle
 10
201.4895651858
 20
288.5
 30
0.0
 40
1.000000000000057
100
AcDbArc
 50
90.0
 51
175.2198070234
  0
ARC
  5
2B6
330
1B
100
AcDbEntity
 67
     1
  8
0
  6
Continuous
 62
     7
370
    25
100
AcDbCircle
 10
202.5104348142
 20
288.5
 30
0.0
 40
0.9999999999990905
100
AcDbArc
 50
4.7801918472
 51
90.0
  0
ARC
  5
2B7
330
1B
100
AcDbEntity
 67
     1
  8
0
  6
Continuous
 62
     7
370
    25
100
AcDbCircle
 10
205.5
 20
288.75
 30
0.0
 40
2.000000000001294
100
AcDbArc
 50
184.7801918472
 51
265.2198074449
  0
ARC
  5
2B8
330
1B
100
AcDbEntity
 67
     1
  8
0
  6
Continuous
 62
     7
370
    25
100
AcDbCircle
 10
205.25
 20
285.7604348142
 30
0.0
 40
1.000000000000256
100
AcDbArc
 50
0.0
 51
85.2198095686
  0
ARC
  5
2B9
330
1B
100
AcDbEntity
 67
     1
  8
0
  6
Continuous
 62
     7
370
    25
100
AcDbCircle
 10
205.25
 20
284.7395651858
 30
0.0
 40
0.9999999999999147
100
AcDbArc
 50
274.7801903684
 51
360.0
  0
ARC
  5
2BA
330
1B
100
AcDbEntity
 67
     1
  8
0
  6
Continuous
 62
     7
370
    25
100
AcDbCircle
 10
205.5
 20
281.75
 30
0.0
 40
1.999999999999517
100
AcDbArc
 50
94.7801925866
 51
180.0
  0
ARC
  5
2BB
330
1B
100
AcDbEntity
 67
     1
  8
0
  6
Continuous
 62
     7
370
    25
100
AcDbCircle
 10
205.5
 20
281.75
 30
0.0
 40
3.379999999993709
100
AcDbArc
 50
102.8202712195
 51
167.1797287805
  0
ARC
  5
2BC
330
1B
100
AcDbEntity
 67
     1
  8
0
  6
Continuous
 62
     7
370
    25
100
AcDbCircle
 10
205.5
 20
288.75
 30
0.0
 40
3.37999999999366
100
AcDbArc
 50
192.8202712195
 51
257.1797287805
  0
ARC
  5
2BD
330
1B
100
AcDbEntity
 67
     1
  8
0
  6
Continuous
 62
     7
370
    25
100
AcDbCircle
 10
198.5
 20
288.75
 30
0.0
 40
3.379999999993543
100
AcDbArc
 50
282.8202712195
 51
347.1797287805
  0
ARC
  5
2BE
330
1B
100
AcDbEntity
 67
     1
  8
0
  6
Continuous
 62
     7
370
    25
100
AcDbCircle
 10
198.5
 20
281.75
 30
0.0
 40
3.379999999993585
100
AcDbArc
 50
12.8202712195
 51
77.1797287805
  0
ARC
  5
2BF
330
1B
100
AcDbEntity
 67
     1
  8
0
  6
Continuous
 62
     7
370
    25
100
AcDbCircle
 10
202.3
 20
274.8
 30
0.0
 40
0.4200000000014086
100
AcDbArc
 50
180.0000000001
 51
269.9999999999
  0
ARC
  5
2C0
330
1B
100
AcDbEntity
 67
     1
  8
0
  6
Continuous
 62
     7
370
    25
100
AcDbCircle
 10
227.2
 20
274.8
 30
0.0
 40
0.4200000000005844
100
AcDbArc
 50
270.0
 51
360.0
  0
ARC
  5
2C1
330
1B
100
AcDbEntity
 67
     1
  8
0
  6
Continuous
 62
     7
370
    25
100
AcDbCircle
 10
227.2
 20
274.8
 30
0.0
 40
1.79999999999967
100
AcDbArc
 50
270.0
 51
0.0
  0
ARC
  5
2C2
330
1B
100
AcDbEntity
 67
     1
  8
0
  6
Continuous
 62
     7
370
    25
100
AcDbCircle
 10
197.04
 20
272.0
 30
0.0
 40
3.60000000000019
100
AcDbArc
 50
166.4637972626
 51
193.5362027374
  0
ARC
  5
2C3
330
1B
100
AcDbEntity
 67
     1
  8
0
  6
Continuous
 62
     7
370
    25
100
AcDbCircle
 10
247.0
 20
1.0
 30
0.0
 40
1.000000000000004
100
AcDbArc
 50
270.0
 51
0.0
  0
ARC
  5
2C4
330
1B
100
AcDbEntity
 67
     1
  8
0
  6
Continuous
 62
     7
370
    25
100
AcDbCircle
 10
230.0
 20
1.0
 30
0.0
 40
1.000000000000057
100
AcDbArc
 50
180.0
 51
270.0
  0
ARC
  5
2C5
330
1B
100
AcDbEntity
 67
     1
  8
0
  6
Continuous
 62
     7
370
    25
100
AcDbCircle
 10
247.0
 20
479.0
 30
0.0
 40
1.000000000000057
100
AcDbArc
 50
0.0
 51
90.0
  0
ARC
  5
2C6
330
1B
100
AcDbEntity
 67
     1
  8
0
  6
Continuous
 62
     7
370
    25
100
AcDbCircle
 10
230.0
 20
479.0
 30
0.0
 40
1.000000000000114
100
AcDbArc
 50
90.0
 51
180.0
  0
ARC
  5
2C7
330
1B
100
AcDbEntity
 67
     1
  8
0
  6
Continuous
 62
     7
370
    25
100
AcDbCircle
 10
-205.5
 20
281.75
 30
0.0
 40
3.500000000000057
100
AcDbArc
 50
180.0
 51
270.0
  0
ARC
  5
2C8
330
1B
100
AcDbEntity
 67
     1
  8
0
  6
Continuous
 62
     7
370
    25
100
AcDbCircle
 10
-205.5
 20
288.75
 30
0.0
 40
3.500000000000114
100
AcDbArc
 50
90.0
 51
180.0
  0
ARC
  5
2C9
330
1B
100
AcDbEntity
 67
     1
  8
0
  6
Continuous
 62
     7
370
    25
100
AcDbCircle
 10
-198.5
 20
288.75
 30
0.0
 40
3.500000000000114
100
AcDbArc
 50
0.0
 51
90.0
  0
ARC
  5
2CA
330
1B
100
AcDbEntity
 67
     1
  8
0
  6
Continuous
 62
     7
370
    25
100
AcDbCircle
 10
-198.5
 20
281.75
 30
0.0
 40
3.500000000000085
100
AcDbArc
 50
270.0
 51
360.0
  0
ARC
  5
2CB
330
1B
100
AcDbEntity
 67
     1
  8
0
  6
Continuous
 62
     7
370
    25
100
AcDbCircle
 10
-198.5
 20
281.75
 30
0.0
 40
2.000000000000057
100
AcDbArc
 50
270.0
 51
360.0
  0
ARC
  5
2CC
330
1B
100
AcDbEntity
 67
     1
  8
0
  6
Continuous
 62
     7
370
    25
100
AcDbCircle
 10
-198.5
 20
288.75
 30
0.0
 40
1.999999999999943
100
AcDbArc
 50
360.0
 51
90.0
  0
ARC
  5
2CD
330
1B
100
AcDbEntity
 67
     1
  8
0
  6
Continuous
 62
     7
370
    25
100
AcDbCircle
 10
-205.5
 20
288.75
 30
0.0
 40
2.000000000000085
100
AcDbArc
 50
90.0
 51
180.0
  0
ARC
  5
2CE
330
1B
100
AcDbEntity
 67
     1
  8
0
  6
Continuous
 62
     7
370
    25
100
AcDbCircle
 10
-205.5
 20
281.75
 30
0.0
 40
1.999999999999972
100
AcDbArc
 50
180.0
 51
270.0
  0
VIEWPORT
  5
566
330
1B
100
AcDbEntity
 67
     1
  8
0
100
AcDbViewport
 10
0.0
 20
0.0
 30
0.0
 40
205.6
 41
156.0
 68
     1
 69
     1
 12
0.0
 22
240.0
 13
0.0
 23
0.0
 14
10.0
 24
10.0
 15
10.0
 25
10.0
 16
0.0
 26
0.0
 36
1.0
 17
0.0
 27
0.0
 37
0.0
 42
50.0
 43
0.0
 44
0.0
 45
489.6
 50
0.0
 51
0.0
 72
   100
 90
   557152
  1

281
     0
 71
     1
 74
     0
110
0.0
120
0.0
130
0.0
111
1.0
121
0.0
131
0.0
112
0.0
122
1.0
132
0.0
 79
     0
146
0.0
  0
ENDSEC
  0
SECTION
  2
OBJECTS
  0
DICTIONARY
  5
C
330
0
100
AcDbDictionary
281
     1
  3
ACAD_GROUP
350
D
  3
ACAD_LAYOUT
350
1A
  3
ACAD_MLINESTYLE
350
17
  3
ACAD_PLOTSETTINGS
350
19
  3
ACAD_PLOTSTYLENAME
350
E
  3
ACAD_SCALELIST
350
47
  0
DICTIONARY
  5
D
102
{ACAD_REACTORS
330
C
102
}
330
C
100
AcDbDictionary
281
     1
  0
DICTIONARY
  5
1A
102
{ACAD_REACTORS
330
C
102
}
330
C
100
AcDbDictionary
281
     1
  3
_Back
350
1E
  3
_Isometric
350
401
  3
_Left
350
26
  3
_Top
350
330
  3
Model
350
22
  0
DICTIONARY
  5
17
102
{ACAD_REACTORS
330
C
102
}
330
C
100
AcDbDictionary
281
     1
  3
Standard
350
18
  0
DICTIONARY
  5
19
102
{ACAD_REACTORS
330
C
102
}
330
C
100
AcDbDictionary
281
     1
  0
ACDBDICTIONARYWDFLT
  5
E
102
{ACAD_REACTORS
330
C
102
}
330
C
100
AcDbDictionary
281
     1
  3
Normal
350
F
100
AcDbDictionaryWithDefault
340
F
  0
DICTIONARY
  5
47
102
{ACAD_REACTORS
330
C
102
}
330
C
100
AcDbDictionary
281
     1
  3
A0
350
48
  3
A1
350
49
  3
A2
350
4A
  3
A3
350
4B
  3
A4
350
4C
  3
A5
350
4D
  3
A6
350
4E
  3
A7
350
4F
  3
A8
350
50
  3
A9
350
51
  3
B0
350
52
  3
B1
350
53
  3
B2
350
54
  3
B3
350
55
  3
B4
350
56
  3
B5
350
57
  3
B6
350
58
  3
B7
350
59
  3
B8
350
5A
  3
B9
350
5B
  3
C0
350
5C
  3
C1
350
5D
  3
C2
350
5E
  3
C3
350
5F
  3
C4
350
60
  3
C5
350
61
  3
C6
350
62
  3
C7
350
63
  3
C8
350
64
  3
C9
350
65
  3
D0
350
66
  3
D1
350
67
  3
D2
350
68
  0
LAYOUT
  5
1E
102
{ACAD_REACTORS
330
1A
102
}
330
1A
100
AcDbPlotSettings
  1

  2
none_device
  4
ISO_A4_(210.00_x_297.00_MM)
  6

 40
7.5
 41
20.0
 42
7.5
 43
20.0
 44
210.0
 45
297.0
 46
0.0
 47
0.0
 48
0.0
 49
0.0
140
0.0
141
0.0
142
1.0
143
2.4615384615
 70
   688
 72
     1
 73
     1
 74
     1
  7

 75
     0
147
0.40625
148
248.0
149
0.0
100
AcDbLayout
  1
_Back
 70
     1
 71
     1
 10
-297.2307692308
 20
-18.4615384615
 11
433.8461538462
 21
498.4615384615
 12
0.0
 22
0.0
 32
0.0
 14
-248.0
 24
0.0
 34
0.0
 15
248.0
 25
480.0
 35
0.0
146
0.0
 13
0.0
 23
0.0
 33
0.0
 16
1.0
 26
0.0
 36
0.0
 17
0.0
 27
1.0
 37
0.0
 76
     0
330
1B
331
566
  0
LAYOUT
  5
401
102
{ACAD_REACTORS
330
1A
102
}
330
1A
100
AcDbPlotSettings
  1

  2
none_device
  4
ISO_A4_(210.00_x_297.00_MM)
  6

 40
7.5
 41
20.0
 42
7.5
 43
20.0
 44
210.0
 45
297.0
 46
0.0
 47
0.0
 48
0.0
 49
0.0
140
0.0
141
0.0
142
1.0
143
2.4615384615
 70
   688
 72
     1
 73
     1
 74
     1
  7

 75
     0
147
0.40625
148
248.0
149
0.0
100
AcDbLayout
  1
_Isometric
 70
     1
 71
     4
 10
0.0
 20
0.0
 11
0.0
 21
0.0
 12
0.0
 22
0.0
 32
0.0
 14
0.0
 24
0.0
 34
0.0
 15
0.0
 25
0.0
 35
0.0
146
0.0
 13
0.0
 23
0.0
 33
0.0
 16
1.0
 26
0.0
 36
0.0
 17
0.0
 27
1.0
 37
0.0
 76
     0
330
400
331
56C
  0
LAYOUT
  5
26
102
{ACAD_REACTORS
330
1A
102
}
330
1A
100
AcDbPlotSettings
  1

  2
none_device
  4
ISO_A4_(210.00_x_297.00_MM)
  6

 40
7.5
 41
20.0
 42
7.5
 43
20.0
 44
210.0
 45
297.0
 46
0.0
 47
0.0
 48
0.0
 49
0.0
140
0.0
141
0.0
142
1.0
143
2.4615384615
 70
   688
 72
     1
 73
     1
 74
     1
  7

 75
     0
147
0.40625
148
248.0
149
0.0
100
AcDbLayout
  1
_Left
 70
     1
 71
     2
 10
0.0
 20
0.0
 11
0.0
 21
0.0
 12
0.0
 22
0.0
 32
0.0
 14
0.0
 24
0.0
 34
0.0
 15
0.0
 25
0.0
 35
0.0
146
0.0
 13
0.0
 23
0.0
 33
0.0
 16
1.0
 26
0.0
 36
0.0
 17
0.0
 27
1.0
 37
0.0
 76
     0
330
23
331
568
  0
LAYOUT
  5
330
102
{ACAD_REACTORS
330
1A
102
}
330
1A
100
AcDbPlotSettings
  1

  2
none_device
  4
ISO_A4_(210.00_x_297.00_MM)
  6

 40
7.5
 41
20.0
 42
7.5
 43
20.0
 44
210.0
 45
297.0
 46
0.0
 47
0.0
 48
0.0
 49
0.0
140
0.0
141
0.0
142
1.0
143
2.4615384615
 70
   688
 72
     1
 73
     1
 74
     1
  7

 75
     0
147
0.40625
148
248.0
149
0.0
100
AcDbLayout
  1
_Top
 70
     1
 71
     3
 10
0.0
 20
0.0
 11
0.0
 21
0.0
 12
0.0
 22
0.0
 32
0.0
 14
0.0
 24
0.0
 34
0.0
 15
0.0
 25
0.0
 35
0.0
146
0.0
 13
0.0
 23
0.0
 33
0.0
 16
1.0
 26
0.0
 36
0.0
 17
0.0
 27
1.0
 37
0.0
 76
     0
330
32F
331
56A
  0
LAYOUT
  5
22
102
{ACAD_REACTORS
330
1A
102
}
330
1A
100
AcDbPlotSettings
  1

  2
none_device
  4
ANSI_A_(11.00_x_8.50_Inches)
  6

 40
6.35
 41
19.05
 42
6.35000508
 43
19.05000254
 44
279.4
 45
215.9
 46
133.34999746
 47
-17.97050127
 48
0.0
 49
0.0
140
0.0
141
0.0
142
0.01753125
143
1.0
 70
  1696
 72
     0
 73
     0
 74
     0
  7

 75
     0
147
0.0179189148
148
-1300.4909072572
149
0.0
100
AcDbLayout
  1
Model
 70
     1
 71
     0
 10
0.0
 20
0.0
 11
420.0
 21
297.0
 12
0.0
 22
0.0
 32
0.0
 14
-248.0
 24
0.0
 34
0.0
 15
248.0
 25
480.0
 35
0.0
146
0.0
 13
0.0
 23
0.0
 33
0.0
 16
1.0
 26
0.0
 36
0.0
 17
0.0
 27
1.0
 37
0.0
 76
     0
330
1F
331
29
  0
MLINESTYLE
  5
18
102
{ACAD_REACTORS
330
17
102
}
330
17
100
AcDbMlineStyle
  2
Standard
 70
     0
  3

 62
   256
 51
90.0
 52
90.0
 71
     2
 49
0.5
 62
   256
  6
BYLAYER
 49
-0.5
 62
   256
  6
BYLAYER
  0
ACDBPLACEHOLDER
  5
F
102
{ACAD_REACTORS
330
E
102
}
330
E
  0
SCALE
  5
48
102
{ACAD_REACTORS
330
47
102
}
330
47
100
AcDbScale
 70
     0
300
1:1
140
1.0
141
1.0
290
     1
  0
SCALE
  5
49
102
{ACAD_REACTORS
330
47
102
}
330
47
100
AcDbScale
 70
     0
300
1:2
140
1.0
141
2.0
290
     0
  0
SCALE
  5
4A
102
{ACAD_REACTORS
330
47
102
}
330
47
100
AcDbScale
 70
     0
300
1:4
140
1.0
141
4.0
290
     0
  0
SCALE
  5
4B
102
{ACAD_REACTORS
330
47
102
}
330
47
100
AcDbScale
 70
     0
300
1:5
140
1.0
141
5.0
290
     0
  0
SCALE
  5
4C
102
{ACAD_REACTORS
330
47
102
}
330
47
100
AcDbScale
 70
     0
300
1:8
140
1.0
141
8.0
290
     0
  0
SCALE
  5
4D
102
{ACAD_REACTORS
330
47
102
}
330
47
100
AcDbScale
 70
     0
300
1:10
140
1.0
141
10.0
290
     0
  0
SCALE
  5
4E
102
{ACAD_REACTORS
330
47
102
}
330
47
100
AcDbScale
 70
     0
300
1:16
140
1.0
141
16.0
290
     0
  0
SCALE
  5
4F
102
{ACAD_REACTORS
330
47
102
}
330
47
100
AcDbScale
 70
     0
300
1:20
140
1.0
141
20.0
290
     0
  0
SCALE
  5
50
102
{ACAD_REACTORS
330
47
102
}
330
47
100
AcDbScale
 70
     0
300
1:30
140
1.0
141
30.0
290
     0
  0
SCALE
  5
51
102
{ACAD_REACTORS
330
47
102
}
330
47
100
AcDbScale
 70
     0
300
1:40
140
1.0
141
40.0
290
     0
  0
SCALE
  5
52
102
{ACAD_REACTORS
330
47
102
}
330
47
100
AcDbScale
 70
     0
300
1:50
140
1.0
141
50.0
290
     0
  0
SCALE
  5
53
102
{ACAD_REACTORS
330
47
102
}
330
47
100
AcDbScale
 70
     0
300
1:100
140
1.0
141
100.0
290
     0
  0
SCALE
  5
54
102
{ACAD_REACTORS
330
47
102
}
330
47
100
AcDbScale
 70
     0
300
2:1
140
2.0
141
1.0
290
     0
  0
SCALE
  5
55
102
{ACAD_REACTORS
330
47
102
}
330
47
100
AcDbScale
 70
     0
300
4:1
140
4.0
141
1.0
290
     0
  0
SCALE
  5
56
102
{ACAD_REACTORS
330
47
102
}
330
47
100
AcDbScale
 70
     0
300
8:1
140
8.0
141
1.0
290
     0
  0
SCALE
  5
57
102
{ACAD_REACTORS
330
47
102
}
330
47
100
AcDbScale
 70
     0
300
10:1
140
10.0
141
1.0
290
     0
  0
SCALE
  5
58
102
{ACAD_REACTORS
330
47
102
}
330
47
100
AcDbScale
 70
     0
300
100:1
140
100.0
141
1.0
290
     0
  0
SCALE
  5
59
102
{ACAD_REACTORS
330
47
102
}
330
47
100
AcDbScale
 70
     0
300
1/128" = 1'-0"
140
0.0078125
141
12.0
290
     0
  0
SCALE
  5
5A
102
{ACAD_REACTORS
330
47
102
}
330
47
100
AcDbScale
 70
     0
300
1/64" = 1'-0"
140
0.015625
141
12.0
290
     0
  0
SCALE
  5
5B
102
{ACAD_REACTORS
330
47
102
}
330
47
100
AcDbScale
 70
     0
300
1/32" = 1'-0"
140
0.03125
141
12.0
290
     0
  0
SCALE
  5
5C
102
{ACAD_REACTORS
330
47
102
}
330
47
100
AcDbScale
 70
     0
300
1/16" = 1'-0"
140
0.0625
141
12.0
290
     0
  0
SCALE
  5
5D
102
{ACAD_REACTORS
330
47
102
}
330
47
100
AcDbScale
 70
     0
300
3/32" = 1'-0"
140
0.09375
141
12.0
290
     0
  0
SCALE
  5
5E
102
{ACAD_REACTORS
330
47
102
}
330
47
100
AcDbScale
 70
     0
300
1/8" = 1'-0"
140
0.125
141
12.0
290
     0
  0
SCALE
  5
5F
102
{ACAD_REACTORS
330
47
102
}
330
47
100
AcDbScale
 70
     0
300
3/16" = 1'-0"
140
0.1875
141
12.0
290
     0
  0
SCALE
  5
60
102
{ACAD_REACTORS
330
47
102
}
330
47
100
AcDbScale
 70
     0
300
1/4" = 1'-0"
140
0.25
141
12.0
290
     0
  0
SCALE
  5
61
102
{ACAD_REACTORS
330
47
102
}
330
47
100
AcDbScale
 70
     0
300
3/8" = 1'-0"
140
0.375
141
12.0
290
     0
  0
SCALE
  5
62
102
{ACAD_REACTORS
330
47
102
}
330
47
100
AcDbScale
 70
     0
300
1/2" = 1'-0"
140
0.5
141
12.0
290
     0
  0
SCALE
  5
63
102
{ACAD_REACTORS
330
47
102
}
330
47
100
AcDbScale
 70
     0
300
3/4" = 1'-0"
140
0.75
141
12.0
290
     0
  0
SCALE
  5
64
102
{ACAD_REACTORS
330
47
102
}
330
47
100
AcDbScale
 70
     0
300
1" = 1'-0"
140
1.0
141
12.0
290
     0
  0
SCALE
  5
65
102
{ACAD_REACTORS
330
47
102
}
330
47
100
AcDbScale
 70
     0
300
1-1/2" = 1'-0"
140
1.5
141
12.0
290
     0
  0
SCALE
  5
66
102
{ACAD_REACTORS
330
47
102
}
330
47
100
AcDbScale
 70
     0
300
3" = 1'-0"
140
3.0
141
12.0
290
     0
  0
SCALE
  5
67
102
{ACAD_REACTORS
330
47
102
}
330
47
100
AcDbScale
 70
     0
300
6" = 1'-0"
140
6.0
141
12.0
290
     0
  0
SCALE
  5
68
102
{ACAD_REACTORS
330
47
102
}
330
47
100
AcDbScale
 70
     0
300
1'-0" = 1'-0"
140
12.0
141
12.0
290
     0
  0
ENDSEC
  0
EOF
