  0
SECTION
  2
HEADER
  9
$ACADVER
  1
AC1015
  9
$ACADMAINTVER
 70
     6
  9
$DWGCODEPAGE
  3
ANSI_1252
  9
$INSBASE
 10
0.0
 20
0.0
 30
0.0
  9
$EXTMIN
 10
-179.8952365713
 20
-211.9575003344
 30
0.0
  9
$EXTMAX
 10
179.8952365713
 20
217.2939087823
 30
0.0
  9
$LIMMIN
 10
0.0
 20
0.0
  9
$LIMMAX
 10
420.0
 20
297.0
  9
$ORTHOMODE
 70
     0
  9
$REGENMODE
 70
     1
  9
$FILLMODE
 70
     1
  9
$QTEXTMODE
 70
     0
  9
$MIRRTEXT
 70
     1
  9
$LTSCALE
 40
1.0
  9
$ATTMODE
 70
     1
  9
$TEXTSIZE
 40
3.5
  9
$TRACEWID
 40
1.0
  9
$TEXTSTYLE
  7
Standard
  9
$CLAYER
  8
0
  9
$CELTYPE
  6
ByLayer
  9
$CECOLOR
 62
   256
  9
$CELTSCALE
 40
1.0
  9
$DISPSILH
 70
     0
  9
$DIMSCALE
 40
1.0
  9
$DIMASZ
 40
3.302
  9
$DIMEXO
 40
1.0
  9
$DIMDLI
 40
3.75
  9
$DIMRND
 40
0.0
  9
$DIMDLE
 40
0.0
  9
$DIMEXE
 40
1.0
  9
$DIMTP
 40
0.0
  9
$DIMTM
 40
0.0
  9
$DIMTXT
 40
3.5
  9
$DIMCEN
 40
2.5
  9
$DIMTSZ
 40
0.0
  9
$DIMTOL
 70
     0
  9
$DIMLIM
 70
     0
  9
$DIMTIH
 70
     1
  9
$DIMTOH
 70
     1
  9
$DIMSE1
 70
     0
  9
$DIMSE2
 70
     0
  9
$DIMTAD
 70
     1
  9
$DIMZIN
 70
     0
  9
$DIMBLK
  1

  9
$DIMASO
 70
     1
  9
$DIMSHO
 70
     1
  9
$DIMPOST
  1

  9
$DIMAPOST
  1

  9
$DIMALT
 70
     0
  9
$DIMALTD
 70
     3
  9
$DIMALTF
 40
0.0393700787
  9
$DIMLFAC
 40
1.0
  9
$DIMTOFL
 70
     1
  9
$DIMTVP
 40
0.0
  9
$DIMTIX
 70
     0
  9
$DIMSOXD
 70
     0
  9
$DIMSAH
 70
     0
  9
$DIMBLK1
  1

  9
$DIMBLK2
  1

  9
$DIMSTYLE
  2
ISO-25
  9
$DIMCLRD
 70
     0
  9
$DIMCLRE
 70
     0
  9
$DIMCLRT
 70
     0
  9
$DIMTFAC
 40
1.0
  9
$DIMGAP
 40
1.524
  9
$DIMJUST
 70
     0
  9
$DIMSD1
 70
     0
  9
$DIMSD2
 70
     0
  9
$DIMTOLJ
 70
     0
  9
$DIMTZIN
 70
     0
  9
$DIMALTZ
 70
     0
  9
$DIMALTTZ
 70
     0
  9
$DIMUPT
 70
     0
  9
$DIMDEC
 70
     2
  9
$DIMTDEC
 70
     2
  9
$DIMALTU
 70
     2
  9
$DIMALTTD
 70
     3
  9
$DIMTXSTY
  7
Standard
  9
$DIMAUNIT
 70
     0
  9
$DIMADEC
 70
     2
  9
$DIMALTRND
 40
0.0
  9
$DIMAZIN
 70
     0
  9
$DIMDSEP
 70
    44
  9
$DIMATFIT
 70
     3
  9
$DIMFRAC
 70
     0
  9
$DIMLDRBLK
  1

  9
$DIMLUNIT
 70
     2
  9
$DIMLWD
 70
    -2
  9
$DIMLWE
 70
    -2
  9
$DIMTMOVE
 70
     0
  9
$LUNITS
 70
     2
  9
$LUPREC
 70
     2
  9
$SKETCHINC
 40
1.0
  9
$FILLETRAD
 40
10.0
  9
$AUNITS
 70
     0
  9
$AUPREC
 70
     2
  9
$MENU
  1
.
  9
$ELEVATION
 40
0.0
  9
$PELEVATION
 40
0.0
  9
$THICKNESS
 40
0.0
  9
$LIMCHECK
 70
     0
  9
$CHAMFERA
 40
0.0
  9
$CHAMFERB
 40
0.0
  9
$CHAMFERC
 40
0.0
  9
$CHAMFERD
 40
0.0
  9
$SKPOLY
 70
     0
  9
$TDCREATE
 40
2459676.354682859
  9
$TDUCREATE
 40
2459676.313016192
  9
$TDUPDATE
 40
2459676.354712511
  9
$TDUUPDATE
 40
2459676.313045845
  9
$TDINDWG
 40
0.0000000116
  9
$TDUSRTIMER
 40
0.0000000116
  9
$USRTIMER
 70
     1
  9
$ANGBASE
 50
0.0
  9
$ANGDIR
 70
     0
  9
$PDMODE
 70
     0
  9
$PDSIZE
 40
-1.0
  9
$PLINEWID
 40
0.0
  9
$SPLFRAME
 70
     0
  9
$SPLINETYPE
 70
     6
  9
$SPLINESEGS
 70
     8
  9
$HANDSEED
  5
1AE
  9
$SURFTAB1
 70
     6
  9
$SURFTAB2
 70
     6
  9
$SURFTYPE
 70
     6
  9
$SURFU
 70
     6
  9
$SURFV
 70
     6
  9
$UCSBASE
  2

  9
$UCSNAME
  2

  9
$UCSORG
 10
0.0
 20
0.0
 30
0.0
  9
$UCSXDIR
 10
1.0
 20
0.0
 30
0.0
  9
$UCSYDIR
 10
0.0
 20
1.0
 30
0.0
  9
$UCSORTHOREF
  2

  9
$UCSORTHOVIEW
 70
     0
  9
$UCSORGTOP
 10
0.0
 20
0.0
 30
0.0
  9
$UCSORGBOTTOM
 10
0.0
 20
0.0
 30
0.0
  9
$UCSORGLEFT
 10
0.0
 20
0.0
 30
0.0
  9
$UCSORGRIGHT
 10
0.0
 20
0.0
 30
0.0
  9
$UCSORGFRONT
 10
0.0
 20
0.0
 30
0.0
  9
$UCSORGBACK
 10
0.0
 20
0.0
 30
0.0
  9
$PUCSBASE
  2

  9
$PUCSNAME
  2

  9
$PUCSORG
 10
0.0
 20
0.0
 30
0.0
  9
$PUCSXDIR
 10
1.0
 20
0.0
 30
0.0
  9
$PUCSYDIR
 10
0.0
 20
1.0
 30
0.0
  9
$PUCSORTHOREF
  2

  9
$PUCSORTHOVIEW
 70
     0
  9
$PUCSORGTOP
 10
0.0
 20
0.0
 30
0.0
  9
$PUCSORGBOTTOM
 10
0.0
 20
0.0
 30
0.0
  9
$PUCSORGLEFT
 10
0.0
 20
0.0
 30
0.0
  9
$PUCSORGRIGHT
 10
0.0
 20
0.0
 30
0.0
  9
$PUCSORGFRONT
 10
0.0
 20
0.0
 30
0.0
  9
$PUCSORGBACK
 10
0.0
 20
0.0
 30
0.0
  9
$USERI1
 70
     0
  9
$USERI2
 70
     0
  9
$USERI3
 70
     0
  9
$USERI4
 70
     0
  9
$USERI5
 70
     0
  9
$USERR1
 40
0.0
  9
$USERR2
 40
0.0
  9
$USERR3
 40
0.0
  9
$USERR4
 40
0.0
  9
$USERR5
 40
0.0
  9
$WORLDVIEW
 70
     1
  9
$SHADEDGE
 70
     3
  9
$SHADEDIF
 70
    70
  9
$TILEMODE
 70
     1
  9
$MAXACTVP
 70
    64
  9
$PINSBASE
 10
0.0
 20
0.0
 30
0.0
  9
$PLIMCHECK
 70
     0
  9
$PEXTMIN
 10
-217.2939087823
 20
0.0
 30
0.0
  9
$PEXTMAX
 10
211.9575003344
 20
39.9352059368
 30
0.0
  9
$PLIMMIN
 10
-250.6986877018
 20
-12.5267920949
  9
$PLIMMAX
 10
245.362279254
 20
338.2233865608
  9
$UNITMODE
 70
     0
  9
$VISRETAIN
 70
     1
  9
$PLINEGEN
 70
     0
  9
$PSLTSCALE
 70
     1
  9
$TREEDEPTH
 70
  3020
  9
$CMLSTYLE
  2
Standard
  9
$CMLJUST
 70
     0
  9
$CMLSCALE
 40
20.0
  9
$PROXYGRAPHICS
 70
     1
  9
$MEASUREMENT
 70
     1
  9
$CELWEIGHT
370
    -1
  9
$ENDCAPS
280
     0
  9
$JOINSTYLE
280
     0
  9
$LWDISPLAY
290
     1
  9
$INSUNITS
 70
     4
  9
$HYPERLINKBASE
  1

  9
$STYLESHEET
  1

  9
$XEDIT
290
     1
  9
$CEPSNTYPE
380
     0
  9
$PSTYLEMODE
290
     1
  9
$FINGERPRINTGUID
  2
{f09df3a2-5ed6-45b8-8e3d-a2bad99bcb48}
  9
$VERSIONGUID
  2
{FAEB1C32-E019-11D5-929B-00C0DF256EC4}
  9
$EXTNAMES
290
     1
  9
$PSVPSCALE
 40
0.0
  9
$OLESTARTUP
290
     0
  0
ENDSEC
  0
SECTION
  2
CLASSES
  0
CLASS
  1
ACDBDICTIONARYWDFLT
  2
AcDbDictionaryWithDefault
  3
ObjectDBX Classes
 90
        0
280
     0
281
     0
  0
CLASS
  1
VISUALSTYLE
  2
AcDbVisualStyle
  3
ObjectDBX Classes
 90
     4095
280
     0
281
     0
  0
CLASS
  1
MATERIAL
  2
AcDbMaterial
  3
ObjectDBX Classes
 90
     1153
280
     0
281
     0
  0
CLASS
  1
SCALE
  2
AcDbScale
  3
ObjectDBX Classes
 90
     1153
280
     0
281
     0
  0
CLASS
  1
TABLESTYLE
  2
AcDbTableStyle
  3
ObjectDBX Classes
 90
     4095
280
     0
281
     0
  0
CLASS
  1
MLEADERSTYLE
  2
AcDbMLeaderStyle
  3
ACDB_MLEADERSTYLE_CLASS
 90
     4095
280
     0
281
     0
  0
CLASS
  1
SUN
  2
AcDbSun
  3
SCENEOE
 90
     1153
280
     0
281
     0
  0
CLASS
  1
ACDBPLACEHOLDER
  2
AcDbPlaceHolder
  3
ObjectDBX Classes
 90
        0
280
     0
281
     0
  0
CLASS
  1
LAYOUT
  2
AcDbLayout
  3
ObjectDBX Classes
 90
        0
280
     0
281
     0
  0
ENDSEC
  0
SECTION
  2
TABLES
  0
TABLE
  2
VPORT
  5
8
330
0
100
AcDbSymbolTable
 70
     1
  0
VPORT
  5
29
330
8
100
AcDbSymbolTableRecord
100
AcDbViewportTableRecord
  2
*Active
 70
     0
 10
0.0
 20
0.0
 11
1.0
 21
1.0
 12
0.0
 22
2.6682042239
 13
0.0
 23
0.0
 14
10.0
 24
10.0
 15
10.0
 25
10.0
 16
0.0
 26
0.0
 36
1.0
 17
0.0
 27
0.0
 37
0.0
 40
437.836437299
 41
0.8381812278
 42
50.0
 43
0.0
 44
0.0
 50
0.0
 51
0.0
 71
     0
 72
   100
 73
     1
 74
     3
 75
     0
 76
     0
 77
     0
 78
     0
281
     0
 65
     1
110
0.0
120
0.0
130
0.0
111
1.0
121
0.0
131
0.0
112
0.0
122
1.0
132
0.0
 79
     0
146
0.0
  0
ENDTAB
  0
TABLE
  2
LTYPE
  5
5
330
0
100
AcDbSymbolTable
 70
     6
  0
LTYPE
  5
14
330
5
100
AcDbSymbolTableRecord
100
AcDbLinetypeTableRecord
  2
ByBlock
 70
     0
  3

 72
    65
 73
     0
 40
0.0
  0
LTYPE
  5
15
330
5
100
AcDbSymbolTableRecord
100
AcDbLinetypeTableRecord
  2
ByLayer
 70
     0
  3

 72
    65
 73
     0
 40
0.0
  0
LTYPE
  5
16
330
5
100
AcDbSymbolTableRecord
100
AcDbLinetypeTableRecord
  2
Continuous
 70
     0
  3
Solid line
 72
    65
 73
     0
 40
0.0
  0
LTYPE
  5
6E
330
5
100
AcDbSymbolTableRecord
100
AcDbLinetypeTableRecord
  2
HIDDEN
 70
     0
  3
Hidden __ __ __ __ __ __ __ __ __ __ __ __ __ __
 72
    65
 73
     2
 40
1.905
 49
1.27
 74
     0
 49
-0.635
 74
     0
  0
LTYPE
  5
6F
330
5
100
AcDbSymbolTableRecord
100
AcDbLinetypeTableRecord
  2
PHANTOM
 70
     0
  3
Phantom ______  __  __  ______  __  __  ______
 72
    65
 73
     6
 40
12.7
 49
6.35
 74
     0
 49
-1.27
 74
     0
 49
1.27
 74
     0
 49
-1.27
 74
     0
 49
1.27
 74
     0
 49
-1.27
 74
     0
  0
LTYPE
  5
70
330
5
100
AcDbSymbolTableRecord
100
AcDbLinetypeTableRecord
  2
CENTER
 70
     0
  3
Center ____ _ ____ _ ____ _ ____ _ ____ _ ____
 72
    65
 73
     4
 40
10.16
 49
6.35
 74
     0
 49
-1.27
 74
     0
 49
1.27
 74
     0
 49
-1.27
 74
     0
  0
LTYPE
  5
71
330
5
100
AcDbSymbolTableRecord
100
AcDbLinetypeTableRecord
  2
CENTERX2
 70
     0
  3
Center (2x) ________  __  ________  __  _____
 72
    65
 73
     4
 40
20.32
 49
12.7
 74
     0
 49
-2.54
 74
     0
 49
2.54
 74
     0
 49
-2.54
 74
     0
  0
LTYPE
  5
72
330
5
100
AcDbSymbolTableRecord
100
AcDbLinetypeTableRecord
  2
DOT2
 70
     0
  3
Dot (.5x) ........................................
 72
    65
 73
     2
 40
0.635
 49
0.0
 74
     0
 49
-0.635
 74
     0
  0
ENDTAB
  0
TABLE
  2
LAYER
  5
2
330
0
100
AcDbSymbolTable
 70
     1
  0
LAYER
  5
10
330
2
100
AcDbSymbolTableRecord
100
AcDbLayerTableRecord
  2
0
 70
     0
 62
     7
  6
Continuous
370
    -3
390
F
  0
ENDTAB
  0
TABLE
  2
STYLE
  5
3
330
0
100
AcDbSymbolTable
 70
     1
  0
STYLE
  5
11
330
3
100
AcDbSymbolTableRecord
100
AcDbTextStyleTableRecord
  2
Standard
 70
     0
 40
0.0
 41
1.0
 50
0.0
 71
     0
 42
3.5
  3
txt
  4

  0
ENDTAB
  0
TABLE
  2
VIEW
  5
6
330
0
100
AcDbSymbolTable
 70
     0
  0
ENDTAB
  0
TABLE
  2
UCS
  5
7
330
0
100
AcDbSymbolTable
 70
     0
  0
ENDTAB
  0
TABLE
  2
APPID
  5
9
330
0
100
AcDbSymbolTable
 70
     1
  0
APPID
  5
12
330
9
100
AcDbSymbolTableRecord
100
AcDbRegAppTableRecord
  2
ACAD
 70
     0
  0
ENDTAB
  0
TABLE
  2
DIMSTYLE
  5
A
330
0
100
AcDbSymbolTable
 70
     1
100
AcDbDimStyleTable
  0
DIMSTYLE
105
27
330
A
100
AcDbSymbolTableRecord
100
AcDbDimStyleTableRecord
  2
ISO-25
 70
     0
 41
2.5
 42
0.625
 43
3.75
 44
1.25
 73
     0
 74
     0
 77
     1
 78
     8
140
2.5
141
2.5
143
0.0393700787
147
0.625
171
     3
172
     1
178
     0
271
     2
272
     2
274
     3
278
    44
283
     0
284
     8
340
11
  0
ENDTAB
  0
TABLE
  2
BLOCK_RECORD
  5
1
330
0
100
AcDbSymbolTable
 70
     1
  0
BLOCK_RECORD
  5
1F
330
1
100
AcDbSymbolTableRecord
100
AcDbBlockTableRecord
  2
*Model_Space
340
22
  0
BLOCK_RECORD
  5
1B
330
1
100
AcDbSymbolTableRecord
100
AcDbBlockTableRecord
  2
*Paper_Space
340
1E
  0
BLOCK_RECORD
  5
23
330
1
100
AcDbSymbolTableRecord
100
AcDbBlockTableRecord
  2
*Paper_Space0
340
26
  0
ENDTAB
  0
ENDSEC
  0
SECTION
  2
BLOCKS
  0
BLOCK
  5
20
330
1F
100
AcDbEntity
  8
0
100
AcDbBlockBegin
  2
*Model_Space
 70
     0
 10
0.0
 20
0.0
 30
0.0
  3
*Model_Space
  1

  0
ENDBLK
  5
21
330
1F
100
AcDbEntity
  8
0
100
AcDbBlockEnd
  0
BLOCK
  5
1C
330
1B
100
AcDbEntity
 67
     1
  8
0
100
AcDbBlockBegin
  2
*Paper_Space
 70
     0
 10
0.0
 20
0.0
 30
0.0
  3
*Paper_Space
  1

  0
ENDBLK
  5
1D
330
1B
100
AcDbEntity
 67
     1
  8
0
100
AcDbBlockEnd
  0
BLOCK
  5
24
330
23
100
AcDbEntity
  8
0
100
AcDbBlockBegin
  2
*Paper_Space0
 70
     0
 10
0.0
 20
0.0
 30
0.0
  3
*Paper_Space0
  1

  0
SPLINE
  5
13E
330
23
100
AcDbEntity
  8
0
  6
Continuous
 62
     7
370
    25
100
AcDbSpline
210
0.0
220
0.0
230
1.0
 70
     8
 71
     3
 72
    17
 73
    13
 74
     0
 42
0.000000001
 43
0.00000001
 40
0.0
 40
0.0
 40
0.0
 40
0.0
 40
0.0788773522252455
 40
0.1847403590009042
 40
0.291487911254074
 40
0.3996750107788615
 40
0.5081370405156439
 40
0.6188388333202317
 40
0.7293284819842254
 40
0.8423117859412094
 40
0.955336631022512
 40
1.0
 40
1.0
 40
1.0
 40
1.0
 10
169.9370579968535
 20
-217.2707920011312
 30
0.0
 10
170.3642948620602
 20
-217.2679334222766
 30
0.0
 10
171.3649355989768
 20
-217.2612382826842
 30
0.0
 10
172.9071981857972
 20
-216.9795080618117
 30
0.0
 10
174.5100535554399
 20
-216.4817402619943
 30
0.0
 10
175.9735295863322
 20
-215.7555862975517
 30
0.0
 10
177.2657105845355
 20
-214.8315709551732
 30
0.0
 10
178.3287952484933
 20
-213.7206092758498
 30
0.0
 10
179.1513424273911
 20
-212.45366684872
 30
0.0
 10
179.6722400483141
 20
-211.062006603527
 30
0.0
 10
179.911085074327
 20
-209.8934426497536
 30
0.0
 10
179.8706312398836
 20
-209.2001691271071
 30
0.0
 10
179.8591731575844
 20
-209.003807393105
 30
0.0
  0
SPLINE
  5
13F
330
23
100
AcDbEntity
  8
0
  6
Continuous
 62
     7
370
    25
100
AcDbSpline
210
0.0
220
0.0
230
1.0
 70
     8
 71
     3
 72
    17
 73
    13
 74
     0
 42
0.000000001
 43
0.00000001
 40
0.0
 40
0.0
 40
0.0
 40
0.0
 40
0.0403600013988688
 40
0.1601554104552023
 40
0.2775342127081298
 40
0.3925446227250511
 40
0.5056527759378853
 40
0.6174537753104502
 40
0.7273964267170054
 40
0.8372379228074425
 40
0.9451048946932019
 40
1.0
 40
1.0
 40
1.0
 40
1.0
 10
-179.8588943756792
 20
-209.1375422475718
 30
0.0
 10
-179.8679921375896
 20
-209.3131248493817
 30
0.0
 10
-179.9040936178293
 20
-210.0098667395451
 30
0.0
 10
-179.6384515179296
 20
-211.1939201504126
 30
0.0
 10
-179.0643731564298
 20
-212.6236782159077
 30
0.0
 10
-178.1853060456184
 20
-213.9038838956302
 30
0.0
 10
-177.0545652895181
 20
-215.0071833383068
 30
0.0
 10
-175.7108101305193
 20
-215.911472527021
 30
0.0
 10
-174.188705382007
 20
-216.6042372514832
 30
0.0
 10
-172.544585801896
 20
-217.0607125101364
 30
0.0
 10
-171.1032362107753
 20
-217.2859642782642
 30
0.0
 10
-170.2314405418595
 20
-217.2698734443055
 30
0.0
 10
-169.9374081979828
 20
-217.2644464551697
 30
0.0
  0
SPLINE
  5
143
330
23
100
AcDbEntity
  8
0
  6
Continuous
 62
     7
370
    25
100
AcDbSpline
210
0.0
220
0.0
230
1.0
 70
     8
 71
     3
 72
    18
 73
    14
 74
     0
 42
0.000000001
 43
0.00000001
 40
0.0
 40
0.0
 40
0.0
 40
0.0
 40
0.2499999999999999
 40
0.2499999999999999
 40
0.4999999999999999
 40
0.4999999999999999
 40
0.7499999999999999
 40
0.7499999999999999
 40
0.8124999999999999
 40
0.8124999999999999
 40
0.8749999999999998
 40
0.8749999999999998
 40
1.0
 40
1.0
 40
1.0
 40
1.0
 10
35.9514301608868
 20
-152.4032231551259
 30
0.0
 10
29.99449408275527
 20
-153.6354641908329
 30
0.0
 10
24.0268683574419
 20
-154.5516905344452
 30
0.0
 10
12.07089058326519
 20
-155.7743050693223
 30
0.0
 10
6.082536551643982
 20
-156.0806281378161
 30
0.0
 10
-5.914833254420817
 20
-156.0862988713524
 30
0.0
 10
-11.92384805648137
 20
-155.7856773448462
 30
0.0
 10
-19.44834205123948
 20
-155.0207654932304
 30
0.0
 10
-20.95390357882649
 20
-154.8482787062065
 30
0.0
 10
-23.96636593896584
 20
-154.4638537318004
 30
0.0
 10
-25.47350757119191
 20
-154.2518363066806
 30
0.0
 10
-29.98104817640915
 20
-153.5585169739947
 30
0.0
 10
-32.97284229660026
 20
-153.0193684598081
 30
0.0
 10
-35.95143016088684
 20
-152.4032231551259
 30
0.0
  0
SPLINE
  5
146
330
23
100
AcDbEntity
  8
0
  6
Continuous
 62
     7
370
    25
100
AcDbSpline
210
0.0
220
0.0
230
1.0
 70
     8
 71
     3
 72
    18
 73
    14
 74
     0
 42
0.000000001
 43
0.00000001
 40
0.0
 40
0.0
 40
0.0
 40
0.0
 40
0.1249999999999999
 40
0.1249999999999999
 40
0.1874999999999998
 40
0.1874999999999998
 40
0.2499999999999997
 40
0.2499999999999997
 40
0.4999999999999998
 40
0.4999999999999998
 40
0.7499999999999999
 40
0.7499999999999999
 40
1.0
 40
1.0
 40
1.0
 40
1.0
 10
-35.75087141193146
 20
-151.3781298135937
 30
0.0
 10
-32.78856398347008
 20
-151.9845682984929
 30
0.0
 10
-29.81338247464681
 20
-152.5151608918339
 30
0.0
 10
-25.33126970655061
 20
-153.1974314149984
 30
0.0
 10
-23.83272307202234
 20
-153.4060580010425
 30
0.0
 10
-20.83740309548441
 20
-153.7843450922213
 30
0.0
 10
-19.34039512928445
 20
-153.9540819900141
 30
0.0
 10
-11.85858191271126
 20
-154.7068164172796
 30
0.0
 10
-5.883433896658021
 20
-155.0027137015604
 30
0.0
 10
6.046740185579458
 20
-154.9972488959226
 30
0.0
 10
12.00176532554551
 20
-154.6958571277923
 30
0.0
 10
23.89162116075749
 20
-153.4926834945072
 30
0.0
 10
29.82645380600129
 20
-152.590966402508
 30
0.0
 10
35.75087141193141
 20
-151.3781298135937
 30
0.0
  0
SPLINE
  5
147
330
23
100
AcDbEntity
  8
0
  6
Continuous
 62
     7
370
    25
100
AcDbSpline
210
0.0
220
0.0
230
1.0
 70
     8
 71
     3
 72
     8
 73
     4
 74
     0
 42
0.000000001
 43
0.00000001
 40
0.0
 40
0.0
 40
0.0
 40
0.0
 40
1.0
 40
1.0
 40
1.0
 40
1.0
 10
50.60077484592616
 20
-148.0134289154288
 30
0.0
 10
45.84519602722946
 20
-149.9030541904133
 30
0.0
 10
40.96232094857753
 20
-151.3666793391353
 30
0.0
 10
35.95143016088681
 20
-152.4032231551259
 30
0.0
  0
SPLINE
  5
149
330
23
100
AcDbEntity
  8
0
  6
Continuous
 62
     7
370
    25
100
AcDbSpline
210
0.0
220
0.0
230
1.0
 70
     8
 71
     3
 72
     8
 73
     4
 74
     0
 42
0.000000001
 43
0.00000001
 40
0.0
 40
0.0
 40
0.0
 40
0.0
 40
1.0
 40
1.0
 40
1.0
 40
1.0
 10
35.75087141193141
 20
-151.3781298135937
 30
0.0
 10
40.7027325200597
 20
-150.3643933192001
 30
0.0
 10
45.53060101459896
 20
-148.9326770630398
 30
0.0
 10
50.23481491543808
 20
-147.0827983070363
 30
0.0
  0
SPLINE
  5
14A
330
23
100
AcDbEntity
  8
0
  6
Continuous
 62
     7
370
    25
100
AcDbSpline
210
0.0
220
0.0
230
1.0
 70
     8
 71
     3
 72
     8
 73
     4
 74
     0
 42
0.000000001
 43
0.00000001
 40
0.0
 40
0.0
 40
0.0
 40
0.0
 40
1.0
 40
1.0
 40
1.0
 40
1.0
 10
-35.95143016088684
 20
-152.4032231551259
 30
0.0
 10
-40.96232094857753
 20
-151.3666793391353
 30
0.0
 10
-45.84519602722943
 20
-149.9030541904133
 30
0.0
 10
-50.60077484592611
 20
-148.0134289154289
 30
0.0
  0
SPLINE
  5
14C
330
23
100
AcDbEntity
  8
0
  6
Continuous
 62
     7
370
    25
100
AcDbSpline
210
0.0
220
0.0
230
1.0
 70
     8
 71
     3
 72
     8
 73
     4
 74
     0
 42
0.000000001
 43
0.00000001
 40
0.0
 40
0.0
 40
0.0
 40
0.0
 40
1.0
 40
1.0
 40
1.0
 40
1.0
 10
-50.23481491543803
 20
-147.0827983070363
 30
0.0
 10
-45.53060101459894
 20
-148.9326770630398
 30
0.0
 10
-40.7027325200597
 20
-150.3643933192001
 30
0.0
 10
-35.75087141193143
 20
-151.3781298135937
 30
0.0
  0
LWPOLYLINE
  5
15B
330
23
100
AcDbEntity
  8
0
  6
Continuous
 62
     7
370
    25
100
AcDbPolyline
 90
        9
 70
   128
 43
0.0
 10
178.8953041777
 20
-209.6536687172
 10
179.0912955801
 20
-209.6399483208
 10
179.2796841006
 20
-209.6020242033
 10
179.4531617877
 20
-209.5413675136
 10
179.6049991097
 20
-209.4603312411
 10
179.7293060059
 20
-209.3620589378
 10
179.8212603739
 20
-209.2503627748
 10
179.8772951275
 20
-209.12957566
 10
179.8952365713
 20
-209.0043831571
  0
LWPOLYLINE
  5
164
330
23
100
AcDbEntity
  8
0
  6
Continuous
 62
     7
370
    25
100
AcDbPolyline
 90
        9
 70
   128
 43
0.0
 10
-179.8952365713
 20
-209.0043831571
 10
-179.8772951275
 20
-209.12957566
 10
-179.8212603739
 20
-209.2503627748
 10
-179.7293060059
 20
-209.3620589378
 10
-179.6049991097
 20
-209.4603312411
 10
-179.4531617877
 20
-209.5413675136
 10
-179.2796841006
 20
-209.6020242033
 10
-179.0912955801
 20
-209.6399483208
 10
-178.8953041777
 20
-209.6536687172
  0
SPLINE
  5
16A
330
23
100
AcDbEntity
  8
0
  6
Continuous
 62
     7
370
    25
100
AcDbSpline
210
0.0
220
0.0
230
1.0
 70
     8
 71
     3
 72
    28
 73
    24
 74
     0
 42
0.000000001
 43
0.00000001
 40
0.0
 40
0.0
 40
0.0
 40
0.0
 40
0.1249999999999889
 40
0.1249999999999889
 40
0.1874999999999856
 40
0.1874999999999856
 40
0.2499999999999824
 40
0.2499999999999824
 40
0.3749999999999816
 40
0.3749999999999816
 40
0.4374999999999814
 40
0.4374999999999814
 40
0.4999999999999812
 40
0.4999999999999812
 40
0.562499999999981
 40
0.562499999999981
 40
0.6249999999999808
 40
0.6249999999999808
 40
0.7499999999999871
 40
0.7499999999999871
 40
0.8749999999999936
 40
0.8749999999999936
 40
1.0
 40
1.0
 40
1.0
 40
1.0
 10
-178.8953041776907
 20
-209.6536687171995
 30
0.0
 10
-178.9008615220474
 20
-210.1365634837422
 30
0.0
 10
-178.855607570697
 20
-210.6103841804416
 30
0.0
 10
-178.710603408982
 20
-211.3077914938945
 30
0.0
 10
-178.6493386031019
 20
-211.5380322084631
 30
0.0
 10
-178.4998012491985
 20
-211.9940070353746
 30
0.0
 10
-178.4113393729375
 20
-212.2197929729649
 30
0.0
 10
-178.1088413232028
 20
-212.8786701500542
 30
0.0
 10
-177.8568955832226
 20
-213.297421832609
 30
0.0
 10
-177.3990529591374
 20
-213.8945402404121
 30
0.0
 10
-177.2320849393292
 20
-214.0893230517344
 30
0.0
 10
-176.8747608739138
 20
-214.462707290322
 30
0.0
 10
-176.6847374704846
 20
-214.6412155947945
 30
0.0
 10
-176.2818437541614
 20
-214.9821098524149
 30
0.0
 10
-176.0689758043095
 20
-215.1444969110852
 30
0.0
 10
-175.6196277412996
 20
-215.4529541648554
 30
0.0
 10
-175.3821175033267
 20
-215.599587563299
 30
0.0
 10
-174.6390291927134
 20
-216.0100864691036
 30
0.0
 10
-174.1112599044426
 20
-216.2409486505563
 30
0.0
 10
-172.9902240255672
 20
-216.6186073656718
 30
0.0
 10
-172.3914792646385
 20
-216.765288658232
 30
0.0
 10
-171.1822485528403
 20
-216.9583992775941
 30
0.0
 10
-170.5659540895099
 20
-217.0076420212811
 30
0.0
 10
-169.9374235753588
 20
-217.0076420212812
 30
0.0
  0
SPLINE
  5
16D
330
23
100
AcDbEntity
  8
0
  6
Continuous
 62
     7
370
    25
100
AcDbSpline
210
0.0
220
0.0
230
1.0
 70
     8
 71
     3
 72
    28
 73
    24
 74
     0
 42
0.000000001
 43
0.00000001
 40
0.0
 40
0.0
 40
0.0
 40
0.0
 40
0.0624999999999976
 40
0.0624999999999976
 40
0.1249999999999951
 40
0.1249999999999951
 40
0.2499999999999902
 40
0.2499999999999902
 40
0.3124999999999879
 40
0.3124999999999879
 40
0.3749999999999856
 40
0.3749999999999856
 40
0.4999999999999878
 40
0.4999999999999878
 40
0.5624999999999891
 40
0.5624999999999891
 40
0.6249999999999905
 40
0.6249999999999905
 40
0.7499999999999937
 40
0.7499999999999937
 40
0.8749999999999969
 40
0.8749999999999969
 40
1.0
 40
1.0
 40
1.0
 40
1.0
 10
169.9374235753588
 20
-217.0076420212812
 30
0.0
 10
170.2522532675024
 20
-217.0076420212812
 30
0.0
 10
170.5656643271781
 20
-216.9951710959264
 30
0.0
 10
171.1896736527789
 20
-216.945460805312
 30
0.0
 10
171.500800834009
 20
-216.9080029070092
 30
0.0
 10
172.4122166818715
 20
-216.7609830573045
 30
0.0
 10
172.9967607169504
 20
-216.6169176906873
 30
0.0
 10
173.8398261464879
 20
-216.3321284929558
 30
0.0
 10
174.1169279201112
 20
-216.2248130094882
 30
0.0
 10
174.6485290163991
 20
-215.9909878922866
 30
0.0
 10
174.9033303289992
 20
-215.8646070236486
 30
0.0
 10
175.6364027040631
 20
-215.458017541773
 30
0.0
 10
176.0836190942412
 20
-215.150614269423
 30
0.0
 10
176.6931015013981
 20
-214.6337371549922
 30
0.0
 10
176.8848442124406
 20
-214.4528056798542
 30
0.0
 10
177.2394354126539
 20
-214.0809753076545
 30
0.0
 10
177.4034424844281
 20
-213.8891186413488
 30
0.0
 10
177.8574343779912
 20
-213.2961032689833
 30
0.0
 10
178.109691131346
 20
-212.8776259138155
 30
0.0
 10
178.5150339260438
 20
-211.9931195863578
 30
0.0
 10
178.6629024734969
 20
-211.5376849361335
 30
0.0
 10
178.8555064512627
 20
-210.6103966431258
 30
0.0
 10
178.9008669749942
 20
-210.1370373070815
 30
0.0
 10
178.8953041776907
 20
-209.6536687171995
 30
0.0
  0
LWPOLYLINE
  5
176
330
23
100
AcDbEntity
  8
0
  6
Continuous
 62
     7
370
    25
100
AcDbPolyline
 90
        4
 70
   128
 43
0.0
 10
-127.5
 20
-217.2102518134
 10
-127.515192247
 20
-217.2658582126
 10
-127.5603073792
 20
-217.2919324202
 10
-127.5836569689
 20
-217.2939087823
  0
LWPOLYLINE
  5
178
330
23
100
AcDbEntity
  8
0
  6
Continuous
 62
     7
370
    25
100
AcDbPolyline
 90
        4
 70
   128
 43
0.0
 10
127.5
 20
-217.2102518134
 10
127.5192147196
 20
-217.2707575563
 10
127.5761204675
 20
-217.2937235486
 10
127.5836569689
 20
-217.2939087823
  0
LINE
  5
17E
330
23
100
AcDbEntity
  8
0
  6
Continuous
 62
     7
370
    25
100
AcDbLine
 10
-169.9374235754
 20
-217.2939087823
 30
0.0
 11
-127.5836569689
 21
-217.2939087823
 31
0.0
  0
LINE
  5
17F
330
23
100
AcDbEntity
  8
0
  6
Continuous
 62
     7
370
    25
100
AcDbLine
 10
127.5836569689
 20
-217.2939087823
 30
0.0
 11
169.9374235754
 21
-217.2939087823
 31
0.0
  0
LINE
  5
180
330
23
100
AcDbEntity
  8
0
  6
Continuous
 62
     7
370
    25
100
AcDbLine
 10
-127.5
 20
-211.8024021651
 30
0.0
 11
127.5
 21
-211.8024021651
 31
0.0
  0
LINE
  5
181
330
23
100
AcDbEntity
  8
0
  6
Continuous
 62
     7
370
    25
100
AcDbLine
 10
50.6007748459
 20
-148.0134289154
 30
0.0
 11
50.2348149154
 21
-147.082798307
 31
0.0
  0
LINE
  5
182
330
23
100
AcDbEntity
  8
0
  6
Continuous
 62
     7
370
    25
100
AcDbLine
 10
-50.6007748459
 20
-148.0134289154
 30
0.0
 11
-50.2348149154
 21
-147.082798307
 31
0.0
  0
LINE
  5
183
330
23
100
AcDbEntity
  8
0
  6
Continuous
 62
     7
370
    25
100
AcDbLine
 10
-104.397524103
 20
51.8094242529
 30
0.0
 11
-105.7508714119
 21
-64.5705757471
 31
0.0
  0
LINE
  5
184
330
23
100
AcDbEntity
  8
0
  6
Continuous
 62
     7
370
    25
100
AcDbLine
 10
-105.7508714119
 20
-64.5705757471
 30
0.0
 11
-106.7508038055
 21
-64.5589478401
 31
0.0
  0
LINE
  5
185
330
23
100
AcDbEntity
  8
0
  6
Continuous
 62
     7
370
    25
100
AcDbLine
 10
-106.7508038055
 20
-64.5589478401
 30
0.0
 11
-105.3974564966
 21
51.8210521599
 31
0.0
  0
LINE
  5
186
330
23
100
AcDbEntity
  8
0
  6
Continuous
 62
     7
370
    25
100
AcDbLine
 10
-104.397524103
 20
51.8094242529
 30
0.0
 11
-105.3974564966
 21
51.8210521599
 31
0.0
  0
LINE
  5
187
330
23
100
AcDbEntity
  8
0
  6
Continuous
 62
     7
370
    25
100
AcDbLine
 10
178.1859238685
 20
-148.0134289154
 30
0.0
 11
176.0349513273
 21
36.9577035467
 31
0.0
  0
LINE
  5
188
330
23
100
AcDbEntity
  8
0
  6
Continuous
 62
     7
370
    25
100
AcDbLine
 10
176.0349513273
 20
36.9577035467
 30
0.0
 11
177.0348837209
 21
36.9693314537
 31
0.0
  0
LINE
  5
189
330
23
100
AcDbEntity
  8
0
  6
Continuous
 62
     7
370
    25
100
AcDbLine
 10
177.0348837209
 20
36.9693314537
 30
0.0
 11
179.8952365713
 21
-209.0043831571
 31
0.0
  0
LINE
  5
18A
330
23
100
AcDbEntity
  8
0
  6
Continuous
 62
     7
370
    25
100
AcDbLine
 10
178.1859238685
 20
-148.0134289154
 30
0.0
 11
179.1858562621
 21
-148.0018010085
 31
0.0
  0
LINE
  5
18B
330
23
100
AcDbEntity
  8
0
  6
Continuous
 62
     7
370
    25
100
AcDbLine
 10
105.7508714119
 20
-64.5705757471
 30
0.0
 11
106.7508038055
 21
-64.5589478401
 31
0.0
  0
LINE
  5
18C
330
23
100
AcDbEntity
  8
0
  6
Continuous
 62
     7
370
    25
100
AcDbLine
 10
178.8953041777
 20
-209.6536687172
 30
0.0
 11
178.1859238685
 21
-148.0134289154
 31
0.0
  0
LINE
  5
18D
330
23
100
AcDbEntity
  8
0
  6
Continuous
 62
     7
370
    25
100
AcDbLine
 10
-176.0349513273
 20
36.9577035467
 30
0.0
 11
-178.1859238685
 21
-148.0134289154
 31
0.0
  0
LINE
  5
18E
330
23
100
AcDbEntity
  8
0
  6
Continuous
 62
     7
370
    25
100
AcDbLine
 10
-178.1859238685
 20
-148.0134289154
 30
0.0
 11
-179.1858562621
 21
-148.0018010085
 31
0.0
  0
LINE
  5
18F
330
23
100
AcDbEntity
  8
0
  6
Continuous
 62
     7
370
    25
100
AcDbLine
 10
-179.8952365713
 20
-209.0043831571
 30
0.0
 11
-177.0348837209
 21
36.9693314537
 31
0.0
  0
LINE
  5
190
330
23
100
AcDbEntity
  8
0
  6
Continuous
 62
     7
370
    25
100
AcDbLine
 10
-176.0349513273
 20
36.9577035467
 30
0.0
 11
-177.0348837209
 21
36.9693314537
 31
0.0
  0
LINE
  5
191
330
23
100
AcDbEntity
  8
0
  6
Continuous
 62
     7
370
    25
100
AcDbLine
 10
-178.1859238685
 20
-148.0134289154
 30
0.0
 11
-178.8953041777
 21
-209.6536687172
 31
0.0
  0
LINE
  5
192
330
23
100
AcDbEntity
  8
0
  6
Continuous
 62
     7
370
    25
100
AcDbLine
 10
127.5
 20
-217.2102518134
 30
0.0
 11
127.5
 21
-189.1260895612
 31
0.0
  0
LINE
  5
193
330
23
100
AcDbEntity
  8
0
  6
Continuous
 62
     7
370
    25
100
AcDbLine
 10
127.5
 20
-189.1260895612
 30
0.0
 11
-127.5
 21
-189.1260895612
 31
0.0
  0
LINE
  5
194
330
23
100
AcDbEntity
  8
0
  6
Continuous
 62
     7
370
    25
100
AcDbLine
 10
-127.5
 20
-217.2102518134
 30
0.0
 11
-127.5
 21
-189.1260895612
 31
0.0
  0
LINE
  5
195
330
23
100
AcDbEntity
  8
0
  6
Continuous
 62
     7
370
    25
100
AcDbLine
 10
-169.9374235754
 20
-217.0076420213
 30
0.0
 11
-127.5
 21
-217.0076420213
 31
0.0
  0
LINE
  5
196
330
23
100
AcDbEntity
  8
0
  6
Continuous
 62
     7
370
    25
100
AcDbLine
 10
-50.6007748459
 20
-148.0134289154
 30
0.0
 11
-178.1859238685
 21
-148.0134289154
 31
0.0
  0
LINE
  5
197
330
23
100
AcDbEntity
  8
0
  6
Continuous
 62
     7
370
    25
100
AcDbLine
 10
178.1859238685
 20
-148.0134289154
 30
0.0
 11
50.6007748459
 21
-148.0134289154
 31
0.0
  0
LINE
  5
198
330
23
100
AcDbEntity
  8
0
  6
Continuous
 62
     7
370
    25
100
AcDbLine
 10
127.5
 20
-217.0076420213
 30
0.0
 11
169.9374235754
 21
-217.0076420213
 31
0.0
  0
LINE
  5
199
330
23
100
AcDbEntity
  8
0
  6
Continuous
 62
     7
370
    25
100
AcDbLine
 10
105.7508714119
 20
-64.5705757471
 30
0.0
 11
104.397524103
 21
51.8094242529
 31
0.0
  0
LINE
  5
19A
330
23
100
AcDbEntity
  8
0
  6
Continuous
 62
     7
370
    25
100
AcDbLine
 10
104.397524103
 20
51.8094242529
 30
0.0
 11
105.3974564966
 21
51.8210521599
 31
0.0
  0
LINE
  5
19B
330
23
100
AcDbEntity
  8
0
  6
Continuous
 62
     7
370
    25
100
AcDbLine
 10
105.3974564966
 20
51.8210521599
 30
0.0
 11
106.7508038055
 21
-64.5589478401
 31
0.0
  0
LINE
  5
19C
330
23
100
AcDbEntity
  8
0
  6
Continuous
 62
     7
370
    25
100
AcDbLine
 10
169.9374235754
 20
-217.0076420213
 30
0.0
 11
169.9374235754
 21
-217.2939087823
 31
0.0
  0
LINE
  5
19D
330
23
100
AcDbEntity
  8
0
  6
Continuous
 62
     7
370
    25
100
AcDbLine
 10
-169.9374235754
 20
-217.0076420213
 30
0.0
 11
-169.9374235754
 21
-217.2939087823
 31
0.0
  0
LINE
  5
19E
330
23
100
AcDbEntity
  8
0
  6
Continuous
 62
     8
370
    25
100
AcDbLine
 10
-47.5323212713
 20
-148.0134289154
 30
0.0
 11
47.5294777781
 21
-148.0134289154
 31
0.0
  0
LINE
  5
19F
330
23
100
AcDbEntity
  8
0
  6
Continuous
 62
     8
370
    25
100
AcDbLine
 10
-127.5
 20
-211.5186261946
 30
0.0
 11
127.5
 21
-211.5186261946
 31
0.0
  0
ARC
  5
1A0
330
23
100
AcDbEntity
  8
0
  6
Continuous
 62
     7
370
    25
100
AcDbCircle
 10
-64.3772253439
 20
-146.3095712386
 30
0.0
 40
29.07160858065301
100
AcDbArc
 50
347.9005984309
 51
349.9593185235
  0
ARC
  5
1A1
330
23
100
AcDbEntity
  8
0
  6
Continuous
 62
     7
370
    25
100
AcDbCircle
 10
64.3772253439
 20
-146.3095712386
 30
0.0
 40
29.07160858067807
100
AcDbArc
 50
190.0406814765
 51
192.0994015691
  0
ARC
  5
1A2
330
23
100
AcDbEntity
  8
0
  6
Continuous
 62
     7
370
    25
100
AcDbCircle
 10
-18.1882303105
 20
-65.5888148319
 30
0.0
 40
88.56856129618706
100
AcDbArc
 50
179.3337549915
 51
248.5333295928
  0
ARC
  5
1A3
330
23
100
AcDbEntity
  8
0
  6
Continuous
 62
     7
370
    25
100
AcDbCircle
 10
-18.1882303105
 20
-65.5888148319
 30
0.0
 40
87.5685612961873
100
AcDbArc
 50
179.3337549915
 51
248.5333295928
  0
ARC
  5
1A4
330
23
100
AcDbEntity
  8
0
  6
Continuous
 62
     7
370
    25
100
AcDbCircle
 10
18.1882303105
 20
-65.5888148319
 30
0.0
 40
88.56856129618728
100
AcDbArc
 50
291.4666704072
 51
0.6662450085
  0
ARC
  5
1A5
330
23
100
AcDbEntity
  8
0
  6
Continuous
 62
     7
370
    25
100
AcDbCircle
 10
18.1882303105
 20
-65.5888148319
 30
0.0
 40
87.56856129618699
100
AcDbArc
 50
291.4666704072
 51
0.6662450085
  0
ARC
  5
1A6
330
23
100
AcDbEntity
  8
0
  6
Continuous
 62
     7
370
    25
100
AcDbCircle
 10
0.0
 20
34.9106471139
 30
0.0
 40
176.0468532205362
100
AcDbArc
 50
0.6662450085
 51
179.3337549915
  0
ARC
  5
1A7
330
23
100
AcDbEntity
  8
0
  6
Continuous
 62
     7
370
    25
100
AcDbCircle
 10
0.0
 20
34.9106471139
 30
0.0
 40
177.0468532205363
100
AcDbArc
 50
0.6662450085
 51
179.3337549915
  0
ARC
  5
1A8
330
23
100
AcDbEntity
  8
0
  6
Continuous
 62
     7
370
    25
100
AcDbCircle
 10
0.0
 20
50.5954174794
 30
0.0
 40
104.404582520557
100
AcDbArc
 50
0.6662450085
 51
179.3337549915
  0
ARC
  5
1A9
330
23
100
AcDbEntity
  8
0
  6
Continuous
 62
     7
370
    25
100
AcDbCircle
 10
0.0
 20
50.5954174794
 30
0.0
 40
105.4045825205571
100
AcDbArc
 50
0.6662450085
 51
179.3337549915
  0
VIEWPORT
  5
1AC
330
23
100
AcDbEntity
  8
0
100
AcDbViewport
 10
0.0
 20
0.0
 30
0.0
 40
205.6
 41
156.0
 68
     1
 69
     1
 12
0.0
 22
2.6682042239
 13
0.0
 23
0.0
 14
10.0
 24
10.0
 15
10.0
 25
10.0
 16
0.0
 26
0.0
 36
1.0
 17
0.0
 27
0.0
 37
0.0
 42
50.0
 43
0.0
 44
0.0
 45
437.836437299
 50
0.0
 51
0.0
 72
   100
 90
   557152
  1

281
     0
 71
     1
 74
     0
110
0.0
120
0.0
130
0.0
111
1.0
121
0.0
131
0.0
112
0.0
122
1.0
132
0.0
 79
     0
146
0.0
  0
ENDBLK
  5
25
330
23
100
AcDbEntity
  8
0
100
AcDbBlockEnd
  0
ENDSEC
  0
SECTION
  2
ENTITIES
  0
SPLINE
  5
73
330
1F
100
AcDbEntity
  8
0
  6
Continuous
 62
     7
370
    25
100
AcDbSpline
210
0.0
220
0.0
230
1.0
 70
     8
 71
     3
 72
    17
 73
    13
 74
     0
 42
0.000000001
 43
0.00000001
 40
0.0
 40
0.0
 40
0.0
 40
0.0
 40
0.0585551940200948
 40
0.1778802151951877
 40
0.2949363007360901
 40
0.4092964947523657
 40
0.5227481491048133
 40
0.6339677569616119
 40
0.7449303126298282
 40
0.8537358074692318
 40
0.9629460327031265
 40
1.0
 40
1.0
 40
1.0
 40
1.0
 10
179.8545090121554
 20
209.1377854392575
 30
0.0
 10
179.8612401983602
 20
209.3925104132654
 30
0.0
 10
179.8816883391383
 20
210.1663193631011
 30
0.0
 10
179.5720606253654
 20
211.4166303946438
 30
0.0
 10
178.949660995855
 20
212.8260521037984
 30
0.0
 10
178.0301549733448
 20
214.0803884237424
 30
0.0
 10
176.8659698040567
 20
215.1571963862029
 30
0.0
 10
175.4862153827971
 20
216.0306575854079
 30
0.0
 10
173.9425270371087
 20
216.6926151630338
 30
0.0
 10
172.2742866490661
 20
217.1104943608551
 30
0.0
 10
170.9182050061726
 20
217.3030275173656
 30
0.0
 10
170.1358974502159
 20
217.2749323183656
 30
0.0
 10
169.9377108804688
 20
217.2678147965243
 30
0.0
  0
SPLINE
  5
74
330
1F
100
AcDbEntity
  8
0
  6
Continuous
 62
     7
370
    25
100
AcDbSpline
210
0.0
220
0.0
230
1.0
 70
     8
 71
     3
 72
    17
 73
    13
 74
     0
 42
0.000000001
 43
0.00000001
 40
0.0
 40
0.0
 40
0.0
 40
0.0
 40
0.0400173803227503
 40
0.1463591467619194
 40
0.2536973552243585
 40
0.3610866356712655
 40
0.4703462289971114
 40
0.5797062260555975
 40
0.6911280653720883
 40
0.8024804318820878
 40
0.9158706201287556
 40
1.0
 40
1.0
 40
1.0
 40
1.0
 10
-169.9376763770773
 20
217.2662934920934
 30
0.0
 10
-170.154018301855
 20
217.2734613625483
 30
0.0
 10
-170.9452649867688
 20
217.2996770567145
 30
0.0
 10
-172.3068950983082
 20
217.1047517903269
 30
0.0
 10
-173.950515182352
 20
216.6877466603967
 30
0.0
 10
-175.4775136002074
 20
216.0355669603513
 30
0.0
 10
-176.8337320178289
 20
215.178250327733
 30
0.0
 10
-177.9873550533444
 20
214.127760742375
 30
0.0
 10
-178.8939945602497
 20
212.9115960108137
 30
0.0
 10
-179.5250210521354
 20
211.5578191025577
 30
0.0
 10
-179.8672606385766
 20
210.2393253780442
 30
0.0
 10
-179.8664208899062
 20
209.3718372187633
 30
0.0
 10
-179.8660632163068
 20
209.0023485570507
 30
0.0
  0
SPLINE
  5
77
330
1F
100
AcDbEntity
  8
0
  6
Continuous
 62
     7
370
    25
100
AcDbSpline
210
0.0
220
0.0
230
1.0
 70
     8
 71
     3
 72
    15
 73
    11
 74
     0
 42
0.000000001
 43
0.00000001
 40
0.0
 40
0.0
 40
0.0
 40
0.0
 40
0.090682331446256
 40
0.2206986287987519
 40
0.3510275120867767
 40
0.4827141458066556
 40
0.6138246878784929
 40
0.7451840611094712
 40
0.8745158872452217
 40
1.0
 40
1.0
 40
1.0
 40
1.0
 10
-169.842929475578
 20
211.7775617513823
 30
0.0
 10
-170.2569227846984
 20
211.7766904897387
 30
0.0
 10
-171.2644813046166
 20
211.7745700518649
 30
0.0
 10
-172.8356328589801
 20
211.5065830736543
 30
0.0
 10
-174.4974528494506
 20
211.0162136832404
 30
0.0
 10
-176.0174454368881
 20
210.2973650350641
 30
0.0
 10
-177.3485305906277
 20
209.3756788574051
 30
0.0
 10
-178.4261632619681
 20
208.2677250511205
 30
0.0
 10
-179.24165629597
 20
207.0273283135459
 30
0.0
 10
-179.5216284699252
 20
206.1169441363012
 30
0.0
 10
-179.6595007709977
 20
205.6686254351832
 30
0.0
  0
SPLINE
  5
78
330
1F
100
AcDbEntity
  8
0
  6
Continuous
 62
     7
370
    25
100
AcDbSpline
210
0.0
220
0.0
230
1.0
 70
     8
 71
     3
 72
    17
 73
    13
 74
     0
 42
0.000000001
 43
0.00000001
 40
0.0
 40
0.0
 40
0.0
 40
0.0
 40
0.0566771327557048
 40
0.1691898801998233
 40
0.2803436989655624
 40
0.3926549990986287
 40
0.5054144393040052
 40
0.6200659619943045
 40
0.7348884155388561
 40
0.8508474026521341
 40
0.966257854589789
 40
1.0
 40
1.0
 40
1.0
 40
1.0
 10
179.7968860811492
 20
204.2845826151592
 30
0.0
 10
179.8014577412907
 20
204.5228435084225
 30
0.0
 10
179.8151048436413
 20
205.2340885913604
 30
0.0
 10
179.4921790510186
 20
206.3784894483265
 30
0.0
 10
178.8668871418752
 20
207.6583810782423
 30
0.0
 10
177.9503096282953
 20
208.8094793501384
 30
0.0
 10
176.7838847241364
 20
209.8059454498416
 30
0.0
 10
175.3978305539725
 20
210.6239157583357
 30
0.0
 10
173.8296179099432
 20
211.2478198941155
 30
0.0
 10
172.1345072180196
 20
211.639008427646
 30
0.0
 10
170.7807916550252
 20
211.8159344207175
 30
0.0
 10
170.016559998964
 20
211.7853749639243
 30
0.0
 10
169.8436711849277
 20
211.778461630512
 30
0.0
  0
SPLINE
  5
7A
330
1F
100
AcDbEntity
  8
0
  6
Continuous
 62
     7
370
    25
100
AcDbSpline
210
0.0
220
0.0
230
1.0
 70
     8
 71
     3
 72
    30
 73
    26
 74
     0
 42
0.000000001
 43
0.00000001
 40
0.0
 40
0.0
 40
0.0
 40
0.0
 40
0.1249999999999917
 40
0.1249999999999917
 40
0.1874999999999876
 40
0.1874999999999876
 40
0.2499999999999834
 40
0.2499999999999834
 40
0.3749999999999783
 40
0.3749999999999783
 40
0.4374999999999787
 40
0.4374999999999787
 40
0.4999999999999791
 40
0.4999999999999791
 40
0.5624999999999796
 40
0.5624999999999796
 40
0.6249999999999799
 40
0.6249999999999799
 40
0.7499999999999863
 40
0.7499999999999863
 40
0.8124999999999898
 40
0.8124999999999898
 40
0.8749999999999932
 40
0.8749999999999932
 40
1.0
 40
1.0
 40
1.0
 40
1.0
 10
-169.9374235753588
 20
216.6943028996992
 30
0.0
 10
-170.6258042518263
 20
216.6936308036155
 30
0.0
 10
-171.3015312678984
 20
216.6427872324776
 30
0.0
 10
-172.2969339546566
 20
216.4939515283604
 30
0.0
 10
-172.6256784315807
 20
216.4321359331227
 30
0.0
 10
-173.2768870079234
 20
216.2832387870586
 30
0.0
 10
-173.5959358873594
 20
216.1968384747184
 30
0.0
 10
-174.5236542668083
 20
215.9055039536121
 30
0.0
 10
-175.1077301519133
 20
215.6677506737626
 30
0.0
 10
-175.93242108839
 20
215.2441667011532
 30
0.0
 10
-176.1973563201134
 20
215.092224163031
 30
0.0
 10
-176.6989526076685
 20
214.7724103731326
 30
0.0
 10
-176.9370183057521
 20
214.6038381273054
 30
0.0
 10
-177.3883814563567
 20
214.2494880594633
 30
0.0
 10
-177.6016770170992
 20
214.0637095055091
 30
0.0
 10
-178.0034918985007
 20
213.6745926661346
 30
0.0
 10
-178.1920541460066
 20
213.4709130929394
 30
0.0
 10
-178.7097961368648
 20
212.8457970896549
 30
0.0
 10
-178.9958015918534
 20
212.4065081433815
 30
0.0
 10
-179.3402186790823
 20
211.7137185355827
 30
0.0
 10
-179.4411831122218
 20
211.4760058811054
 30
0.0
 10
-179.6122357883306
 20
210.9950819828807
 30
0.0
 10
-179.68242304193
 20
210.7521306348972
 30
0.0
 10
-179.8488035311871
 20
210.0158702523934
 30
0.0
 10
-179.9011766071623
 20
209.5151917054188
 30
0.0
 10
-179.8952365712951
 20
209.004383157101
 30
0.0
  0
SPLINE
  5
7D
330
1F
100
AcDbEntity
  8
0
  6
Continuous
 62
     7
370
    25
100
AcDbSpline
210
0.0
220
0.0
230
1.0
 70
     8
 71
     3
 72
    30
 73
    26
 74
     0
 42
0.000000001
 43
0.00000001
 40
0.0
 40
0.0
 40
0.0
 40
0.0
 40
0.1249999999999946
 40
0.1249999999999946
 40
0.1874999999999944
 40
0.1874999999999944
 40
0.2499999999999942
 40
0.2499999999999942
 40
0.3749999999999943
 40
0.3749999999999943
 40
0.4374999999999954
 40
0.4374999999999954
 40
0.4999999999999964
 40
0.4999999999999964
 40
0.5624999999999974
 40
0.5624999999999974
 40
0.6249999999999986
 40
0.6249999999999986
 40
0.7500000000000007
 40
0.7500000000000007
 40
0.8125000000000001
 40
0.8125000000000001
 40
0.8749999999999997
 40
0.8749999999999997
 40
1.0
 40
1.0
 40
1.0
 40
1.0
 10
169.8801777329963
 20
211.7714932924382
 30
0.0
 10
170.5721766814661
 20
211.7708176636778
 30
0.0
 10
171.2512998546837
 20
211.7180262391232
 30
0.0
 10
172.251482166793
 20
211.5634581249782
 30
0.0
 10
172.5817666203287
 20
211.4992573036259
 30
0.0
 10
173.235942325758
 20
211.3445863126422
 30
0.0
 10
173.5556360482982
 20
211.2550339353891
 30
0.0
 10
174.4858463530039
 20
210.952876248458
 30
0.0
 10
175.0711434241754
 20
210.7063310545814
 30
0.0
 10
175.8969815642168
 20
210.2670348167512
 30
0.0
 10
176.1612069834584
 20
210.1100190653591
 30
0.0
 10
176.6618962368192
 20
209.779223148529
 30
0.0
 10
176.8994446636377
 20
209.6048717986453
 30
0.0
 10
177.3496428061865
 20
209.2383773870599
 30
0.0
 10
177.5622906096943
 20
209.0462335765957
 30
0.0
 10
177.9626773327668
 20
208.6437768713682
 30
0.0
 10
178.1497951698584
 20
208.4338325133957
 30
0.0
 10
178.6636062529764
 20
207.7893880849892
 30
0.0
 10
178.9472354732393
 20
207.3364495313622
 30
0.0
 10
179.2884022091115
 20
206.6219912413447
 30
0.0
 10
179.3882687770245
 20
206.3768928597711
 30
0.0
 10
179.5569012287242
 20
205.8825340106332
 30
0.0
 10
179.6260563996861
 20
205.6327741415693
 30
0.0
 10
179.7898745803882
 20
204.8758167859994
 30
0.0
 10
179.8412398472018
 20
204.3609788301297
 30
0.0
 10
179.8351309336778
 20
203.8356477852088
 30
0.0
  0
SPLINE
  5
7F
330
1F
100
AcDbEntity
  8
0
  6
Continuous
 62
     7
370
    25
100
AcDbSpline
210
0.0
220
0.0
230
1.0
 70
     8
 71
     3
 72
    30
 73
    26
 74
     0
 42
0.000000001
 43
0.00000001
 40
0.0
 40
0.0
 40
0.0
 40
0.0
 40
0.1250000000000083
 40
0.1250000000000083
 40
0.1875000000000106
 40
0.1875000000000106
 40
0.2500000000000129
 40
0.2500000000000129
 40
0.3750000000000124
 40
0.3750000000000124
 40
0.4375000000000119
 40
0.4375000000000119
 40
0.5000000000000113
 40
0.5000000000000113
 40
0.6250000000000073
 40
0.6250000000000073
 40
0.6875000000000041
 40
0.6875000000000041
 40
0.7500000000000009
 40
0.7500000000000009
 40
0.8750000000000008
 40
0.8750000000000008
 40
0.9375000000000004
 40
0.9375000000000004
 40
1.0
 40
1.0
 40
1.0
 40
1.0
 10
179.8952365712951
 20
209.004383157101
 30
0.0
 10
179.9011833148373
 20
209.5157685264673
 30
0.0
 10
179.8486726308119
 20
210.0159592662711
 30
0.0
 10
179.6829401697846
 20
210.750086381532
 30
0.0
 10
179.6131110694093
 20
210.9920912964988
 30
0.0
 10
179.4432674619513
 20
211.4706662614279
 30
0.0
 10
179.3427606243476
 20
211.7082080645662
 30
0.0
 10
178.9966103527133
 20
212.4056660543283
 30
0.0
 10
178.7103287705917
 20
212.8444904801534
 30
0.0
 10
178.1972353027764
 20
213.464983925201
 30
0.0
 10
178.0121724576499
 20
213.6654881344779
 30
0.0
 10
177.6127754389862
 20
214.0536263960938
 30
0.0
 10
177.3969829221385
 20
214.2423539191664
 30
0.0
 10
176.7147146531993
 20
214.7791071107795
 30
0.0
 10
176.2157719508462
 20
215.0974807900683
 30
0.0
 10
175.4009160883357
 20
215.5177133838505
 30
0.0
 10
175.1181489095263
 20
215.6481684956944
 30
0.0
 10
174.5292577730453
 20
215.8892576536519
 30
0.0
 10
174.2235356715088
 20
215.9994936655225
 30
0.0
 10
173.2941397406267
 20
216.292117083599
 30
0.0
 10
172.651020232607
 20
216.4400292307844
 30
0.0
 10
171.6503760557787
 20
216.5910956091141
 30
0.0
 10
171.3092722806414
 20
216.6296042612854
 30
0.0
 10
170.6255417427179
 20
216.6809271524427
 30
0.0
 10
170.2822177996848
 20
216.6939662620569
 30
0.0
 10
169.9374235753588
 20
216.6943028996992
 30
0.0
  0
LWPOLYLINE
  5
82
330
1F
100
AcDbEntity
  8
0
  6
Continuous
 62
     7
370
    25
100
AcDbPolyline
 90
        9
 70
   128
 43
0.0
 10
127.5
 20
217.2102518134
 10
127.5192147196
 20
217.2707575563
 10
127.5761204675
 20
217.2937235486
 10
127.6685303877
 20
217.2782672202
 10
127.7928932188
 20
217.2249825491
 10
127.944429767
 20
217.1359172352
 10
128.1173165676
 20
217.0144940087
 10
128.304909678
 20
216.865379096
 10
128.5
 20
216.6943028997
  0
LWPOLYLINE
  5
84
330
1F
100
AcDbEntity
  8
0
  6
Continuous
 62
     7
370
    25
100
AcDbPolyline
 90
       10
 70
   128
 43
0.0
 10
-127.5
 20
217.2102518134
 10
-127.515192247
 20
217.2658582126
 10
-127.5603073792
 20
217.2919324202
 10
-127.6339745962
 20
217.2876821845
 10
-127.7339555569
 20
217.2532366469
 10
-127.8572123903
 20
217.1896424176
 10
-128.0
 20
217.0988317751
 10
-128.1579798567
 20
216.9835639547
 10
-128.3263518223
 20
216.8473413108
 10
-128.5
 20
216.6943028997
  0
SPLINE
  5
87
330
1F
100
AcDbEntity
  8
0
  6
Continuous
 62
     7
370
    25
100
AcDbSpline
210
0.0
220
0.0
230
1.0
 70
     8
 71
     3
 72
    29
 73
    25
 74
     0
 42
0.000000001
 43
0.00000001
 40
0.0
 40
0.0
 40
0.0
 40
0.0
 40
0.1250000000000052
 40
0.1250000000000052
 40
0.1875000000000055
 40
0.1875000000000055
 40
0.2500000000000059
 40
0.2500000000000059
 40
0.3750000000000079
 40
0.3750000000000079
 40
0.4375000000000107
 40
0.4375000000000107
 40
0.5000000000000135
 40
0.5000000000000135
 40
0.6250000000000157
 40
0.6250000000000157
 40
0.6875000000000141
 40
0.6875000000000141
 40
0.7500000000000124
 40
0.8125000000000108
 40
0.8125000000000108
 40
0.8750000000000091
 40
0.8750000000000091
 40
1.0
 40
1.0
 40
1.0
 40
1.0
 10
178.7960784858269
 20
199.8484637644062
 30
0.0
 10
178.8014870721057
 20
200.3079444440137
 30
0.0
 10
178.7478544162193
 20
200.7558523288791
 30
0.0
 10
178.581923477776
 20
201.4113258344517
 30
0.0
 10
178.5122610390573
 20
201.6270719281941
 30
0.0
 10
178.3434793295123
 20
202.0530774705472
 30
0.0
 10
178.2439537793502
 20
202.2636970951373
 30
0.0
 10
177.9076176357304
 20
202.8732560797637
 30
0.0
 10
177.6318048116699
 20
203.2549700738034
 30
0.0
 10
177.1413750555123
 20
203.7924405416171
 30
0.0
 10
176.9641061352543
 20
203.9664946709706
 30
0.0
 10
176.5872081912756
 20
204.2988559066725
 30
0.0
 10
176.3887682715792
 20
204.4563071261155
 30
0.0
 10
175.7644481966038
 20
204.9038010395279
 30
0.0
 10
175.3098432746976
 20
205.1692166205814
 30
0.0
 10
174.5690893598755
 20
205.5188035768335
 30
0.0
 10
174.313445611767
 20
205.6265010134077
 30
0.0
 10
173.7933412521952
 20
205.8214677536071
 30
0.0
 10
173.2620654078081
 20
205.9971468706168
 30
0.0
 10
172.7087760572551
 20
206.1353150935416
 30
0.0
 10
172.1443239350478
 20
206.2546690952012
 30
0.0
 10
171.855161087557
 20
206.3050881992442
 30
0.0
 10
170.9834413227759
 20
206.4255219573348
 30
0.0
 10
170.3956604453014
 20
206.4657203378261
 30
0.0
 10
169.8011841833649
 20
206.4657203378259
 30
0.0
  0
SPLINE
  5
89
330
1F
100
AcDbEntity
  8
0
  6
Continuous
 62
     7
370
    25
100
AcDbSpline
210
0.0
220
0.0
230
1.0
 70
     8
 71
     3
 72
    29
 73
    25
 74
     0
 42
0.000000001
 43
0.00000001
 40
0.0
 40
0.0
 40
0.0
 40
0.0
 40
0.1250000000000023
 40
0.1250000000000023
 40
0.1875000000000033
 40
0.1875000000000033
 40
0.2500000000000043
 40
0.3125000000000053
 40
0.3125000000000053
 40
0.3750000000000064
 40
0.3750000000000064
 40
0.5000000000000047
 40
0.5000000000000047
 40
0.5625000000000067
 40
0.5625000000000067
 40
0.6250000000000087
 40
0.6250000000000087
 40
0.7500000000000099
 40
0.7500000000000099
 40
0.8125000000000077
 40
0.8125000000000077
 40
0.8750000000000054
 40
0.8750000000000054
 40
1.0
 40
1.0
 40
1.0
 40
1.0
 10
169.8011841833649
 20
207.8711178541874
 30
0.0
 10
170.4656578494731
 20
207.8707126969854
 30
0.0
 10
171.1224180050107
 20
207.8246163996206
 30
0.0
 10
172.096109113161
 20
207.6872534703981
 30
0.0
 10
172.4189354579116
 20
207.6298233054576
 30
0.0
 10
173.0486678687869
 20
207.4940933181231
 30
0.0
 10
173.665613659144
 20
207.3371330029159
 30
0.0
 10
174.2573964549258
 20
207.1379744649599
 30
0.0
 10
174.8364335551438
 20
206.9171826176814
 30
0.0
 10
175.1209827896426
 20
206.7952742735377
 30
0.0
 10
175.9439741548379
 20
206.400524482771
 30
0.0
 10
176.4482648311255
 20
206.1014448387394
 30
0.0
 10
177.13993317842
 20
205.598498555934
 30
0.0
 10
177.3596162753396
 20
205.4217307370792
 30
0.0
 10
177.7765696660799
 20
205.0490637865759
 30
0.0
 10
177.9722654104123
 20
204.8543833849712
 30
0.0
 10
178.5136950484137
 20
204.2536251433191
 30
0.0
 10
178.8178166459061
 20
203.8278082053114
 30
0.0
 10
179.188361394098
 20
203.1493532734049
 30
0.0
 10
179.2979144604915
 20
202.9152359767684
 30
0.0
 10
179.4836446853578
 20
202.4422130283362
 30
0.0
 10
179.5603034930911
 20
202.2028085134853
 30
0.0
 10
179.7429017871305
 20
201.4759204672392
 30
0.0
 10
179.8019213941335
 20
200.9798204696408
 30
0.0
 10
179.7960108794313
 20
200.471550569866
 30
0.0
  0
LWPOLYLINE
  5
8A
330
1F
100
AcDbEntity
  8
0
  6
Continuous
 62
     7
370
    25
100
AcDbPolyline
 90
        9
 70
   128
 43
0.0
 10
179.7960108794
 20
200.4715505699
 10
179.7755439028
 20
200.3485328824
 10
179.7177883747
 20
200.2306411943
 10
179.6249430659
 20
200.1223636787
 10
179.5005426262
 20
200.0278224941
 10
179.3493230186
 20
199.9506168527
 10
179.1770412205
 20
199.8936859971
 10
178.9902560532
 20
199.8591973026
 10
178.7960784858
 20
199.8484637644
  0
SPLINE
  5
8B
330
1F
100
AcDbEntity
  8
0
  6
Continuous
 62
     7
370
    25
100
AcDbSpline
210
0.0
220
0.0
230
1.0
 70
     8
 71
     3
 72
    29
 73
    25
 74
     0
 42
0.000000001
 43
0.00000001
 40
0.0
 40
0.0
 40
0.0
 40
0.0
 40
0.1249999999999969
 40
0.1249999999999969
 40
0.1874999999999953
 40
0.1874999999999953
 40
0.2499999999999934
 40
0.3124999999999914
 40
0.3124999999999914
 40
0.3749999999999894
 40
0.3749999999999894
 40
0.4999999999999886
 40
0.4999999999999886
 40
0.56249999999999
 40
0.56249999999999
 40
0.6249999999999915
 40
0.6249999999999915
 40
0.7499999999999916
 40
0.7499999999999916
 40
0.8124999999999939
 40
0.8124999999999939
 40
0.8749999999999962
 40
0.8749999999999962
 40
1.0
 40
1.0
 40
1.0
 40
1.0
 10
179.8384125982344
 20
204.1178518569844
 30
0.0
 10
179.8442910097594
 20
204.6233610701613
 30
0.0
 10
179.7851939151176
 20
205.1195749355831
 30
0.0
 10
179.5995110518837
 20
205.850370257614
 30
0.0
 10
179.5210946610776
 20
206.0917601904689
 30
0.0
 10
179.3346557680122
 20
206.5611258504727
 30
0.0
 10
179.1181209035085
 20
207.0194362775475
 30
0.0
 10
178.842241981889
 20
207.4563228026328
 30
0.0
 10
178.5362571497803
 20
207.8825724788237
 30
0.0
 10
178.3672172761853
 20
208.0914331407054
 30
0.0
 10
177.8206217279284
 20
208.6935547150946
 30
0.0
 10
177.4070595706166
 20
209.0603060874657
 30
0.0
 10
176.7148911025252
 20
209.5615778964283
 30
0.0
 10
176.4721109860955
 20
209.720466132065
 30
0.0
 10
175.9616883768959
 20
210.0216425360991
 30
0.0
 10
175.6957545703082
 20
210.1627777522736
 30
0.0
 10
174.8775794127332
 20
210.5530818111564
 30
0.0
 10
174.3008653191253
 20
210.7720579556235
 30
0.0
 10
173.3885763673748
 20
211.0398228974948
 30
0.0
 10
173.0748327317518
 20
211.1191825869184
 30
0.0
 10
172.4432320484449
 20
211.2543332412963
 30
0.0
 10
172.1246712166982
 20
211.3104737091033
 30
0.0
 10
171.1608977935963
 20
211.4456010019196
 30
0.0
 10
170.5076748350927
 20
211.4916522350753
 30
0.0
 10
169.8432909775341
 20
211.4920573375174
 30
0.0
  0
SPLINE
  5
90
330
1F
100
AcDbEntity
  8
0
  6
Continuous
 62
     7
370
    25
100
AcDbSpline
210
0.0
220
0.0
230
1.0
 70
     8
 71
     3
 72
    29
 73
    25
 74
     0
 42
0.000000001
 43
0.00000001
 40
0.0
 40
0.0
 40
0.0
 40
0.0
 40
0.1250000000000008
 40
0.1250000000000008
 40
0.1874999999999998
 40
0.1874999999999998
 40
0.2499999999999988
 40
0.3124999999999977
 40
0.3124999999999977
 40
0.3749999999999967
 40
0.3749999999999967
 40
0.5000000000000008
 40
0.5000000000000008
 40
0.5625000000000028
 40
0.5625000000000028
 40
0.6250000000000048
 40
0.6250000000000048
 40
0.7500000000000043
 40
0.7500000000000043
 40
0.8125000000000033
 40
0.8125000000000033
 40
0.8750000000000022
 40
0.8750000000000022
 40
1.0
 40
1.0
 40
1.0
 40
1.0
 10
-179.7960108794312
 20
200.471550569866
 30
0.0
 10
-179.8019216482797
 20
200.9798423247357
 30
0.0
 10
-179.7429230533724
 20
201.478593469378
 30
0.0
 10
-179.5574280620511
 20
202.2128439339747
 30
0.0
 10
-179.4790730173164
 20
202.4553541722489
 30
0.0
 10
-179.2927527929231
 20
202.9268033754172
 30
0.0
 10
-179.0763362921646
 20
203.3870506972533
 30
0.0
 10
-178.8005669908326
 20
203.8256053673225
 30
0.0
 10
-178.4946844871183
 20
204.2533984290315
 30
0.0
 10
-178.3256959163301
 20
204.4629687445446
 30
0.0
 10
-177.7791876534433
 20
205.0670722396608
 30
0.0
 10
-177.3656612041461
 20
205.4348655473906
 30
0.0
 10
-176.6735147340015
 20
205.9373977331611
 30
0.0
 10
-176.4307367012176
 20
206.0966552715099
 30
0.0
 10
-175.9203081923852
 20
206.3984842884847
 30
0.0
 10
-175.6543504173893
 20
206.5399086968958
 30
0.0
 10
-174.8361112253741
 20
206.9309466015569
 30
0.0
 10
-174.259341858792
 20
207.1502558256598
 30
0.0
 10
-173.3469553977615
 20
207.4183836582428
 30
0.0
 10
-173.0331746701803
 20
207.4978419611053
 30
0.0
 10
-172.4014884442412
 20
207.6331525416772
 30
0.0
 10
-172.0828839832892
 20
207.6893537874261
 30
0.0
 10
-171.1189773989772
 20
207.8246215176838
 30
0.0
 10
-170.4656626903893
 20
207.8707126940335
 30
0.0
 10
-169.8011841833649
 20
207.8711178541874
 30
0.0
  0
SPLINE
  5
93
330
1F
100
AcDbEntity
  8
0
  6
Continuous
 62
     7
370
    25
100
AcDbSpline
210
0.0
220
0.0
230
1.0
 70
     8
 71
     3
 72
    27
 73
    23
 74
     0
 42
0.000000001
 43
0.00000001
 40
0.0
 40
0.0
 40
0.0
 40
0.0
 40
0.1249999999999961
 40
0.1249999999999961
 40
0.1874999999999971
 40
0.1874999999999971
 40
0.2499999999999981
 40
0.2499999999999981
 40
0.3749999999999951
 40
0.3749999999999951
 40
0.4999999999999921
 40
0.4999999999999921
 40
0.6249999999999891
 40
0.6249999999999891
 40
0.6874999999999916
 40
0.6874999999999916
 40
0.7499999999999939
 40
0.8124999999999962
 40
0.8124999999999962
 40
0.8749999999999986
 40
0.8749999999999986
 40
1.0
 40
1.0
 40
1.0
 40
1.0
 10
-169.8011841833649
 20
206.4657203378259
 30
0.0
 10
-170.3956421208785
 20
206.465720337826
 30
0.0
 10
-170.9804101013268
 20
206.4255268361127
 30
0.0
 10
-171.843585864589
 20
206.3068896707212
 30
0.0
 10
-172.1289644877464
 20
206.2575403802109
 30
0.0
 10
-172.6949146407176
 20
206.1386036366651
 30
0.0
 10
-172.9762248744618
 20
206.068687070975
 30
0.0
 10
-173.79493452122
 20
205.8323783640351
 30
0.0
 10
-174.3131578719436
 20
205.638739770449
 30
0.0
 10
-175.2945475340419
 20
205.1772610519946
 30
0.0
 10
-175.7594120995643
 20
204.9069533666474
 30
0.0
 10
-176.5926016439333
 20
204.3106577876092
 30
0.0
 10
-176.9665177084446
 20
203.9826582981097
 30
0.0
 10
-177.4612984151482
 20
203.4425098040923
 30
0.0
 10
-177.6145682838628
 20
203.2547140641562
 30
0.0
 10
-177.8920035037792
 20
202.8710844924334
 30
0.0
 10
-178.1422337868451
 20
202.4774360442031
 30
0.0
 10
-178.3387648030233
 20
202.0635330057377
 30
0.0
 10
-178.5080217033113
 20
201.6391413357544
 30
0.0
 10
-178.5792449790424
 20
201.4205991919476
 30
0.0
 10
-178.7478775440195
 20
200.7583146549238
 30
0.0
 10
-178.8014871540265
 20
200.3079514035099
 30
0.0
 10
-178.7960784858269
 20
199.8484637644062
 30
0.0
  0
LWPOLYLINE
  5
94
330
1F
100
AcDbEntity
  8
0
  6
Continuous
 62
     7
370
    25
100
AcDbPolyline
 90
        9
 70
   128
 43
0.0
 10
-178.7960784858
 20
199.8484637644
 10
-178.9902560532
 20
199.8591973026
 10
-179.1770412205
 20
199.8936859971
 10
-179.3493230186
 20
199.9506168527
 10
-179.5005426262
 20
200.0278224941
 10
-179.6249430659
 20
200.1223636787
 10
-179.7177883747
 20
200.2306411943
 10
-179.7755439028
 20
200.3485328824
 10
-179.7960108794
 20
200.4715505699
  0
SPLINE
  5
A7
330
1F
100
AcDbEntity
  8
0
  6
Continuous
 62
     8
370
    25
100
AcDbSpline
210
0.0
220
0.0
230
1.0
 70
     8
 71
     3
 72
    15
 73
    11
 74
     0
 42
0.000000001
 43
0.00000001
 40
0.0
 40
0.0
 40
0.0
 40
0.0
 40
0.079724825111517
 40
0.2085669660363499
 40
0.3347852627555983
 40
0.4654576739301236
 40
0.5810472280159633
 40
0.7006830658738994
 40
0.9135280046685997
 40
1.0
 40
1.0
 40
1.0
 40
1.0
 10
-179.7838942381585
 20
204.3739279756648
 30
0.0
 10
-179.7652815588844
 20
204.689975143493
 30
0.0
 10
-179.7165891968683
 20
205.5167815845997
 30
0.0
 10
-179.2661693279803
 20
206.783291752812
 30
0.0
 10
-178.4594783088424
 20
208.1413388990233
 30
0.0
 10
-177.3470779960126
 20
209.3041405279294
 30
0.0
 10
-175.9808995089414
 20
210.2673310722572
 30
0.0
 10
-174.0309131296918
 20
211.1927986024288
 30
0.0
 10
-171.8999619302825
 20
211.7083723580821
 30
0.0
 10
-170.3328987841777
 20
211.7573451592903
 30
0.0
 10
-169.8801777329963
 20
211.7714932924382
 30
0.0
  0
SPLINE
  5
AC
330
1F
100
AcDbEntity
  8
0
  6
Continuous
 62
     8
370
    25
100
AcDbSpline
210
0.0
220
0.0
230
1.0
 70
     8
 71
     3
 72
    12
 73
     8
 74
     0
 42
0.000000001
 43
0.00000001
 40
0.0
 40
0.0
 40
0.0
 40
0.0
 40
0.1685303480456073
 40
0.4105444588603268
 40
0.6523234082668407
 40
0.8949802021362274
 40
1.0
 40
1.0
 40
1.0
 40
1.0
 10
-169.8432909775341
 20
211.4920573375174
 30
0.0
 10
-170.6213650241913
 20
211.4539479765323
 30
0.0
 10
-172.5167743207514
 20
211.3611125485836
 30
0.0
 10
-175.3538895681277
 20
210.4893827283666
 30
0.0
 10
-177.8260273603717
 20
208.8517304005762
 30
0.0
 10
-179.298310438034
 20
207.0986222233848
 30
0.0
 10
-179.4825550358146
 20
205.8923107157676
 30
0.0
 10
-179.5382082804577
 20
205.5279301572171
 30
0.0
  0
LINE
  5
AF
330
1F
100
AcDbEntity
  8
0
  6
Continuous
 62
     7
370
    25
100
AcDbLine
 10
169.9374235754
 20
217.2939087823
 30
0.0
 11
127.5836569689
 21
217.2939087823
 31
0.0
  0
LINE
  5
B0
330
1F
100
AcDbEntity
  8
0
  6
Continuous
 62
     7
370
    25
100
AcDbLine
 10
-127.5836569689
 20
217.2939087823
 30
0.0
 11
-169.9374235754
 21
217.2939087823
 31
0.0
  0
LINE
  5
B1
330
1F
100
AcDbEntity
  8
0
  6
Continuous
 62
     7
370
    25
100
AcDbLine
 10
169.8432909775
 20
211.8024021651
 30
0.0
 11
-169.8432909775
 21
211.8024021651
 31
0.0
  0
LINE
  5
B2
330
1F
100
AcDbEntity
  8
0
  6
Continuous
 62
     7
370
    25
100
AcDbLine
 10
-169.9374235754
 20
216.6943028997
 30
0.0
 11
-169.880177733
 21
211.7714932924
 31
0.0
  0
LINE
  5
B3
330
1F
100
AcDbEntity
  8
0
  6
Continuous
 62
     7
370
    25
100
AcDbLine
 10
-177.0348837209
 20
-36.9693314537
 30
0.0
 11
-179.8952365713
 21
209.0043831571
 31
0.0
  0
LINE
  5
B4
330
1F
100
AcDbEntity
  8
0
  6
Continuous
 62
     7
370
    25
100
AcDbLine
 10
169.880177733
 20
211.7714932924
 30
0.0
 11
169.9374235754
 21
216.6943028997
 31
0.0
  0
LINE
  5
B5
330
1F
100
AcDbEntity
  8
0
  6
Continuous
 62
     7
370
    25
100
AcDbLine
 10
179.8952365713
 20
209.0043831571
 30
0.0
 11
179.8444946191
 21
204.6408702917
 31
0.0
  0
LINE
  5
B6
330
1F
100
AcDbEntity
  8
0
  6
Continuous
 62
     7
370
    25
100
AcDbLine
 10
127.5
 20
211.8024021651
 30
0.0
 11
127.5
 21
217.2102518134
 31
0.0
  0
LINE
  5
B7
330
1F
100
AcDbEntity
  8
0
  6
Continuous
 62
     7
370
    25
100
AcDbLine
 10
-127.5
 20
217.2102518134
 30
0.0
 11
-127.5
 21
211.8024021651
 31
0.0
  0
LINE
  5
B8
330
1F
100
AcDbEntity
  8
0
  6
Continuous
 62
     7
370
    25
100
AcDbLine
 10
169.9374235754
 20
216.6943028997
 30
0.0
 11
128.5
 21
216.6943028997
 31
0.0
  0
LINE
  5
B9
330
1F
100
AcDbEntity
  8
0
  6
Continuous
 62
     7
370
    25
100
AcDbLine
 10
-128.5
 20
216.6943028997
 30
0.0
 11
-169.9374235754
 21
216.6943028997
 31
0.0
  0
LINE
  5
BA
330
1F
100
AcDbEntity
  8
0
  6
Continuous
 62
     7
370
    25
100
AcDbLine
 10
169.8011841834
 20
206.4657203378
 30
0.0
 11
169.8011841834
 21
207.8711178542
 31
0.0
  0
LINE
  5
BB
330
1F
100
AcDbEntity
  8
0
  6
Continuous
 62
     7
370
    25
100
AcDbLine
 10
179.8384125982
 20
204.117851857
 30
0.0
 11
177.0348837209
 21
-36.9693314537
 31
0.0
  0
LINE
  5
BC
330
1F
100
AcDbEntity
  8
0
  6
Continuous
 62
     7
370
    25
100
AcDbLine
 10
169.8011841834
 20
207.8711178542
 30
0.0
 11
169.8432909775
 21
211.4920573375
 31
0.0
  0
LINE
  5
BD
330
1F
100
AcDbEntity
  8
0
  6
Continuous
 62
     7
370
    25
100
AcDbLine
 10
-179.5382082805
 20
205.5279301572
 30
0.0
 11
-179.8384125982
 21
204.117851857
 31
0.0
  0
LINE
  5
BE
330
1F
100
AcDbEntity
  8
0
  6
Continuous
 62
     7
370
    25
100
AcDbLine
 10
-169.8432909775
 20
211.4920573375
 30
0.0
 11
-169.8011841834
 21
207.8711178542
 31
0.0
  0
LINE
  5
BF
330
1F
100
AcDbEntity
  8
0
  6
Continuous
 62
     7
370
    25
100
AcDbLine
 10
-169.8011841834
 20
206.4657203378
 30
0.0
 11
-169.8011841834
 21
207.8711178542
 31
0.0
  0
LINE
  5
C0
330
1F
100
AcDbEntity
  8
0
  6
Continuous
 62
     7
370
    25
100
AcDbLine
 10
178.1859238685
 20
148.0134289154
 30
0.0
 11
178.7960784858
 21
199.8484637644
 31
0.0
  0
LINE
  5
C1
330
1F
100
AcDbEntity
  8
0
  6
Continuous
 62
     7
370
    25
100
AcDbLine
 10
-178.1859238685
 20
148.0134289154
 30
0.0
 11
178.1859238685
 21
148.0134289154
 31
0.0
  0
LINE
  5
C2
330
1F
100
AcDbEntity
  8
0
  6
Continuous
 62
     7
370
    25
100
AcDbLine
 10
-178.7960784858
 20
199.8484637644
 30
0.0
 11
-178.1859238685
 21
148.0134289154
 31
0.0
  0
LINE
  5
C3
330
1F
100
AcDbEntity
  8
0
  6
Continuous
 62
     7
370
    25
100
AcDbLine
 10
169.8011841834
 20
206.4657203378
 30
0.0
 11
-169.8011841834
 21
206.4657203378
 31
0.0
  0
LINE
  5
C4
330
1F
100
AcDbEntity
  8
0
  6
Continuous
 62
     7
370
    25
100
AcDbLine
 10
-169.8011841834
 20
207.8711178542
 30
0.0
 11
169.8011841834
 21
207.8711178542
 31
0.0
  0
LINE
  5
C5
330
1F
100
AcDbEntity
  8
0
  6
Continuous
 62
     7
370
    25
100
AcDbLine
 10
169.8432909775
 20
211.4920573375
 30
0.0
 11
-169.8432909775
 21
211.4920573375
 31
0.0
  0
LINE
  5
C6
330
1F
100
AcDbEntity
  8
0
  6
Continuous
 62
     7
370
    25
100
AcDbLine
 10
-178.1859238685
 20
148.0134289154
 30
0.0
 11
-179.1858562621
 21
148.0018010085
 31
0.0
  0
LINE
  5
C7
330
1F
100
AcDbEntity
  8
0
  6
Continuous
 62
     7
370
    25
100
AcDbLine
 10
178.1859238685
 20
148.0134289154
 30
0.0
 11
179.1858562621
 21
148.0018010085
 31
0.0
  0
LINE
  5
C8
330
1F
100
AcDbEntity
  8
0
  6
Continuous
 62
     7
370
    25
100
AcDbLine
 10
176.0349513273
 20
-36.9577035467
 30
0.0
 11
177.0348837209
 21
-36.9693314537
 31
0.0
  0
LINE
  5
C9
330
1F
100
AcDbEntity
  8
0
  6
Continuous
 62
     7
370
    25
100
AcDbLine
 10
-176.0349513273
 20
-36.9577035467
 30
0.0
 11
-177.0348837209
 21
-36.9693314537
 31
0.0
  0
LINE
  5
CA
330
1F
100
AcDbEntity
  8
0
  6
Continuous
 62
     7
370
    25
100
AcDbLine
 10
-178.1859238685
 20
148.0134289154
 30
0.0
 11
-176.0349513273
 21
-36.9577035467
 31
0.0
  0
LINE
  5
CB
330
1F
100
AcDbEntity
  8
0
  6
Continuous
 62
     7
370
    25
100
AcDbLine
 10
176.0349513273
 20
-36.9577035467
 30
0.0
 11
178.1859238685
 21
148.0134289154
 31
0.0
  0
LINE
  5
CC
330
1F
100
AcDbEntity
  8
0
  6
Continuous
 62
     8
370
    25
100
AcDbLine
 10
128.5
 20
216.6943028997
 30
0.0
 11
128.5
 21
211.8024021651
 31
0.0
  0
LINE
  5
CD
330
1F
100
AcDbEntity
  8
0
  6
Continuous
 62
     8
370
    25
100
AcDbLine
 10
-128.5
 20
211.8024021651
 30
0.0
 11
-128.5
 21
216.6943028997
 31
0.0
  0
LINE
  5
CE
330
1F
100
AcDbEntity
  8
0
  6
Continuous
 62
     8
370
    25
100
AcDbLine
 10
169.9374235754
 20
217.2939087823
 30
0.0
 11
169.9374235754
 21
216.6943028997
 31
0.0
  0
LINE
  5
CF
330
1F
100
AcDbEntity
  8
0
  6
Continuous
 62
     8
370
    25
100
AcDbLine
 10
-169.9374235754
 20
217.2939087823
 30
0.0
 11
-169.9374235754
 21
216.6943028997
 31
0.0
  0
LINE
  5
D0
330
1F
100
AcDbEntity
  8
0
  6
Continuous
 62
     8
370
    25
100
AcDbLine
 10
-169.8432909775
 20
211.4920573375
 30
0.0
 11
-169.8432909775
 21
211.8024021651
 31
0.0
  0
LINE
  5
D1
330
1F
100
AcDbEntity
  8
0
  6
Continuous
 62
     8
370
    25
100
AcDbLine
 10
169.8432909775
 20
211.4920573375
 30
0.0
 11
169.8432909775
 21
211.8024021651
 31
0.0
  0
ARC
  5
D2
330
1F
100
AcDbEntity
  8
0
  6
Continuous
 62
     7
370
    25
100
AcDbCircle
 10
0.0
 20
-34.9106471139
 30
0.0
 40
176.0468532205362
100
AcDbArc
 50
180.6662450085
 51
359.3337549915
  0
ARC
  5
D3
330
1F
100
AcDbEntity
  8
0
  6
Continuous
 62
     7
370
    25
100
AcDbCircle
 10
0.0
 20
-34.9106471139
 30
0.0
 40
177.0468532205363
100
AcDbArc
 50
180.6662450085
 51
359.3337549915
  0
SPLINE
  5
DA
330
1B
100
AcDbEntity
 67
     1
  8
0
  6
Continuous
 62
     7
370
    25
100
AcDbSpline
210
0.0
220
0.0
230
1.0
 70
     8
 71
     3
 72
    28
 73
    24
 74
     0
 42
0.000000001
 43
0.00000001
 40
0.0
 40
0.0
 40
0.0
 40
0.0
 40
0.1249999999999972
 40
0.1249999999999972
 40
0.2499999999999944
 40
0.2499999999999944
 40
0.3749999999999917
 40
0.3749999999999917
 40
0.4374999999999914
 40
0.4374999999999914
 40
0.4999999999999911
 40
0.4999999999999911
 40
0.6249999999999902
 40
0.6249999999999902
 40
0.6874999999999913
 40
0.6874999999999913
 40
0.7499999999999926
 40
0.7499999999999926
 40
0.8749999999999963
 40
0.8749999999999963
 40
0.9374999999999981
 40
0.9374999999999981
 40
1.0
 40
1.0
 40
1.0
 40
1.0
 10
-203.8356477852089
 20
25.23119929538047
 30
0.0
 10
-204.3616459825853
 20
25.67983589364923
 30
0.0
 10
-204.8762121052932
 20
26.12763693999507
 30
0.0
 10
-205.8832903275528
 20
27.02076182683763
 30
0.0
 10
-206.3774270555735
 20
27.46759148554752
 30
0.0
 10
-207.3362563565115
 20
28.35044513881834
 30
0.0
 10
-207.7887532254287
 20
28.77515884260594
 30
0.0
 10
-208.428634912822
 20
29.38515419850884
 30
0.0
 10
-208.63541471916
 20
29.58394305655862
 30
0.0
 10
-209.035729850855
 20
29.97167924277099
 30
0.0
 10
-209.2301767700974
 20
30.16152504511017
 30
0.0
 10
-209.7863380413721
 20
30.70828546498084
 30
0.0
 10
-210.1159658433069
 20
31.03748110807484
 30
0.0
 10
-210.5509102655107
 20
31.4760092145211
 30
0.0
 10
-210.6859048109783
 20
31.61291542617428
 30
0.0
 10
-210.9353721017553
 20
31.86698740003929
 30
0.0
 10
-211.0500282388664
 20
31.98434686837131
 30
0.0
 10
-211.3541595758468
 20
32.29661314829568
 30
0.0
 10
-211.5075992358837
 20
32.4555038870974
 30
0.0
 10
-211.664271827877
 20
32.61760849049838
 30
0.0
 10
-211.7042370846654
 20
32.65894301762837
 30
0.0
 10
-211.7576122612252
 20
32.71384396990175
 30
0.0
 10
-211.7711547913424
 20
32.72754825848612
 30
0.0
 10
-211.7714932924382
 20
32.72740035116002
 30
0.0
  0
SPLINE
  5
DC
330
1B
100
AcDbEntity
 67
     1
  8
0
  6
Continuous
 62
     7
370
    25
100
AcDbSpline
210
0.0
220
0.0
230
1.0
 70
     8
 71
     3
 72
    28
 73
    24
 74
     0
 42
0.000000001
 43
0.00000001
 40
0.0
 40
0.0
 40
0.0
 40
0.0
 40
0.0624999999999959
 40
0.0624999999999959
 40
0.1249999999999918
 40
0.1249999999999918
 40
0.2499999999999891
 40
0.2499999999999891
 40
0.3124999999999901
 40
0.3124999999999901
 40
0.3749999999999911
 40
0.3749999999999911
 40
0.4999999999999879
 40
0.4999999999999879
 40
0.5624999999999879
 40
0.5624999999999879
 40
0.6249999999999879
 40
0.6249999999999879
 40
0.749999999999992
 40
0.749999999999992
 40
0.874999999999996
 40
0.874999999999996
 40
1.0
 40
1.0
 40
1.0
 40
1.0
 10
-210.6723013412489
 20
32.52637654075654
 30
0.0
 10
-210.6723013412489
 20
32.52637654075654
 30
0.0
 10
-210.659864006058
 20
32.51421944590879
 30
0.0
 10
-210.610217960506
 20
32.46577636736747
 30
0.0
 10
-210.5728876823405
 20
32.42937314796491
 30
0.0
 10
-210.4262435384053
 20
32.28677635321799
 30
0.0
 10
-210.2823218615212
 20
32.14716776856812
 30
0.0
 10
-209.9966564295096
 20
31.87308649108563
 30
0.0
 10
-209.8889175353608
 20
31.77012484924385
 30
0.0
 10
-209.6545716842037
 20
31.54749322308429
 30
0.0
 10
-209.5277398459021
 20
31.42760180649425
 30
0.0
 10
-209.1190460601796
 20
31.04384782787604
 30
0.0
 10
-208.809249531318
 20
30.75610659766706
 30
0.0
 10
-208.2865044664984
 20
30.27899363777868
 30
0.0
 10
-208.1039973354777
 20
30.11369174781792
 30
0.0
 10
-207.7281749770628
 20
29.77627881917354
 30
0.0
 10
-207.5340776916167
 20
29.60345219995688
 30
0.0
 10
-206.9335651994362
 20
29.07366652371126
 30
0.0
 10
-206.5090626048585
 20
28.70550335849351
 30
0.0
 10
-205.6101091660476
 20
27.94198912623656
 30
0.0
 10
-205.1475855557791
 20
27.55683257853607
 30
0.0
 10
-204.2048360047886
 20
26.78815214316763
 30
0.0
 10
-203.7233523932354
 20
26.40355184325044
 30
0.0
 10
-203.2314612056773
 20
26.01909047962263
 30
0.0
  0
SPLINE
  5
DE
330
1B
100
AcDbEntity
 67
     1
  8
0
  6
Continuous
 62
     7
370
    25
100
AcDbSpline
210
0.0
220
0.0
230
1.0
 70
     8
 71
     3
 72
    30
 73
    26
 74
     0
 42
0.000000001
 43
0.00000001
 40
0.0
 40
0.0
 40
0.0
 40
0.0
 40
0.1249999999999917
 40
0.1249999999999917
 40
0.1874999999999876
 40
0.1874999999999876
 40
0.2499999999999834
 40
0.2499999999999834
 40
0.3749999999999783
 40
0.3749999999999783
 40
0.4374999999999787
 40
0.4374999999999787
 40
0.4999999999999791
 40
0.4999999999999791
 40
0.5624999999999796
 40
0.5624999999999796
 40
0.6249999999999799
 40
0.6249999999999799
 40
0.7499999999999863
 40
0.7499999999999863
 40
0.8124999999999898
 40
0.8124999999999898
 40
0.8749999999999932
 40
0.8749999999999932
 40
1.0
 40
1.0
 40
1.0
 40
1.0
 10
-216.6943028996992
 20
30.57638927663301
 30
0.0
 10
-216.6936308036155
 20
30.57668294757186
 30
0.0
 10
-216.6427872324776
 20
30.52216224491292
 30
0.0
 10
-216.4939515283604
 20
30.36201858753186
 30
0.0
 10
-216.4321359331227
 20
30.29547660487111
 30
0.0
 10
-216.2832387870586
 20
30.13552653047801
 30
0.0
 10
-216.1968384747184
 20
30.04285444134044
 30
0.0
 10
-215.9055039536121
 20
29.73146435391461
 30
0.0
 10
-215.6677506737626
 20
29.47857489493848
 30
0.0
 10
-215.2441667011532
 20
29.03331456295728
 30
0.0
 10
-215.092224163031
 20
28.87436519736907
 30
0.0
 10
-214.7724103731326
 20
28.54188035958044
 30
0.0
 10
-214.6038381273054
 20
28.36760592421939
 30
0.0
 10
-214.2494880594633
 20
28.00377202053842
 30
0.0
 10
-214.0637095055091
 20
27.81421081832917
 30
0.0
 10
-213.6745926661346
 20
27.42013760184796
 30
0.0
 10
-213.4709130929394
 20
27.21530363851435
 30
0.0
 10
-212.8457970896549
 20
26.59162377805601
 30
0.0
 10
-212.4065081433815
 20
26.15974189909348
 30
0.0
 10
-211.7137185355827
 20
25.49055307115452
 30
0.0
 10
-211.4760058811054
 20
25.26285109034739
 30
0.0
 10
-210.9950819828807
 20
24.80628465382835
 30
0.0
 10
-210.7521306348972
 20
24.57764482103915
 30
0.0
 10
-210.0158702523934
 20
23.89095298211924
 30
0.0
 10
-209.5151917054188
 20
23.43216053618151
 30
0.0
 10
-209.004383157101
 20
22.97273148670458
 30
0.0
  0
SPLINE
  5
E1
330
1B
100
AcDbEntity
 67
     1
  8
0
  6
Continuous
 62
     7
370
    25
100
AcDbSpline
210
0.0
220
0.0
230
1.0
 70
     8
 71
     3
 72
    28
 73
    24
 74
     0
 42
0.000000001
 43
0.00000001
 40
0.0
 40
0.0
 40
0.0
 40
0.0
 40
0.1249999999999889
 40
0.1249999999999889
 40
0.1874999999999856
 40
0.1874999999999856
 40
0.2499999999999824
 40
0.2499999999999824
 40
0.3749999999999816
 40
0.3749999999999816
 40
0.4374999999999814
 40
0.4374999999999814
 40
0.4999999999999812
 40
0.4999999999999812
 40
0.562499999999981
 40
0.562499999999981
 40
0.6249999999999808
 40
0.6249999999999808
 40
0.7499999999999871
 40
0.7499999999999871
 40
0.8749999999999936
 40
0.8749999999999936
 40
1.0
 40
1.0
 40
1.0
 40
1.0
 10
-209.6536687171995
 20
22.20241160677464
 30
0.0
 10
-210.1365634837422
 20
22.60214365518857
 30
0.0
 10
-210.6103841804416
 20
23.00227935029908
 30
0.0
 10
-211.3077914938945
 20
23.60257021084553
 30
0.0
 10
-211.5380322084631
 20
23.80267549027419
 30
0.0
 10
-211.9940070353746
 20
24.2027304147054
 30
0.0
 10
-212.2197929729649
 20
24.40274729451351
 30
0.0
 10
-212.8786701500542
 20
24.9917612931948
 30
0.0
 10
-213.297421832609
 20
25.3733353819367
 30
0.0
 10
-213.8945402404121
 20
25.9263160304162
 30
0.0
 10
-214.0893230517344
 20
26.10827662468114
 30
0.0
 10
-214.462707290322
 20
26.45980379212157
 30
0.0
 10
-214.6412155947945
 20
26.62926173645967
 30
0.0
 10
-214.9821098524149
 20
26.95514810115986
 30
0.0
 10
-215.1444969110852
 20
27.11157845569493
 30
0.0
 10
-215.4529541648554
 20
27.41061263234082
 30
0.0
 10
-215.599587563299
 20
27.55377080210323
 30
0.0
 10
-216.0100864691036
 20
27.95679772166578
 30
0.0
 10
-216.2409486505563
 20
28.18658606357268
 30
0.0
 10
-216.6186073656718
 20
28.56493850633457
 30
0.0
 10
-216.765288658232
 20
28.71340959165324
 30
0.0
 10
-216.9583992775941
 20
28.90934656797102
 30
0.0
 10
-217.0076420212811
 20
28.95962861042996
 30
0.0
 10
-217.0076420212812
 20
28.95962861042996
 30
0.0
  0
SPLINE
  5
F3
330
1B
100
AcDbEntity
 67
     1
  8
0
  6
Continuous
 62
     7
370
    25
100
AcDbSpline
210
0.0
220
0.0
230
1.0
 70
     8
 71
     3
 72
    10
 73
     6
 74
     0
 42
0.000000001
 43
0.00000001
 40
0.0
 40
0.0
 40
0.0
 40
0.0
 40
0.4574799675649298
 40
0.9178169684258528
 40
1.0
 40
1.0
 40
1.0
 40
1.0
 10
-155.84010637018
 20
7.342234224414875
 30
0.0
 10
-156.6672085415013
 20
7.42249063980133
 30
0.0
 10
-158.3265782653851
 20
7.58350468432617
 30
0.0
 10
-159.3130079707587
 20
7.715016557417628
 30
0.0
 10
-159.2474808554426
 20
7.706558100053137
 30
0.0
 10
-159.2375545547255
 20
7.70527678023618
 30
0.0
  0
SPLINE
  5
F5
330
1B
100
AcDbEntity
 67
     1
  8
0
  6
Continuous
 62
     7
370
    25
100
AcDbSpline
210
0.0
220
0.0
230
1.0
 70
     8
 71
     3
 72
    29
 73
    25
 74
     0
 42
0.000000001
 43
0.00000001
 40
0.0
 40
0.0
 40
0.0
 40
0.0
 40
0.1249999999999943
 40
0.1249999999999943
 40
0.187499999999994
 40
0.187499999999994
 40
0.2499999999999937
 40
0.3124999999999933
 40
0.3124999999999933
 40
0.3749999999999931
 40
0.3749999999999931
 40
0.499999999999992
 40
0.499999999999992
 40
0.5624999999999915
 40
0.5624999999999915
 40
0.6249999999999909
 40
0.6249999999999909
 40
0.7499999999999928
 40
0.7499999999999928
 40
0.8124999999999947
 40
0.8124999999999947
 40
0.8749999999999966
 40
0.8749999999999966
 40
1.0
 40
1.0
 40
1.0
 40
1.0
 10
-211.4920573375174
 20
36.21083007420143
 30
0.0
 10
-211.4916522379278
 20
36.21121588333437
 30
0.0
 10
-211.4455957559468
 20
36.16454909331927
 30
0.0
 10
-211.308366300087
 20
36.02507318080707
 30
0.0
 10
-211.2509998805835
 20
35.96674742875535
 30
0.0
 10
-211.1154346456917
 20
35.82918495233798
 30
0.0
 10
-210.9586742251713
 20
35.6703431232733
 30
0.0
 10
-210.7598047256984
 20
35.47001383993948
 30
0.0
 10
-210.539360031323
 20
35.24891095881065
 30
0.0
 10
-210.4176516356049
 20
35.12727833781029
 30
0.0
 10
-210.0236557071616
 20
34.7355916223343
 30
0.0
 10
-209.7252183402894
 20
34.4414079459664
 30
0.0
 10
-209.2235394114519
 20
33.95371151716014
 30
0.0
 10
-209.0472450099041
 20
33.78335189453225
 30
0.0
 10
-208.6756472931077
 20
33.42688824830623
 30
0.0
 10
-208.4815675847987
 20
33.24197376508926
 30
0.0
 10
-207.8827652376104
 20
32.67586130053513
 30
0.0
 10
-207.4584784500474
 20
32.28038960216183
 30
0.0
 10
-206.782733403229
 20
31.66156566586573
 30
0.0
 10
-206.5495962849859
 20
31.44983131208883
 30
0.0
 10
-206.0786497475753
 20
31.02592745607689
 30
0.0
 10
-205.8403394243327
 20
30.81327820517733
 30
0.0
 10
-205.1169070263709
 20
30.1735242733814
 30
0.0
 10
-204.6233413615977
 20
29.74465892607482
 30
0.0
 10
-204.1178518569844
 20
29.31361713207334
 30
0.0
  0
SPLINE
  5
F7
330
1B
100
AcDbEntity
 67
     1
  8
0
  6
Continuous
 62
     7
370
    25
100
AcDbSpline
210
0.0
220
0.0
230
1.0
 70
     8
 71
     3
 72
    27
 73
    23
 74
     0
 42
0.000000001
 43
0.00000001
 40
0.0
 40
0.0
 40
0.0
 40
0.0
 40
0.1250000000000041
 40
0.1250000000000041
 40
0.1875000000000032
 40
0.1875000000000032
 40
0.2500000000000023
 40
0.2500000000000023
 40
0.3750000000000021
 40
0.3750000000000021
 40
0.500000000000002
 40
0.500000000000002
 40
0.6250000000000019
 40
0.6250000000000019
 40
0.6875000000000016
 40
0.6875000000000016
 40
0.7500000000000012
 40
0.812500000000001
 40
0.812500000000001
 40
0.8750000000000007
 40
0.8750000000000007
 40
1.0
 40
1.0
 40
1.0
 40
1.0
 10
-204.7695868078607
 20
28.54533139593728
 30
0.0
 10
-205.2316124689216
 20
28.9302739585766
 30
0.0
 10
-205.6826432917385
 20
29.31401421002787
 30
0.0
 10
-206.3435582504713
 20
29.88748678983725
 30
0.0
 10
-206.5612453603572
 20
30.07827842102688
 30
0.0
 10
-206.9913797139057
 20
30.45895126103188
 30
0.0
 10
-207.2043794462479
 20
30.64935035837944
 30
0.0
 10
-207.8220497943138
 20
31.20664646812309
 30
0.0
 10
-208.2100231851556
 20
31.56368848043804
 30
0.0
 10
-208.9403467815602
 20
32.24665106806281
 30
0.0
 10
-209.2839141686393
 20
32.57386737312012
 30
0.0
 10
-209.8969920748288
 20
33.16561238295199
 30
0.0
 10
-210.1706814346064
 20
33.43401037341359
 30
0.0
 10
-210.5322066469402
 20
33.79211712593769
 30
0.0
 10
-210.644051204956
 20
33.90359266608724
 30
0.0
 10
-210.8465635305962
 20
34.10633178258949
 30
0.0
 10
-211.0292640899606
 20
34.29020954236969
 30
0.0
 10
-211.1732844125803
 20
34.43630174175271
 30
0.0
 10
-211.2978203929295
 20
34.56295131539768
 30
0.0
 10
-211.3505207477909
 20
34.61673368905253
 30
0.0
 10
-211.4765137401222
 20
34.74551463902507
 30
0.0
 10
-211.5186261945675
 20
34.78882171133995
 30
0.0
 10
-211.5186261945676
 20
34.78882171133995
 30
0.0
  0
SPLINE
  5
FA
330
1B
100
AcDbEntity
 67
     1
  8
0
  6
Continuous
 62
     7
370
    25
100
AcDbSpline
210
0.0
220
0.0
230
1.0
 70
     8
 71
     3
 72
    29
 73
    25
 74
     0
 42
0.000000001
 43
0.00000001
 40
0.0
 40
0.0
 40
0.0
 40
0.0
 40
0.1250000000000008
 40
0.1250000000000008
 40
0.1874999999999998
 40
0.1874999999999998
 40
0.2499999999999988
 40
0.3124999999999977
 40
0.3124999999999977
 40
0.3749999999999967
 40
0.3749999999999967
 40
0.5000000000000008
 40
0.5000000000000008
 40
0.5625000000000028
 40
0.5625000000000028
 40
0.6250000000000048
 40
0.6250000000000048
 40
0.7500000000000043
 40
0.7500000000000043
 40
0.8125000000000033
 40
0.8125000000000033
 40
0.8750000000000022
 40
0.8750000000000022
 40
1.0
 40
1.0
 40
1.0
 40
1.0
 10
-200.471550569866
 20
32.7862850245671
 30
0.0
 10
-200.9798423247357
 20
33.21420185260886
 30
0.0
 10
-201.478593469378
 20
33.642531402553
 30
0.0
 10
-202.2128439339747
 20
34.28520046488945
 30
0.0
 10
-202.4553541722489
 20
34.49954214477288
 30
0.0
 10
-202.9268033754172
 20
34.92007167963448
 30
0.0
 10
-203.3870506972533
 20
35.33450809463244
 30
0.0
 10
-203.8256053673225
 20
35.73648946488058
 30
0.0
 10
-204.2533984290315
 20
36.13188260207767
 30
0.0
 10
-204.4629687445446
 20
36.32727950768545
 30
0.0
 10
-205.0670722396608
 20
36.89496066409857
 30
0.0
 10
-205.4348655473906
 20
37.24660870405734
 30
0.0
 10
-205.9373977331611
 20
37.73295099520604
 30
0.0
 10
-206.0966552715099
 20
37.88816183258853
 30
0.0
 10
-206.3984842884847
 20
38.18400339371517
 30
0.0
 10
-206.5399086968958
 20
38.32351392738148
 30
0.0
 10
-206.9309466015569
 20
38.71109852788063
 30
0.0
 10
-207.1502558256598
 20
38.9310584048554
 30
0.0
 10
-207.4183836582428
 20
39.20130000172806
 30
0.0
 10
-207.4978419611053
 20
39.28166927979172
 30
0.0
 10
-207.6331525416772
 20
39.41874421701812
 30
0.0
 10
-207.6893537874261
 20
39.4757994348612
 30
0.0
 10
-207.8246215176838
 20
39.61308008582252
 30
0.0
 10
-207.8707126940335
 20
39.65972973466211
 30
0.0
 10
-207.8711178541874
 20
39.65934386784897
 30
0.0
  0
SPLINE
  5
FD
330
1B
100
AcDbEntity
 67
     1
  8
0
  6
Continuous
 62
     7
370
    25
100
AcDbSpline
210
0.0
220
0.0
230
1.0
 70
     8
 71
     3
 72
    27
 73
    23
 74
     0
 42
0.000000001
 43
0.00000001
 40
0.0
 40
0.0
 40
0.0
 40
0.0
 40
0.1249999999999961
 40
0.1249999999999961
 40
0.1874999999999971
 40
0.1874999999999971
 40
0.2499999999999981
 40
0.2499999999999981
 40
0.3749999999999951
 40
0.3749999999999951
 40
0.4999999999999921
 40
0.4999999999999921
 40
0.6249999999999891
 40
0.6249999999999891
 40
0.6874999999999916
 40
0.6874999999999916
 40
0.7499999999999939
 40
0.8124999999999962
 40
0.8124999999999962
 40
0.8749999999999986
 40
0.8749999999999986
 40
1.0
 40
1.0
 40
1.0
 40
1.0
 10
-206.4657203378259
 20
39.63357038112722
 30
0.0
 10
-206.465720337826
 20
39.63357038112724
 30
0.0
 10
-206.4255268361127
 20
39.59229385051802
 30
0.0
 10
-206.3068896707212
 20
39.47121168580653
 30
0.0
 10
-206.2575403802109
 20
39.42092353795078
 30
0.0
 10
-206.1386036366651
 20
39.30016345872634
 30
0.0
 10
-206.068687070975
 20
39.22936211794246
 30
0.0
 10
-205.8323783640351
 20
38.99116437456568
 30
0.0
 10
-205.638739770449
 20
38.79721709042062
 30
0.0
 10
-205.1772610519946
 20
38.34132105382083
 30
0.0
 10
-204.9069533666474
 20
38.07705709024598
 30
0.0
 10
-204.3106577876092
 20
37.503861661223
 30
0.0
 10
-203.9826582981097
 20
37.19287765976049
 30
0.0
 10
-203.4425098040923
 20
36.69065580145801
 30
0.0
 10
-203.2547140641562
 20
36.51758277966412
 30
0.0
 10
-202.8710844924334
 20
36.1674972349843
 30
0.0
 10
-202.4774360442031
 20
35.81162212544144
 30
0.0
 10
-202.0635330057377
 20
35.44485413716304
 30
0.0
 10
-201.6391413357544
 20
35.07277858527137
 30
0.0
 10
-201.4205991919476
 20
34.88314751377771
 30
0.0
 10
-200.7583146549238
 20
34.31476213732505
 30
0.0
 10
-200.3079514035099
 20
33.93644324409938
 30
0.0
 10
-199.8484637644062
 20
33.55903157668927
 30
0.0
  0
LINE
  5
112
330
1B
100
AcDbEntity
 67
     1
  8
0
  6
Continuous
 62
     7
370
    25
100
AcDbLine
 10
211.9575003344
 20
1.0
 30
0.0
 11
211.9575003344
 21
6.0
 31
0.0
  0
LINE
  5
113
330
1B
100
AcDbEntity
 67
     1
  8
0
  6
Continuous
 62
     7
370
    25
100
AcDbLine
 10
211.9575003344
 20
9.0
 30
0.0
 11
211.9575003344
 21
14.0
 31
0.0
  0
LINE
  5
114
330
1B
100
AcDbEntity
 67
     1
  8
0
  6
Continuous
 62
     7
370
    25
100
AcDbLine
 10
-216.6943028997
 20
30.5763892766
 30
0.0
 11
-211.7714932924
 21
32.7274003512
 31
0.0
  0
LINE
  5
115
330
1B
100
AcDbEntity
 67
     1
  8
0
  6
Continuous
 62
     7
370
    25
100
AcDbLine
 10
-203.8356477852
 20
25.2311992954
 30
0.0
 11
-209.0043831571
 21
22.9727314867
 31
0.0
  0
LINE
  5
116
330
1B
100
AcDbEntity
 67
     1
  8
0
  6
Continuous
 62
     7
370
    25
100
AcDbLine
 10
211.9575003344
 20
6.0
 30
0.0
 11
-148.0018010085
 21
6.0
 31
0.0
  0
LINE
  5
117
330
1B
100
AcDbEntity
 67
     1
  8
0
  6
Continuous
 62
     7
370
    25
100
AcDbLine
 10
36.9693314537
 20
6.0
 30
0.0
 11
36.9693314537
 21
1.0
 31
0.0
  0
LINE
  5
118
330
1B
100
AcDbEntity
 67
     1
  8
0
  6
Continuous
 62
     7
370
    25
100
AcDbLine
 10
-148.0018010085
 20
1.0
 30
0.0
 11
211.9575003344
 21
1.0
 31
0.0
  0
LINE
  5
119
330
1B
100
AcDbEntity
 67
     1
  8
0
  6
Continuous
 62
     7
370
    25
100
AcDbLine
 10
210.9575003344
 20
0.0
 30
0.0
 11
-148.0134289154
 21
0.0
 31
0.0
  0
LINE
  5
11A
330
1B
100
AcDbEntity
 67
     1
  8
0
  6
Continuous
 62
     7
370
    25
100
AcDbLine
 10
-148.0134289154
 20
7.0
 30
0.0
 11
210.9575003344
 21
7.0
 31
0.0
  0
LINE
  5
11B
330
1B
100
AcDbEntity
 67
     1
  8
0
  6
Continuous
 62
     7
370
    25
100
AcDbLine
 10
-211.4920573375
 20
36.2108300742
 30
0.0
 11
-207.8711178542
 21
39.6593438678
 31
0.0
  0
LINE
  5
11C
330
1B
100
AcDbEntity
 67
     1
  8
0
  6
Continuous
 62
     7
370
    25
100
AcDbLine
 10
-200.4715505699
 20
32.7862850246
 30
0.0
 11
-204.117851857
 21
29.3136171321
 31
0.0
  0
LINE
  5
11D
330
1B
100
AcDbEntity
 67
     1
  8
0
  6
Continuous
 62
     7
370
    25
100
AcDbLine
 10
211.9575003344
 20
14.0
 30
0.0
 11
-148.0018010085
 21
14.0
 31
0.0
  0
LINE
  5
11E
330
1B
100
AcDbEntity
 67
     1
  8
0
  6
Continuous
 62
     7
370
    25
100
AcDbLine
 10
36.9693314537
 20
14.0
 30
0.0
 11
36.9693314537
 21
9.0
 31
0.0
  0
LINE
  5
11F
330
1B
100
AcDbEntity
 67
     1
  8
0
  6
Continuous
 62
     7
370
    25
100
AcDbLine
 10
-148.0018010085
 20
9.0
 30
0.0
 11
211.9575003344
 21
9.0
 31
0.0
  0
LINE
  5
120
330
1B
100
AcDbEntity
 67
     1
  8
0
  6
Continuous
 62
     7
370
    25
100
AcDbLine
 10
-148.0134289154
 20
15.0
 30
0.0
 11
210.9575003344
 21
15.0
 31
0.0
  0
LINE
  5
121
330
1B
100
AcDbEntity
 67
     1
  8
0
  6
Continuous
 62
     7
370
    25
100
AcDbLine
 10
210.9575003344
 20
8.0
 30
0.0
 11
-148.0134289154
 21
8.0
 31
0.0
  0
ARC
  5
122
330
1B
100
AcDbEntity
 67
     1
  8
0
  6
Continuous
 62
     7
370
    25
100
AcDbCircle
 10
210.9575003344
 20
6.0
 30
0.0
 40
1.000000000000002
100
AcDbArc
 50
0.0
 51
90.0
  0
ARC
  5
123
330
1B
100
AcDbEntity
 67
     1
  8
0
  6
Continuous
 62
     7
370
    25
100
AcDbCircle
 10
210.9575003344
 20
1.0
 30
0.0
 40
1.000000000000028
100
AcDbArc
 50
270.0
 51
0.0
  0
ARC
  5
124
330
1B
100
AcDbEntity
 67
     1
  8
0
  6
Continuous
 62
     7
370
    25
100
AcDbCircle
 10
210.9575003344
 20
9.0
 30
0.0
 40
1.000000000000028
100
AcDbArc
 50
270.0
 51
0.0
  0
ARC
  5
125
330
1B
100
AcDbEntity
 67
     1
  8
0
  6
Continuous
 62
     7
370
    25
100
AcDbCircle
 10
210.9575003344
 20
14.0
 30
0.0
 40
1.000000000000002
100
AcDbArc
 50
0.0
 51
90.0
  0
ARC
  5
126
330
1B
100
AcDbEntity
 67
     1
  8
0
  6
Continuous
 62
     7
370
    25
100
AcDbCircle
 10
-211.371099175
 20
31.81105732
 30
0.0
 40
1.000000000000004
100
AcDbArc
 50
45.6693665685
 51
113.6028189727
  0
ARC
  5
127
330
1B
100
AcDbEntity
 67
     1
  8
0
  6
Continuous
 62
     7
370
    25
100
AcDbCircle
 10
-224.9818304046
 20
42.0725436116
 30
0.0
 40
27.0331632952894
100
AcDbArc
 50
321.4653144734
 51
323.5698082983
  0
ARC
  5
128
330
1B
100
AcDbEntity
 67
     1
  8
0
  6
Continuous
 62
     7
370
    25
100
AcDbCircle
 10
-216.2939087823
 20
29.6600462455
 30
0.0
 40
1.000000000000054
100
AcDbArc
 50
113.6028189727
 51
224.460520531
  0
ARC
  5
129
330
1B
100
AcDbEntity
 67
     1
  8
0
  6
Continuous
 62
     7
370
    25
100
AcDbCircle
 10
-230.8844107103
 20
40.7561278053
 30
0.0
 40
28.19547464311393
100
AcDbArc
 50
318.849528774
 51
320.8968771334
  0
ARC
  5
12A
330
1B
100
AcDbEntity
 67
     1
  8
0
  6
Continuous
 62
     7
370
    25
100
AcDbCircle
 10
-169.5105219386
 20
0.7500338021
 30
0.0
 40
21.51017338731566
100
AcDbArc
 50
358.0017602138
 51
0.6658398459
  0
ARC
  5
12B
330
1B
100
AcDbEntity
 67
     1
  8
0
  6
Continuous
 62
     7
370
    25
100
AcDbCircle
 10
-148.0134289154
 20
96.6666666667
 30
0.0
 40
96.66666666666653
100
AcDbArc
 50
224.460520531
 51
270.0
  0
ARC
  5
12C
330
1B
100
AcDbEntity
 67
     1
  8
0
  6
Continuous
 62
     7
370
    25
100
AcDbCircle
 10
-148.0018010085
 20
96.6666666667
 30
0.0
 40
95.66666666666666
100
AcDbArc
 50
230.3826224855
 51
270.0
  0
ARC
  5
12D
330
1B
100
AcDbEntity
 67
     1
  8
0
  6
Continuous
 62
     7
370
    25
100
AcDbCircle
 10
-148.0018010085
 20
96.6666666667
 30
0.0
 40
90.66666666666667
100
AcDbArc
 50
231.9888738065
 51
270.0
  0
ARC
  5
12E
330
1B
100
AcDbEntity
 67
     1
  8
0
  6
Continuous
 62
     7
370
    25
100
AcDbCircle
 10
-169.5105219386
 20
6.2499661979
 30
0.0
 40
21.51017338731467
100
AcDbArc
 50
359.3341601541
 51
1.9982397862
  0
ARC
  5
12F
330
1B
100
AcDbEntity
 67
     1
  8
0
  6
Continuous
 62
     7
370
    25
100
AcDbCircle
 10
-148.0134289154
 20
96.6666666667
 30
0.0
 40
89.66666666666643
100
AcDbArc
 50
231.9888738065
 51
270.0
  0
ARC
  5
130
330
1B
100
AcDbEntity
 67
     1
  8
0
  6
Continuous
 62
     7
370
    25
100
AcDbCircle
 10
15.4606105234
 20
0.7500338021
 30
0.0
 40
21.51017338738202
100
AcDbArc
 50
358.0017602138
 51
0.6658398459
  0
ARC
  5
131
330
1B
100
AcDbEntity
 67
     1
  8
0
  6
Continuous
 62
     7
370
    25
100
AcDbCircle
 10
15.4606105234
 20
6.2499661979
 30
0.0
 40
21.51017338738117
100
AcDbArc
 50
359.3341601541
 51
1.9982397862
  0
ARC
  5
132
330
1B
100
AcDbEntity
 67
     1
  8
0
  6
Continuous
 62
     7
370
    25
100
AcDbCircle
 10
-225.9992978051
 20
47.2150198836
 30
0.0
 40
28.27114955656436
100
AcDbArc
 50
318.6711755853
 51
320.7131004186
  0
ARC
  5
133
330
1B
100
AcDbEntity
 67
     1
  8
0
  6
Continuous
 62
     7
370
    25
100
AcDbCircle
 10
-210.8024021651
 20
35.4866921432
 30
0.0
 40
0.9999999999999654
100
AcDbArc
 50
133.6028189727
 51
224.2563971716
  0
ARC
  5
134
330
1B
100
AcDbEntity
 67
     1
  8
0
  6
Continuous
 62
     7
370
    25
100
AcDbCircle
 10
-207.1814626818
 20
38.9352059368
 30
0.0
 40
0.9999999999999956
100
AcDbArc
 50
44.2959299845
 51
133.6028189727
  0
ARC
  5
135
330
1B
100
AcDbEntity
 67
     1
  8
0
  6
Continuous
 62
     7
370
    25
100
AcDbCircle
 10
-221.6065438311
 20
50.4655908688
 30
0.0
 40
27.55441516864486
100
AcDbArc
 50
320.0877032156
 51
322.1519212134
  0
ARC
  5
136
330
1B
100
AcDbEntity
 67
     1
  8
0
  6
Continuous
 62
     7
370
    25
100
AcDbCircle
 10
-169.5105219386
 20
8.7500338021
 30
0.0
 40
21.51017338731743
100
AcDbArc
 50
358.0017602138
 51
0.6658398459
  0
ARC
  5
137
330
1B
100
AcDbEntity
 67
     1
  8
0
  6
Continuous
 62
     7
370
    25
100
AcDbCircle
 10
-148.0134289154
 20
96.6666666667
 30
0.0
 40
88.66666666666657
100
AcDbArc
 50
230.2001980436
 51
270.0
  0
ARC
  5
138
330
1B
100
AcDbEntity
 67
     1
  8
0
  6
Continuous
 62
     7
370
    25
100
AcDbCircle
 10
-148.0018010085
 20
96.6666666667
 30
0.0
 40
87.66666666666674
100
AcDbArc
 50
230.2001980436
 51
270.0
  0
ARC
  5
139
330
1B
100
AcDbEntity
 67
     1
  8
0
  6
Continuous
 62
     7
370
    25
100
AcDbCircle
 10
-148.0018010085
 20
96.6666666667
 30
0.0
 40
82.66666666666693
100
AcDbArc
 50
230.6011715676
 51
270.0
  0
ARC
  5
13A
330
1B
100
AcDbEntity
 67
     1
  8
0
  6
Continuous
 62
     7
370
    25
100
AcDbCircle
 10
-169.5105219386
 20
14.2499661979
 30
0.0
 40
21.51017338731817
100
AcDbArc
 50
359.3341601541
 51
1.9982397862
  0
ARC
  5
13B
330
1B
100
AcDbEntity
 67
     1
  8
0
  6
Continuous
 62
     7
370
    25
100
AcDbCircle
 10
-148.0134289154
 20
96.6666666667
 30
0.0
 40
81.66666666666657
100
AcDbArc
 50
230.6011715676
 51
270.0
  0
ARC
  5
13C
330
1B
100
AcDbEntity
 67
     1
  8
0
  6
Continuous
 62
     7
370
    25
100
AcDbCircle
 10
15.4606105235
 20
14.2499661979
 30
0.0
 40
21.51017338735853
100
AcDbArc
 50
359.3341601541
 51
1.9982397862
  0
ARC
  5
13D
330
1B
100
AcDbEntity
 67
     1
  8
0
  6
Continuous
 62
     7
370
    25
100
AcDbCircle
 10
15.4606105235
 20
8.7500338021
 30
0.0
 40
21.51017338736051
100
AcDbArc
 50
358.0017602138
 51
0.6658398459
  0
VIEWPORT
  5
1AA
330
1B
100
AcDbEntity
 67
     1
  8
0
100
AcDbViewport
 10
0.0
 20
0.0
 30
0.0
 40
205.6
 41
156.0
 68
     1
 69
     1
 12
0.0
 22
2.6682042239
 13
0.0
 23
0.0
 14
10.0
 24
10.0
 15
10.0
 25
10.0
 16
0.0
 26
0.0
 36
1.0
 17
0.0
 27
0.0
 37
0.0
 42
50.0
 43
0.0
 44
0.0
 45
437.836437299
 50
0.0
 51
0.0
 72
   100
 90
   557152
  1

281
     0
 71
     1
 74
     0
110
0.0
120
0.0
130
0.0
111
1.0
121
0.0
131
0.0
112
0.0
122
1.0
132
0.0
 79
     0
146
0.0
  0
ENDSEC
  0
SECTION
  2
OBJECTS
  0
DICTIONARY
  5
C
330
0
100
AcDbDictionary
281
     1
  3
ACAD_GROUP
350
D
  3
ACAD_LAYOUT
350
1A
  3
ACAD_MLINESTYLE
350
17
  3
ACAD_PLOTSETTINGS
350
19
  3
ACAD_PLOTSTYLENAME
350
E
  3
ACAD_SCALELIST
350
47
  0
DICTIONARY
  5
D
102
{ACAD_REACTORS
330
C
102
}
330
C
100
AcDbDictionary
281
     1
  0
DICTIONARY
  5
1A
102
{ACAD_REACTORS
330
C
102
}
330
C
100
AcDbDictionary
281
     1
  3
_Bottom
350
26
  3
_Left
350
1E
  3
Model
350
22
  0
DICTIONARY
  5
17
102
{ACAD_REACTORS
330
C
102
}
330
C
100
AcDbDictionary
281
     1
  3
Standard
350
18
  0
DICTIONARY
  5
19
102
{ACAD_REACTORS
330
C
102
}
330
C
100
AcDbDictionary
281
     1
  0
ACDBDICTIONARYWDFLT
  5
E
102
{ACAD_REACTORS
330
C
102
}
330
C
100
AcDbDictionary
281
     1
  3
Normal
350
F
100
AcDbDictionaryWithDefault
340
F
  0
DICTIONARY
  5
47
102
{ACAD_REACTORS
330
C
102
}
330
C
100
AcDbDictionary
281
     1
  3
A0
350
48
  3
A1
350
49
  3
A2
350
4A
  3
A3
350
4B
  3
A4
350
4C
  3
A5
350
4D
  3
A6
350
4E
  3
A7
350
4F
  3
A8
350
50
  3
A9
350
51
  3
B0
350
52
  3
B1
350
53
  3
B2
350
54
  3
B3
350
55
  3
B4
350
56
  3
B5
350
57
  3
B6
350
58
  3
B7
350
59
  3
B8
350
5A
  3
B9
350
5B
  3
C0
350
5C
  3
C1
350
5D
  3
C2
350
5E
  3
C3
350
5F
  3
C4
350
60
  3
C5
350
61
  3
C6
350
62
  3
C7
350
63
  3
C8
350
64
  3
C9
350
65
  3
D0
350
66
  3
D1
350
67
  3
D2
350
68
  0
LAYOUT
  5
26
102
{ACAD_REACTORS
330
1A
102
}
330
1A
100
AcDbPlotSettings
  1

  2
none_device
  4
ISO_A4_(210.00_x_297.00_MM)
  6

 40
7.5
 41
20.0
 42
7.5
 43
20.0
 44
210.0
 45
297.0
 46
0.0
 47
0.0
 48
0.0
 49
0.0
140
0.0
141
0.0
142
1.0
143
1.670238946
 70
   688
 72
     1
 73
     1
 74
     1
  7

 75
     0
147
0.59871673
148
217.2939087823
149
0.0
100
AcDbLayout
  1
_Bottom
 70
     1
 71
     2
 10
0.0
 20
0.0
 11
0.0
 21
0.0
 12
0.0
 22
0.0
 32
0.0
 14
0.0
 24
0.0
 34
0.0
 15
0.0
 25
0.0
 35
0.0
146
0.0
 13
0.0
 23
0.0
 33
0.0
 16
1.0
 26
0.0
 36
0.0
 17
0.0
 27
1.0
 37
0.0
 76
     0
330
23
331
1AC
  0
LAYOUT
  5
1E
102
{ACAD_REACTORS
330
1A
102
}
330
1A
100
AcDbPlotSettings
  1

  2
none_device
  4
ISO_A4_(210.00_x_297.00_MM)
  6

 40
7.5
 41
20.0
 42
7.5
 43
20.0
 44
210.0
 45
297.0
 46
0.0
 47
0.0
 48
0.0
 49
0.0
140
0.0
141
0.0
142
1.0
143
1.670238946
 70
   688
 72
     1
 73
     1
 74
     1
  7

 75
     0
147
0.59871673
148
217.2939087823
149
0.0
100
AcDbLayout
  1
_Left
 70
     1
 71
     1
 10
-250.6986877018
 20
-12.5267920949
 11
245.362279254
 21
338.2233865608
 12
0.0
 22
0.0
 32
0.0
 14
-217.2939087823
 24
0.0
 34
0.0
 15
211.9575003344
 25
39.9352059368
 35
0.0
146
0.0
 13
0.0
 23
0.0
 33
0.0
 16
1.0
 26
0.0
 36
0.0
 17
0.0
 27
1.0
 37
0.0
 76
     0
330
1B
331
1AA
  0
LAYOUT
  5
22
102
{ACAD_REACTORS
330
1A
102
}
330
1A
100
AcDbPlotSettings
  1

  2
none_device
  4
ANSI_A_(11.00_x_8.50_Inches)
  6

 40
6.35
 41
19.05
 42
6.35000508
 43
19.05000254
 44
279.4
 45
215.9
 46
133.34999746
 47
87.5713958951
 48
0.0
 49
0.0
140
0.0
141
0.0
142
0.019603896
143
1.0
 70
  1696
 72
     0
 73
     0
 74
     0
  7

 75
     0
147
0.0179189148
148
-1300.4909072572
149
0.0
100
AcDbLayout
  1
Model
 70
     1
 71
     0
 10
0.0
 20
0.0
 11
420.0
 21
297.0
 12
0.0
 22
0.0
 32
0.0
 14
-179.8952365713
 24
-211.9575003344
 34
0.0
 15
179.8952365713
 25
217.2939087823
 35
0.0
146
0.0
 13
0.0
 23
0.0
 33
0.0
 16
1.0
 26
0.0
 36
0.0
 17
0.0
 27
1.0
 37
0.0
 76
     0
330
1F
331
29
  0
MLINESTYLE
  5
18
102
{ACAD_REACTORS
330
17
102
}
330
17
100
AcDbMlineStyle
  2
Standard
 70
     0
  3

 62
   256
 51
90.0
 52
90.0
 71
     2
 49
0.5
 62
   256
  6
BYLAYER
 49
-0.5
 62
   256
  6
BYLAYER
  0
ACDBPLACEHOLDER
  5
F
102
{ACAD_REACTORS
330
E
102
}
330
E
  0
SCALE
  5
48
102
{ACAD_REACTORS
330
47
102
}
330
47
100
AcDbScale
 70
     0
300
1:1
140
1.0
141
1.0
290
     1
  0
SCALE
  5
49
102
{ACAD_REACTORS
330
47
102
}
330
47
100
AcDbScale
 70
     0
300
1:2
140
1.0
141
2.0
290
     0
  0
SCALE
  5
4A
102
{ACAD_REACTORS
330
47
102
}
330
47
100
AcDbScale
 70
     0
300
1:4
140
1.0
141
4.0
290
     0
  0
SCALE
  5
4B
102
{ACAD_REACTORS
330
47
102
}
330
47
100
AcDbScale
 70
     0
300
1:5
140
1.0
141
5.0
290
     0
  0
SCALE
  5
4C
102
{ACAD_REACTORS
330
47
102
}
330
47
100
AcDbScale
 70
     0
300
1:8
140
1.0
141
8.0
290
     0
  0
SCALE
  5
4D
102
{ACAD_REACTORS
330
47
102
}
330
47
100
AcDbScale
 70
     0
300
1:10
140
1.0
141
10.0
290
     0
  0
SCALE
  5
4E
102
{ACAD_REACTORS
330
47
102
}
330
47
100
AcDbScale
 70
     0
300
1:16
140
1.0
141
16.0
290
     0
  0
SCALE
  5
4F
102
{ACAD_REACTORS
330
47
102
}
330
47
100
AcDbScale
 70
     0
300
1:20
140
1.0
141
20.0
290
     0
  0
SCALE
  5
50
102
{ACAD_REACTORS
330
47
102
}
330
47
100
AcDbScale
 70
     0
300
1:30
140
1.0
141
30.0
290
     0
  0
SCALE
  5
51
102
{ACAD_REACTORS
330
47
102
}
330
47
100
AcDbScale
 70
     0
300
1:40
140
1.0
141
40.0
290
     0
  0
SCALE
  5
52
102
{ACAD_REACTORS
330
47
102
}
330
47
100
AcDbScale
 70
     0
300
1:50
140
1.0
141
50.0
290
     0
  0
SCALE
  5
53
102
{ACAD_REACTORS
330
47
102
}
330
47
100
AcDbScale
 70
     0
300
1:100
140
1.0
141
100.0
290
     0
  0
SCALE
  5
54
102
{ACAD_REACTORS
330
47
102
}
330
47
100
AcDbScale
 70
     0
300
2:1
140
2.0
141
1.0
290
     0
  0
SCALE
  5
55
102
{ACAD_REACTORS
330
47
102
}
330
47
100
AcDbScale
 70
     0
300
4:1
140
4.0
141
1.0
290
     0
  0
SCALE
  5
56
102
{ACAD_REACTORS
330
47
102
}
330
47
100
AcDbScale
 70
     0
300
8:1
140
8.0
141
1.0
290
     0
  0
SCALE
  5
57
102
{ACAD_REACTORS
330
47
102
}
330
47
100
AcDbScale
 70
     0
300
10:1
140
10.0
141
1.0
290
     0
  0
SCALE
  5
58
102
{ACAD_REACTORS
330
47
102
}
330
47
100
AcDbScale
 70
     0
300
100:1
140
100.0
141
1.0
290
     0
  0
SCALE
  5
59
102
{ACAD_REACTORS
330
47
102
}
330
47
100
AcDbScale
 70
     0
300
1/128" = 1'-0"
140
0.0078125
141
12.0
290
     0
  0
SCALE
  5
5A
102
{ACAD_REACTORS
330
47
102
}
330
47
100
AcDbScale
 70
     0
300
1/64" = 1'-0"
140
0.015625
141
12.0
290
     0
  0
SCALE
  5
5B
102
{ACAD_REACTORS
330
47
102
}
330
47
100
AcDbScale
 70
     0
300
1/32" = 1'-0"
140
0.03125
141
12.0
290
     0
  0
SCALE
  5
5C
102
{ACAD_REACTORS
330
47
102
}
330
47
100
AcDbScale
 70
     0
300
1/16" = 1'-0"
140
0.0625
141
12.0
290
     0
  0
SCALE
  5
5D
102
{ACAD_REACTORS
330
47
102
}
330
47
100
AcDbScale
 70
     0
300
3/32" = 1'-0"
140
0.09375
141
12.0
290
     0
  0
SCALE
  5
5E
102
{ACAD_REACTORS
330
47
102
}
330
47
100
AcDbScale
 70
     0
300
1/8" = 1'-0"
140
0.125
141
12.0
290
     0
  0
SCALE
  5
5F
102
{ACAD_REACTORS
330
47
102
}
330
47
100
AcDbScale
 70
     0
300
3/16" = 1'-0"
140
0.1875
141
12.0
290
     0
  0
SCALE
  5
60
102
{ACAD_REACTORS
330
47
102
}
330
47
100
AcDbScale
 70
     0
300
1/4" = 1'-0"
140
0.25
141
12.0
290
     0
  0
SCALE
  5
61
102
{ACAD_REACTORS
330
47
102
}
330
47
100
AcDbScale
 70
     0
300
3/8" = 1'-0"
140
0.375
141
12.0
290
     0
  0
SCALE
  5
62
102
{ACAD_REACTORS
330
47
102
}
330
47
100
AcDbScale
 70
     0
300
1/2" = 1'-0"
140
0.5
141
12.0
290
     0
  0
SCALE
  5
63
102
{ACAD_REACTORS
330
47
102
}
330
47
100
AcDbScale
 70
     0
300
3/4" = 1'-0"
140
0.75
141
12.0
290
     0
  0
SCALE
  5
64
102
{ACAD_REACTORS
330
47
102
}
330
47
100
AcDbScale
 70
     0
300
1" = 1'-0"
140
1.0
141
12.0
290
     0
  0
SCALE
  5
65
102
{ACAD_REACTORS
330
47
102
}
330
47
100
AcDbScale
 70
     0
300
1-1/2" = 1'-0"
140
1.5
141
12.0
290
     0
  0
SCALE
  5
66
102
{ACAD_REACTORS
330
47
102
}
330
47
100
AcDbScale
 70
     0
300
3" = 1'-0"
140
3.0
141
12.0
290
     0
  0
SCALE
  5
67
102
{ACAD_REACTORS
330
47
102
}
330
47
100
AcDbScale
 70
     0
300
6" = 1'-0"
140
6.0
141
12.0
290
     0
  0
SCALE
  5
68
102
{ACAD_REACTORS
330
47
102
}
330
47
100
AcDbScale
 70
     0
300
1'-0" = 1'-0"
140
12.0
141
12.0
290
     0
  0
ENDSEC
  0
EOF
