  0
SECTION
  2
HEADER
  9
$ACADVER
  1
AC1015
  9
$ACADMAINTVER
 70
     6
  9
$DWGCODEPAGE
  3
ANSI_1252
  9
$INSBASE
 10
0.0
 20
0.0
 30
0.0
  9
$EXTMIN
 10
-260.0
 20
-130.0
 30
0.0
  9
$EXTMAX
 10
260.0
 20
130.0
 30
0.0
  9
$LIMMIN
 10
0.0
 20
0.0
  9
$LIMMAX
 10
420.0
 20
297.0
  9
$ORTHOMODE
 70
     0
  9
$REGENMODE
 70
     1
  9
$FILLMODE
 70
     1
  9
$QTEXTMODE
 70
     0
  9
$MIRRTEXT
 70
     1
  9
$LTSCALE
 40
1.0
  9
$ATTMODE
 70
     1
  9
$TEXTSIZE
 40
3.5
  9
$TRACEWID
 40
1.0
  9
$TEXTSTYLE
  7
Standard
  9
$CLAYER
  8
0
  9
$CELTYPE
  6
ByLayer
  9
$CECOLOR
 62
   256
  9
$CELTSCALE
 40
1.0
  9
$DISPSILH
 70
     0
  9
$DIMSCALE
 40
1.0
  9
$DIMASZ
 40
3.302
  9
$DIMEXO
 40
1.0
  9
$DIMDLI
 40
3.75
  9
$DIMRND
 40
0.0
  9
$DIMDLE
 40
0.0
  9
$DIMEXE
 40
1.0
  9
$DIMTP
 40
0.0
  9
$DIMTM
 40
0.0
  9
$DIMTXT
 40
3.5
  9
$DIMCEN
 40
2.5
  9
$DIMTSZ
 40
0.0
  9
$DIMTOL
 70
     0
  9
$DIMLIM
 70
     0
  9
$DIMTIH
 70
     1
  9
$DIMTOH
 70
     1
  9
$DIMSE1
 70
     0
  9
$DIMSE2
 70
     0
  9
$DIMTAD
 70
     1
  9
$DIMZIN
 70
     1
  9
$DIMBLK
  1

  9
$DIMASO
 70
     1
  9
$DIMSHO
 70
     1
  9
$DIMPOST
  1

  9
$DIMAPOST
  1

  9
$DIMALT
 70
     0
  9
$DIMALTD
 70
     3
  9
$DIMALTF
 40
0.0393700787
  9
$DIMLFAC
 40
1.0
  9
$DIMTOFL
 70
     1
  9
$DIMTVP
 40
0.0
  9
$DIMTIX
 70
     0
  9
$DIMSOXD
 70
     0
  9
$DIMSAH
 70
     0
  9
$DIMBLK1
  1

  9
$DIMBLK2
  1

  9
$DIMSTYLE
  2
ISO-25
  9
$DIMCLRD
 70
     0
  9
$DIMCLRE
 70
     0
  9
$DIMCLRT
 70
     0
  9
$DIMTFAC
 40
1.0
  9
$DIMGAP
 40
1.524
  9
$DIMJUST
 70
     0
  9
$DIMSD1
 70
     0
  9
$DIMSD2
 70
     0
  9
$DIMTOLJ
 70
     0
  9
$DIMTZIN
 70
     1
  9
$DIMALTZ
 70
     0
  9
$DIMALTTZ
 70
     0
  9
$DIMUPT
 70
     0
  9
$DIMDEC
 70
     2
  9
$DIMTDEC
 70
     2
  9
$DIMALTU
 70
     2
  9
$DIMALTTD
 70
     3
  9
$DIMTXSTY
  7
Standard
  9
$DIMAUNIT
 70
     0
  9
$DIMADEC
 70
     2
  9
$DIMALTRND
 40
0.0
  9
$DIMAZIN
 70
     0
  9
$DIMDSEP
 70
    44
  9
$DIMATFIT
 70
     3
  9
$DIMFRAC
 70
     0
  9
$DIMLDRBLK
  1

  9
$DIMLUNIT
 70
     2
  9
$DIMLWD
 70
    -2
  9
$DIMLWE
 70
    -2
  9
$DIMTMOVE
 70
     0
  9
$LUNITS
 70
     2
  9
$LUPREC
 70
     2
  9
$SKETCHINC
 40
1.0
  9
$FILLETRAD
 40
10.0
  9
$AUNITS
 70
     0
  9
$AUPREC
 70
     2
  9
$MENU
  1
.
  9
$ELEVATION
 40
0.0
  9
$PELEVATION
 40
0.0
  9
$THICKNESS
 40
0.0
  9
$LIMCHECK
 70
     0
  9
$CHAMFERA
 40
0.0
  9
$CHAMFERB
 40
0.0
  9
$CHAMFERC
 40
0.0
  9
$CHAMFERD
 40
0.0
  9
$SKPOLY
 70
     0
  9
$TDCREATE
 40
2458747.590180949
  9
$TDUCREATE
 40
2458747.548514282
  9
$TDUPDATE
 40
2458747.590215822
  9
$TDUUPDATE
 40
2458747.548549155
  9
$TDINDWG
 40
0.0000000116
  9
$TDUSRTIMER
 40
0.0000000116
  9
$USRTIMER
 70
     1
  9
$ANGBASE
 50
0.0
  9
$ANGDIR
 70
     0
  9
$PDMODE
 70
     0
  9
$PDSIZE
 40
-1.0
  9
$PLINEWID
 40
0.0
  9
$SPLFRAME
 70
     0
  9
$SPLINETYPE
 70
     6
  9
$SPLINESEGS
 70
     8
  9
$HANDSEED
  5
60A
  9
$SURFTAB1
 70
     6
  9
$SURFTAB2
 70
     6
  9
$SURFTYPE
 70
     6
  9
$SURFU
 70
     6
  9
$SURFV
 70
     6
  9
$UCSBASE
  2

  9
$UCSNAME
  2

  9
$UCSORG
 10
0.0
 20
0.0
 30
0.0
  9
$UCSXDIR
 10
1.0
 20
0.0
 30
0.0
  9
$UCSYDIR
 10
0.0
 20
1.0
 30
0.0
  9
$UCSORTHOREF
  2

  9
$UCSORTHOVIEW
 70
     0
  9
$UCSORGTOP
 10
0.0
 20
0.0
 30
0.0
  9
$UCSORGBOTTOM
 10
0.0
 20
0.0
 30
0.0
  9
$UCSORGLEFT
 10
0.0
 20
0.0
 30
0.0
  9
$UCSORGRIGHT
 10
0.0
 20
0.0
 30
0.0
  9
$UCSORGFRONT
 10
0.0
 20
0.0
 30
0.0
  9
$UCSORGBACK
 10
0.0
 20
0.0
 30
0.0
  9
$PUCSBASE
  2

  9
$PUCSNAME
  2

  9
$PUCSORG
 10
0.0
 20
0.0
 30
0.0
  9
$PUCSXDIR
 10
1.0
 20
0.0
 30
0.0
  9
$PUCSYDIR
 10
0.0
 20
1.0
 30
0.0
  9
$PUCSORTHOREF
  2

  9
$PUCSORTHOVIEW
 70
     0
  9
$PUCSORGTOP
 10
0.0
 20
0.0
 30
0.0
  9
$PUCSORGBOTTOM
 10
0.0
 20
0.0
 30
0.0
  9
$PUCSORGLEFT
 10
0.0
 20
0.0
 30
0.0
  9
$PUCSORGRIGHT
 10
0.0
 20
0.0
 30
0.0
  9
$PUCSORGFRONT
 10
0.0
 20
0.0
 30
0.0
  9
$PUCSORGBACK
 10
0.0
 20
0.0
 30
0.0
  9
$USERI1
 70
     0
  9
$USERI2
 70
     0
  9
$USERI3
 70
     0
  9
$USERI4
 70
     0
  9
$USERI5
 70
     0
  9
$USERR1
 40
0.0
  9
$USERR2
 40
0.0
  9
$USERR3
 40
0.0
  9
$USERR4
 40
0.0
  9
$USERR5
 40
0.0
  9
$WORLDVIEW
 70
     1
  9
$SHADEDGE
 70
     3
  9
$SHADEDIF
 70
    70
  9
$TILEMODE
 70
     1
  9
$MAXACTVP
 70
    64
  9
$PINSBASE
 10
0.0
 20
0.0
 30
0.0
  9
$PLIMCHECK
 70
     0
  9
$PEXTMIN
 10
-260.0
 20
-155.0
 30
0.0
  9
$PEXTMAX
 10
260.0
 20
0.0
 30
0.0
  9
$PLIMMIN
 10
-300.46692607
 20
-170.1750972763
  9
$PLIMMAX
 10
300.46692607
 20
254.7276264591
  9
$UNITMODE
 70
     0
  9
$VISRETAIN
 70
     1
  9
$PLINEGEN
 70
     0
  9
$PSLTSCALE
 70
     1
  9
$TREEDEPTH
 70
  3020
  9
$CMLSTYLE
  2
Standard
  9
$CMLJUST
 70
     0
  9
$CMLSCALE
 40
20.0
  9
$PROXYGRAPHICS
 70
     1
  9
$MEASUREMENT
 70
     1
  9
$CELWEIGHT
370
    -1
  9
$ENDCAPS
280
     0
  9
$JOINSTYLE
280
     0
  9
$LWDISPLAY
290
     1
  9
$INSUNITS
 70
     4
  9
$HYPERLINKBASE
  1

  9
$STYLESHEET
  1

  9
$XEDIT
290
     1
  9
$CEPSNTYPE
380
     0
  9
$PSTYLEMODE
290
     1
  9
$FINGERPRINTGUID
  2
{a5aad70b-0b19-4330-8b11-bec046de8e83}
  9
$VERSIONGUID
  2
{FAEB1C32-E019-11D5-929B-00C0DF256EC4}
  9
$EXTNAMES
290
     1
  9
$PSVPSCALE
 40
0.0
  9
$OLESTARTUP
290
     0
  0
ENDSEC
  0
SECTION
  2
CLASSES
  0
CLASS
  1
ACDBDICTIONARYWDFLT
  2
AcDbDictionaryWithDefault
  3
ObjectDBX Classes
 90
        0
280
     0
281
     0
  0
CLASS
  1
VISUALSTYLE
  2
AcDbVisualStyle
  3
ObjectDBX Classes
 90
     4095
280
     0
281
     0
  0
CLASS
  1
MATERIAL
  2
AcDbMaterial
  3
ObjectDBX Classes
 90
     1153
280
     0
281
     0
  0
CLASS
  1
SCALE
  2
AcDbScale
  3
ObjectDBX Classes
 90
     1153
280
     0
281
     0
  0
CLASS
  1
TABLESTYLE
  2
AcDbTableStyle
  3
ObjectDBX Classes
 90
     4095
280
     0
281
     0
  0
CLASS
  1
MLEADERSTYLE
  2
AcDbMLeaderStyle
  3
ACDB_MLEADERSTYLE_CLASS
 90
     4095
280
     0
281
     0
  0
CLASS
  1
SUN
  2
AcDbSun
  3
SCENEOE
 90
     1153
280
     0
281
     0
  0
CLASS
  1
ACDBPLACEHOLDER
  2
AcDbPlaceHolder
  3
ObjectDBX Classes
 90
        0
280
     0
281
     0
  0
CLASS
  1
LAYOUT
  2
AcDbLayout
  3
ObjectDBX Classes
 90
        0
280
     0
281
     0
  0
ENDSEC
  0
SECTION
  2
TABLES
  0
TABLE
  2
VPORT
  5
8
330
0
100
AcDbSymbolTable
 70
     1
  0
VPORT
  5
29
330
8
100
AcDbSymbolTableRecord
100
AcDbViewportTableRecord
  2
*Active
 70
     0
 10
0.0
 20
0.0
 11
1.0
 21
1.0
 12
0.0
 22
0.0
 13
0.0
 23
0.0
 14
10.0
 24
10.0
 15
10.0
 25
10.0
 16
0.0
 26
0.0
 36
1.0
 17
0.0
 27
0.0
 37
0.0
 40
265.2
 41
2.0
 42
50.0
 43
0.0
 44
0.0
 50
0.0
 51
0.0
 71
     0
 72
   100
 73
     1
 74
     3
 75
     0
 76
     0
 77
     0
 78
     0
281
     0
 65
     1
110
0.0
120
0.0
130
0.0
111
1.0
121
0.0
131
0.0
112
0.0
122
1.0
132
0.0
 79
     0
146
0.0
  0
ENDTAB
  0
TABLE
  2
LTYPE
  5
5
330
0
100
AcDbSymbolTable
 70
     6
  0
LTYPE
  5
14
330
5
100
AcDbSymbolTableRecord
100
AcDbLinetypeTableRecord
  2
ByBlock
 70
     0
  3

 72
    65
 73
     0
 40
0.0
  0
LTYPE
  5
15
330
5
100
AcDbSymbolTableRecord
100
AcDbLinetypeTableRecord
  2
ByLayer
 70
     0
  3

 72
    65
 73
     0
 40
0.0
  0
LTYPE
  5
16
330
5
100
AcDbSymbolTableRecord
100
AcDbLinetypeTableRecord
  2
Continuous
 70
     0
  3
Solid line
 72
    65
 73
     0
 40
0.0
  0
LTYPE
  5
6E
330
5
100
AcDbSymbolTableRecord
100
AcDbLinetypeTableRecord
  2
HIDDEN
 70
     0
  3
Hidden __ __ __ __ __ __ __ __ __ __ __ __ __ __
 72
    65
 73
     2
 40
1.905
 49
1.27
 74
     0
 49
-0.635
 74
     0
  0
LTYPE
  5
6F
330
5
100
AcDbSymbolTableRecord
100
AcDbLinetypeTableRecord
  2
PHANTOM
 70
     0
  3
Phantom ______  __  __  ______  __  __  ______
 72
    65
 73
     6
 40
12.7
 49
6.35
 74
     0
 49
-1.27
 74
     0
 49
1.27
 74
     0
 49
-1.27
 74
     0
 49
1.27
 74
     0
 49
-1.27
 74
     0
  0
LTYPE
  5
70
330
5
100
AcDbSymbolTableRecord
100
AcDbLinetypeTableRecord
  2
CENTER
 70
     0
  3
Center ____ _ ____ _ ____ _ ____ _ ____ _ ____
 72
    65
 73
     4
 40
10.16
 49
6.35
 74
     0
 49
-1.27
 74
     0
 49
1.27
 74
     0
 49
-1.27
 74
     0
  0
LTYPE
  5
71
330
5
100
AcDbSymbolTableRecord
100
AcDbLinetypeTableRecord
  2
CENTERX2
 70
     0
  3
Center (2x) ________  __  ________  __  _____
 72
    65
 73
     4
 40
20.32
 49
12.7
 74
     0
 49
-2.54
 74
     0
 49
2.54
 74
     0
 49
-2.54
 74
     0
  0
LTYPE
  5
72
330
5
100
AcDbSymbolTableRecord
100
AcDbLinetypeTableRecord
  2
DOT2
 70
     0
  3
Dot (.5x) ........................................
 72
    65
 73
     2
 40
0.635
 49
0.0
 74
     0
 49
-0.635
 74
     0
  0
ENDTAB
  0
TABLE
  2
LAYER
  5
2
330
0
100
AcDbSymbolTable
 70
     1
  0
LAYER
  5
10
330
2
100
AcDbSymbolTableRecord
100
AcDbLayerTableRecord
  2
0
 70
     0
 62
     7
  6
Continuous
370
    -3
390
F
  0
ENDTAB
  0
TABLE
  2
STYLE
  5
3
330
0
100
AcDbSymbolTable
 70
     1
  0
STYLE
  5
11
330
3
100
AcDbSymbolTableRecord
100
AcDbTextStyleTableRecord
  2
Standard
 70
     0
 40
0.0
 41
1.0
 50
0.0
 71
     0
 42
3.5
  3
txt
  4

  0
ENDTAB
  0
TABLE
  2
VIEW
  5
6
330
0
100
AcDbSymbolTable
 70
     0
  0
ENDTAB
  0
TABLE
  2
UCS
  5
7
330
0
100
AcDbSymbolTable
 70
     0
  0
ENDTAB
  0
TABLE
  2
APPID
  5
9
330
0
100
AcDbSymbolTable
 70
     1
  0
APPID
  5
12
330
9
100
AcDbSymbolTableRecord
100
AcDbRegAppTableRecord
  2
ACAD
 70
     0
  0
ENDTAB
  0
TABLE
  2
DIMSTYLE
  5
A
330
0
100
AcDbSymbolTable
 70
     1
100
AcDbDimStyleTable
  0
DIMSTYLE
105
27
330
A
100
AcDbSymbolTableRecord
100
AcDbDimStyleTableRecord
  2
ISO-25
 70
     0
 41
2.5
 42
0.625
 43
3.75
 44
1.25
 73
     0
 74
     0
 77
     1
 78
     8
140
2.5
141
2.5
143
0.0393700787
147
0.625
171
     3
172
     1
178
     0
271
     2
272
     2
274
     3
278
    44
283
     0
284
     8
340
11
  0
ENDTAB
  0
TABLE
  2
BLOCK_RECORD
  5
1
330
0
100
AcDbSymbolTable
 70
     7
  0
BLOCK_RECORD
  5
1F
330
1
100
AcDbSymbolTableRecord
100
AcDbBlockTableRecord
  2
*Model_Space
340
22
  0
BLOCK_RECORD
  5
1B
330
1
100
AcDbSymbolTableRecord
100
AcDbBlockTableRecord
  2
*Paper_Space
340
1E
  0
BLOCK_RECORD
  5
23
330
1
100
AcDbSymbolTableRecord
100
AcDbBlockTableRecord
  2
*Paper_Space0
340
26
  0
BLOCK_RECORD
  5
263
330
1
100
AcDbSymbolTableRecord
100
AcDbBlockTableRecord
  2
*Paper_Space1
340
264
  0
BLOCK_RECORD
  5
28D
330
1
100
AcDbSymbolTableRecord
100
AcDbBlockTableRecord
  2
*Paper_Space2
340
28E
  0
BLOCK_RECORD
  5
31C
330
1
100
AcDbSymbolTableRecord
100
AcDbBlockTableRecord
  2
*Paper_Space3
340
31D
  0
BLOCK_RECORD
  5
3FF
330
1
100
AcDbSymbolTableRecord
100
AcDbBlockTableRecord
  2
*Paper_Space4
340
400
  0
BLOCK_RECORD
  5
4BA
330
1
100
AcDbSymbolTableRecord
100
AcDbBlockTableRecord
  2
*Paper_Space5
340
4BB
  0
BLOCK_RECORD
  5
567
330
1
100
AcDbSymbolTableRecord
100
AcDbBlockTableRecord
  2
*Paper_Space6
340
568
  0
ENDTAB
  0
ENDSEC
  0
SECTION
  2
BLOCKS
  0
BLOCK
  5
20
330
1F
100
AcDbEntity
  8
0
100
AcDbBlockBegin
  2
*Model_Space
 70
     0
 10
0.0
 20
0.0
 30
0.0
  3
*Model_Space
  1

  0
ENDBLK
  5
21
330
1F
100
AcDbEntity
  8
0
100
AcDbBlockEnd
  0
BLOCK
  5
1C
330
1B
100
AcDbEntity
 67
     1
  8
0
100
AcDbBlockBegin
  2
*Paper_Space
 70
     0
 10
0.0
 20
0.0
 30
0.0
  3
*Paper_Space
  1

  0
ENDBLK
  5
1D
330
1B
100
AcDbEntity
 67
     1
  8
0
100
AcDbBlockEnd
  0
BLOCK
  5
24
330
23
100
AcDbEntity
  8
0
100
AcDbBlockBegin
  2
*Paper_Space0
 70
     0
 10
0.0
 20
0.0
 30
0.0
  3
*Paper_Space0
  1

  0
LWPOLYLINE
  5
1FC
330
23
100
AcDbEntity
  8
0
  6
Continuous
 62
     7
370
    25
100
AcDbPolyline
 90
        9
 70
   128
 43
0.0
 10
55.0
 20
-15.8418973635
 10
55.9754516101
 20
-15.8641499809
 10
56.9134171618
 20
-15.9300526776
 10
57.7778511651
 20
-16.0370728498
 10
58.5355339059
 20
-16.1810977724
 10
59.1573480615
 20
-16.3565926484
 10
59.6193976626
 20
-16.556813308
 10
59.903926402
 20
-16.7740653837
 10
60.0
 20
-17.0
  0
LWPOLYLINE
  5
1FF
330
23
100
AcDbEntity
  8
0
  6
Continuous
 62
     7
370
    25
100
AcDbPolyline
 90
        9
 70
   128
 43
0.0
 10
55.0
 20
-100.0956516007
 10
55.9754516101
 20
-100.1179042182
 10
56.9134171618
 20
-100.1838069148
 10
57.7778511651
 20
-100.2908270871
 10
58.5355339059
 20
-100.4348520097
 10
59.1573480615
 20
-100.6103468856
 10
59.6193976626
 20
-100.8105675453
 10
59.903926402
 20
-101.027819621
 10
60.0
 20
-101.2537542373
  0
LWPOLYLINE
  5
202
330
23
100
AcDbEntity
  8
0
  6
Continuous
 62
     7
370
    25
100
AcDbPolyline
 90
       13
 70
   128
 43
0.0
 10
-82.1618304637
 20
-15.8418973635
 10
-85.0303217964
 20
-15.7127495861
 10
-87.829256953
 20
-15.6041495123
 10
-90.5139579987
 20
-15.5178306682
 10
-93.0415704579
 20
-15.4551709162
 10
-95.3717473778
 20
-15.4171704611
 10
-97.4672933658
 20
-15.4044358843
 10
-99.2947583195
 20
-15.4171704611
 10
-100.8249713739
 20
-15.4551709162
 10
-102.03350654
 20
-15.5178306682
 10
-102.9010726045
 20
-15.6041495123
 10
-103.4138210651
 20
-15.7127495861
 10
-103.5635671867
 20
-15.8418973635
  0
LWPOLYLINE
  5
204
330
23
100
AcDbEntity
  8
0
  6
Continuous
 62
     7
370
    25
100
AcDbPolyline
 90
       13
 70
   128
 43
0.0
 10
-83.5031495112
 20
-100.0956516007
 10
-83.1873562471
 20
-100.6639018213
 10
-82.5349791203
 20
-101.1417421459
 10
-81.5564316848
 20
-101.52154506
 10
-80.2673339804
 20
-101.7972479687
 10
-78.6882631981
 20
-101.964449971
 10
-76.844425217
 20
-102.020482109
 10
-74.7652522564
 20
-101.964449971
 10
-72.4839330644
 20
-101.7972479687
 10
-70.0368831435
 20
-101.52154506
 10
-67.4631634688
 20
-101.1417421459
 10
-64.8038569785
 20
-100.6639018213
 10
-62.1014127881
 20
-100.0956516007
  0
LWPOLYLINE
  5
20D
330
23
100
AcDbEntity
  8
0
  6
Continuous
 62
     7
370
    25
100
AcDbPolyline
 90
        9
 70
   128
 43
0.0
 10
-16.9443021397
 20
-122.0
 10
-16.9908135703
 20
-121.0245483899
 10
-17.128560454
 20
-120.0865828382
 10
-17.3522492552
 20
-119.2221488349
 10
-17.6532837388
 20
-118.4644660941
 10
-18.0200953185
 20
-117.8426519385
 10
-18.4385876308
 20
-117.3806023374
 10
-18.8926782509
 20
-117.096073598
 10
-19.364916731
 20
-117.0
  0
SPLINE
  5
20F
330
23
100
AcDbEntity
  8
0
  6
Continuous
 62
     7
370
    25
100
AcDbSpline
210
0.0
220
0.0
230
1.0
 70
     8
 71
     3
 72
    30
 73
    26
 74
     0
 42
0.000000001
 43
0.00000001
 40
0.0
 40
0.0
 40
0.0
 40
0.0
 40
0.1249999999999996
 40
0.1249999999999996
 40
0.2499999999999993
 40
0.2499999999999993
 40
0.3124999999999989
 40
0.3124999999999989
 40
0.3749999999999986
 40
0.3749999999999986
 40
0.5000000000000002
 40
0.5000000000000002
 40
0.5625000000000012
 40
0.5625000000000012
 40
0.6250000000000023
 40
0.6250000000000023
 40
0.7500000000000017
 40
0.7500000000000017
 40
0.8125000000000012
 40
0.8125000000000012
 40
0.8750000000000008
 40
0.8750000000000008
 40
0.9375000000000004
 40
0.9375000000000004
 40
1.0
 40
1.0
 40
1.0
 40
1.0
 10
-27.321866242993
 20
-149.9999999999999
 30
0.0
 10
-26.83837372597775
 20
-150.0
 30
0.0
 10
-26.34386071868255
 20
-149.9295108756448
 30
0.0
 10
-25.3332679891949
 20
-149.6739960494688
 30
0.0
 10
-24.81718813000225
 20
-149.4887273972544
 30
0.0
 10
-24.02792047183081
 20
-149.131734866102
 30
0.0
 10
-23.76273232102798
 20
-148.9995157531885
 30
0.0
 10
-23.23669634899074
 20
-148.7139740205355
 30
0.0
 10
-22.97471490393646
 20
-148.5601595141139
 30
0.0
 10
-22.19245694653378
 20
-148.0667173892847
 30
0.0
 10
-21.67566789406322
 20
-147.6955638146051
 30
0.0
 10
-20.9128251136411
 20
-147.0720761308833
 30
0.0
 10
-20.66064311272412
 20
-146.8530136089715
 30
0.0
 10
-20.16212008392626
 20
-146.3901260235951
 30
0.0
 10
-19.9161617796222
 20
-146.1465069195178
 30
0.0
 10
-19.20269176770957
 20
-145.3865234602478
 30
0.0
 10
-18.75457821160811
 20
-144.838605496686
 30
0.0
 10
-18.15124994426346
 20
-143.9297456199985
 30
0.0
 10
-17.96112950975439
 20
-143.6102600159094
 30
0.0
 10
-17.62143275162747
 20
-142.9503242104051
 30
0.0
 10
-17.47077606647444
 20
-142.6086285984133
 30
0.0
 10
-17.21824319920693
 20
-141.8963951621233
 30
0.0
 10
-17.1164401656428
 20
-141.5233555005926
 30
0.0
 10
-16.98011888179197
 20
-140.7708716489679
 30
0.0
 10
-16.94430213965745
 20
-140.3887000319828
 30
0.0
 10
-16.94430213965746
 20
-139.9999999999999
 30
0.0
  0
SPLINE
  5
21F
330
23
100
AcDbEntity
  8
0
  6
Continuous
 62
     7
370
    25
100
AcDbSpline
210
0.0
220
0.0
230
1.0
 70
     8
 71
     3
 72
    26
 73
    22
 74
     0
 42
0.000000001
 43
0.00000001
 40
0.0
 40
0.0
 40
0.0
 40
0.0
 40
0.0312500000000001
 40
0.0312500000000001
 40
0.0625000000000001
 40
0.0625000000000001
 40
0.1250000000000002
 40
0.1250000000000002
 40
0.1875000000000003
 40
0.1875000000000003
 40
0.2500000000000004
 40
0.2500000000000004
 40
0.3750000000000004
 40
0.3750000000000004
 40
0.5000000000000004
 40
0.5000000000000004
 40
0.6250000000000004
 40
0.6250000000000004
 40
0.7500000000000004
 40
0.7500000000000004
 40
1.0
 40
1.0
 40
1.0
 40
1.0
 10
-19.36491673103709
 20
-139.9999999999999
 30
0.0
 10
-19.36491673103709
 20
-140.1550969169062
 30
0.0
 10
-19.39087610155547
 20
-140.3047428432923
 30
0.0
 10
-19.48524483419427
 20
-140.5951111309888
 30
0.0
 10
-19.55330713953078
 20
-140.733787665545
 30
0.0
 10
-19.79529986483853
 20
-141.1226225915197
 30
0.0
 10
-19.9978177177554
 20
-141.3399652786639
 30
0.0
 10
-20.43519472312082
 20
-141.7361793406023
 30
0.0
 10
-20.67357978696539
 20
-141.9150197245148
 30
0.0
 10
-21.16191500329656
 20
-142.2426990108862
 30
0.0
 10
-21.41269839332197
 20
-142.3920080279485
 30
0.0
 10
-22.17716811308191
 20
-142.8114804740198
 30
0.0
 10
-22.70352713379469
 20
-143.0540648987059
 30
0.0
 10
-23.76866763860753
 20
-143.4928894160241
 30
0.0
 10
-24.3044805056036
 20
-143.6871104636855
 30
0.0
 10
-25.37841283766033
 20
-144.0369615862478
 30
0.0
 10
-25.91660085834138
 20
-144.1923614604841
 30
0.0
 10
-26.99356948525223
 20
-144.4666560793044
 30
0.0
 10
-27.53385471657531
 20
-144.5857482971318
 30
0.0
 10
-29.14087052268054
 20
-144.8812067605356
 30
0.0
 10
-30.19417033116488
 20
-145.0000000000005
 30
0.0
 10
-31.22498999199178
 20
-145.0000000000005
 30
0.0
  0
LINE
  5
22D
330
23
100
AcDbEntity
  8
0
  6
Continuous
 62
     7
370
    25
100
AcDbLine
 10
35.0
 20
-150.0
 30
0.0
 11
35.0
 21
-122.0
 31
0.0
  0
LINE
  5
22E
330
23
100
AcDbEntity
  8
0
  6
Continuous
 62
     7
370
    25
100
AcDbLine
 10
60.0
 20
-145.0
 30
0.0
 11
130.0
 21
-145.0
 31
0.0
  0
LINE
  5
22F
330
23
100
AcDbEntity
  8
0
  6
Continuous
 62
     7
370
    25
100
AcDbLine
 10
130.0
 20
-5.0
 30
0.0
 11
-130.0
 21
-5.0
 31
0.0
  0
LINE
  5
230
330
23
100
AcDbEntity
  8
0
  6
Continuous
 62
     7
370
    25
100
AcDbLine
 10
125.0
 20
-150.0
 30
0.0
 11
125.0
 21
0.0
 31
0.0
  0
LINE
  5
231
330
23
100
AcDbEntity
  8
0
  6
Continuous
 62
     7
370
    25
100
AcDbLine
 10
55.0
 20
-117.0
 30
0.0
 11
55.0
 21
-7.0
 31
0.0
  0
LINE
  5
232
330
23
100
AcDbEntity
  8
0
  6
Continuous
 62
     7
370
    25
100
AcDbLine
 10
60.0
 20
-17.0
 30
0.0
 11
65.0
 21
-17.0
 31
0.0
  0
LINE
  5
233
330
23
100
AcDbEntity
  8
0
  6
Continuous
 62
     7
370
    25
100
AcDbLine
 10
125.0
 20
-150.0
 30
0.0
 11
65.0
 21
-150.0
 31
0.0
  0
LINE
  5
234
330
23
100
AcDbEntity
  8
0
  6
Continuous
 62
     7
370
    25
100
AcDbLine
 10
65.0
 20
-17.0
 30
0.0
 11
65.0
 21
-150.0
 31
0.0
  0
LINE
  5
235
330
23
100
AcDbEntity
  8
0
  6
Continuous
 62
     7
370
    25
100
AcDbLine
 10
-130.0
 20
-7.0
 30
0.0
 11
55.0
 21
-7.0
 31
0.0
  0
LINE
  5
236
330
23
100
AcDbEntity
  8
0
  6
Continuous
 62
     7
370
    25
100
AcDbLine
 10
-125.0
 20
0.0
 30
0.0
 11
-125.0
 21
-110.0
 31
0.0
  0
LINE
  5
237
330
23
100
AcDbEntity
  8
0
  6
Continuous
 62
     7
370
    25
100
AcDbLine
 10
60.0
 20
-145.0
 30
0.0
 11
60.0
 21
-17.0
 31
0.0
  0
LINE
  5
238
330
23
100
AcDbEntity
  8
0
  6
Continuous
 62
     7
370
    25
100
AcDbLine
 10
130.0
 20
-5.0
 30
0.0
 11
130.0
 21
-145.0
 31
0.0
  0
LINE
  5
239
330
23
100
AcDbEntity
  8
0
  6
Continuous
 62
     7
370
    25
100
AcDbLine
 10
55.0
 20
-12.0
 30
0.0
 11
-125.0
 21
-12.0
 31
0.0
  0
LINE
  5
23A
330
23
100
AcDbEntity
  8
0
  6
Continuous
 62
     7
370
    25
100
AcDbLine
 10
-125.0
 20
0.0
 30
0.0
 11
125.0
 21
0.0
 31
0.0
  0
LINE
  5
23B
330
23
100
AcDbEntity
  8
0
  6
Continuous
 62
     7
370
    25
100
AcDbLine
 10
-130.0
 20
-110.0
 30
0.0
 11
-130.0
 21
-5.0
 31
0.0
  0
LINE
  5
23C
330
23
100
AcDbEntity
  8
0
  6
Continuous
 62
     7
370
    25
100
AcDbLine
 10
55.0
 20
-15.8418973635
 30
0.0
 11
-82.1618304637
 21
-15.8418973635
 31
0.0
  0
LINE
  5
23D
330
23
100
AcDbEntity
  8
0
  6
Continuous
 62
     7
370
    25
100
AcDbLine
 10
-82.1618304637
 20
-12.0
 30
0.0
 11
-82.1618304637
 21
-15.8418973635
 31
0.0
  0
LINE
  5
23E
330
23
100
AcDbEntity
  8
0
  6
Continuous
 62
     7
370
    25
100
AcDbLine
 10
-103.5635671867
 20
-15.8418973635
 30
0.0
 11
-83.5031495112
 21
-100.0956516007
 31
0.0
  0
LINE
  5
23F
330
23
100
AcDbEntity
  8
0
  6
Continuous
 62
     7
370
    25
100
AcDbLine
 10
-62.1014127881
 20
-100.0956516007
 30
0.0
 11
-82.1618304637
 21
-15.8418973635
 31
0.0
  0
LINE
  5
240
330
23
100
AcDbEntity
  8
0
  6
Continuous
 62
     7
370
    25
100
AcDbLine
 10
55.0
 20
-100.0956516007
 30
0.0
 11
-62.1014127881
 21
-100.0956516007
 31
0.0
  0
LINE
  5
241
330
23
100
AcDbEntity
  8
0
  6
Continuous
 62
     7
370
    25
100
AcDbLine
 10
-62.1014127881
 20
-122.0
 30
0.0
 11
-62.1014127881
 21
-100.0956516007
 31
0.0
  0
LINE
  5
242
330
23
100
AcDbEntity
  8
0
  6
Continuous
 62
     7
370
    25
100
AcDbLine
 10
-62.1014127881
 20
-117.0
 30
0.0
 11
55.0
 21
-117.0
 31
0.0
  0
LINE
  5
243
330
23
100
AcDbEntity
  8
0
  6
Continuous
 62
     7
370
    25
100
AcDbLine
 10
-30.0
 20
-155.0
 30
0.0
 11
30.0
 21
-155.0
 31
0.0
  0
LINE
  5
244
330
23
100
AcDbEntity
  8
0
  6
Continuous
 62
     7
370
    25
100
AcDbLine
 10
-16.9443021397
 20
-122.0
 30
0.0
 11
-16.9443021397
 21
-140.0
 31
0.0
  0
LINE
  5
245
330
23
100
AcDbEntity
  8
0
  6
Continuous
 62
     7
370
    25
100
AcDbLine
 10
-108.4275982602
 20
-17.0
 30
0.0
 11
-130.0
 21
-17.0
 31
0.0
  0
LINE
  5
246
330
23
100
AcDbEntity
  8
0
  6
Continuous
 62
     7
370
    25
100
AcDbLine
 10
-108.4275982602
 20
-17.0
 30
0.0
 11
-108.4275982602
 21
-12.0
 31
0.0
  0
LINE
  5
247
330
23
100
AcDbEntity
  8
0
  6
Continuous
 62
     7
370
    25
100
AcDbLine
 10
35.0
 20
-122.0
 30
0.0
 11
-62.1014127881
 21
-122.0
 31
0.0
  0
LINE
  5
248
330
23
100
AcDbEntity
  8
0
  6
Continuous
 62
     7
370
    25
100
AcDbLine
 10
-19.364916731
 20
-140.0
 30
0.0
 11
-19.364916731
 21
-117.0
 31
0.0
  0
LINE
  5
249
330
23
100
AcDbEntity
  8
0
  6
Continuous
 62
     7
370
    25
100
AcDbLine
 10
-88.3671805846
 20
-101.2537542373
 30
0.0
 11
-108.4275982602
 21
-17.0
 31
0.0
  0
LINE
  5
24A
330
23
100
AcDbEntity
  8
0
  6
Continuous
 62
     7
370
    25
100
AcDbLine
 10
-108.4275982602
 20
-17.0
 30
0.0
 11
-103.5635671867
 21
-15.8418973635
 31
0.0
  0
LINE
  5
24B
330
23
100
AcDbEntity
  8
0
  6
Continuous
 62
     7
370
    25
100
AcDbLine
 10
-88.3671805846
 20
-101.2537542373
 30
0.0
 11
-83.5031495112
 21
-100.0956516007
 31
0.0
  0
LINE
  5
24C
330
23
100
AcDbEntity
  8
0
  6
Continuous
 62
     7
370
    25
100
AcDbLine
 10
-95.0
 20
-140.0
 30
0.0
 11
-16.9443021397
 21
-140.0
 31
0.0
  0
LINE
  5
24D
330
23
100
AcDbEntity
  8
0
  6
Continuous
 62
     7
370
    25
100
AcDbLine
 10
-130.0
 20
-110.0
 30
0.0
 11
-125.0
 21
-110.0
 31
0.0
  0
LINE
  5
24E
330
23
100
AcDbEntity
  8
0
  6
Continuous
 62
     7
370
    25
100
AcDbLine
 10
-95.0
 20
-145.0
 30
0.0
 11
-95.0
 21
-140.0
 31
0.0
  0
LINE
  5
24F
330
23
100
AcDbEntity
  8
0
  6
Continuous
 62
     7
370
    25
100
AcDbLine
 10
-31.224989992
 20
-145.0
 30
0.0
 11
-95.0
 21
-145.0
 31
0.0
  0
LINE
  5
250
330
23
100
AcDbEntity
  8
0
  6
Continuous
 62
     8
370
    25
100
AcDbLine
 10
-35.0
 20
-150.0
 30
0.0
 11
35.0
 21
-150.0
 31
0.0
  0
ARC
  5
251
330
23
100
AcDbEntity
  8
0
  6
Continuous
 62
     7
370
    25
100
AcDbCircle
 10
40.0
 20
-122.0
 30
0.0
 40
5.000000000000021
100
AcDbArc
 50
90.0
 51
180.0
  0
ARC
  5
252
330
23
100
AcDbEntity
  8
0
  6
Continuous
 62
     7
370
    25
100
AcDbCircle
 10
30.0
 20
-150.0
 30
0.0
 40
4.999999999999972
100
AcDbArc
 50
270.0
 51
0.0
  0
ARC
  5
253
330
23
100
AcDbEntity
  8
0
  6
Continuous
 62
     7
370
    25
100
AcDbCircle
 10
-30.0
 20
-150.0
 30
0.0
 40
5.000000000000028
100
AcDbArc
 50
180.0
 51
270.0
  0
ARC
  5
254
330
23
100
AcDbEntity
  8
0
  6
Continuous
 62
     7
370
    25
100
AcDbCircle
 10
-40.0
 20
-150.0
 30
0.0
 40
5.0
100
AcDbArc
 50
0.0
 51
90.0
  0
ARC
  5
255
330
23
100
AcDbEntity
  8
0
  6
Continuous
 62
     7
370
    25
100
AcDbCircle
 10
125.0
 20
-145.0
 30
0.0
 40
5.0
100
AcDbArc
 50
270.0
 51
0.0
  0
ARC
  5
256
330
23
100
AcDbEntity
  8
0
  6
Continuous
 62
     7
370
    25
100
AcDbCircle
 10
125.0
 20
-5.0
 30
0.0
 40
5.000000000000023
100
AcDbArc
 50
0.0
 51
90.0
  0
ARC
  5
257
330
23
100
AcDbEntity
  8
0
  6
Continuous
 62
     7
370
    25
100
AcDbCircle
 10
55.0
 20
-17.0
 30
0.0
 40
5.000000000000007
100
AcDbArc
 50
0.0
 51
90.0
  0
ARC
  5
258
330
23
100
AcDbEntity
  8
0
  6
Continuous
 62
     7
370
    25
100
AcDbCircle
 10
55.0
 20
-17.0
 30
0.0
 40
9.999999999999986
100
AcDbArc
 50
0.0
 51
90.0
  0
ARC
  5
259
330
23
100
AcDbEntity
  8
0
  6
Continuous
 62
     7
370
    25
100
AcDbCircle
 10
65.0
 20
-145.0
 30
0.0
 40
4.999999999999986
100
AcDbArc
 50
180.0
 51
270.0
  0
ARC
  5
25A
330
23
100
AcDbEntity
  8
0
  6
Continuous
 62
     7
370
    25
100
AcDbCircle
 10
-125.0
 20
-5.0
 30
0.0
 40
5.0
100
AcDbArc
 50
90.0
 51
180.0
  0
ARC
  5
25B
330
23
100
AcDbEntity
  8
0
  6
Continuous
 62
     7
370
    25
100
AcDbCircle
 10
-125.0
 20
-7.0
 30
0.0
 40
4.999999999999986
100
AcDbArc
 50
180.0
 51
270.0
  0
ARC
  5
25C
330
23
100
AcDbEntity
  8
0
  6
Continuous
 62
     7
370
    25
100
AcDbCircle
 10
-108.4275982602
 20
-17.0
 30
0.0
 40
5.000000000000028
100
AcDbArc
 50
13.3924977538
 51
90.0
  0
ARC
  5
25D
330
23
100
AcDbEntity
  8
0
  6
Continuous
 62
     7
370
    25
100
AcDbCircle
 10
55.0
 20
-122.0
 30
0.0
 40
5.0
100
AcDbArc
 50
0.0
 51
90.0
  0
ARC
  5
25E
330
23
100
AcDbEntity
  8
0
  6
Continuous
 62
     7
370
    25
100
AcDbCircle
 10
-62.1014127881
 20
-95.0
 30
0.0
 40
21.99999999999997
100
AcDbArc
 50
193.3924977538
 51
270.0
  0
ARC
  5
25F
330
23
100
AcDbEntity
  8
0
  6
Continuous
 62
     7
370
    25
100
AcDbCircle
 10
-62.1014127881
 20
-95.0
 30
0.0
 40
27.00000000000006
100
AcDbArc
 50
193.3924977538
 51
270.0
  0
ARC
  5
260
330
23
100
AcDbEntity
  8
0
  6
Continuous
 62
     7
370
    25
100
AcDbCircle
 10
-31.8504905928
 20
-149.51171875
 30
0.0
 40
4.554871796297279
100
AcDbArc
 50
353.8460798966
 51
82.1068790971
  0
ARC
  5
261
330
23
100
AcDbEntity
  8
0
  6
Continuous
 62
     7
370
    25
100
AcDbCircle
 10
-95.0
 20
-110.0
 30
0.0
 40
29.99999999999999
100
AcDbArc
 50
180.0
 51
270.0
  0
ARC
  5
262
330
23
100
AcDbEntity
  8
0
  6
Continuous
 62
     7
370
    25
100
AcDbCircle
 10
-95.0
 20
-110.0
 30
0.0
 40
35.00000000000006
100
AcDbArc
 50
180.0
 51
270.0
  0
VIEWPORT
  5
5FC
330
23
100
AcDbEntity
  8
0
100
AcDbViewport
 10
0.0
 20
0.0
 30
0.0
 40
205.6
 41
156.0
 68
     1
 69
     1
 12
0.0
 22
0.0
 13
0.0
 23
0.0
 14
10.0
 24
10.0
 15
10.0
 25
10.0
 16
0.0
 26
0.0
 36
1.0
 17
0.0
 27
0.0
 37
0.0
 42
50.0
 43
0.0
 44
0.0
 45
402.4435797665
 50
0.0
 51
0.0
 72
   100
 90
   557152
  1

281
     0
 71
     1
 74
     0
110
0.0
120
0.0
130
0.0
111
1.0
121
0.0
131
0.0
112
0.0
122
1.0
132
0.0
 79
     0
146
0.0
  0
ENDBLK
  5
25
330
23
100
AcDbEntity
  8
0
100
AcDbBlockEnd
  0
BLOCK
  5
265
330
263
100
AcDbEntity
  8
0
100
AcDbBlockBegin
  2
*Paper_Space1
 70
     0
 10
0.0
 20
0.0
 30
0.0
  3
*Paper_Space1
  1

  0
LINE
  5
27E
330
263
100
AcDbEntity
  8
0
  6
Continuous
 62
     7
370
    25
100
AcDbLine
 10
-260.0
 20
-145.0
 30
0.0
 11
260.0
 21
-145.0
 31
0.0
  0
LINE
  5
27F
330
263
100
AcDbEntity
  8
0
  6
Continuous
 62
     7
370
    25
100
AcDbLine
 10
-255.0
 20
0.0
 30
0.0
 11
-255.0
 21
-150.0
 31
0.0
  0
LINE
  5
280
330
263
100
AcDbEntity
  8
0
  6
Continuous
 62
     7
370
    25
100
AcDbLine
 10
255.0
 20
-150.0
 30
0.0
 11
255.0
 21
0.0
 31
0.0
  0
LINE
  5
281
330
263
100
AcDbEntity
  8
0
  6
Continuous
 62
     7
370
    25
100
AcDbLine
 10
260.0
 20
-5.0
 30
0.0
 11
-260.0
 21
-5.0
 31
0.0
  0
LINE
  5
282
330
263
100
AcDbEntity
  8
0
  6
Continuous
 62
     7
370
    25
100
AcDbLine
 10
255.0
 20
-150.0
 30
0.0
 11
-255.0
 21
-150.0
 31
0.0
  0
LINE
  5
283
330
263
100
AcDbEntity
  8
0
  6
Continuous
 62
     7
370
    25
100
AcDbLine
 10
260.0
 20
-5.0
 30
0.0
 11
260.0
 21
-145.0
 31
0.0
  0
LINE
  5
284
330
263
100
AcDbEntity
  8
0
  6
Continuous
 62
     7
370
    25
100
AcDbLine
 10
-260.0
 20
-145.0
 30
0.0
 11
-260.0
 21
-5.0
 31
0.0
  0
LINE
  5
285
330
263
100
AcDbEntity
  8
0
  6
Continuous
 62
     7
370
    25
100
AcDbLine
 10
-255.0
 20
0.0
 30
0.0
 11
255.0
 21
0.0
 31
0.0
  0
LINE
  5
286
330
263
100
AcDbEntity
  8
0
  6
Continuous
 62
     7
370
    25
100
AcDbLine
 10
-30.0
 20
-155.0
 30
0.0
 11
30.0
 21
-155.0
 31
0.0
  0
ARC
  5
287
330
263
100
AcDbEntity
  8
0
  6
Continuous
 62
     7
370
    25
100
AcDbCircle
 10
30.0
 20
-150.0
 30
0.0
 40
4.999999999999972
100
AcDbArc
 50
270.0
 51
0.0
  0
ARC
  5
288
330
263
100
AcDbEntity
  8
0
  6
Continuous
 62
     7
370
    25
100
AcDbCircle
 10
-30.0
 20
-150.0
 30
0.0
 40
5.000000000000028
100
AcDbArc
 50
180.0
 51
270.0
  0
ARC
  5
289
330
263
100
AcDbEntity
  8
0
  6
Continuous
 62
     7
370
    25
100
AcDbCircle
 10
-255.0
 20
-145.0
 30
0.0
 40
5.0
100
AcDbArc
 50
180.0
 51
270.0
  0
ARC
  5
28A
330
263
100
AcDbEntity
  8
0
  6
Continuous
 62
     7
370
    25
100
AcDbCircle
 10
-255.0
 20
-5.0
 30
0.0
 40
4.999999999999989
100
AcDbArc
 50
90.0
 51
180.0
  0
ARC
  5
28B
330
263
100
AcDbEntity
  8
0
  6
Continuous
 62
     7
370
    25
100
AcDbCircle
 10
255.0
 20
-5.0
 30
0.0
 40
5.0
100
AcDbArc
 50
0.0
 51
90.0
  0
ARC
  5
28C
330
263
100
AcDbEntity
  8
0
  6
Continuous
 62
     7
370
    25
100
AcDbCircle
 10
255.0
 20
-145.0
 30
0.0
 40
5.0
100
AcDbArc
 50
270.0
 51
0.0
  0
VIEWPORT
  5
5FE
330
263
100
AcDbEntity
  8
0
100
AcDbViewport
 10
0.0
 20
0.0
 30
0.0
 40
205.6
 41
156.0
 68
     1
 69
     1
 12
0.0
 22
0.0
 13
0.0
 23
0.0
 14
10.0
 24
10.0
 15
10.0
 25
10.0
 16
0.0
 26
0.0
 36
1.0
 17
0.0
 27
0.0
 37
0.0
 42
50.0
 43
0.0
 44
0.0
 45
402.4435797665
 50
0.0
 51
0.0
 72
   100
 90
   557152
  1

281
     0
 71
     1
 74
     0
110
0.0
120
0.0
130
0.0
111
1.0
121
0.0
131
0.0
112
0.0
122
1.0
132
0.0
 79
     0
146
0.0
  0
ENDBLK
  5
266
330
263
100
AcDbEntity
  8
0
100
AcDbBlockEnd
  0
BLOCK
  5
28F
330
28D
100
AcDbEntity
  8
0
100
AcDbBlockBegin
  2
*Paper_Space2
 70
     0
 10
0.0
 20
0.0
 30
0.0
  3
*Paper_Space2
  1

  0
LWPOLYLINE
  5
2B6
330
28D
100
AcDbEntity
  8
0
  6
Continuous
 62
     7
370
    25
100
AcDbPolyline
 90
       13
 70
   128
 43
0.0
 10
103.5635671867
 20
-15.8418973635
 10
103.4138210651
 20
-15.7127495861
 10
102.9010726045
 20
-15.6041495123
 10
102.03350654
 20
-15.5178306682
 10
100.8249713739
 20
-15.4551709162
 10
99.2947583195
 20
-15.4171704611
 10
97.4672933658
 20
-15.4044358843
 10
95.3717473778
 20
-15.4171704611
 10
93.0415704579
 20
-15.4551709162
 10
90.5139579987
 20
-15.5178306682
 10
87.829256953
 20
-15.6041495123
 10
85.0303217964
 20
-15.7127495861
 10
82.1618304637
 20
-15.8418973635
  0
LWPOLYLINE
  5
2B9
330
28D
100
AcDbEntity
  8
0
  6
Continuous
 62
     7
370
    25
100
AcDbPolyline
 90
        9
 70
   128
 43
0.0
 10
-55.0
 20
-100.0956516007
 10
-55.9754516101
 20
-100.1179042182
 10
-56.9134171618
 20
-100.1838069148
 10
-57.7778511651
 20
-100.2908270871
 10
-58.5355339059
 20
-100.4348520097
 10
-59.1573480615
 20
-100.6103468856
 10
-59.6193976626
 20
-100.8105675453
 10
-59.903926402
 20
-101.027819621
 10
-60.0
 20
-101.2537542373
  0
LWPOLYLINE
  5
2BA
330
28D
100
AcDbEntity
  8
0
  6
Continuous
 62
     7
370
    25
100
AcDbPolyline
 90
        9
 70
   128
 43
0.0
 10
-55.0
 20
-15.8418973635
 10
-55.9754516101
 20
-15.8641499809
 10
-56.9134171618
 20
-15.9300526776
 10
-57.7778511651
 20
-16.0370728498
 10
-58.5355339059
 20
-16.1810977724
 10
-59.1573480615
 20
-16.3565926484
 10
-59.6193976626
 20
-16.556813308
 10
-59.903926402
 20
-16.7740653837
 10
-60.0
 20
-17.0
  0
LWPOLYLINE
  5
2BD
330
28D
100
AcDbEntity
  8
0
  6
Continuous
 62
     7
370
    25
100
AcDbPolyline
 90
       13
 70
   128
 43
0.0
 10
62.1014127881
 20
-100.0956516007
 10
64.8038569785
 20
-100.6639018213
 10
67.4631634688
 20
-101.1417421459
 10
70.0368831435
 20
-101.52154506
 10
72.4839330644
 20
-101.7972479687
 10
74.7652522564
 20
-101.964449971
 10
76.844425217
 20
-102.020482109
 10
78.6882631981
 20
-101.964449971
 10
80.2673339804
 20
-101.7972479687
 10
81.5564316848
 20
-101.52154506
 10
82.5349791203
 20
-101.1417421459
 10
83.1873562471
 20
-100.6639018213
 10
83.5031495112
 20
-100.0956516007
  0
LWPOLYLINE
  5
2C6
330
28D
100
AcDbEntity
  8
0
  6
Continuous
 62
     7
370
    25
100
AcDbPolyline
 90
        9
 70
   128
 43
0.0
 10
16.9443021397
 20
-122.0
 10
16.9908135703
 20
-121.0245483899
 10
17.128560454
 20
-120.0865828382
 10
17.3522492552
 20
-119.2221488349
 10
17.6532837388
 20
-118.4644660941
 10
18.0200953185
 20
-117.8426519385
 10
18.4385876308
 20
-117.3806023374
 10
18.8926782509
 20
-117.096073598
 10
19.364916731
 20
-117.0
  0
SPLINE
  5
2C8
330
28D
100
AcDbEntity
  8
0
  6
Continuous
 62
     7
370
    25
100
AcDbSpline
210
0.0
220
0.0
230
1.0
 70
     8
 71
     3
 72
    30
 73
    26
 74
     0
 42
0.000000001
 43
0.00000001
 40
0.0
 40
0.0
 40
0.0
 40
0.0
 40
0.0625000000000006
 40
0.0625000000000006
 40
0.1250000000000013
 40
0.1250000000000013
 40
0.1875000000000019
 40
0.1875000000000019
 40
0.2500000000000026
 40
0.2500000000000026
 40
0.3125000000000032
 40
0.3125000000000032
 40
0.3750000000000038
 40
0.3750000000000038
 40
0.4375000000000044
 40
0.4375000000000044
 40
0.5000000000000051
 40
0.5000000000000051
 40
0.6250000000000038
 40
0.6250000000000038
 40
0.7500000000000026
 40
0.7500000000000026
 40
0.8750000000000012
 40
0.8750000000000012
 40
1.0
 40
1.0
 40
1.0
 40
1.0
 10
16.94430213965746
 20
-139.9999999999999
 30
0.0
 10
16.94430213965746
 20
-140.3874564971711
 30
0.0
 10
16.98055462360927
 20
-140.7746366409246
 30
0.0
 10
17.11751998308072
 20
-141.527941131503
 30
0.0
 10
17.21737813671217
 20
-141.8934969497709
 30
0.0
 10
17.46957890181189
 20
-142.6057068582455
 30
0.0
 10
17.62203847262845
 20
-142.9515057741627
 30
0.0
 10
17.96057363264738
 20
-143.6091752841897
 30
0.0
 10
18.14760507755768
 20
-143.923830452485
 30
0.0
 10
18.54937629107493
 20
-144.5299036346366
 30
0.0
 10
18.76458206794748
 20
-144.8215937647305
 30
0.0
 10
19.20945788079153
 20
-145.3755643105677
 30
0.0
 10
19.44006469771239
 20
-145.63930158661
 30
0.0
 10
19.91388590509919
 20
-146.1441521947189
 30
0.0
 10
20.15712049021551
 20
-146.385241763625
 30
0.0
 10
20.65383064554734
 20
-146.8469244716159
 30
0.0
 10
20.90819117321029
 20
-147.0681846985247
 30
0.0
 10
21.67591524299362
 20
-147.6959721837643
 30
0.0
 10
22.1944012992747
 20
-148.0680604302363
 30
0.0
 10
23.23750014753262
 20
-148.7258053608898
 30
0.0
 10
23.76218650618183
 20
-149.0114019914821
 30
0.0
 10
24.81534111957826
 20
-149.4880305092963
 30
0.0
 10
25.33375179013088
 20
-149.6741824968713
 30
0.0
 10
26.34513181877271
 20
-149.9297680200848
 30
0.0
 10
26.83936418432711
 20
-149.9999999999999
 30
0.0
 10
27.32186624299301
 20
-149.9999999999999
 30
0.0
  0
SPLINE
  5
2D7
330
28D
100
AcDbEntity
  8
0
  6
Continuous
 62
     7
370
    25
100
AcDbSpline
210
0.0
220
0.0
230
1.0
 70
     8
 71
     3
 72
    24
 73
    20
 74
     0
 42
0.000000001
 43
0.00000001
 40
0.0
 40
0.0
 40
0.0
 40
0.0
 40
0.2500000000000008
 40
0.2500000000000008
 40
0.3750000000000007
 40
0.3750000000000007
 40
0.5000000000000007
 40
0.5000000000000007
 40
0.6250000000000006
 40
0.6250000000000006
 40
0.7500000000000006
 40
0.7500000000000006
 40
0.8125000000000004
 40
0.8125000000000004
 40
0.8750000000000002
 40
0.8750000000000002
 40
0.9375000000000001
 40
0.9375000000000001
 40
1.0
 40
1.0
 40
1.0
 40
1.0
 10
31.224989991992
 20
-144.9999999999999
 30
0.0
 10
30.19486193746083
 20
-145.0
 30
0.0
 10
29.14116233794506
 20
-144.8813074780807
 30
0.0
 10
27.53228006382164
 20
-144.5854352245537
 30
0.0
 10
26.99339549955006
 20
-144.4666101645561
 30
0.0
 10
25.91691403364737
 20
-144.1924428254165
 30
0.0
 10
25.37842666398387
 20
-144.0369871189914
 30
0.0
 10
24.30279355262438
 20
-143.6865398496776
 30
0.0
 10
23.76420777421253
 20
-143.4911599392963
 30
0.0
 10
22.70162118621717
 20
-143.0531710923669
 30
0.0
 10
22.17685716182238
 20
-142.8114112571967
 30
0.0
 10
21.41045205152945
 20
-142.3907244956072
 30
0.0
 10
21.15768644042827
 20
-142.2400488352164
 30
0.0
 10
20.6707036150182
 20
-141.9128997803422
 30
0.0
 10
20.43572857838981
 20
-141.7366728261368
 30
0.0
 10
19.99711367745124
 20
-141.3393176209202
 30
0.0
 10
19.79115319183634
 20
-141.116884598904
 30
0.0
 10
19.47287891216563
 20
-140.603618939977
 30
0.0
 10
19.36491673103709
 20
-140.3076054904331
 30
0.0
 10
19.36491673103709
 20
-139.9999999999999
 30
0.0
  0
LINE
  5
2E6
330
28D
100
AcDbEntity
  8
0
  6
Continuous
 62
     7
370
    25
100
AcDbLine
 10
-35.0
 20
-122.0
 30
0.0
 11
-35.0
 21
-150.0
 31
0.0
  0
LINE
  5
2E7
330
28D
100
AcDbEntity
  8
0
  6
Continuous
 62
     7
370
    25
100
AcDbLine
 10
-65.0
 20
-150.0
 30
0.0
 11
-65.0
 21
-17.0
 31
0.0
  0
LINE
  5
2E8
330
28D
100
AcDbEntity
  8
0
  6
Continuous
 62
     7
370
    25
100
AcDbLine
 10
-130.0
 20
-145.0
 30
0.0
 11
-60.0
 21
-145.0
 31
0.0
  0
LINE
  5
2E9
330
28D
100
AcDbEntity
  8
0
  6
Continuous
 62
     7
370
    25
100
AcDbLine
 10
-60.0
 20
-17.0
 30
0.0
 11
-65.0
 21
-17.0
 31
0.0
  0
LINE
  5
2EA
330
28D
100
AcDbEntity
  8
0
  6
Continuous
 62
     7
370
    25
100
AcDbLine
 10
-125.0
 20
0.0
 30
0.0
 11
-125.0
 21
-150.0
 31
0.0
  0
LINE
  5
2EB
330
28D
100
AcDbEntity
  8
0
  6
Continuous
 62
     7
370
    25
100
AcDbLine
 10
130.0
 20
-5.0
 30
0.0
 11
-130.0
 21
-5.0
 31
0.0
  0
LINE
  5
2EC
330
28D
100
AcDbEntity
  8
0
  6
Continuous
 62
     7
370
    25
100
AcDbLine
 10
125.0
 20
-110.0
 30
0.0
 11
125.0
 21
0.0
 31
0.0
  0
LINE
  5
2ED
330
28D
100
AcDbEntity
  8
0
  6
Continuous
 62
     7
370
    25
100
AcDbLine
 10
-55.0
 20
-7.0
 30
0.0
 11
130.0
 21
-7.0
 31
0.0
  0
LINE
  5
2EE
330
28D
100
AcDbEntity
  8
0
  6
Continuous
 62
     7
370
    25
100
AcDbLine
 10
-60.0
 20
-17.0
 30
0.0
 11
-60.0
 21
-145.0
 31
0.0
  0
LINE
  5
2EF
330
28D
100
AcDbEntity
  8
0
  6
Continuous
 62
     7
370
    25
100
AcDbLine
 10
-125.0
 20
0.0
 30
0.0
 11
125.0
 21
0.0
 31
0.0
  0
LINE
  5
2F0
330
28D
100
AcDbEntity
  8
0
  6
Continuous
 62
     7
370
    25
100
AcDbLine
 10
125.0
 20
-12.0
 30
0.0
 11
-55.0
 21
-12.0
 31
0.0
  0
LINE
  5
2F1
330
28D
100
AcDbEntity
  8
0
  6
Continuous
 62
     7
370
    25
100
AcDbLine
 10
130.0
 20
-5.0
 30
0.0
 11
130.0
 21
-110.0
 31
0.0
  0
LINE
  5
2F2
330
28D
100
AcDbEntity
  8
0
  6
Continuous
 62
     7
370
    25
100
AcDbLine
 10
-130.0
 20
-145.0
 30
0.0
 11
-130.0
 21
-5.0
 31
0.0
  0
LINE
  5
2F3
330
28D
100
AcDbEntity
  8
0
  6
Continuous
 62
     7
370
    25
100
AcDbLine
 10
-65.0
 20
-150.0
 30
0.0
 11
-125.0
 21
-150.0
 31
0.0
  0
LINE
  5
2F4
330
28D
100
AcDbEntity
  8
0
  6
Continuous
 62
     7
370
    25
100
AcDbLine
 10
82.1618304637
 20
-12.0
 30
0.0
 11
82.1618304637
 21
-15.8418973635
 31
0.0
  0
LINE
  5
2F5
330
28D
100
AcDbEntity
  8
0
  6
Continuous
 62
     7
370
    25
100
AcDbLine
 10
-55.0
 20
-7.0
 30
0.0
 11
-55.0
 21
-117.0
 31
0.0
  0
LINE
  5
2F6
330
28D
100
AcDbEntity
  8
0
  6
Continuous
 62
     7
370
    25
100
AcDbLine
 10
82.1618304637
 20
-15.8418973635
 30
0.0
 11
-55.0
 21
-15.8418973635
 31
0.0
  0
LINE
  5
2F7
330
28D
100
AcDbEntity
  8
0
  6
Continuous
 62
     7
370
    25
100
AcDbLine
 10
82.1618304637
 20
-15.8418973635
 30
0.0
 11
62.1014127881
 21
-100.0956516007
 31
0.0
  0
LINE
  5
2F8
330
28D
100
AcDbEntity
  8
0
  6
Continuous
 62
     7
370
    25
100
AcDbLine
 10
83.5031495112
 20
-100.0956516007
 30
0.0
 11
103.5635671867
 21
-15.8418973635
 31
0.0
  0
LINE
  5
2F9
330
28D
100
AcDbEntity
  8
0
  6
Continuous
 62
     7
370
    25
100
AcDbLine
 10
62.1014127881
 20
-100.0956516007
 30
0.0
 11
-55.0
 21
-100.0956516007
 31
0.0
  0
LINE
  5
2FA
330
28D
100
AcDbEntity
  8
0
  6
Continuous
 62
     7
370
    25
100
AcDbLine
 10
62.1014127881
 20
-100.0956516007
 30
0.0
 11
62.1014127881
 21
-122.0
 31
0.0
  0
LINE
  5
2FB
330
28D
100
AcDbEntity
  8
0
  6
Continuous
 62
     7
370
    25
100
AcDbLine
 10
-55.0
 20
-117.0
 30
0.0
 11
62.1014127881
 21
-117.0
 31
0.0
  0
LINE
  5
2FC
330
28D
100
AcDbEntity
  8
0
  6
Continuous
 62
     7
370
    25
100
AcDbLine
 10
16.9443021397
 20
-140.0
 30
0.0
 11
16.9443021397
 21
-122.0
 31
0.0
  0
LINE
  5
2FD
330
28D
100
AcDbEntity
  8
0
  6
Continuous
 62
     7
370
    25
100
AcDbLine
 10
-29.9999999966
 20
-155.0
 30
0.0
 11
30.0
 21
-155.0
 31
0.0
  0
LINE
  5
2FE
330
28D
100
AcDbEntity
  8
0
  6
Continuous
 62
     7
370
    25
100
AcDbLine
 10
108.4275982602
 20
-17.0
 30
0.0
 11
103.5635671867
 21
-15.8418973635
 31
0.0
  0
LINE
  5
2FF
330
28D
100
AcDbEntity
  8
0
  6
Continuous
 62
     7
370
    25
100
AcDbLine
 10
108.4275982602
 20
-12.0
 30
0.0
 11
108.4275982602
 21
-17.0
 31
0.0
  0
LINE
  5
300
330
28D
100
AcDbEntity
  8
0
  6
Continuous
 62
     7
370
    25
100
AcDbLine
 10
130.0
 20
-17.0
 30
0.0
 11
108.4275982602
 21
-17.0
 31
0.0
  0
LINE
  5
301
330
28D
100
AcDbEntity
  8
0
  6
Continuous
 62
     7
370
    25
100
AcDbLine
 10
108.4275982602
 20
-17.0
 30
0.0
 11
88.3671805846
 21
-101.2537542373
 31
0.0
  0
LINE
  5
302
330
28D
100
AcDbEntity
  8
0
  6
Continuous
 62
     7
370
    25
100
AcDbLine
 10
88.3671805846
 20
-101.2537542373
 30
0.0
 11
83.5031495112
 21
-100.0956516007
 31
0.0
  0
LINE
  5
303
330
28D
100
AcDbEntity
  8
0
  6
Continuous
 62
     7
370
    25
100
AcDbLine
 10
62.1014127881
 20
-122.0
 30
0.0
 11
-35.0
 21
-122.0
 31
0.0
  0
LINE
  5
304
330
28D
100
AcDbEntity
  8
0
  6
Continuous
 62
     7
370
    25
100
AcDbLine
 10
19.364916731
 20
-117.0
 30
0.0
 11
19.364916731
 21
-140.0
 31
0.0
  0
LINE
  5
305
330
28D
100
AcDbEntity
  8
0
  6
Continuous
 62
     7
370
    25
100
AcDbLine
 10
16.9443021397
 20
-140.0
 30
0.0
 11
95.0
 21
-140.0
 31
0.0
  0
LINE
  5
306
330
28D
100
AcDbEntity
  8
0
  6
Continuous
 62
     7
370
    25
100
AcDbLine
 10
95.0
 20
-145.0
 30
0.0
 11
95.0
 21
-140.0
 31
0.0
  0
LINE
  5
307
330
28D
100
AcDbEntity
  8
0
  6
Continuous
 62
     7
370
    25
100
AcDbLine
 10
130.0
 20
-110.0
 30
0.0
 11
125.0
 21
-110.0
 31
0.0
  0
LINE
  5
308
330
28D
100
AcDbEntity
  8
0
  6
Continuous
 62
     7
370
    25
100
AcDbLine
 10
95.0
 20
-145.0
 30
0.0
 11
31.224989992
 21
-145.0
 31
0.0
  0
LINE
  5
309
330
28D
100
AcDbEntity
  8
0
  6
Continuous
 62
     8
370
    25
100
AcDbLine
 10
-35.0
 20
-150.0
 30
0.0
 11
35.0
 21
-150.0
 31
0.0
  0
ARC
  5
30A
330
28D
100
AcDbEntity
  8
0
  6
Continuous
 62
     7
370
    25
100
AcDbCircle
 10
-40.0
 20
-122.0
 30
0.0
 40
5.0
100
AcDbArc
 50
0.0
 51
90.0
  0
ARC
  5
30B
330
28D
100
AcDbEntity
  8
0
  6
Continuous
 62
     7
370
    25
100
AcDbCircle
 10
30.0
 20
-150.0
 30
0.0
 40
4.999999999999972
100
AcDbArc
 50
270.0
 51
0.0
  0
ARC
  5
30C
330
28D
100
AcDbEntity
  8
0
  6
Continuous
 62
     7
370
    25
100
AcDbCircle
 10
-30.0
 20
-150.0
 30
0.0
 40
5.000000000000028
100
AcDbArc
 50
180.0
 51
270.0
  0
ARC
  5
30D
330
28D
100
AcDbEntity
  8
0
  6
Continuous
 62
     7
370
    25
100
AcDbCircle
 10
40.0
 20
-150.0
 30
0.0
 40
5.000000000000028
100
AcDbArc
 50
90.0
 51
180.0
  0
ARC
  5
30E
330
28D
100
AcDbEntity
  8
0
  6
Continuous
 62
     7
370
    25
100
AcDbCircle
 10
-65.0
 20
-145.0
 30
0.0
 40
4.999999999999986
100
AcDbArc
 50
270.0
 51
0.0
  0
ARC
  5
30F
330
28D
100
AcDbEntity
  8
0
  6
Continuous
 62
     7
370
    25
100
AcDbCircle
 10
-55.0
 20
-17.0
 30
0.0
 40
5.000000000000028
100
AcDbArc
 50
90.0
 51
180.0
  0
ARC
  5
310
330
28D
100
AcDbEntity
  8
0
  6
Continuous
 62
     7
370
    25
100
AcDbCircle
 10
-55.0
 20
-17.0
 30
0.0
 40
9.999999999999982
100
AcDbArc
 50
90.0
 51
180.0
  0
ARC
  5
311
330
28D
100
AcDbEntity
  8
0
  6
Continuous
 62
     7
370
    25
100
AcDbCircle
 10
-125.0
 20
-5.0
 30
0.0
 40
5.000000000000023
100
AcDbArc
 50
90.0
 51
180.0
  0
ARC
  5
312
330
28D
100
AcDbEntity
  8
0
  6
Continuous
 62
     7
370
    25
100
AcDbCircle
 10
-125.0
 20
-145.0
 30
0.0
 40
5.0
100
AcDbArc
 50
180.0
 51
270.0
  0
ARC
  5
313
330
28D
100
AcDbEntity
  8
0
  6
Continuous
 62
     7
370
    25
100
AcDbCircle
 10
125.0
 20
-5.0
 30
0.0
 40
5.000000000000014
100
AcDbArc
 50
0.0
 51
90.0
  0
ARC
  5
314
330
28D
100
AcDbEntity
  8
0
  6
Continuous
 62
     7
370
    25
100
AcDbCircle
 10
125.0
 20
-7.0
 30
0.0
 40
4.999999999999986
100
AcDbArc
 50
270.0
 51
0.0
  0
ARC
  5
315
330
28D
100
AcDbEntity
  8
0
  6
Continuous
 62
     7
370
    25
100
AcDbCircle
 10
108.4275982602
 20
-17.0
 30
0.0
 40
5.000000000000028
100
AcDbArc
 50
90.0
 51
166.6075022462
  0
ARC
  5
316
330
28D
100
AcDbEntity
  8
0
  6
Continuous
 62
     7
370
    25
100
AcDbCircle
 10
-55.0
 20
-122.0
 30
0.0
 40
5.0
100
AcDbArc
 50
90.0
 51
180.0
  0
ARC
  5
317
330
28D
100
AcDbEntity
  8
0
  6
Continuous
 62
     7
370
    25
100
AcDbCircle
 10
62.1014127881
 20
-95.0
 30
0.0
 40
22.0
100
AcDbArc
 50
270.0
 51
346.6075022463
  0
ARC
  5
318
330
28D
100
AcDbEntity
  8
0
  6
Continuous
 62
     7
370
    25
100
AcDbCircle
 10
62.1014127881
 20
-95.0
 30
0.0
 40
27.00000000000005
100
AcDbArc
 50
270.0
 51
346.6075022463
  0
ARC
  5
319
330
28D
100
AcDbEntity
  8
0
  6
Continuous
 62
     7
370
    25
100
AcDbCircle
 10
31.8504905928
 20
-149.51171875
 30
0.0
 40
4.554871796297281
100
AcDbArc
 50
97.8931209029
 51
186.1539201034
  0
ARC
  5
31A
330
28D
100
AcDbEntity
  8
0
  6
Continuous
 62
     7
370
    25
100
AcDbCircle
 10
95.0
 20
-110.0
 30
0.0
 40
34.99999999999999
100
AcDbArc
 50
270.0
 51
0.0
  0
ARC
  5
31B
330
28D
100
AcDbEntity
  8
0
  6
Continuous
 62
     7
370
    25
100
AcDbCircle
 10
95.0
 20
-110.0
 30
0.0
 40
30.00000000000004
100
AcDbArc
 50
270.0
 51
0.0
  0
VIEWPORT
  5
600
330
28D
100
AcDbEntity
  8
0
100
AcDbViewport
 10
0.0
 20
0.0
 30
0.0
 40
205.6
 41
156.0
 68
     1
 69
     1
 12
0.0
 22
0.0
 13
0.0
 23
0.0
 14
10.0
 24
10.0
 15
10.0
 25
10.0
 16
0.0
 26
0.0
 36
1.0
 17
0.0
 27
0.0
 37
0.0
 42
50.0
 43
0.0
 44
0.0
 45
402.4435797665
 50
0.0
 51
0.0
 72
   100
 90
   557152
  1

281
     0
 71
     1
 74
     0
110
0.0
120
0.0
130
0.0
111
1.0
121
0.0
131
0.0
112
0.0
122
1.0
132
0.0
 79
     0
146
0.0
  0
ENDBLK
  5
290
330
28D
100
AcDbEntity
  8
0
100
AcDbBlockEnd
  0
BLOCK
  5
31E
330
31C
100
AcDbEntity
  8
0
100
AcDbBlockBegin
  2
*Paper_Space3
 70
     0
 10
0.0
 20
0.0
 30
0.0
  3
*Paper_Space3
  1

  0
CIRCLE
  5
322
330
31C
100
AcDbEntity
  8
0
  6
Continuous
 62
     7
370
    25
100
AcDbCircle
 10
0.0
 20
0.0
 30
0.0
 40
30.0
  0
CIRCLE
  5
323
330
31C
100
AcDbEntity
  8
0
  6
Continuous
 62
     7
370
    25
100
AcDbCircle
 10
0.0
 20
0.0
 30
0.0
 40
25.00000000000001
  0
SPLINE
  5
325
330
31C
100
AcDbEntity
  8
0
  6
Continuous
 62
     7
370
    25
100
AcDbSpline
210
0.0
220
0.0
230
1.0
 70
     8
 71
     3
 72
    26
 73
    22
 74
     0
 42
0.000000001
 43
0.00000001
 40
0.0
 40
0.0
 40
0.0
 40
0.0
 40
0.0312500000000001
 40
0.0312500000000001
 40
0.0625000000000001
 40
0.0625000000000001
 40
0.1250000000000002
 40
0.1250000000000002
 40
0.1875000000000003
 40
0.1875000000000003
 40
0.2500000000000004
 40
0.2500000000000004
 40
0.3750000000000004
 40
0.3750000000000004
 40
0.5000000000000004
 40
0.5000000000000004
 40
0.6250000000000004
 40
0.6250000000000004
 40
0.7500000000000004
 40
0.7500000000000004
 40
1.0
 40
1.0
 40
1.0
 40
1.0
 10
-29.99999999999989
 20
-19.36491673103715
 30
0.0
 10
-29.9999999999999
 20
-19.36491673103715
 30
0.0
 10
-29.99283309438207
 20
-19.39087610155553
 30
0.0
 10
-29.96659775406343
 20
-19.48524483419432
 30
0.0
 10
-29.9476126726853
 20
-19.55330713953083
 30
0.0
 10
-29.8794446922884
 20
-19.79529986483859
 30
0.0
 10
-29.82160153397846
 20
-19.99781771775546
 30
0.0
 10
-29.6935093051739
 20
-20.43519472312088
 30
0.0
 10
-29.62224545079243
 20
-20.67357978696544
 30
0.0
 10
-29.47244392913117
 20
-21.16191500329661
 30
0.0
 10
-29.39369888853074
 20
-21.41269839332203
 30
0.0
 10
-29.14737831160773
 20
-22.17716811308197
 30
0.0
 10
-28.96950169423818
 20
-22.70352713379475
 30
0.0
 10
-28.58942608692444
 20
-23.76866763860759
 30
0.0
 10
-28.38837298493902
 20
-24.30448050560366
 30
0.0
 10
-27.96290334092133
 20
-25.37841283766038
 30
0.0
 10
-27.73848106228742
 20
-25.91660085834143
 30
0.0
 10
-27.26366000385923
 20
-26.99356948525228
 30
0.0
 10
-27.01251340556997
 20
-27.53385471657537
 30
0.0
 10
-26.22106968264208
 20
-29.1408705226806
 30
0.0
 10
-25.64374667185701
 20
-30.19417033116493
 30
0.0
 10
-24.99999999999963
 20
-31.22498999199183
 30
0.0
  0
SPLINE
  5
327
330
31C
100
AcDbEntity
  8
0
  6
Continuous
 62
     7
370
    25
100
AcDbSpline
210
0.0
220
0.0
230
1.0
 70
     8
 71
     3
 72
    24
 73
    20
 74
     0
 42
0.000000001
 43
0.00000001
 40
0.0
 40
0.0
 40
0.0
 40
0.0
 40
0.2500000000000008
 40
0.2500000000000008
 40
0.3750000000000007
 40
0.3750000000000007
 40
0.5000000000000007
 40
0.5000000000000007
 40
0.6250000000000006
 40
0.6250000000000006
 40
0.7500000000000006
 40
0.7500000000000006
 40
0.8125000000000004
 40
0.8125000000000004
 40
0.8750000000000002
 40
0.8750000000000002
 40
0.9375000000000001
 40
0.9375000000000001
 40
1.0
 40
1.0
 40
1.0
 40
1.0
 10
25.00000000000011
 20
-31.22498999199206
 30
0.0
 10
25.64331476386424
 20
-30.19486193746088
 30
0.0
 10
26.22096126424863
 20
-29.14116233794512
 30
0.0
 10
27.01327123793879
 20
-27.5322800638217
 30
0.0
 10
27.26373560210108
 20
-26.99339549955011
 30
0.0
 10
27.73834409706849
 20
-25.91691403364743
 30
0.0
 10
27.96290953415411
 20
-25.37842666398393
 30
0.0
 10
28.3890296315057
 20
-24.30279355262444
 30
0.0
 10
28.59105658085196
 20
-23.76420777421259
 30
0.0
 10
28.97014248728707
 20
-22.70162118621723
 30
0.0
 10
29.14749569402531
 20
-22.17685716182243
 30
0.0
 10
29.39441404892251
 20
-21.4104520515295
 30
0.0
 10
29.47375841189103
 20
-21.15768644042833
 30
0.0
 10
29.62311015902575
 20
-20.67070361501826
 30
0.0
 10
29.69335332089262
 20
-20.43572857838986
 30
0.0
 10
29.82180735928636
 20
-19.99711367745129
 30
0.0
 10
29.88061863158995
 20
-19.7911531918364
 30
0.0
 10
29.97026293163584
 20
-19.47287891216569
 30
0.0
 10
30.0000000000001
 20
-19.36491673103715
 30
0.0
 10
30.00000000000011
 20
-19.36491673103714
 30
0.0
  0
LINE
  5
3B2
330
31C
100
AcDbEntity
  8
0
  6
Continuous
 62
     7
370
    25
100
AcDbLine
 10
-25.0
 20
-31.224989992
 30
0.0
 11
-21.875
 21
-27.321866243
 31
0.0
  0
LINE
  5
3B3
330
31C
100
AcDbEntity
  8
0
  6
Continuous
 62
     7
370
    25
100
AcDbLine
 10
25.0
 20
-31.224989992
 30
0.0
 11
21.875
 21
-27.321866243
 31
0.0
  0
LINE
  5
3B4
330
31C
100
AcDbEntity
  8
0
  6
Continuous
 62
     7
370
    25
100
AcDbLine
 10
255.0
 20
-130.0
 30
0.0
 11
255.0
 21
130.0
 31
0.0
  0
LINE
  5
3B5
330
31C
100
AcDbEntity
  8
0
  6
Continuous
 62
     7
370
    25
100
AcDbLine
 10
260.0
 20
125.0
 30
0.0
 11
260.0
 21
-125.0
 31
0.0
  0
LINE
  5
3B6
330
31C
100
AcDbEntity
  8
0
  6
Continuous
 62
     7
370
    25
100
AcDbLine
 10
-255.0
 20
130.0
 30
0.0
 11
-255.0
 21
-130.0
 31
0.0
  0
LINE
  5
3B7
330
31C
100
AcDbEntity
  8
0
  6
Continuous
 62
     7
370
    25
100
AcDbLine
 10
-260.0
 20
65.0
 30
0.0
 11
260.0
 21
65.0
 31
0.0
  0
LINE
  5
3B8
330
31C
100
AcDbEntity
  8
0
  6
Continuous
 62
     7
370
    25
100
AcDbLine
 10
-260.0
 20
-125.0
 30
0.0
 11
-260.0
 21
125.0
 31
0.0
  0
LINE
  5
3B9
330
31C
100
AcDbEntity
  8
0
  6
Continuous
 62
     7
370
    25
100
AcDbLine
 10
260.0
 20
125.0
 30
0.0
 11
-260.0
 21
125.0
 31
0.0
  0
LINE
  5
3BA
330
31C
100
AcDbEntity
  8
0
  6
Continuous
 62
     7
370
    25
100
AcDbLine
 10
-255.0
 20
130.0
 30
0.0
 11
255.0
 21
130.0
 31
0.0
  0
LINE
  5
3BB
330
31C
100
AcDbEntity
  8
0
  6
Continuous
 62
     7
370
    25
100
AcDbLine
 10
255.0
 20
60.0
 30
0.0
 11
-255.0
 21
60.0
 31
0.0
  0
LINE
  5
3BC
330
31C
100
AcDbEntity
  8
0
  6
Continuous
 62
     7
370
    25
100
AcDbLine
 10
-21.8759184614
 20
-12.1014127881
 30
0.0
 11
21.8759184614
 21
-12.1014127881
 31
0.0
  0
LINE
  5
3BD
330
31C
100
AcDbEntity
  8
0
  6
Continuous
 62
     7
370
    25
100
AcDbLine
 10
25.0
 20
-130.0
 30
0.0
 11
25.0
 21
-31.224989992
 31
0.0
  0
LINE
  5
3BE
330
31C
100
AcDbEntity
  8
0
  6
Continuous
 62
     7
370
    25
100
AcDbLine
 10
-30.0
 20
-95.0
 30
0.0
 11
30.0
 21
-95.0
 31
0.0
  0
LINE
  5
3BF
330
31C
100
AcDbEntity
  8
0
  6
Continuous
 62
     7
370
    25
100
AcDbLine
 10
-25.0
 20
-31.224989992
 30
0.0
 11
-25.0
 21
-130.0
 31
0.0
  0
LINE
  5
3C0
330
31C
100
AcDbEntity
  8
0
  6
Continuous
 62
     7
370
    25
100
AcDbLine
 10
-30.0
 20
-125.0
 30
0.0
 11
-30.0
 21
-19.364916731
 31
0.0
  0
LINE
  5
3C1
330
31C
100
AcDbEntity
  8
0
  6
Continuous
 62
     7
370
    25
100
AcDbLine
 10
30.0
 20
-19.364916731
 30
0.0
 11
30.0
 21
-125.0
 31
0.0
  0
LINE
  5
3C2
330
31C
100
AcDbEntity
  8
0
  6
Continuous
 62
     7
370
    25
100
AcDbLine
 10
255.0
 20
-130.0
 30
0.0
 11
-255.0
 21
-130.0
 31
0.0
  0
LINE
  5
3C3
330
31C
100
AcDbEntity
  8
0
  6
Continuous
 62
     7
370
    25
100
AcDbLine
 10
-30.0
 20
-19.364916731
 30
0.0
 11
-35.0
 21
-19.364916731
 31
0.0
  0
LINE
  5
3C4
330
31C
100
AcDbEntity
  8
0
  6
Continuous
 62
     7
370
    25
100
AcDbLine
 10
-30.625
 20
-16.9443021397
 30
0.0
 11
-35.0
 21
-19.364916731
 31
0.0
  0
LINE
  5
3C5
330
31C
100
AcDbEntity
  8
0
  6
Continuous
 62
     7
370
    25
100
AcDbLine
 10
132.1014127881
 20
60.0
 30
0.0
 11
132.1014127881
 21
-83.5031495112
 31
0.0
  0
LINE
  5
3C6
330
31C
100
AcDbEntity
  8
0
  6
Continuous
 62
     7
370
    25
100
AcDbLine
 10
30.0
 20
-19.364916731
 30
0.0
 11
35.0
 21
-19.364916731
 31
0.0
  0
LINE
  5
3C7
330
31C
100
AcDbEntity
  8
0
  6
Continuous
 62
     7
370
    25
100
AcDbLine
 10
153.5031495112
 20
-62.1014127881
 30
0.0
 11
30.0
 21
-62.1014127881
 31
0.0
  0
LINE
  5
3C8
330
31C
100
AcDbEntity
  8
0
  6
Continuous
 62
     7
370
    25
100
AcDbLine
 10
30.625
 20
-16.9443021397
 30
0.0
 11
35.0
 21
-19.364916731
 31
0.0
  0
LINE
  5
3C9
330
31C
100
AcDbEntity
  8
0
  6
Continuous
 62
     7
370
    25
100
AcDbLine
 10
-30.0
 20
-62.1014127881
 30
0.0
 11
-153.5031495112
 21
-62.1014127881
 31
0.0
  0
LINE
  5
3CA
330
31C
100
AcDbEntity
  8
0
  6
Continuous
 62
     7
370
    25
100
AcDbLine
 10
-132.1014127881
 20
-83.5031495112
 30
0.0
 11
-132.1014127881
 21
60.0
 31
0.0
  0
LINE
  5
3CB
330
31C
100
AcDbEntity
  8
0
  6
Continuous
 62
     7
370
    25
100
AcDbLine
 10
-132.1014127881
 20
-83.5031495112
 30
0.0
 11
-35.0
 21
-83.5031495112
 31
0.0
  0
LINE
  5
3CC
330
31C
100
AcDbEntity
  8
0
  6
Continuous
 62
     7
370
    25
100
AcDbLine
 10
153.5031495112
 20
-62.1014127881
 30
0.0
 11
153.5031495112
 21
55.0
 31
0.0
  0
LINE
  5
3CD
330
31C
100
AcDbEntity
  8
0
  6
Continuous
 62
     7
370
    25
100
AcDbLine
 10
35.0
 20
-83.5031495112
 30
0.0
 11
132.1014127881
 21
-83.5031495112
 31
0.0
  0
LINE
  5
3CE
330
31C
100
AcDbEntity
  8
0
  6
Continuous
 62
     7
370
    25
100
AcDbLine
 10
-153.5031495112
 20
55.0
 30
0.0
 11
-153.5031495112
 21
-62.1014127881
 31
0.0
  0
LINE
  5
3CF
330
31C
100
AcDbEntity
  8
0
  6
Continuous
 62
     7
370
    25
100
AcDbLine
 10
173.5635671867
 20
-82.1618304637
 30
0.0
 11
153.5031495112
 21
-62.1014127881
 31
0.0
  0
LINE
  5
3D0
330
31C
100
AcDbEntity
  8
0
  6
Continuous
 62
     7
370
    25
100
AcDbLine
 10
132.1014127881
 20
-83.5031495112
 30
0.0
 11
152.1618304637
 21
-103.5635671867
 31
0.0
  0
LINE
  5
3D1
330
31C
100
AcDbEntity
  8
0
  6
Continuous
 62
     7
370
    25
100
AcDbLine
 10
-152.1618304637
 20
-103.5635671867
 30
0.0
 11
-132.1014127881
 21
-83.5031495112
 31
0.0
  0
LINE
  5
3D2
330
31C
100
AcDbEntity
  8
0
  6
Continuous
 62
     7
370
    25
100
AcDbLine
 10
-153.5031495112
 20
-62.1014127881
 30
0.0
 11
-173.5635671867
 21
-82.1618304637
 31
0.0
  0
LINE
  5
3D3
330
31C
100
AcDbEntity
  8
0
  6
Continuous
 62
     7
370
    25
100
AcDbLine
 10
-173.5635671867
 20
55.0
 30
0.0
 11
-173.5635671867
 21
-82.1618304637
 31
0.0
  0
LINE
  5
3D4
330
31C
100
AcDbEntity
  8
0
  6
Continuous
 62
     7
370
    25
100
AcDbLine
 10
173.5635671867
 20
-82.1618304637
 30
0.0
 11
173.5635671867
 21
55.0
 31
0.0
  0
LINE
  5
3D5
330
31C
100
AcDbEntity
  8
0
  6
Continuous
 62
     7
370
    25
100
AcDbLine
 10
35.0
 20
-103.5635671867
 30
0.0
 11
152.1618304637
 21
-103.5635671867
 31
0.0
  0
LINE
  5
3D6
330
31C
100
AcDbEntity
  8
0
  6
Continuous
 62
     7
370
    25
100
AcDbLine
 10
-152.1618304637
 20
-103.5635671867
 30
0.0
 11
-35.0
 21
-103.5635671867
 31
0.0
  0
LINE
  5
3D7
330
31C
100
AcDbEntity
  8
0
  6
Continuous
 62
     7
370
    25
100
AcDbLine
 10
178.4275982602
 20
60.0
 30
0.0
 11
178.4275982602
 21
-82.1618304637
 31
0.0
  0
LINE
  5
3D8
330
31C
100
AcDbEntity
  8
0
  6
Continuous
 62
     7
370
    25
100
AcDbLine
 10
260.0
 20
55.0
 30
0.0
 11
-260.0
 21
55.0
 31
0.0
  0
LINE
  5
3D9
330
31C
100
AcDbEntity
  8
0
  6
Continuous
 62
     7
370
    25
100
AcDbLine
 10
30.0
 20
-125.0
 30
0.0
 11
260.0
 21
-125.0
 31
0.0
  0
LINE
  5
3DA
330
31C
100
AcDbEntity
  8
0
  6
Continuous
 62
     7
370
    25
100
AcDbLine
 10
35.0
 20
-19.364916731
 30
0.0
 11
35.0
 21
-130.0
 31
0.0
  0
LINE
  5
3DB
330
31C
100
AcDbEntity
  8
0
  6
Continuous
 62
     7
370
    25
100
AcDbLine
 10
-178.4275982602
 20
-82.1618304637
 30
0.0
 11
-178.4275982602
 21
60.0
 31
0.0
  0
LINE
  5
3DC
330
31C
100
AcDbEntity
  8
0
  6
Continuous
 62
     7
370
    25
100
AcDbLine
 10
-35.0
 20
-130.0
 30
0.0
 11
-35.0
 21
-19.364916731
 31
0.0
  0
LINE
  5
3DD
330
31C
100
AcDbEntity
  8
0
  6
Continuous
 62
     7
370
    25
100
AcDbLine
 10
-260.0
 20
-125.0
 30
0.0
 11
-30.0
 21
-125.0
 31
0.0
  0
LINE
  5
3DE
330
31C
100
AcDbEntity
  8
0
  6
Continuous
 62
     7
370
    25
100
AcDbLine
 10
-30.0
 20
-108.4275982602
 30
0.0
 11
-152.1618304637
 21
-108.4275982602
 31
0.0
  0
LINE
  5
3DF
330
31C
100
AcDbEntity
  8
0
  6
Continuous
 62
     7
370
    25
100
AcDbLine
 10
152.1618304637
 20
-108.4275982602
 30
0.0
 11
30.0
 21
-108.4275982602
 31
0.0
  0
LINE
  5
3E0
330
31C
100
AcDbEntity
  8
0
  6
Continuous
 62
     7
370
    25
100
AcDbLine
 10
152.1618304637
 20
-108.4275982602
 30
0.0
 11
152.1618304637
 21
-103.5635671867
 31
0.0
  0
LINE
  5
3E1
330
31C
100
AcDbEntity
  8
0
  6
Continuous
 62
     7
370
    25
100
AcDbLine
 10
178.4275982602
 20
-82.1618304637
 30
0.0
 11
173.5635671867
 21
-82.1618304637
 31
0.0
  0
LINE
  5
3E2
330
31C
100
AcDbEntity
  8
0
  6
Continuous
 62
     7
370
    25
100
AcDbLine
 10
-152.1618304637
 20
-108.4275982602
 30
0.0
 11
-152.1618304637
 21
-103.5635671867
 31
0.0
  0
LINE
  5
3E3
330
31C
100
AcDbEntity
  8
0
  6
Continuous
 62
     7
370
    25
100
AcDbLine
 10
-178.4275982602
 20
-82.1618304637
 30
0.0
 11
-173.5635671867
 21
-82.1618304637
 31
0.0
  0
ARC
  5
3E4
330
31C
100
AcDbEntity
  8
0
  6
Continuous
 62
     7
370
    25
100
AcDbCircle
 10
0.0
 20
0.0
 30
0.0
 40
35.00000000000001
100
AcDbArc
 50
308.6821874535
 51
231.3178125465
  0
ARC
  5
3E5
330
31C
100
AcDbEntity
  8
0
  6
Continuous
 62
     7
370
    25
100
AcDbCircle
 10
-35.0
 20
-19.364916731
 30
0.0
 40
4.999999999999964
100
AcDbArc
 50
0.0
 51
28.9550243719
  0
ARC
  5
3E6
330
31C
100
AcDbEntity
  8
0
  6
Continuous
 62
     7
370
    25
100
AcDbCircle
 10
35.0
 20
-19.364916731
 30
0.0
 40
5.000000000000068
100
AcDbArc
 50
151.0449756281
 51
180.0
  0
ARC
  5
3E7
330
31C
100
AcDbEntity
  8
0
  6
Continuous
 62
     7
370
    25
100
AcDbCircle
 10
255.0
 20
65.0
 30
0.0
 40
5.0
100
AcDbArc
 50
270.0
 51
0.0
  0
ARC
  5
3E8
330
31C
100
AcDbEntity
  8
0
  6
Continuous
 62
     7
370
    25
100
AcDbCircle
 10
-255.0
 20
65.0
 30
0.0
 40
5.0
100
AcDbArc
 50
180.0
 51
270.0
  0
ARC
  5
3E9
330
31C
100
AcDbEntity
  8
0
  6
Continuous
 62
     7
370
    25
100
AcDbCircle
 10
-255.0
 20
125.0
 30
0.0
 40
5.0
100
AcDbArc
 50
90.0
 51
180.0
  0
ARC
  5
3EA
330
31C
100
AcDbEntity
  8
0
  6
Continuous
 62
     7
370
    25
100
AcDbCircle
 10
255.0
 20
125.0
 30
0.0
 40
5.0
100
AcDbArc
 50
0.0
 51
90.0
  0
ARC
  5
3EB
330
31C
100
AcDbEntity
  8
0
  6
Continuous
 62
     7
370
    25
100
AcDbCircle
 10
0.0
 20
0.0
 30
0.0
 40
40.00000000000001
100
AcDbArc
 50
231.3178125465
 51
308.6821874535
  0
ARC
  5
3EC
330
31C
100
AcDbEntity
  8
0
  6
Continuous
 62
     7
370
    25
100
AcDbCircle
 10
-25.0
 20
-125.0
 30
0.0
 40
5.0
100
AcDbArc
 50
180.0
 51
270.0
  0
ARC
  5
3ED
330
31C
100
AcDbEntity
  8
0
  6
Continuous
 62
     7
370
    25
100
AcDbCircle
 10
25.0
 20
-125.0
 30
0.0
 40
5.000000000000007
100
AcDbArc
 50
270.0
 51
0.0
  0
ARC
  5
3EE
330
31C
100
AcDbEntity
  8
0
  6
Continuous
 62
     7
370
    25
100
AcDbCircle
 10
-158.4361152654
 20
55.0670600858
 30
0.0
 40
4.933421549690755
100
AcDbArc
 50
359.2211534762
 51
89.1993802343
  0
ARC
  5
3EF
330
31C
100
AcDbEntity
  8
0
  6
Continuous
 62
     7
370
    25
100
AcDbCircle
 10
158.4361152654
 20
55.0670600858
 30
0.0
 40
4.933421549690755
100
AcDbArc
 50
90.8006197657
 51
180.7788465238
  0
ARC
  5
3F0
330
31C
100
AcDbEntity
  8
0
  6
Continuous
 62
     7
370
    25
100
AcDbCircle
 10
34.9329399142
 20
-88.4361152654
 30
0.0
 40
4.93342154969078
100
AcDbArc
 50
89.2211534762
 51
179.1993802343
  0
ARC
  5
3F1
330
31C
100
AcDbEntity
  8
0
  6
Continuous
 62
     7
370
    25
100
AcDbCircle
 10
-34.9329399142
 20
-88.4361152654
 30
0.0
 40
4.933421549690763
100
AcDbArc
 50
0.8006197657
 51
90.7788465238
  0
ARC
  5
3F2
330
31C
100
AcDbEntity
  8
0
  6
Continuous
 62
     7
370
    25
100
AcDbCircle
 10
0.0
 20
0.0
 30
0.0
 40
39.99999999999999
100
AcDbArc
 50
331.0449756281
 51
208.9550243719
  0
ARC
  5
3F3
330
31C
100
AcDbEntity
  8
0
  6
Continuous
 62
     7
370
    25
100
AcDbCircle
 10
-130.6986140964
 20
-60.6986140964
 30
0.0
 40
22.84764057083394
100
AcDbArc
 50
183.5200583715
 51
266.4799416285
  0
ARC
  5
3F4
330
31C
100
AcDbEntity
  8
0
  6
Continuous
 62
     7
370
    25
100
AcDbCircle
 10
130.6986140964
 20
-60.6986140964
 30
0.0
 40
22.84764057083385
100
AcDbArc
 50
273.5200583715
 51
356.4799416285
  0
ARC
  5
3F5
330
31C
100
AcDbEntity
  8
0
  6
Continuous
 62
     7
370
    25
100
AcDbCircle
 10
152.6743322676
 20
-82.6743322676
 30
0.0
 40
20.89552089821075
100
AcDbArc
 50
268.5945727131
 51
1.4054272869
  0
ARC
  5
3F6
330
31C
100
AcDbEntity
  8
0
  6
Continuous
 62
     7
370
    25
100
AcDbCircle
 10
-152.6743322676
 20
-82.6743322676
 30
0.0
 40
20.89552089821078
100
AcDbArc
 50
178.5945727131
 51
271.4054272869
  0
ARC
  5
3F7
330
31C
100
AcDbEntity
  8
0
  6
Continuous
 62
     7
370
    25
100
AcDbCircle
 10
178.4965329409
 20
55.0670600858
 30
0.0
 40
4.933421549690778
100
AcDbArc
 50
90.8006197657
 51
180.7788465238
  0
ARC
  5
3F8
330
31C
100
AcDbEntity
  8
0
  6
Continuous
 62
     7
370
    25
100
AcDbCircle
 10
-178.4965329409
 20
55.0670600858
 30
0.0
 40
4.933421549690726
100
AcDbArc
 50
359.2211534762
 51
89.1993802343
  0
ARC
  5
3F9
330
31C
100
AcDbEntity
  8
0
  6
Continuous
 62
     7
370
    25
100
AcDbCircle
 10
34.9329399142
 20
-108.4965329409
 30
0.0
 40
4.933421549690792
100
AcDbArc
 50
89.2211534762
 51
179.1993802343
  0
ARC
  5
3FA
330
31C
100
AcDbEntity
  8
0
  6
Continuous
 62
     7
370
    25
100
AcDbCircle
 10
-34.9329399142
 20
-108.4965329409
 30
0.0
 40
4.933421549690763
100
AcDbArc
 50
0.8006197657
 51
90.7788465238
  0
ARC
  5
3FB
330
31C
100
AcDbEntity
  8
0
  6
Continuous
 62
     7
370
    25
100
AcDbCircle
 10
152.3862200169
 20
-82.3862200169
 30
0.0
 40
26.04234496889397
100
AcDbArc
 50
269.5063142942
 51
0.4936857058
  0
ARC
  5
3FC
330
31C
100
AcDbEntity
  8
0
  6
Continuous
 62
     7
370
    25
100
AcDbCircle
 10
-152.3862200169
 20
-82.3862200169
 30
0.0
 40
26.04234496889397
100
AcDbArc
 50
179.5063142942
 51
270.4936857058
  0
ARC
  5
3FD
330
31C
100
AcDbEntity
  8
0
  6
Continuous
 62
     7
370
    25
100
AcDbCircle
 10
-255.0
 20
-125.0
 30
0.0
 40
5.0
100
AcDbArc
 50
180.0
 51
270.0
  0
ARC
  5
3FE
330
31C
100
AcDbEntity
  8
0
  6
Continuous
 62
     7
370
    25
100
AcDbCircle
 10
255.0
 20
-125.0
 30
0.0
 40
5.0
100
AcDbArc
 50
270.0
 51
0.0
  0
VIEWPORT
  5
602
330
31C
100
AcDbEntity
  8
0
100
AcDbViewport
 10
0.0
 20
0.0
 30
0.0
 40
205.6
 41
156.0
 68
     1
 69
     1
 12
0.0
 22
0.0
 13
0.0
 23
0.0
 14
10.0
 24
10.0
 15
10.0
 25
10.0
 16
0.0
 26
0.0
 36
1.0
 17
0.0
 27
0.0
 37
0.0
 42
50.0
 43
0.0
 44
0.0
 45
402.4435797665
 50
0.0
 51
0.0
 72
   100
 90
   557152
  1

281
     0
 71
     1
 74
     0
110
0.0
120
0.0
130
0.0
111
1.0
121
0.0
131
0.0
112
0.0
122
1.0
132
0.0
 79
     0
146
0.0
  0
ENDBLK
  5
31F
330
31C
100
AcDbEntity
  8
0
100
AcDbBlockEnd
  0
BLOCK
  5
401
330
3FF
100
AcDbEntity
  8
0
100
AcDbBlockBegin
  2
*Paper_Space4
 70
     0
 10
0.0
 20
0.0
 30
0.0
  3
*Paper_Space4
  1

  0
SPLINE
  5
403
330
3FF
100
AcDbEntity
  8
0
  6
Continuous
 62
     7
370
    25
100
AcDbSpline
210
0.0
220
0.0
230
1.0
 70
     8
 71
     3
 72
    17
 73
    13
 74
     0
 42
0.000000001
 43
0.00000001
 40
0.0
 40
0.0
 40
0.0
 40
0.0
 40
0.0585626767229491
 40
0.1674027277462628
 40
0.279704173064514
 40
0.3958198611377877
 40
0.5145187314989424
 40
0.6342491495543447
 40
0.7530818378175222
 40
0.8694107578892396
 40
0.9733338751683436
 40
1.0
 40
1.0
 40
1.0
 40
1.0
 10
139.3502884254436
 20
-144.5064916936913
 30
0.0
 10
139.3531861239861
 20
-144.3800911324661
 30
0.0
 10
139.3614692604025
 20
-144.0187722870544
 30
0.0
 10
139.4720765806985
 20
-143.2428261331589
 30
0.0
 10
139.7546222804911
 20
-142.1893503351883
 30
0.0
 10
140.2063363414009
 20
-141.0420705548617
 30
0.0
 10
140.8145239962828
 20
-139.8829125360467
 30
0.0
 10
141.5453317138987
 20
-138.7931199122848
 30
0.0
 10
142.3443702892386
 20
-137.8485135076733
 30
0.0
 10
143.1175583637452
 20
-137.1303365683843
 30
0.0
 10
143.6383447807202
 20
-136.7567528631818
 30
0.0
 10
143.8731966699372
 20
-136.6176848123202
 30
0.0
 10
143.9211530688992
 20
-136.5892873276237
 30
0.0
  0
SPLINE
  5
411
330
3FF
100
AcDbEntity
  8
0
  6
Continuous
 62
     7
370
    25
100
AcDbSpline
210
0.0
220
0.0
230
1.0
 70
     8
 71
     3
 72
    26
 73
    22
 74
     0
 42
0.000000001
 43
0.00000001
 40
0.0
 40
0.0
 40
0.0
 40
0.0
 40
0.0418472329514865
 40
0.099425271916516
 40
0.1568656081808516
 40
0.2127998028574069
 40
0.2674007950388704
 40
0.3213901178072591
 40
0.3753172570140463
 40
0.4294238556614024
 40
0.4839064240293564
 40
0.5388295563061292
 40
0.5941680752754038
 40
0.6498320258158333
 40
0.705686479010423
 40
0.7615756029237686
 40
0.8173501111560297
 40
0.8729486580391405
 40
0.9284715301207651
 40
0.9842334964995075
 40
1.0
 40
1.0
 40
1.0
 40
1.0
 10
59.25442726072431
 20
21.22373127903951
 30
0.0
 10
59.50669478111103
 20
21.35745788753
 30
0.0
 10
60.10605978188018
 20
21.67518031441199
 30
0.0
 10
61.1566186438143
 20
21.83612829647913
 30
0.0
 10
62.36529315181601
 20
21.74338321673761
 30
0.0
 10
63.60258948358988
 20
21.33158397603488
 30
0.0
 10
64.81425746906305
 20
20.63117815946097
 30
0.0
 10
65.96400779652613
 20
19.66387851683056
 30
0.0
 10
67.01877618507291
 20
18.45821190498148
 30
0.0
 10
67.94696497104131
 20
17.04755485102891
 30
0.0
 10
68.71908336176159
 20
15.47261762669144
 30
0.0
 10
69.30987157756095
 20
13.77972009582715
 30
0.0
 10
69.6992703299105
 20
12.02086831432582
 30
0.0
 10
69.87400516992585
 20
10.25192490305157
 30
0.0
 10
69.82872223949829
 20
8.530713313192745
 30
0.0
 10
69.56715231455446
 20
6.91369998077919
 30
0.0
 10
69.1014237754861
 20
5.455850445064844
 30
0.0
 10
68.45506396964987
 20
4.195319882041804
 30
0.0
 10
67.64587337554087
 20
3.193443421462439
 30
0.0
 10
66.9551918440165
 20
2.570494481093255
 30
0.0
 10
66.51286773243845
 20
2.376727518085944
 30
0.0
 10
66.41536942630492
 20
2.334016867268265
 30
0.0
  0
SPLINE
  5
412
330
3FF
100
AcDbEntity
  8
0
  6
Continuous
 62
     7
370
    25
100
AcDbSpline
210
0.0
220
0.0
230
1.0
 70
     8
 71
     3
 72
    22
 73
    18
 74
     0
 42
0.000000001
 43
0.00000001
 40
0.0
 40
0.0
 40
0.0
 40
0.0
 40
0.0420799544087996
 40
0.1104044724612538
 40
0.1829622574422972
 40
0.2541079662411269
 40
0.3253166499986377
 40
0.3972140739705684
 40
0.470145794064271
 40
0.5441272426472288
 40
0.6189834879887004
 40
0.6944228721537838
 40
0.7700879333953499
 40
0.8455758553384556
 40
0.9205168329596609
 40
0.9948464685148319
 40
1.0
 40
1.0
 40
1.0
 40
1.0
 10
68.51198310122649
 20
4.401736246198023
 30
0.0
 10
68.37319788063655
 20
4.431266124534789
 30
0.0
 10
68.00906941899913
 20
4.508743172345758
 30
0.0
 10
67.24683808853887
 20
4.864543178023845
 30
0.0
 10
66.29411103615205
 20
5.498844067209394
 30
0.0
 10
65.29372482477714
 20
6.415282856246596
 30
0.0
 10
64.3329337898901
 20
7.563643931517205
 30
0.0
 10
63.44917471451142
 20
8.922861503976753
 30
0.0
 10
62.68012966476002
 20
10.45740226597694
 30
0.0
 10
62.05767845798144
 20
12.12366789199375
 30
0.0
 10
61.60743067351109
 20
13.86884072942027
 30
0.0
 10
61.34594221692036
 20
15.63485991642727
 30
0.0
 10
61.28031092306149
 20
17.35673729139209
 30
0.0
 10
61.40186713000305
 20
18.98112145219566
 30
0.0
 10
61.70235410071223
 20
20.41412493348681
 30
0.0
 10
61.98436575336734
 20
21.329967124709
 30
0.0
 10
62.17002679390508
 20
21.681537183416
 30
0.0
 10
62.182064688891
 20
21.70433229128921
 30
0.0
  0
LWPOLYLINE
  5
431
330
3FF
100
AcDbEntity
  8
0
  6
Continuous
 62
     7
370
    25
100
AcDbPolyline
 90
       15
 70
   128
 43
0.0
 10
24.7487373415
 20
-71.4496432911
 10
27.1255478019
 20
-72.9683521739
 10
29.2240134351
 20
-74.6180824585
 10
31.0226011441
 20
-76.3819056797
 10
32.502854985
 20
-78.2417226245
 10
33.6495855504
 20
-80.1784490543
 10
34.4510258329
 20
-82.172211535
 10
34.8989519707
 20
-84.2025513656
 10
34.9887676354
 20
-86.248634512
 10
34.7195511968
 20
-88.2894653924
 10
34.0940651798
 20
-90.3041023201
 10
33.1187279175
 20
-92.2718723941
 10
31.80354769
 20
-94.1725836306
 10
30.162020026
 20
-95.9867321602
 10
29.8252076802
 20
-96.3100896171
  0
LWPOLYLINE
  5
432
330
3FF
100
AcDbEntity
  8
0
  6
Continuous
 62
     7
370
    25
100
AcDbPolyline
 90
       15
 70
   128
 43
0.0
 10
-18.3154848921
 20
-68.5190593438
 10
-17.7553526563
 20
-68.3246217153
 10
-14.61281473
 20
-67.3769879659
 10
-11.3203295502
 20
-66.6177505813
 10
-7.9116824704
 20
-66.0547003646
 10
-4.4218508223
 20
-65.693614973
 10
-0.886645001
 20
-65.5381996311
 10
2.6576589979
 20
-65.5900491107
 10
6.174691819
 20
-65.8486313659
 10
9.6283639464
 20
-66.311292993
 10
12.9832360304
 20
-66.9732864574
 10
16.2048825437
 20
-67.8278188106
 10
19.2602450333
 20
-68.8661213941
 10
22.1179713456
 20
-70.0775398184
 10
24.7487373415
 20
-71.4496432911
  0
LWPOLYLINE
  5
433
330
3FF
100
AcDbEntity
  8
0
  6
Continuous
 62
     7
370
    25
100
AcDbPolyline
 90
        9
 70
   128
 43
0.0
 10
175.6753502641
 20
-27.7403154816
 10
176.4119610142
 20
-27.3054027723
 10
177.5114398408
 20
-27.0196281768
 10
178.9431464399
 20
-26.8909556691
 10
180.6671819752
 20
-26.9229710979
 10
182.6355009799
 20
-27.1147822563
 10
184.7932502895
 20
-27.4610437462
 10
187.0802976907
 20
-27.9521059433
 10
189.4329076878
 20
-28.5742839138
  0
LWPOLYLINE
  5
436
330
3FF
100
AcDbEntity
  8
0
  6
Continuous
 62
     7
370
    25
100
AcDbPolyline
 90
       37
 70
   128
 43
0.0
 10
60.3114305025
 20
1.5280020535
 10
58.9888998849
 20
2.460422955
 10
57.762824143
 20
3.6699089331
 10
56.6704569679
 20
5.1197103682
 10
55.7449893834
 20
6.7657757774
 10
55.0145412537
 20
8.5580902963
 10
54.5013068756
 20
10.442195355
 10
54.2208806161
 20
12.3608433748
 10
54.181783085
 20
14.2557372066
 10
54.3852022411
 20
16.06930146
 10
54.8249572962
 20
17.7464319029
 10
55.4876865156
 20
19.2361697755
 10
56.3532532073
 20
20.4932501465
 10
57.3953575653
 20
21.4794772647
 10
58.5823357761
 20
22.1648851184
 10
59.8781221073
 20
22.5286479367
 10
61.243344747
 20
22.5597129704
 10
62.6365220961
 20
22.2571363242
 10
64.0153231658
 20
21.6301116364
 10
65.3378537834
 20
20.6976907348
 10
66.5639295252
 20
19.4882047568
 10
67.6562967003
 20
18.0384033217
 10
68.5817642849
 20
16.3923379124
 10
69.3122124146
 20
14.6000233936
 10
69.8254467926
 20
12.7159183348
 10
70.1058730522
 20
10.797270315
 10
70.1449705833
 20
8.9023764833
 10
69.9415514272
 20
7.0888122299
 10
69.501796372
 20
5.411681787
 10
68.8390671526
 20
3.9219439143
 10
67.9735004609
 20
2.6648635434
 10
66.9313961029
 20
1.6786364251
 10
65.7444178922
 20
0.9932285714
 10
64.448631561
 20
0.6294657532
 10
63.0834089213
 20
0.5984007195
 10
61.6902315722
 20
0.9009773657
 10
60.3114305025
 20
1.5280020535
  0
LWPOLYLINE
  5
43A
330
3FF
100
AcDbEntity
  8
0
  6
Continuous
 62
     7
370
    25
100
AcDbPolyline
 90
        8
 70
   128
 43
0.0
 10
24.9912084357
 20
-93.5194812531
 10
24.931407071
 20
-92.8338302415
 10
24.5375325231
 20
-91.1390711375
 10
23.7992048056
 20
-89.4831002128
 10
22.726788421
 20
-87.8891636692
 10
21.3353377448
 20
-86.3796368818
 10
19.6443856943
 20
-84.9757102979
 10
17.6776695297
 20
-83.6970919691
  0
LWPOLYLINE
  5
43B
330
3FF
100
AcDbEntity
  8
0
  6
Continuous
 62
     7
370
    25
100
AcDbPolyline
 90
        9
 70
   128
 43
0.0
 10
-189.4329076878
 20
28.5742839138
 10
-187.0802976907
 20
29.1964618843
 10
-184.7932502895
 20
29.6875240814
 10
-182.6355009799
 20
30.0337855713
 10
-180.6671819752
 20
30.2255967297
 10
-178.9431464399
 20
30.2576121585
 10
-177.5114398408
 20
30.1289396508
 10
-176.4119610142
 20
29.8431650553
 10
-175.6753502641
 20
29.4082523459
  0
LWPOLYLINE
  5
440
330
3FF
100
AcDbEntity
  8
0
  6
Continuous
 62
     7
370
    25
100
AcDbPolyline
 90
       11
 70
   128
 43
0.0
 10
3.7687452789
 20
-81.2680140524
 10
6.6677635861
 20
-81.6258641484
 10
9.6907593183
 20
-82.231464749
 10
12.5549971871
 20
-83.0550136465
 10
15.2135541116
 20
-84.0830191361
 10
17.6228765576
 20
-85.298640024
 10
19.7434940492
 20
-86.6819615266
 10
21.5406657893
 20
-88.2103215224
 10
22.9849497976
 20
-89.8586818116
 10
24.0526852405
 20
-91.6000383021
 10
24.7142986755
 20
-93.3596246511
  0
LWPOLYLINE
  5
45C
330
3FF
100
AcDbEntity
  8
0
  6
Continuous
 62
     8
370
    25
100
AcDbPolyline
 90
        6
 70
   128
 43
0.0
 10
-175.6753502641
 20
29.4082523459
 10
-176.7809218649
 20
28.2432313214
 10
-177.6002082296
 20
27.0454116641
 10
-178.1038331936
 20
25.8577421513
 10
-178.2737388828
 20
24.7228076187
 10
-178.1218589674
 20
23.7351967228
  0
LWPOLYLINE
  5
45F
330
3FF
100
AcDbEntity
  8
0
  6
Continuous
 62
     8
370
    25
100
AcDbPolyline
 90
       15
 70
   128
 43
0.0
 10
59.257935695
 20
21.258003895
 10
58.6249106569
 20
20.8498883284
 10
57.6535035142
 20
19.9394404872
 10
56.8400274112
 20
18.78128586
 10
56.2091994077
 20
17.4106143889
 10
55.7801868935
 20
15.8690732331
 10
55.5660251965
 20
14.2035013405
 10
55.5732215116
 20
12.4645062703
 10
55.8015571825
 20
10.7049265076
 10
56.2440943453
 20
8.9782259933
 10
56.8873867323
 20
7.3368696486
 10
57.7118882297
 20
5.8307292556
 10
58.6925467769
 20
4.5055681279
 10
59.79956556
 20
3.4016506158
 10
60.9993083736
 20
2.5525186944
  0
LWPOLYLINE
  5
460
330
3FF
100
AcDbEntity
  8
0
  6
Continuous
 62
     8
370
    25
100
AcDbPolyline
 90
       16
 70
   128
 43
0.0
 10
68.3076684535
 20
3.8921219512
 10
67.2978286001
 20
3.8629067562
 10
65.9730636995
 20
4.112586976
 10
64.6871126361
 20
4.6814427797
 10
63.480246085
 20
5.5516599533
 10
62.3902581215
 20
6.6959868897
 10
61.451282666
 20
8.0785879961
 10
60.692724551
 20
9.6561659172
 10
60.1383386833
 20
11.3793174292
 10
59.8054861382
 20
13.1940805445
 10
59.7045904824
 20
15.0436243789
 10
59.8388113512
 20
16.8700288595
 10
60.2039455014
 20
18.6160985426
 10
60.7885584396
 20
20.2271537382
 10
61.5743425035
 20
21.6527428526
 10
61.7019198297
 20
21.8389435137
  0
LINE
  5
465
330
3FF
100
AcDbEntity
  8
0
  6
Continuous
 62
     7
370
    25
100
AcDbLine
 10
139.3502884254
 20
-249.0237156151
 30
0.0
 11
139.3502884254
 21
-144.5064916937
 31
0.0
  0
LINE
  5
466
330
3FF
100
AcDbEntity
  8
0
  6
Continuous
 62
     7
370
    25
100
AcDbLine
 10
143.9211530689
 20
-136.5892873276
 30
0.0
 11
271.2003736825
 21
-63.1125572636
 31
0.0
  0
LINE
  5
467
330
3FF
100
AcDbEntity
  8
0
  6
Continuous
 62
     7
370
    25
100
AcDbLine
 10
179.4337203614
 20
-32.6560496421
 30
0.0
 11
54.4970683462
 21
-104.7804436396
 31
0.0
  0
LINE
  5
468
330
3FF
100
AcDbEntity
  8
0
  6
Continuous
 62
     7
370
    25
100
AcDbLine
 10
44.4978810199
 20
-104.7804436396
 30
0.0
 11
-179.4337203614
 21
24.4925181855
 31
0.0
  0
LINE
  5
469
330
3FF
100
AcDbEntity
  8
0
  6
Continuous
 62
     7
370
    25
100
AcDbLine
 10
94.4236783858
 20
-277.8462032817
 30
0.0
 11
136.850085257
 21
-253.353959927
 31
0.0
  0
LINE
  5
46A
330
3FF
100
AcDbEntity
  8
0
  6
Continuous
 62
     7
370
    25
100
AcDbLine
 10
-271.2003736825
 20
-69.6621347669
 30
0.0
 11
89.4240847227
 21
-277.8462032817
 31
0.0
  0
LINE
  5
46B
330
3FF
100
AcDbEntity
  8
0
  6
Continuous
 62
     7
370
    25
100
AcDbLine
 10
273.7005768509
 20
-58.7823129517
 30
0.0
 11
273.7005768509
 21
-57.1492313279
 31
0.0
  0
LINE
  5
46C
330
3FF
100
AcDbEntity
  8
0
  6
Continuous
 62
     7
370
    25
100
AcDbLine
 10
271.2003736825
 20
-52.818987016
 30
0.0
 11
-89.4240847227
 21
155.3650814988
 31
0.0
  0
LINE
  5
46D
330
3FF
100
AcDbEntity
  8
0
  6
Continuous
 62
     7
370
    25
100
AcDbLine
 10
-273.7005768509
 20
48.983823209
 30
0.0
 11
-273.7005768509
 21
-65.331890455
 31
0.0
  0
LINE
  5
46E
330
3FF
100
AcDbEntity
  8
0
  6
Continuous
 62
     7
370
    25
100
AcDbLine
 10
-94.4236783858
 20
155.3650814988
 30
0.0
 11
-271.2003736825
 21
53.314067521
 31
0.0
  0
LINE
  5
46F
330
3FF
100
AcDbEntity
  8
0
  6
Continuous
 62
     7
370
    25
100
AcDbLine
 10
95.4594154602
 20
-161.2412655853
 30
0.0
 11
95.4594154602
 21
-275.5569792493
 31
0.0
  0
LINE
  5
470
330
3FF
100
AcDbEntity
  8
0
  6
Continuous
 62
     7
370
    25
100
AcDbLine
 10
88.3883476483
 20
-275.5569792493
 30
0.0
 11
88.3883476483
 21
-161.2412655853
 31
0.0
  0
LINE
  5
471
330
3FF
100
AcDbEntity
  8
0
  6
Continuous
 62
     7
370
    25
100
AcDbLine
 10
-268.7005768509
 20
53.0665272685
 30
0.0
 11
91.9238815543
 21
-155.1175412463
 31
0.0
  0
LINE
  5
472
330
3FF
100
AcDbEntity
  8
0
  6
Continuous
 62
     7
370
    25
100
AcDbLine
 10
88.3883476483
 20
-161.2412655853
 30
0.0
 11
-272.2361107568
 21
46.9428029295
 31
0.0
  0
LINE
  5
473
330
3FF
100
AcDbEntity
  8
0
  6
Continuous
 62
     7
370
    25
100
AcDbLine
 10
91.9238815543
 20
-155.1175412463
 30
0.0
 11
268.7005768509
 21
-53.0665272685
 31
0.0
  0
LINE
  5
474
330
3FF
100
AcDbEntity
  8
0
  6
Continuous
 62
     7
370
    25
100
AcDbLine
 10
272.2361107568
 20
-59.1902516075
 30
0.0
 11
95.4594154602
 21
-161.2412655853
 31
0.0
  0
LINE
  5
475
330
3FF
100
AcDbEntity
  8
0
  6
Continuous
 62
     7
370
    25
100
AcDbLine
 10
137.8858223314
 20
-251.0647358946
 30
0.0
 11
137.8858223314
 21
-146.5475119732
 31
0.0
  0
LINE
  5
476
330
3FF
100
AcDbEntity
  8
0
  6
Continuous
 62
     7
370
    25
100
AcDbLine
 10
95.4594154602
 20
-275.5569792493
 30
0.0
 11
137.8858223314
 21
-251.0647358946
 31
0.0
  0
LINE
  5
477
330
3FF
100
AcDbEntity
  8
0
  6
Continuous
 62
     7
370
    25
100
AcDbLine
 10
272.2361107568
 20
-60.8233332312
 30
0.0
 11
272.2361107568
 21
-59.1902516075
 31
0.0
  0
LINE
  5
478
330
3FF
100
AcDbEntity
  8
0
  6
Continuous
 62
     7
370
    25
100
AcDbLine
 10
144.9568901432
 20
-134.3000632953
 30
0.0
 11
272.2361107568
 21
-60.8233332312
 31
0.0
  0
LINE
  5
479
330
3FF
100
AcDbEntity
  8
0
  6
Continuous
 62
     7
370
    25
100
AcDbLine
 10
-272.2361107568
 20
-67.3729107345
 30
0.0
 11
88.3883476483
 21
-275.5569792493
 31
0.0
  0
LINE
  5
47A
330
3FF
100
AcDbEntity
  8
0
  6
Continuous
 62
     7
370
    25
100
AcDbLine
 10
-272.2361107568
 20
46.9428029295
 30
0.0
 11
-272.2361107568
 21
-67.3729107345
 31
0.0
  0
LINE
  5
47B
330
3FF
100
AcDbEntity
  8
0
  6
Continuous
 62
     7
370
    25
100
AcDbLine
 10
268.7005768509
 20
-53.0665272685
 30
0.0
 11
-91.9238815543
 21
155.1175412463
 31
0.0
  0
LINE
  5
47C
330
3FF
100
AcDbEntity
  8
0
  6
Continuous
 62
     7
370
    25
100
AcDbLine
 10
-91.9238815543
 20
155.1175412463
 30
0.0
 11
-268.7005768509
 21
53.0665272685
 31
0.0
  0
LINE
  5
47D
330
3FF
100
AcDbEntity
  8
0
  6
Continuous
 62
     7
370
    25
100
AcDbLine
 10
-189.4329076878
 20
28.5742839138
 30
0.0
 11
-49.4974746831
 21
109.3572898728
 31
0.0
  0
LINE
  5
47E
330
3FF
100
AcDbEntity
  8
0
  6
Continuous
 62
     7
370
    25
100
AcDbLine
 10
49.4974746831
 20
-109.3572898728
 30
0.0
 11
-189.4329076878
 21
28.5742839138
 31
0.0
  0
LINE
  5
47F
330
3FF
100
AcDbEntity
  8
0
  6
Continuous
 62
     7
370
    25
100
AcDbLine
 10
189.4329076878
 20
-28.5742839138
 30
0.0
 11
49.4974746831
 21
-109.3572898728
 31
0.0
  0
LINE
  5
480
330
3FF
100
AcDbEntity
  8
0
  6
Continuous
 62
     7
370
    25
100
AcDbLine
 10
-49.4974746831
 20
109.3572898728
 30
0.0
 11
189.4329076878
 21
-28.5742839138
 31
0.0
  0
LINE
  5
481
330
3FF
100
AcDbEntity
  8
0
  6
Continuous
 62
     7
370
    25
100
AcDbLine
 10
-42.6186959712
 20
98.2781550315
 30
0.0
 11
-42.6186959712
 21
3.7827622309
 31
0.0
  0
LINE
  5
482
330
3FF
100
AcDbEntity
  8
0
  6
Continuous
 62
     7
370
    25
100
AcDbLine
 10
175.6753502641
 20
-27.7403154816
 30
0.0
 11
-42.6186959712
 21
98.2781550315
 31
0.0
  0
LINE
  5
483
330
3FF
100
AcDbEntity
  8
0
  6
Continuous
 62
     7
370
    25
100
AcDbLine
 10
65.592553461
 20
19.9236472454
 30
0.0
 11
63.5481194248
 21
8.8279053421
 31
0.0
  0
LINE
  5
484
330
3FF
100
AcDbEntity
  8
0
  6
Continuous
 62
     7
370
    25
100
AcDbLine
 10
13.7870500039
 20
-83.4961303793
 30
0.0
 11
10.7077120825
 21
-85.2737943227
 31
0.0
  0
LINE
  5
485
330
3FF
100
AcDbEntity
  8
0
  6
Continuous
 62
     7
370
    25
100
AcDbLine
 10
-56.3762533949
 20
98.2781550315
 30
0.0
 11
-175.6753502641
 21
29.4082523459
 31
0.0
  0
LINE
  5
486
330
3FF
100
AcDbEntity
  8
0
  6
Continuous
 62
     7
370
    25
100
AcDbLine
 10
-56.3762533949
 20
3.7827622309
 30
0.0
 11
-56.3762533949
 21
98.2781550315
 31
0.0
  0
LINE
  5
487
330
3FF
100
AcDbEntity
  8
0
  6
Continuous
 62
     7
370
    25
100
AcDbLine
 10
66.4117392943
 20
2.2981666028
 30
0.0
 11
66.5412181461
 21
2.3705106154
 31
0.0
  0
LINE
  5
488
330
3FF
100
AcDbEntity
  8
0
  6
Continuous
 62
     8
370
    25
100
AcDbLine
 10
171.8406701931
 20
-37.0394242015
 30
0.0
 11
175.6753502641
 21
-27.7403154816
 31
0.0
  0
LINE
  5
489
330
3FF
100
AcDbEntity
  8
0
  6
Continuous
 62
     8
370
    25
100
AcDbLine
 10
87.6549433928
 20
-85.6388098163
 30
0.0
 11
-49.4974746831
 21
-6.4624041783
 31
0.0
  0
LINE
  5
48A
330
3FF
100
AcDbEntity
  8
0
  6
Continuous
 62
     8
370
    25
100
AcDbLine
 10
-49.4974746831
 20
-6.4624041783
 30
0.0
 11
-87.6549433928
 21
-28.4902419887
 31
0.0
  0
LINE
  5
48B
330
3FF
100
AcDbEntity
  8
0
  6
Continuous
 62
     8
370
    25
100
AcDbLine
 10
-42.6186959712
 20
3.7827622309
 30
0.0
 11
99.9678685912
 21
-78.5307093995
 31
0.0
  0
LINE
  5
48C
330
3FF
100
AcDbEntity
  8
0
  6
Continuous
 62
     8
370
    25
100
AcDbLine
 10
-175.6753502641
 20
29.4082523459
 30
0.0
 11
-171.8406701931
 21
20.1091436261
 31
0.0
  0
LINE
  5
48D
330
3FF
100
AcDbEntity
  8
0
  6
Continuous
 62
     8
370
    25
100
AcDbLine
 10
-99.9678685912
 20
-21.3821415719
 30
0.0
 11
-56.3762533949
 21
3.7827622309
 31
0.0
  0
ARC
  5
48E
330
3FF
100
AcDbEntity
  8
0
  6
Continuous
 62
     7
370
    25
100
AcDbCircle
 10
49.4974746831
 20
-96.1199550158
 30
0.0
 40
10.00000000000007
100
AcDbArc
 50
240.3804156018
 51
299.8128860105
  0
ARC
  5
48F
330
3FF
100
AcDbEntity
  8
0
  6
Continuous
 62
     7
370
    25
100
AcDbCircle
 10
91.9238815543
 20
-273.5159589697
 30
0.0
 40
4.999999999999635
100
AcDbArc
 50
240.0026882663
 51
299.9973117337
  0
ARC
  5
490
330
3FF
100
AcDbEntity
  8
0
  6
Continuous
 62
     7
370
    25
100
AcDbCircle
 10
134.3502884254
 20
-249.0237156151
 30
0.0
 40
4.999999999999886
100
AcDbArc
 50
299.9973117337
 51
0.0
  0
ARC
  5
491
330
3FF
100
AcDbEntity
  8
0
  6
Continuous
 62
     7
370
    25
100
AcDbCircle
 10
268.7005768509
 20
-57.1492313279
 30
0.0
 40
4.999999999999957
100
AcDbArc
 50
0.0
 51
60.0026882664
  0
ARC
  5
492
330
3FF
100
AcDbEntity
  8
0
  6
Continuous
 62
     7
370
    25
100
AcDbCircle
 10
268.7005768509
 20
-58.7823129517
 30
0.0
 40
5.000000000000061
100
AcDbArc
 50
299.9973117337
 51
0.0
  0
ARC
  5
493
330
3FF
100
AcDbEntity
  8
0
  6
Continuous
 62
     7
370
    25
100
AcDbCircle
 10
-268.7005768509
 20
48.983823209
 30
0.0
 40
5.000000000000121
100
AcDbArc
 50
119.9973117337
 51
180.0
  0
ARC
  5
494
330
3FF
100
AcDbEntity
  8
0
  6
Continuous
 62
     7
370
    25
100
AcDbCircle
 10
-268.7005768509
 20
-65.331890455
 30
0.0
 40
4.999999999999943
100
AcDbArc
 50
180.0
 51
240.0026882664
  0
ARC
  5
495
330
3FF
100
AcDbEntity
  8
0
  6
Continuous
 62
     7
370
    25
100
AcDbCircle
 10
-91.9238815543
 20
151.0348371869
 30
0.0
 40
5.000000000000229
100
AcDbArc
 50
60.0026882664
 51
119.9973117336
  0
ARC
  5
496
330
3FF
100
AcDbEntity
  8
0
  6
Continuous
 62
     7
370
    25
100
AcDbCircle
 10
96.0644281552
 20
-161.5905698466
 30
0.0
 40
7.684024037860313
100
AcDbArc
 50
122.60547834
 51
177.3945215143
  0
ARC
  5
497
330
3FF
100
AcDbEntity
  8
0
  6
Continuous
 62
     7
370
    25
100
AcDbCircle
 10
87.7833349533
 20
-161.5905698466
 30
0.0
 40
7.684024037860227
100
AcDbArc
 50
2.6054784857
 51
57.39452166
  0
ARC
  5
498
330
3FF
100
AcDbEntity
  8
0
  6
Continuous
 62
     7
370
    25
100
AcDbCircle
 10
91.9238815543
 20
-154.4177101605
 30
0.0
 40
7.685109539558729
100
AcDbArc
 50
242.6096722366
 51
297.3903277634
  0
ARC
  5
499
330
3FF
100
AcDbEntity
  8
0
  6
Continuous
 62
     7
370
    25
100
AcDbCircle
 10
91.9238815543
 20
-268.7334238245
 30
0.0
 40
7.685109539558925
100
AcDbArc
 50
242.6096722366
 51
297.3903277634
  0
ARC
  5
49A
330
3FF
100
AcDbEntity
  8
0
  6
Continuous
 62
     7
370
    25
100
AcDbCircle
 10
-264.56003025
 20
46.5934986682
 30
0.0
 40
7.684024037860109
100
AcDbArc
 50
122.60547834
 51
177.3945215143
  0
ARC
  5
49B
330
3FF
100
AcDbEntity
  8
0
  6
Continuous
 62
     7
370
    25
100
AcDbCircle
 10
264.56003025
 20
-59.5395558688
 30
0.0
 40
7.684024037860338
100
AcDbArc
 50
2.6054784857
 51
57.39452166
  0
ARC
  5
49C
330
3FF
100
AcDbEntity
  8
0
  6
Continuous
 62
     7
370
    25
100
AcDbCircle
 10
153.2379833451
 20
-147.2461204959
 30
0.0
 40
15.36804807572048
100
AcDbArc
 50
122.60547834
 51
177.3945215143
  0
ARC
  5
49D
330
3FF
100
AcDbEntity
  8
0
  6
Continuous
 62
     7
370
    25
100
AcDbCircle
 10
-75.3724365144
 20
85.617119446
 30
0.0
 40
35.115656645852
100
AcDbArc
 50
21.1341269499
 51
42.536252863
  0
ARC
  5
49E
330
3FF
100
AcDbEntity
  8
0
  6
Continuous
 62
     7
370
    25
100
AcDbCircle
 10
-58.016446427
 20
6.6892257471
 30
0.0
 40
15.66966015165143
100
AcDbArc
 50
302.9331589656
 51
349.3106768009
  0
ARC
  5
49F
330
3FF
100
AcDbEntity
  8
0
  6
Continuous
 62
     7
370
    25
100
AcDbCircle
 10
0.6228629486
 20
-116.0322833969
 30
0.0
 40
36.55722954754858
100
AcDbArc
 50
62.1911351841
 51
89.9371740574
  0
ARC
  5
4A0
330
3FF
100
AcDbEntity
  8
0
  6
Continuous
 62
     7
370
    25
100
AcDbCircle
 10
-23.6225128517
 20
85.617119446
 30
0.0
 40
35.1156566458515
100
AcDbArc
 50
137.463747137
 51
158.8658730501
  0
ARC
  5
4A1
330
3FF
100
AcDbEntity
  8
0
  6
Continuous
 62
     7
370
    25
100
AcDbCircle
 10
-40.9785029392
 20
6.6892257471
 30
0.0
 40
15.66966015165123
100
AcDbArc
 50
190.6893231991
 51
237.0668410344
  0
ARC
  5
4A2
330
3FF
100
AcDbEntity
  8
0
  6
Continuous
 62
     7
370
    25
100
AcDbCircle
 10
-49.4974746831
 20
-25.1808471651
 30
0.0
 40
29.7692503400137
100
AcDbArc
 50
76.6399285893
 51
103.3600714107
  0
ARC
  5
4A3
330
3FF
100
AcDbEntity
  8
0
  6
Continuous
 62
     7
370
    25
100
AcDbCircle
 10
-49.4974746831
 20
69.3145456355
 30
0.0
 40
29.76925034001358
100
AcDbArc
 50
76.6399285893
 51
103.3600714107
  0
ARC
  5
4A4
330
3FF
100
AcDbEntity
  8
0
  6
Continuous
 62
     8
370
    25
100
AcDbCircle
 10
136.8478362615
 20
-144.2567626293
 30
0.0
 40
2.514944857877016
100
AcDbArc
 50
294.3762667794
 51
354.2867466872
  0
ARC
  5
4A5
330
3FF
100
AcDbEntity
  8
0
  6
Continuous
 62
     8
370
    25
100
AcDbCircle
 10
142.453400343
 20
-134.5463780887
 30
0.0
 40
2.515577897297992
100
AcDbArc
 50
305.7119710127
 51
5.6191649019
  0
ARC
  5
4A6
330
3FF
100
AcDbEntity
  8
0
  6
Continuous
 62
     8
370
    25
100
AcDbCircle
 10
136.848003113
 20
-248.7741837306
 30
0.0
 40
2.514696392468845
100
AcDbArc
 50
294.3746582936
 51
354.3052007488
  0
ARC
  5
4A7
330
3FF
100
AcDbEntity
  8
0
  6
Continuous
 62
     8
370
    25
100
AcDbCircle
 10
269.786101245
 20
-61.093766918
 30
0.0
 40
2.464889650016841
100
AcDbArc
 50
305.013332875
 51
6.2988475183
  0
ARC
  5
4A8
330
3FF
100
AcDbEntity
  8
0
  6
Continuous
 62
     8
370
    25
100
AcDbCircle
 10
67.1358132682
 20
-123.6119658392
 30
0.0
 40
22.67833271984863
100
AcDbArc
 50
123.8209526778
 51
141.0560930546
  0
ARC
  5
4A9
330
3FF
100
AcDbEntity
  8
0
  6
Continuous
 62
     8
370
    25
100
AcDbCircle
 10
32.5674655731
 20
-122.8404505869
 30
0.0
 40
21.64303193418845
100
AcDbArc
 50
38.5340260831
 51
56.6282650657
  0
ARC
  5
4AA
330
3FF
100
AcDbEntity
  8
0
  6
Continuous
 62
     8
370
    25
100
AcDbCircle
 10
201.5503095058
 20
-72.547030504
 30
0.0
 40
45.61177336509348
100
AcDbArc
 50
105.406405854
 51
119.0051168975
  0
ARC
  5
4AB
330
3FF
100
AcDbEntity
  8
0
  6
Continuous
 62
     8
370
    25
100
AcDbCircle
 10
-201.863741576
 20
-16.1662838089
 30
0.0
 40
46.43537478371584
100
AcDbArc
 50
61.1160340703
 51
74.4724431781
  0
ARC
  5
4AC
330
3FF
100
AcDbEntity
  8
0
  6
Continuous
 62
     8
370
    25
100
AcDbCircle
 10
90.8383571599
 20
-275.8274129362
 30
0.0
 40
2.464889649798594
100
AcDbArc
 50
173.7011524787
 51
234.986667128
  0
ARC
  5
4AD
330
3FF
100
AcDbEntity
  8
0
  6
Continuous
 62
     8
370
    25
100
AcDbCircle
 10
93.0809876807
 20
-275.8597993923
 30
0.0
 40
2.39762773195381
100
AcDbArc
 50
304.0563508298
 51
7.2558295636
  0
ARC
  5
4AE
330
3FF
100
AcDbEntity
  8
0
  6
Continuous
 62
     8
370
    25
100
AcDbCircle
 10
135.5073945519
 20
-251.3675560376
 30
0.0
 40
2.39762773203223
100
AcDbArc
 50
304.0563508309
 51
7.2558295624
  0
ARC
  5
4AF
330
3FF
100
AcDbEntity
  8
0
  6
Continuous
 62
     8
370
    25
100
AcDbCircle
 10
-269.7861012451
 20
-67.6433444213
 30
0.0
 40
2.464889649933157
100
AcDbArc
 50
173.7011524805
 51
234.9866671261
  0
ARC
  5
4B0
330
3FF
100
AcDbEntity
  8
0
  6
Continuous
 62
     8
370
    25
100
AcDbCircle
 10
271.1982915384
 20
-56.8996994434
 30
0.0
 40
2.514696392469176
100
AcDbArc
 50
294.3746582936
 51
354.3052007488
  0
ARC
  5
4B1
330
3FF
100
AcDbEntity
  8
0
  6
Continuous
 62
     8
370
    25
100
AcDbCircle
 10
270.1651771251
 20
-55.1109339141
 30
0.0
 40
2.514886179508871
100
AcDbArc
 50
65.6928809539
 51
125.6175774752
  0
ARC
  5
4B2
330
3FF
100
AcDbEntity
  8
0
  6
Continuous
 62
     8
370
    25
100
AcDbCircle
 10
271.1982915384
 20
-58.5327810672
 30
0.0
 40
2.514696392469238
100
AcDbArc
 50
294.3746582936
 51
354.3052007488
  0
ARC
  5
4B3
330
3FF
100
AcDbEntity
  8
0
  6
Continuous
 62
     8
370
    25
100
AcDbCircle
 10
-90.45928128
 20
153.0731346007
 30
0.0
 40
2.514886179508928
100
AcDbArc
 50
65.6928809539
 51
125.6175774752
  0
ARC
  5
4B4
330
3FF
100
AcDbEntity
  8
0
  6
Continuous
 62
     8
370
    25
100
AcDbCircle
 10
172.1929818405
 20
-32.6061459898
 30
0.0
 40
5.983577222069007
100
AcDbArc
 50
352.2467707381
 51
54.4095304265
  0
ARC
  5
4B5
330
3FF
100
AcDbEntity
  8
0
  6
Continuous
 62
     8
370
    25
100
AcDbCircle
 10
63.9250432034
 20
7.0965581107
 30
0.0
 40
5.404462832821949
100
AcDbArc
 50
237.2240493507
 51
297.3947872985
  0
ARC
  5
4B6
330
3FF
100
AcDbEntity
  8
0
  6
Continuous
 62
     8
370
    25
100
AcDbCircle
 10
-271.1982915384
 20
49.2333550935
 30
0.0
 40
2.514696392468914
100
AcDbArc
 50
185.6947992512
 51
245.6253417064
  0
ARC
  5
4B7
330
3FF
100
AcDbEntity
  8
0
  6
Continuous
 62
     8
370
    25
100
AcDbCircle
 10
-270.1651771251
 20
51.0221206229
 30
0.0
 40
2.514886179509245
100
AcDbArc
 50
54.3824225248
 51
114.3071190461
  0
ARC
  5
4B8
330
3FF
100
AcDbEntity
  8
0
  6
Continuous
 62
     8
370
    25
100
AcDbCircle
 10
-271.1982915384
 20
-65.0823585705
 30
0.0
 40
2.514696392468868
100
AcDbArc
 50
185.6947992512
 51
245.6253417064
  0
ARC
  5
4B9
330
3FF
100
AcDbEntity
  8
0
  6
Continuous
 62
     8
370
    25
100
AcDbCircle
 10
-93.3884818285
 20
153.0731346007
 30
0.0
 40
2.514886179509033
100
AcDbArc
 50
54.3824225248
 51
114.3071190461
  0
VIEWPORT
  5
604
330
3FF
100
AcDbEntity
  8
0
100
AcDbViewport
 10
0.0
 20
0.0
 30
0.0
 40
205.6
 41
156.0
 68
     1
 69
     1
 12
0.0
 22
0.0
 13
0.0
 23
0.0
 14
10.0
 24
10.0
 15
10.0
 25
10.0
 16
0.0
 26
0.0
 36
1.0
 17
0.0
 27
0.0
 37
0.0
 42
50.0
 43
0.0
 44
0.0
 45
402.4435797665
 50
0.0
 51
0.0
 72
   100
 90
   557152
  1

281
     0
 71
     1
 74
     0
110
0.0
120
0.0
130
0.0
111
1.0
121
0.0
131
0.0
112
0.0
122
1.0
132
0.0
 79
     0
146
0.0
  0
ENDBLK
  5
402
330
3FF
100
AcDbEntity
  8
0
100
AcDbBlockEnd
  0
BLOCK
  5
4BC
330
4BA
100
AcDbEntity
  8
0
100
AcDbBlockBegin
  2
*Paper_Space5
 70
     0
 10
0.0
 20
0.0
 30
0.0
  3
*Paper_Space5
  1

  0
SPLINE
  5
4BE
330
4BA
100
AcDbEntity
  8
0
  6
Continuous
 62
     7
370
    25
100
AcDbSpline
210
0.0
220
0.0
230
1.0
 70
     8
 71
     3
 72
    17
 73
    13
 74
     0
 42
0.000000001
 43
0.00000001
 40
0.0
 40
0.0
 40
0.0
 40
0.0
 40
0.0589144435775322
 40
0.1673471331678091
 40
0.2795182517608902
 40
0.3947375290399349
 40
0.5111637702897259
 40
0.6267442341853221
 40
0.7395506297847724
 40
0.8478918971812496
 40
0.9387793756250866
 40
1.0
 40
1.0
 40
1.0
 40
1.0
 10
200.1914207472883
 20
-105.473232698614
 30
0.0
 10
200.1942179608546
 20
-105.2849335786905
 30
0.0
 10
200.2021634771449
 20
-104.7500678312828
 30
0.0
 10
200.2959594380093
 20
-103.7216562710844
 30
0.0
 10
200.514516282195
 20
-102.4041153689133
 30
0.0
 10
200.8491737194766
 20
-101.0208704695876
 30
0.0
 10
201.2846480761248
 20
-99.65875322693726
 30
0.0
 10
201.7918392709031
 20
-98.40483409418604
 30
0.0
 10
202.3287920075836
 20
-97.33840826245734
 30
0.0
 10
202.8155863654763
 20
-96.56098790745865
 30
0.0
 10
203.1729152602948
 20
-96.10633265525509
 30
0.0
 10
203.2997263664769
 20
-95.97677213744437
 30
0.0
 10
203.3507654298421
 20
-95.92462648808232
 30
0.0
  0
SPLINE
  5
4C0
330
4BA
100
AcDbEntity
  8
0
  6
Continuous
 62
     7
370
    25
100
AcDbSpline
210
0.0
220
0.0
230
1.0
 70
     8
 71
     3
 72
    13
 73
     9
 74
     0
 42
0.000000001
 43
0.00000001
 40
0.0
 40
0.0
 40
0.0
 40
0.0
 40
0.1631405760936564
 40
0.3346636580913117
 40
0.5270028136910639
 40
0.709628732831273
 40
0.8814447045707937
 40
1.0
 40
1.0
 40
1.0
 40
1.0
 10
105.2305032375389
 20
-81.03766385231445
 30
0.0
 10
104.8807518036246
 20
-81.34347095270944
 30
0.0
 10
104.163277971552
 20
-81.97079816546696
 30
0.0
 10
102.7706916643435
 20
-82.73065877400443
 30
0.0
 10
101.1987433507423
 20
-83.25196944050326
 30
0.0
 10
99.57139219241051
 20
-83.44599125834063
 30
0.0
 10
98.17779598287747
 20
-83.37883991839016
 30
0.0
 10
97.42347772523819
 20
-83.1805963958778
 30
0.0
 10
97.11549813499143
 20
-83.09965581381698
 30
0.0
  0
SPLINE
  5
4CF
330
4BA
100
AcDbEntity
  8
0
  6
Continuous
 62
     7
370
    25
100
AcDbSpline
210
0.0
220
0.0
230
1.0
 70
     8
 71
     3
 72
    26
 73
    22
 74
     0
 42
0.000000001
 43
0.00000001
 40
0.0
 40
0.0
 40
0.0
 40
0.0
 40
0.0433969323001135
 40
0.0979559741362333
 40
0.1522818726162392
 40
0.2062246355682372
 40
0.259711262774573
 40
0.3128161296568471
 40
0.3657259003461728
 40
0.4186529509370986
 40
0.471718965975807
 40
0.5250673125303834
 40
0.5787739050754076
 40
0.6328491248023324
 40
0.6872482553660093
 40
0.7418876728301247
 40
0.7966658956383984
 40
0.8514876313894573
 40
0.9062858709574262
 40
0.9610298808016241
 40
1.0
 40
1.0
 40
1.0
 40
1.0
 10
35.18194401932152
 20
22.56086681787629
 30
0.0
 10
35.47215626885471
 20
22.84065115497283
 30
0.0
 10
36.12722615749788
 20
23.47218305909041
 30
0.0
 10
37.35654515018469
 20
24.14920180932824
 30
0.0
 10
38.78395072933623
 20
24.61514380459048
 30
0.0
 10
40.30177544715937
 20
24.77001069873232
 30
0.0
 10
41.85428210636383
 20
24.61829001912637
 30
0.0
 10
43.39442462157174
 20
24.16341448755653
 30
0.0
 10
44.87457923971984
 20
23.42103182542699
 30
0.0
 10
46.2500010450994
 20
22.41397297629961
 30
0.0
 10
47.47911686105326
 20
21.1725958930955
 30
0.0
 10
48.52447686606134
 20
19.73400018465227
 30
0.0
 10
49.35387268299565
 20
18.14092499001264
 30
0.0
 10
49.94097335582742
 20
16.44161785566739
 30
0.0
 10
50.26664064548672
 20
14.68876674551667
 30
0.0
 10
50.32038501505022
 20
12.93737876404571
 30
0.0
 10
50.10018101298392
 20
11.24387326205611
 30
0.0
 10
49.61601692695333
 20
9.658567565758947
 30
0.0
 10
48.87602903509406
 20
8.242069812588875
 30
0.0
 10
48.0239205994015
 20
7.1131732289334
 30
0.0
 10
47.34537237790909
 20
6.579190915953658
 30
0.0
 10
47.06320462643385
 20
6.35713950706536
 30
0.0
  0
SPLINE
  5
4D0
330
4BA
100
AcDbEntity
  8
0
  6
Continuous
 62
     7
370
    25
100
AcDbSpline
210
0.0
220
0.0
230
1.0
 70
     8
 71
     3
 72
    23
 73
    19
 74
     0
 42
0.000000001
 43
0.00000001
 40
0.0
 40
0.0
 40
0.0
 40
0.0
 40
0.0446885216460315
 40
0.116462183037254
 40
0.1859820992974804
 40
0.2520831515422611
 40
0.3155906849387053
 40
0.3777225235351238
 40
0.439400886352276
 40
0.5011227366048835
 40
0.5631680641184161
 40
0.6257143305130618
 40
0.6887937536357408
 40
0.7523500896878783
 40
0.8162930133230986
 40
0.880556299951958
 40
0.945163128342139
 40
1.0
 40
1.0
 40
1.0
 40
1.0
 10
48.92536367006931
 20
8.433974938114888
 30
0.0
 10
48.67716612692624
 20
8.296308082242993
 30
0.0
 10
48.03034169339763
 20
7.937536255022776
 30
0.0
 10
46.84582802229411
 20
7.6719251801452
 30
0.0
 10
45.4186530025278
 20
7.624894386380893
 30
0.0
 10
43.95282436441557
 20
7.889625521015006
 30
0.0
 10
42.50818917749213
 20
8.436959139265483
 30
0.0
 10
41.12212735791768
 20
9.250832242829881
 30
0.0
 10
39.83188219260314
 20
10.30884919815155
 30
0.0
 10
38.6751974613163
 20
11.58335113973792
 30
0.0
 10
37.68820347325619
 20
13.03850059616038
 30
0.0
 10
36.90226345851242
 20
14.63157890896703
 30
0.0
 10
36.34202225578092
 20
16.314032738645
 30
0.0
 10
36.024410705852
 20
18.03181319323694
 30
0.0
 10
35.95434299366553
 20
19.73104293981345
 30
0.0
 10
36.13400505343628
 20
21.35038550617674
 30
0.0
 10
36.50531067383898
 20
22.78607896619754
 30
0.0
 10
36.90183540617338
 20
23.57585698339579
 30
0.0
 10
37.08388080369073
 20
23.93844584953003
 30
0.0
  0
LWPOLYLINE
  5
4EC
330
4BA
100
AcDbEntity
  8
0
  6
Continuous
 62
     7
370
    25
100
AcDbPolyline
 90
        9
 70
   128
 43
0.0
 10
-195.6009959735
 20
-4.4626463406
 10
-193.7008064369
 20
-3.5856545519
 10
-191.8535714311
 20
-2.8525405947
 10
-190.1107697488
 20
-2.2837349076
 10
-188.5209698321
 20
-1.8950889823
 10
-187.1284762659
 20
-1.6974336133
 10
-185.9720950967
 20
-1.6962770655
 10
-185.0840523847
 20
-1.8916515696
 10
-184.489096127
 20
-2.278112424
  0
LWPOLYLINE
  5
4F1
330
4BA
100
AcDbEntity
  8
0
  6
Continuous
 62
     7
370
    25
100
AcDbPolyline
 90
       37
 70
   128
 43
0.0
 10
39.8059632069
 20
3.9065186116
 10
38.1351791053
 20
4.5270183251
 10
36.5522998225
 20
5.4514037049
 10
35.1054203446
 20
6.6515877691
 10
33.8385033725
 20
8.0911035321
 10
32.7900435371
 20
9.726212036
 10
31.9918977602
 20
11.5072313363
 10
31.4683172971
 20
13.3800460627
 10
31.2352108754
 20
15.2877516874
 10
31.2996613157
 20
17.1723835405
 10
31.6597103239
 20
18.9766780367
 10
32.3044179933
 20
20.6458126008
 10
33.2141952074
 20
22.1290714237
 10
34.361398846
 20
23.3813864366
 10
35.711171707
 20
24.3647066815
 10
37.2225016251
 20
25.0491544704
 10
38.8494676056
 20
25.4139332036
 10
40.5426351102
 20
25.4479592638
 10
42.2505581013
 20
25.1501987865
 10
43.921342203
 20
24.5296990729
 10
45.5042214857
 20
23.6053136931
 10
46.9511009636
 20
22.4051296289
 10
48.2180179357
 20
20.9656138659
 10
49.2664777711
 20
19.330505362
 10
50.064623548
 20
17.5494860617
 10
50.5882040111
 20
15.6766713353
 10
50.8213104328
 20
13.7689657106
 10
50.7568599926
 20
11.8843338575
 10
50.3968109843
 20
10.0800393613
 10
49.752103315
 20
8.4109047972
 10
48.8423261009
 20
6.9276459743
 10
47.6951224623
 20
5.6753309614
 10
46.3453496012
 20
4.6920107165
 10
44.8340196831
 20
4.0075629276
 10
43.2070537027
 20
3.6427841944
 10
41.513886198
 20
3.6087581342
 10
39.8059632069
 20
3.9065186116
  0
LWPOLYLINE
  5
4F3
330
4BA
100
AcDbEntity
  8
0
  6
Continuous
 62
     7
370
    25
100
AcDbPolyline
 90
        9
 70
   128
 43
0.0
 10
180.4254634227
 20
2.4613291269
 10
181.2379957691
 20
3.071909921
 10
182.4507965744
 20
3.6018099915
 10
184.0300674747
 20
4.0362620697
 10
185.9317973078
 20
4.3631588339
 10
188.1029886179
 20
4.5733903166
 10
190.4831345897
 20
4.6610977814
 10
193.0059052542
 20
4.6238369946
 10
195.6009959735
 20
4.4626463406
  0
LWPOLYLINE
  5
4F4
330
4BA
100
AcDbEntity
  8
0
  6
Continuous
 62
     7
370
    25
100
AcDbPolyline
 90
        9
 70
   128
 43
0.0
 10
-103.2426378459
 20
85.6819425682
 10
-101.4239165992
 20
84.6435537064
 10
-99.655879523
 20
83.5146648902
 10
-97.9877983199
 20
82.3267360222
 10
-96.4661591199
 20
81.1128723346
 10
-95.1333670031
 20
79.9069018119
 10
-94.0265642547
 20
78.7424324716
 10
-93.176595282
 20
77.6519157752
 10
-92.6071470423
 20
76.6657422701
  0
LWPOLYLINE
  5
4F7
330
4BA
100
AcDbEntity
  8
0
  6
Continuous
 62
     7
370
    25
100
AcDbPolyline
 90
        3
 70
   128
 43
0.0
 10
47.051593161
 20
6.3042247508
 10
47.4716230495
 20
6.6550228901
 10
47.717269834
 20
6.8848244916
  0
LWPOLYLINE
  5
509
330
4BA
100
AcDbEntity
  8
0
  6
Continuous
 62
     8
370
    25
100
AcDbPolyline
 90
        7
 70
   128
 43
0.0
 10
185.408843484
 20
-2.7842061046
 10
185.334205317
 20
-2.1824585382
 10
184.9397322572
 20
-1.2780927066
 10
184.2206096843
 20
-0.3273446302
 10
183.2026223105
 20
0.6356958619
 10
181.9222708834
 20
1.5764981864
 10
180.4254634227
 20
2.4613291269
  0
LWPOLYLINE
  5
512
330
4BA
100
AcDbEntity
  8
0
  6
Continuous
 62
     8
370
    25
100
AcDbPolyline
 90
        7
 70
   128
 43
0.0
 10
-288.863544644
 20
0.0688407904
 10
-288.8367889376
 20
-0.1972107486
 10
-288.6404522715
 20
-0.6918049772
 10
-288.2605417242
 20
-1.1571680155
 10
-287.711657045
 20
-1.5754162229
 10
-287.0148915642
 20
-1.9304765555
 10
-286.1970215887
 20
-2.2087042437
  0
LWPOLYLINE
  5
514
330
4BA
100
AcDbEntity
  8
0
  6
Continuous
 62
     8
370
    25
100
AcDbPolyline
 90
        7
 70
   128
 43
0.0
 10
-288.863544644
 20
-119.9345813079
 10
-288.8367889376
 20
-120.2006328469
 10
-288.6404522715
 20
-120.6952270755
 10
-288.2605417242
 20
-121.1605901138
 10
-287.711657045
 20
-121.5788383212
 10
-287.0148915642
 20
-121.9338986538
 10
-286.1970215887
 20
-122.212126342
  0
LWPOLYLINE
  5
518
330
4BA
100
AcDbEntity
  8
0
  6
Continuous
 62
     8
370
    25
100
AcDbPolyline
 90
       18
 70
   128
 43
0.0
 10
48.9748512322
 20
8.3528411436
 10
48.8521116952
 20
8.2755775031
 10
47.4070583481
 20
7.5728308227
 10
45.8666060506
 20
7.1835424036
 10
44.2789954053
 20
7.1199031509
 10
42.6939438196
 20
7.3839059832
 10
41.1610885616
 20
7.9672834224
 10
39.7284323261
 20
8.8517664967
 10
38.4408399885
 20
10.00965685
 10
37.3386336218
 20
11.4046941395
 10
36.4563297766
 20
12.9931915597
 10
35.8215585647
 20
14.7254039332
 10
35.4541983983
 20
16.5470855239
 10
35.3657534804
 20
18.4011887894
 10
35.5589935404
 20
20.2296508743
 10
36.0278670979
 20
21.9752118991
 10
36.7576909699
 20
23.583208103
 10
37.0597721653
 20
24.0868792257
  0
LINE
  5
519
330
4BA
100
AcDbEntity
  8
0
  6
Continuous
 62
     7
370
    25
100
AcDbLine
 10
200.1914207473
 20
-215.1906471885
 30
0.0
 11
200.1914207473
 21
-105.4732326986
 31
0.0
  0
LINE
  5
51A
330
4BA
100
AcDbEntity
  8
0
  6
Continuous
 62
     7
370
    25
100
AcDbLine
 10
186.5799441105
 20
-1.6411759913
 30
0.0
 11
105.2789081224
 21
-80.9934795142
 31
0.0
  0
LINE
  5
51B
330
4BA
100
AcDbEntity
  8
0
  6
Continuous
 62
     7
370
    25
100
AcDbLine
 10
97.0988198163
 20
-83.1166514853
 30
0.0
 11
-186.8345260271
 21
-5.9496520408
 31
0.0
  0
LINE
  5
51C
330
4BA
100
AcDbEntity
  8
0
  6
Continuous
 62
     7
370
    25
100
AcDbLine
 10
203.3507654298
 20
-95.9246264881
 30
0.0
 11
287.3559354373
 21
-13.9330052633
 31
0.0
  0
LINE
  5
51D
330
4BA
100
AcDbEntity
  8
0
  6
Continuous
 62
     7
370
    25
100
AcDbLine
 10
-285.1748706024
 20
-124.7595605028
 30
0.0
 11
165.8783714531
 21
-247.3461667916
 31
0.0
  0
LINE
  5
51E
330
4BA
100
AcDbEntity
  8
0
  6
Continuous
 62
     7
370
    25
100
AcDbLine
 10
170.6820882047
 20
-246.0993444613
 30
0.0
 11
198.6838115405
 21
-218.768804053
 31
0.0
  0
LINE
  5
51F
330
4BA
100
AcDbEntity
  8
0
  6
Continuous
 62
     7
370
    25
100
AcDbLine
 10
285.1748706024
 20
-3.8155346025
 30
0.0
 11
-165.8783714531
 21
118.7710716863
 31
0.0
  0
LINE
  5
520
330
4BA
100
AcDbEntity
  8
0
  6
Continuous
 62
     7
370
    25
100
AcDbLine
 10
288.863544644
 20
-10.3548483988
 30
0.0
 11
288.863544644
 21
-8.6405137974
 31
0.0
  0
LINE
  5
521
330
4BA
100
AcDbEntity
  8
0
  6
Continuous
 62
     7
370
    25
100
AcDbLine
 10
-288.863544644
 20
0.0688407904
 30
0.0
 11
-288.863544644
 21
-119.9345813079
 31
0.0
  0
LINE
  5
522
330
4BA
100
AcDbEntity
  8
0
  6
Continuous
 62
     7
370
    25
100
AcDbLine
 10
-170.6820882047
 20
117.524249356
 30
0.0
 11
-287.3559354373
 21
3.6469976549
 31
0.0
  0
LINE
  5
523
330
4BA
100
AcDbEntity
  8
0
  6
Continuous
 62
     7
370
    25
100
AcDbLine
 10
-283.863544644
 20
4.3546772939
 30
0.0
 11
167.1896974115
 21
-118.2319289949
 31
0.0
  0
LINE
  5
524
330
4BA
100
AcDbEntity
  8
0
  6
Continuous
 62
     7
370
    25
100
AcDbLine
 10
164.8562204668
 20
-124.7953105325
 30
0.0
 11
-286.1970215887
 21
-2.2087042437
 31
0.0
  0
LINE
  5
525
330
4BA
100
AcDbEntity
  8
0
  6
Continuous
 62
     7
370
    25
100
AcDbLine
 10
171.6117880199
 20
-123.7195949719
 30
0.0
 11
171.6117880199
 21
-243.7230170702
 31
0.0
  0
LINE
  5
526
330
4BA
100
AcDbEntity
  8
0
  6
Continuous
 62
     7
370
    25
100
AcDbLine
 10
164.8562204668
 20
-244.7987326308
 30
0.0
 11
164.8562204668
 21
-124.7953105325
 31
0.0
  0
LINE
  5
527
330
4BA
100
AcDbEntity
  8
0
  6
Continuous
 62
     7
370
    25
100
AcDbLine
 10
167.1896974115
 20
-118.2319289949
 30
0.0
 11
283.863544644
 21
-4.3546772939
 31
0.0
  0
LINE
  5
528
330
4BA
100
AcDbEntity
  8
0
  6
Continuous
 62
     7
370
    25
100
AcDbLine
 10
288.2856352524
 20
-9.8423432708
 30
0.0
 11
171.6117880199
 21
-123.7195949719
 31
0.0
  0
LINE
  5
529
330
4BA
100
AcDbEntity
  8
0
  6
Continuous
 62
     7
370
    25
100
AcDbLine
 10
-286.1970215887
 20
-122.212126342
 30
0.0
 11
164.8562204668
 21
-244.7987326308
 31
0.0
  0
LINE
  5
52A
330
4BA
100
AcDbEntity
  8
0
  6
Continuous
 62
     7
370
    25
100
AcDbLine
 10
-286.1970215887
 20
-2.2087042437
 30
0.0
 11
-286.1970215887
 21
-122.212126342
 31
0.0
  0
LINE
  5
52B
330
4BA
100
AcDbEntity
  8
0
  6
Continuous
 62
     7
370
    25
100
AcDbLine
 10
283.863544644
 20
-4.3546772939
 30
0.0
 11
-167.1896974115
 21
118.2319289949
 31
0.0
  0
LINE
  5
52C
330
4BA
100
AcDbEntity
  8
0
  6
Continuous
 62
     7
370
    25
100
AcDbLine
 10
-167.1896974115
 20
118.2319289949
 30
0.0
 11
-283.863544644
 21
4.3546772939
 31
0.0
  0
LINE
  5
52D
330
4BA
100
AcDbEntity
  8
0
  6
Continuous
 62
     7
370
    25
100
AcDbLine
 10
-195.6009959735
 20
-4.4626463406
 30
0.0
 11
-103.2426378459
 21
85.6819425682
 31
0.0
  0
LINE
  5
52E
330
4BA
100
AcDbEntity
  8
0
  6
Continuous
 62
     7
370
    25
100
AcDbLine
 10
103.2426378459
 20
-85.6819425682
 30
0.0
 11
-195.6009959735
 21
-4.4626463406
 31
0.0
  0
LINE
  5
52F
330
4BA
100
AcDbEntity
  8
0
  6
Continuous
 62
     7
370
    25
100
AcDbLine
 10
195.6009959735
 20
4.4626463406
 30
0.0
 11
103.2426378459
 21
-85.6819425682
 31
0.0
  0
LINE
  5
530
330
4BA
100
AcDbEntity
  8
0
  6
Continuous
 62
     7
370
    25
100
AcDbLine
 10
-103.2426378459
 20
85.6819425682
 30
0.0
 11
195.6009959735
 21
4.4626463406
 31
0.0
  0
LINE
  5
531
330
4BA
100
AcDbEntity
  8
0
  6
Continuous
 62
     7
370
    25
100
AcDbLine
 10
199.6135113557
 20
-216.3924766619
 30
0.0
 11
199.6135113557
 21
-106.675062172
 31
0.0
  0
LINE
  5
532
330
4BA
100
AcDbEntity
  8
0
  6
Continuous
 62
     7
370
    25
100
AcDbLine
 10
171.6117880199
 20
-243.7230170702
 30
0.0
 11
199.6135113557
 21
-216.3924766619
 31
0.0
  0
LINE
  5
533
330
4BA
100
AcDbEntity
  8
0
  6
Continuous
 62
     7
370
    25
100
AcDbLine
 10
288.2856352524
 20
-11.5566778722
 30
0.0
 11
288.2856352524
 21
-9.8423432708
 31
0.0
  0
LINE
  5
534
330
4BA
100
AcDbEntity
  8
0
  6
Continuous
 62
     7
370
    25
100
AcDbLine
 10
204.280465245
 20
-93.548299097
 30
0.0
 11
288.2856352524
 21
-11.5566778722
 31
0.0
  0
LINE
  5
535
330
4BA
100
AcDbEntity
  8
0
  6
Continuous
 62
     7
370
    25
100
AcDbLine
 10
-105.7508632409
 20
74.5728167049
 30
0.0
 11
-184.489096127
 21
-2.278112424
 31
0.0
  0
LINE
  5
536
330
4BA
100
AcDbEntity
  8
0
  6
Continuous
 62
     7
370
    25
100
AcDbLine
 10
-92.6071470423
 20
76.6657422701
 30
0.0
 11
-83.3103986276
 21
-18.9446219277
 31
0.0
  0
LINE
  5
537
330
4BA
100
AcDbEntity
  8
0
  6
Continuous
 62
     7
370
    25
100
AcDbLine
 10
180.4254634227
 20
2.4613291269
 30
0.0
 11
-92.6071470423
 21
76.6657422701
 31
0.0
  0
LINE
  5
538
330
4BA
100
AcDbEntity
  8
0
  6
Continuous
 62
     7
370
    25
100
AcDbLine
 10
-96.4541148262
 20
-21.0375474929
 30
0.0
 11
-105.7508632409
 21
74.5728167049
 31
0.0
  0
LINE
  5
539
330
4BA
100
AcDbEntity
  8
0
  6
Continuous
 62
     8
370
    25
100
AcDbLine
 10
103.8744816553
 20
-82.0688650793
 30
0.0
 11
-87.8504403747
 21
-29.9621394396
 31
0.0
  0
LINE
  5
53A
330
4BA
100
AcDbEntity
  8
0
  6
Continuous
 62
     8
370
    25
100
AcDbLine
 10
-87.8504403747
 20
-29.9621394396
 30
0.0
 11
-90.1659113954
 21
-32.2221101398
 31
0.0
  0
LINE
  5
53B
330
4BA
100
AcDbEntity
  8
0
  6
Continuous
 62
     8
370
    25
100
AcDbLine
 10
174.9542271912
 20
-12.9882321074
 30
0.0
 11
180.4254634227
 21
2.4613291269
 31
0.0
  0
LINE
  5
53C
330
4BA
100
AcDbEntity
  8
0
  6
Continuous
 62
     8
370
    25
100
AcDbLine
 10
-184.489096127
 20
-2.278112424
 30
0.0
 11
-182.5598753378
 21
-7.1114105034
 31
0.0
  0
LINE
  5
53D
330
4BA
100
AcDbEntity
  8
0
  6
Continuous
 62
     8
370
    25
100
AcDbLine
 10
-83.3103986276
 20
-18.9446219277
 30
0.0
 11
113.9295293399
 21
-72.5502080089
 31
0.0
  0
LINE
  5
53E
330
4BA
100
AcDbEntity
  8
0
  6
Continuous
 62
     8
370
    25
100
AcDbLine
 10
-104.0478747328
 20
-28.4492899592
 30
0.0
 11
-96.4541148262
 21
-21.0375474929
 31
0.0
  0
ARC
  5
53F
330
4BA
100
AcDbEntity
  8
0
  6
Continuous
 62
     7
370
    25
100
AcDbCircle
 10
167.1896974115
 20
-242.5211875967
 30
0.0
 40
4.999999999999827
100
AcDbArc
 50
254.7954868413
 51
314.305033619
  0
ARC
  5
540
330
4BA
100
AcDbEntity
  8
0
  6
Continuous
 62
     7
370
    25
100
AcDbCircle
 10
195.1914207473
 20
-215.1906471885
 30
0.0
 40
4.999999999999943
100
AcDbArc
 50
314.305033619
 51
0.0
  0
ARC
  5
541
330
4BA
100
AcDbEntity
  8
0
  6
Continuous
 62
     7
370
    25
100
AcDbCircle
 10
283.863544644
 20
-8.6405137974
 30
0.0
 40
5.000000000000183
100
AcDbArc
 50
0.0
 51
74.7954868413
  0
ARC
  5
542
330
4BA
100
AcDbEntity
  8
0
  6
Continuous
 62
     7
370
    25
100
AcDbCircle
 10
283.863544644
 20
-10.3548483988
 30
0.0
 40
5.0
100
AcDbArc
 50
314.305033619
 51
0.0
  0
ARC
  5
543
330
4BA
100
AcDbEntity
  8
0
  6
Continuous
 62
     7
370
    25
100
AcDbCircle
 10
-283.863544644
 20
0.0688407904
 30
0.0
 40
5.000000000000455
100
AcDbArc
 50
134.305033619
 51
180.0
  0
ARC
  5
544
330
4BA
100
AcDbEntity
  8
0
  6
Continuous
 62
     7
370
    25
100
AcDbCircle
 10
-283.863544644
 20
-119.9345813079
 30
0.0
 40
5.000000000000172
100
AcDbArc
 50
180.0
 51
254.7954868413
  0
ARC
  5
545
330
4BA
100
AcDbEntity
  8
0
  6
Continuous
 62
     7
370
    25
100
AcDbCircle
 10
-167.1896974115
 20
113.9460924914
 30
0.0
 40
4.99999999999979
100
AcDbArc
 50
74.7954868413
 51
134.305033619
  0
ARC
  5
546
330
4BA
100
AcDbEntity
  8
0
  6
Continuous
 62
     7
370
    25
100
AcDbCircle
 10
175.0809977087
 20
-124.7340213984
 30
0.0
 40
10.22496092917809
100
AcDbArc
 50
140.5129436103
 51
180.3434369839
  0
ARC
  5
547
330
4BA
100
AcDbEntity
  8
0
  6
Continuous
 62
     7
370
    25
100
AcDbCircle
 10
165.5499270457
 20
-124.0788400279
 30
0.0
 40
6.072496643082538
100
AcDbArc
 50
3.391562315
 51
74.3338098233
  0
ARC
  5
548
330
4BA
100
AcDbEntity
  8
0
  6
Continuous
 62
     7
370
    25
100
AcDbCircle
 10
167.1481870653
 20
-117.4384463483
 30
0.0
 40
7.705618827393974
100
AcDbArc
 50
252.6960345908
 51
305.398914916
  0
ARC
  5
549
330
4BA
100
AcDbEntity
  8
0
  6
Continuous
 62
     7
370
    25
100
AcDbCircle
 10
-275.9722443468
 20
-2.1474151096
 30
0.0
 40
10.22496092917802
100
AcDbArc
 50
140.5129436103
 51
180.3434369839
  0
ARC
  5
54A
330
4BA
100
AcDbEntity
  8
0
  6
Continuous
 62
     7
370
    25
100
AcDbCircle
 10
167.1481870653
 20
-237.4418684466
 30
0.0
 40
7.705618827393778
100
AcDbArc
 50
252.6960345908
 51
305.398914916
  0
ARC
  5
54B
330
4BA
100
AcDbEntity
  8
0
  6
Continuous
 62
     7
370
    25
100
AcDbCircle
 10
282.2237742782
 20
-10.2015883269
 30
0.0
 40
6.072496643082586
100
AcDbArc
 50
3.391562315
 51
74.3338098233
  0
ARC
  5
54C
330
4BA
100
AcDbEntity
  8
0
  6
Continuous
 62
     7
370
    25
100
AcDbCircle
 10
220.0630658394
 20
-106.5524839038
 30
0.0
 40
20.44992185835548
100
AcDbArc
 50
140.5129436103
 51
180.3434369839
  0
ARC
  5
54D
330
4BA
100
AcDbEntity
  8
0
  6
Continuous
 62
     7
370
    25
100
AcDbCircle
 10
-45.0542379179
 20
66.7064119075
 30
0.0
 40
61.20425352901511
100
AcDbArc
 50
161.9385913895
 51
172.6155130458
  0
ARC
  5
54E
330
4BA
100
AcDbEntity
  8
0
  6
Continuous
 62
     7
370
    25
100
AcDbCircle
 10
-103.0530164664
 20
-17.2533631146
 30
0.0
 40
19.81492658332032
100
AcDbArc
 50
320.1056573513
 51
355.1036893453
  0
ARC
  5
54F
330
4BA
100
AcDbEntity
  8
0
  6
Continuous
 62
     7
370
    25
100
AcDbCircle
 10
-84.3401245886
 20
-17.9686059956
 30
0.0
 40
12.49668601641166
100
AcDbArc
 50
194.216137789
 51
253.6860889851
  0
ARC
  5
550
330
4BA
100
AcDbEntity
  8
0
  6
Continuous
 62
     7
370
    25
100
AcDbCircle
 10
-84.701359948
 20
-52.5274720761
 30
0.0
 40
33.61164377831224
100
AcDbArc
 50
87.628233273
 51
110.4667162338
  0
ARC
  5
551
330
4BA
100
AcDbEntity
  8
0
  6
Continuous
 62
     7
370
    25
100
AcDbCircle
 10
-93.9981083627
 20
43.0828921218
 30
0.0
 40
33.61164377831194
100
AcDbArc
 50
87.628233273
 51
110.4667162338
  0
ARC
  5
552
330
4BA
100
AcDbEntity
  8
0
  6
Continuous
 62
     8
370
    25
100
AcDbCircle
 10
198.5300475283
 20
-105.4137542175
 30
0.0
 40
1.662766255793692
100
AcDbArc
 50
310.6625862683
 51
357.6267790431
  0
ARC
  5
553
330
4BA
100
AcDbEntity
  8
0
  6
Continuous
 62
     8
370
    25
100
AcDbCircle
 10
201.0488798288
 20
-93.6549648059
 30
0.0
 40
3.233345307218818
100
AcDbArc
 50
316.0693361739
 51
1.8904890819
  0
ARC
  5
554
330
4BA
100
AcDbEntity
  8
0
  6
Continuous
 62
     8
370
    25
100
AcDbCircle
 10
198.5321416036
 20
-215.1326303667
 30
0.0
 40
1.660293115197398
100
AcDbArc
 50
310.6406362013
 51
357.9974645044
  0
ARC
  5
555
330
4BA
100
AcDbEntity
  8
0
  6
Continuous
 62
     8
370
    25
100
AcDbCircle
 10
117.5545823923
 20
-89.1187209223
 30
0.0
 40
14.7188043724277
100
AcDbArc
 50
146.4586300655
 51
166.4970306834
  0
ARC
  5
556
330
4BA
100
AcDbEntity
  8
0
  6
Continuous
 62
     8
370
    25
100
AcDbCircle
 10
88.8102863539
 20
-111.6050172144
 30
0.0
 40
29.669825896001
100
AcDbArc
 50
60.89366696
 51
73.7561548832
  0
ARC
  5
557
330
4BA
100
AcDbEntity
  8
0
  6
Continuous
 62
     8
370
    25
100
AcDbCircle
 10
210.9400943745
 20
-27.9257167773
 30
0.0
 40
35.8370479422267
100
AcDbArc
 50
115.3421912236
 51
132.8239291608
  0
ARC
  5
558
330
4BA
100
AcDbEntity
  8
0
  6
Continuous
 62
     8
370
    25
100
AcDbCircle
 10
-199.5340221792
 20
-54.2337041509
 30
0.0
 40
49.92621446381594
100
AcDbArc
 50
75.264020977
 51
85.4817417573
  0
ARC
  5
559
330
4BA
100
AcDbEntity
  8
0
  6
Continuous
 62
     8
370
    25
100
AcDbCircle
 10
285.0590356045
 20
-11.6643514667
 30
0.0
 40
3.22839571466965
100
AcDbArc
 50
315.3544713609
 51
1.9112857848
  0
ARC
  5
55A
330
4BA
100
AcDbEntity
  8
0
  6
Continuous
 62
     8
370
    25
100
AcDbCircle
 10
167.3657515151
 20
-245.2705748882
 30
0.0
 40
2.553503710247592
100
AcDbArc
 50
169.35156043
 51
234.3744174932
  0
ARC
  5
55B
330
4BA
100
AcDbEntity
  8
0
  6
Continuous
 62
     8
370
    25
100
AcDbCircle
 10
168.385188372
 20
-243.8306906647
 30
0.0
 40
3.228395714669625
100
AcDbArc
 50
315.3544713609
 51
1.9112857848
  0
ARC
  5
55C
330
4BA
100
AcDbEntity
  8
0
  6
Continuous
 62
     8
370
    25
100
AcDbCircle
 10
-283.6874905404
 20
-122.6839685994
 30
0.0
 40
2.55350371024762
100
AcDbArc
 50
169.35156043
 51
234.3744174932
  0
ARC
  5
55D
330
4BA
100
AcDbEntity
  8
0
  6
Continuous
 62
     8
370
    25
100
AcDbCircle
 10
196.3869117078
 20
-216.5001502564
 30
0.0
 40
3.228395714669569
100
AcDbArc
 50
315.3544713609
 51
1.9112857848
  0
ARC
  5
55E
330
4BA
100
AcDbEntity
  8
0
  6
Continuous
 62
     8
370
    25
100
AcDbCircle
 10
-180.9742558931
 20
-4.9576965915
 30
0.0
 40
4.41975940298749
100
AcDbArc
 50
142.6794432496
 51
198.2000846525
  0
ARC
  5
55F
330
4BA
100
AcDbEntity
  8
0
  6
Continuous
 62
     8
370
    25
100
AcDbCircle
 10
287.2042655003
 20
-8.5824969756
 30
0.0
 40
1.660293115196669
100
AcDbArc
 50
310.6406362013
 51
357.9974645044
  0
ARC
  5
560
330
4BA
100
AcDbEntity
  8
0
  6
Continuous
 62
     8
370
    25
100
AcDbCircle
 10
284.9570838868
 20
-5.1501273613
 30
0.0
 40
1.352245867205864
100
AcDbArc
 50
80.7318299956
 51
143.9675277132
  0
ARC
  5
561
330
4BA
100
AcDbEntity
  8
0
  6
Continuous
 62
     8
370
    25
100
AcDbCircle
 10
-166.0961581687
 20
117.4364789275
 30
0.0
 40
1.35224586720591
100
AcDbArc
 50
80.7318299956
 51
143.9675277132
  0
ARC
  5
562
330
4BA
100
AcDbEntity
  8
0
  6
Continuous
 62
     8
370
    25
100
AcDbCircle
 10
287.2042655003
 20
-10.296831577
 30
0.0
 40
1.660293115196667
100
AcDbArc
 50
310.6406362013
 51
357.9974645044
  0
ARC
  5
563
330
4BA
100
AcDbEntity
  8
0
  6
Continuous
 62
     8
370
    25
100
AcDbCircle
 10
-285.0049972166
 20
1.0164386666
 30
0.0
 40
3.527995338413635
100
AcDbArc
 50
71.12277008
 51
131.7872519911
  0
ARC
  5
564
330
4BA
100
AcDbEntity
  8
0
  6
Continuous
 62
     8
370
    25
100
AcDbCircle
 10
-168.3311499841
 20
114.8936903677
 30
0.0
 40
3.527995338413645
100
AcDbArc
 50
71.12277008
 51
131.7872519911
  0
ARC
  5
565
330
4BA
100
AcDbEntity
  8
0
  6
Continuous
 62
     8
370
    25
100
AcDbCircle
 10
42.375547408
 20
12.365482541
 30
0.0
 40
7.65534126499641
100
AcDbArc
 50
253.9573123669
 51
307.6489143811
  0
ARC
  5
566
330
4BA
100
AcDbEntity
  8
0
  6
Continuous
 62
     8
370
    25
100
AcDbCircle
 10
43.4901537571
 20
15.4695063724
 30
0.0
 40
10.94858725457019
100
AcDbArc
 50
139.5321506154
 51
252.8405285298
  0
VIEWPORT
  5
606
330
4BA
100
AcDbEntity
  8
0
100
AcDbViewport
 10
0.0
 20
0.0
 30
0.0
 40
205.6
 41
156.0
 68
     1
 69
     1
 12
0.0
 22
0.0
 13
0.0
 23
0.0
 14
10.0
 24
10.0
 15
10.0
 25
10.0
 16
0.0
 26
0.0
 36
1.0
 17
0.0
 27
0.0
 37
0.0
 42
50.0
 43
0.0
 44
0.0
 45
402.4435797665
 50
0.0
 51
0.0
 72
   100
 90
   557152
  1

281
     0
 71
     1
 74
     0
110
0.0
120
0.0
130
0.0
111
1.0
121
0.0
131
0.0
112
0.0
122
1.0
132
0.0
 79
     0
146
0.0
  0
ENDBLK
  5
4BD
330
4BA
100
AcDbEntity
  8
0
100
AcDbBlockEnd
  0
BLOCK
  5
569
330
567
100
AcDbEntity
  8
0
100
AcDbBlockBegin
  2
*Paper_Space6
 70
     0
 10
0.0
 20
0.0
 30
0.0
  3
*Paper_Space6
  1

  0
SPLINE
  5
56E
330
567
100
AcDbEntity
  8
0
  6
Continuous
 62
     7
370
    25
100
AcDbSpline
210
0.0
220
0.0
230
1.0
 70
     8
 71
     3
 72
    12
 73
     8
 74
     0
 42
0.000000001
 43
0.00000001
 40
0.0
 40
0.0
 40
0.0
 40
0.0
 40
0.1397680094447833
 40
0.3952361396727667
 40
0.6606660202899346
 40
0.9171731534323023
 40
1.0
 40
1.0
 40
1.0
 40
1.0
 10
123.4557693186886
 20
-48.42093501967168
 30
0.0
 10
123.2918098507325
 20
-48.56831443820594
 30
0.0
 10
122.8281650765443
 20
-48.98507412935478
 30
0.0
 10
121.7289627197388
 20
-49.54843075000416
 30
0.0
 10
120.3789675478494
 20
-49.90999412045566
 30
0.0
 10
119.3098978867857
 20
-49.9728893612902
 30
0.0
 10
118.8603814952828
 20
-49.89483379673958
 30
0.0
 10
118.7506606084429
 20
-49.87578148646308
 30
0.0
  0
SPLINE
  5
571
330
567
100
AcDbEntity
  8
0
  6
Continuous
 62
     7
370
    25
100
AcDbSpline
210
0.0
220
0.0
230
1.0
 70
     8
 71
     3
 72
    17
 73
    13
 74
     0
 42
0.000000001
 43
0.00000001
 40
0.0
 40
0.0
 40
0.0
 40
0.0
 40
0.0648324002150114
 40
0.1879831152839052
 40
0.3128070406551554
 40
0.4382049107161878
 40
0.5619201642404278
 40
0.6821168395515781
 40
0.7849054655707288
 40
0.8794510506880487
 40
0.96634381208576
 40
1.0
 40
1.0
 40
1.0
 40
1.0
 10
220.5496880313651
 20
-66.34710273462302
 30
0.0
 10
220.5521687215438
 20
-66.10869770223978
 30
0.0
 10
220.5593615428228
 20
-65.41743653439575
 30
0.0
 10
220.641223964889
 20
-64.19307013898418
 30
0.0
 10
220.8250757022354
 20
-62.71682856448686
 30
0.0
 10
221.0938710309447
 20
-61.27884518393434
 30
0.0
 10
221.4273855472761
 20
-59.96602765272962
 30
0.0
 10
221.7807835352157
 20
-58.89813941353969
 30
0.0
 10
222.1122170515629
 20
-58.11606501004255
 30
0.0
 10
222.3595641196234
 20
-57.64398384887373
 30
0.0
 10
222.5111215471303
 20
-57.43392873064978
 30
0.0
 10
222.4914466551483
 20
-57.45635929546132
 30
0.0
 10
222.4859536013679
 20
-57.46262170843652
 30
0.0
  0
SPLINE
  5
57D
330
567
100
AcDbEntity
  8
0
  6
Continuous
 62
     7
370
    25
100
AcDbSpline
210
0.0
220
0.0
230
1.0
 70
     8
 71
     3
 72
    24
 73
    20
 74
     0
 42
0.000000001
 43
0.00000001
 40
0.0
 40
0.0
 40
0.0
 40
0.0
 40
0.0488436859522677
 40
0.1109560753941704
 40
0.1733909708802193
 40
0.2357424334185879
 40
0.2976221900411674
 40
0.358879920452339
 40
0.4196663245863567
 40
0.4802764330356762
 40
0.5409243889315096
 40
0.6017683878631989
 40
0.6629077328530077
 40
0.7243367920846706
 40
0.7859750801450855
 40
0.8477056786872594
 40
0.9094162117870667
 40
0.9710383348213428
 40
1.0
 40
1.0
 40
1.0
 40
1.0
 10
38.49670416887729
 20
-7.552086243726677
 30
0.0
 10
38.14721747051922
 20
-7.782719114060435
 30
0.0
 10
37.35330374971256
 20
-8.306637767008407
 30
0.0
 10
35.97122523874444
 20
-8.792411236341641
 30
0.0
 10
34.42242173430321
 20
-9.045138175511891
 30
0.0
 10
32.83469753424122
 20
-8.976017503004988
 30
0.0
 10
31.26492718899982
 20
-8.593547180854353
 30
0.0
 10
29.76378542014738
 20
-7.906159490161727
 30
0.0
 10
28.37967298915582
 20
-6.936923282122851
 30
0.0
 10
27.15513423890126
 20
-5.716051669412484
 30
0.0
 10
26.12749539443689
 20
-4.280770680833601
 30
0.0
 10
25.32819583545598
 20
-2.674403067425404
 30
0.0
 10
24.78198578889948
 20
-0.9454697907623488
 30
0.0
 10
24.50561886245892
 20
0.853474800017337
 30
0.0
 10
24.50829926435424
 20
2.665270838902611
 30
0.0
 10
24.78459096830699
 20
4.436858054658405
 30
0.0
 10
25.3371740947501
 20
6.098486454615373
 30
0.0
 10
25.95951640579505
 20
7.380369878799447
 30
0.0
 10
26.46443496226927
 20
8.015983481466607
 30
0.0
 10
26.62586872943215
 20
8.21920338103821
 30
0.0
  0
LWPOLYLINE
  5
58D
330
567
100
AcDbEntity
  8
0
  6
Continuous
 62
     7
370
    25
100
AcDbPolyline
 90
        9
 70
   128
 43
0.0
 10
223.7622936701
 20
-54.3902201476
 10
223.0725452221
 20
-55.1796792148
 10
222.4093034201
 20
-56.3011160402
 10
221.7980562746
 20
-57.7114344355
 10
221.2622936707
 20
-59.3564366556
 10
220.8226046647
 20
-61.1729061877
 10
220.4958862587
 20
-63.0910371264
 10
220.2946940576
 20
-65.0371167755
 10
220.226759765
 20
-66.9363583853
  0
LWPOLYLINE
  5
598
330
567
100
AcDbEntity
  8
0
  6
Continuous
 62
     7
370
    25
100
AcDbPolyline
 90
        9
 70
   128
 43
0.0
 10
-193.0214513511
 20
-10.9419977501
 10
-191.3611699793
 20
-10.3276561103
 10
-189.7471573715
 20
-9.8618060921
 10
-188.2243928724
 20
-9.5574300158
 10
-186.8353129224
 20
-9.4230102418
 10
-185.6186284371
 20
-9.4622927838
 10
-184.6082460111
 20
-9.6741829148
 10
-183.8323230078
 20
-10.0527756753
 10
-183.3124828694
 20
-10.5875204325
  0
LWPOLYLINE
  5
59C
330
567
100
AcDbEntity
  8
0
  6
Continuous
 62
     7
370
    25
100
AcDbPolyline
 90
       37
 70
   128
 43
0.0
 10
30.1557152443
 20
-11.8419557301
 10
28.383019894
 20
-11.4468810217
 10
26.6923222209
 20
-10.7238829891
 10
25.1349932183
 20
-9.6949295619
 10
23.75835154
 20
-8.3912849692
 10
22.6042257466
 20
-6.8525597922
 10
21.7076833665
 20
-5.1255074168
 10
21.0959653862
 20
-3.2626034556
 10
20.7876585469
 20
-1.3204513027
 10
20.792130596
 20
0.6419377315
 10
21.1092456525
 20
2.5649374492
 10
21.7293683358
 20
4.3901184771
 10
22.6336565321
 20
6.0620236132
 10
23.7946339022
 20
7.529852866
 10
25.177024736
 20
8.7490069864
 10
26.7388257876
 20
9.6824425934
 10
28.4325825224
 20
10.3017977184
 10
30.2068309991
 20
10.5882535693
 10
32.0076615756
 20
10.53310633
 10
33.7803569259
 20
10.1380316216
 10
35.471054599
 20
9.4150335891
 10
37.0283836016
 20
8.3860801618
 10
38.4050252799
 20
7.0824355691
 10
39.5591510732
 20
5.5437103921
 10
40.4556934534
 20
3.8166580167
 10
41.0674114337
 20
1.9537540555
 10
41.375718273
 20
0.0116019026
 10
41.3712462239
 20
-1.9507871316
 10
41.0541311674
 20
-3.8737868493
 10
40.434008484
 20
-5.6989678772
 10
39.5297202877
 20
-7.3708730133
 10
38.3687429177
 20
-8.8387022661
 10
36.9863520839
 20
-10.0578563865
 10
35.4245510323
 20
-10.9912919935
 10
33.7307942974
 20
-11.6106471184
 10
31.9565458207
 20
-11.8971029693
 10
30.1557152443
 20
-11.8419557301
  0
LWPOLYLINE
  5
59D
330
567
100
AcDbEntity
  8
0
  6
Continuous
 62
     7
370
    25
100
AcDbPolyline
 90
        9
 70
   128
 43
0.0
 10
177.6521033265
 20
7.5228887068
 10
178.4750129919
 20
8.2596798152
 10
179.7033031754
 20
8.9398506958
 10
181.3027438547
 20
9.5444463289
 10
183.2287617757
 20
10.0566178279
 10
185.4276826215
 20
10.4620919843
 10
187.8382268095
 20
10.7495690339
 10
190.3932172323
 20
10.9110375588
 10
193.0214513511
 20
10.9419977501
  0
LWPOLYLINE
  5
59E
330
567
100
AcDbEntity
  8
0
  6
Continuous
 62
     7
370
    25
100
AcDbPolyline
 90
        9
 70
   128
 43
0.0
 10
-123.0537348647
 20
50.7637281267
 10
-121.0136532451
 20
50.1446154363
 10
-119.0304246725
 20
49.4113850614
 10
-117.1593178118
 20
48.5844706846
 10
-115.452476717
 20
47.6869167773
 10
-113.9574676797
 20
46.7437363947
 10
-112.7159536502
 20
45.781214112
 10
-111.7625331732
 20
44.8261735249
 10
-111.1237761953
 20
43.905229729
  0
LWPOLYLINE
  5
59F
330
567
100
AcDbEntity
  8
0
  6
Continuous
 62
     7
370
    25
100
AcDbPolyline
 90
       28
 70
   128
 43
0.0
 10
30.4996541798
 20
-10.814194986
 10
32.1380517596
 20
-10.8632009791
 10
33.754802684
 20
-10.5994372563
 10
35.3007827944
 20
-10.030918145
 10
36.7290182674
 20
-9.1749178105
 10
37.9961128909
 20
-8.05744539
 10
39.0635666359
 20
-6.7124547175
 10
39.8989454606
 20
-5.1808126538
 10
40.476866802
 20
-3.5090573682
 10
40.7797708127
 20
-1.747984299
 10
40.7984539076
 20
0.0488972398
 10
40.5323484102
 20
1.8269899118
 10
39.9895398015
 20
3.532267271
 10
39.1865210464
 20
5.1129153277
 10
38.1476914634
 20
6.5209068906
 10
36.9046153637
 20
7.7134608484
 10
35.4950629856
 20
8.6543420528
 10
33.9618628648
 20
9.3149623043
 10
32.3516005111
 20
9.6752489909
 10
30.7132029313
 20
9.724254984
 10
29.0964520069
 20
9.4604912612
 10
27.5504718965
 20
8.8919721499
 10
26.1222364235
 20
8.0359718154
 10
24.8551418
 20
6.9184993949
 10
23.787688055
 20
5.5735087224
 10
22.9523092303
 20
4.0418666587
 10
22.3743878889
 20
2.3701113731
 10
22.2686178004
 20
1.9185257593
  0
LWPOLYLINE
  5
5A1
330
567
100
AcDbEntity
  8
0
  6
Continuous
 62
     8
370
    25
100
AcDbPolyline
 90
        8
 70
   128
 43
0.0
 10
193.7114846009
 20
-210.695730699
 10
193.6599894756
 20
-210.6867694951
 10
193.3543659029
 20
-210.5206796097
 10
193.0864846009
 20
-210.1706767036
 10
192.8666400979
 20
-209.6502111922
 10
192.7032808949
 20
-208.9792842732
 10
192.6026847944
 20
-208.1836792919
 10
192.5687176481
 20
-207.2939709016
  0
LWPOLYLINE
  5
5A3
330
567
100
AcDbEntity
  8
0
  6
Continuous
 62
     8
370
    25
100
AcDbPolyline
 90
        8
 70
   128
 43
0.0
 10
-283.3498322284
 20
-150.5916543263
 10
-283.4013273537
 20
-150.5826931224
 10
-283.7069509264
 20
-150.4166032369
 10
-283.9748322284
 20
-150.0666003308
 10
-284.1946767314
 20
-149.5461348194
 10
-284.3580359344
 20
-148.8752079004
 10
-284.4586320349
 20
-148.0796029192
 10
-284.4925991812
 20
-147.1898945288
  0
LWPOLYLINE
  5
5A9
330
567
100
AcDbEntity
  8
0
  6
Continuous
 62
     8
370
    25
100
AcDbPolyline
 90
        3
 70
   128
 43
0.0
 10
220.5496876124
 20
-66.3477850522
 10
220.4817653671
 20
-66.6208855264
 10
220.226759765
 20
-66.9363583853
  0
LWPOLYLINE
  5
5AB
330
567
100
AcDbEntity
  8
0
  6
Continuous
 62
     8
370
    25
100
AcDbPolyline
 90
        3
 70
   128
 43
0.0
 10
220.5496880314
 20
-187.0266600607
 10
220.4817653671
 20
-187.3004428525
 10
220.226759765
 20
-187.6159157114
  0
LWPOLYLINE
  5
5AE
330
567
100
AcDbEntity
  8
0
  6
Continuous
 62
     8
370
    25
100
AcDbPolyline
 90
        3
 70
   128
 43
0.0
 10
-183.3124828694
 20
-10.5875204325
 10
-183.706464188
 20
-11.5432706948
 10
-183.7538437886
 20
-11.7841254537
  0
LWPOLYLINE
  5
5AF
330
567
100
AcDbEntity
  8
0
  6
Continuous
 62
     8
370
    25
100
AcDbPolyline
 90
        8
 70
   128
 43
0.0
 10
-287.7248322287
 20
-13.6376047926
 10
-287.7223782005
 20
-13.6898161788
 10
-287.5957939475
 20
-14.0138039025
 10
-287.2820213673
 20
-14.3233345055
 10
-286.7931185643
 20
-14.6065129001
 10
-286.1478737988
 20
-14.8524566995
 10
-285.3710834655
 20
-15.0517144215
 10
-284.4925991812
 20
-15.1966287034
  0
LWPOLYLINE
  5
5B1
330
567
100
AcDbEntity
  8
0
  6
Continuous
 62
     8
370
    25
100
AcDbPolyline
 90
        8
 70
   128
 43
0.0
 10
-287.7248322287
 20
-145.630870618
 10
-287.7223782005
 20
-145.6830820042
 10
-287.5957939475
 20
-146.007069728
 10
-287.2820213673
 20
-146.3166003309
 10
-286.7931185643
 20
-146.5997787255
 10
-286.1478737988
 20
-146.8457225249
 10
-285.3710834655
 20
-147.0449802469
 10
-284.4925991812
 20
-147.1898945288
  0
LWPOLYLINE
  5
5B7
330
567
100
AcDbEntity
  8
0
  6
Continuous
 62
     8
370
    25
100
AcDbPolyline
 90
        3
 70
   128
 43
0.0
 10
287.7248322287
 20
4.2095143765
 10
287.6569095644
 20
3.9357315846
 10
287.4019039623
 20
3.6202587258
  0
LWPOLYLINE
  5
5B8
330
567
100
AcDbEntity
  8
0
  6
Continuous
 62
     8
370
    25
100
AcDbPolyline
 90
        3
 70
   128
 43
0.0
 10
282.7248322287
 20
8.9235595845
 10
283.0697064527
 20
9.1371310045
 10
283.3498322284
 20
9.1702980847
  0
LWPOLYLINE
  5
5B9
330
567
100
AcDbEntity
  8
0
  6
Continuous
 62
     8
370
    25
100
AcDbPolyline
 90
        3
 70
   128
 43
0.0
 10
287.7248322287
 20
2.3238962932
 10
287.6569095644
 20
2.0501135014
 10
287.4019039623
 20
1.7346406425
  0
LWPOLYLINE
  5
5BA
330
567
100
AcDbEntity
  8
0
  6
Continuous
 62
     8
370
    25
100
AcDbPolyline
 90
        3
 70
   128
 43
0.0
 10
-193.7114846009
 20
69.2743744575
 10
-193.9916103766
 20
69.2412073772
 10
-194.3364846006
 20
69.0276359573
  0
LWPOLYLINE
  5
5BC
330
567
100
AcDbEntity
  8
0
  6
Continuous
 62
     8
370
    25
100
AcDbPolyline
 90
       18
 70
   128
 43
0.0
 10
38.2900417836
 20
-7.7329976057
 10
37.2594096349
 20
-8.3307167127
 10
35.66807443
 20
-8.9419157149
 10
34.0121713067
 20
-9.2307000412
 10
32.3435563106
 20
-9.1880261593
 10
30.7144835707
 20
-8.8152304389
 10
29.1759689159
 20
-8.1239873022
 10
27.7761922698
 20
-7.1359436287
 10
26.5589888549
 20
-5.8820408648
 10
25.5624764541
 20
-4.4015460656
 10
24.8178617194
 20
-2.7408222126
 10
24.3484629084
 20
-0.9518763167
 10
24.1689796529
 20
0.9092692264
 10
24.2850326271
 20
2.7843310262
 10
24.6929875313
 20
4.6145898928
 10
25.3800689029
 20
6.3427296787
 10
26.3247601916
 20
7.9146321844
 10
26.7344742763
 20
8.4472936005
  0
LINE
  5
5BD
330
567
100
AcDbEntity
  8
0
  6
Continuous
 62
     7
370
    25
100
AcDbLine
 10
-283.3498322284
 20
-150.5916543263
 30
0.0
 11
193.7114846009
 21
-210.695730699
 31
0.0
  0
LINE
  5
5BE
330
567
100
AcDbEntity
  8
0
  6
Continuous
 62
     7
370
    25
100
AcDbLine
 10
197.6436737395
 20
-209.4849469907
 30
0.0
 11
218.8568771702
 21
-190.7766600607
 31
0.0
  0
LINE
  5
5BF
330
567
100
AcDbEntity
  8
0
  6
Continuous
 62
     7
370
    25
100
AcDbLine
 10
118.7179511573
 20
-49.8919896269
 30
0.0
 11
-187.4356676443
 21
-11.3202592494
 31
0.0
  0
LINE
  5
5C0
330
567
100
AcDbEntity
  8
0
  6
Continuous
 62
     7
370
    25
100
AcDbLine
 10
185.9642622131
 20
6.6707634039
 30
0.0
 11
123.4965457249
 21
-48.4205841967
 31
0.0
  0
LINE
  5
5C1
330
567
100
AcDbEntity
  8
0
  6
Continuous
 62
     7
370
    25
100
AcDbLine
 10
220.5496880314
 20
-187.0266600607
 30
0.0
 11
220.5496880314
 21
-66.3471027346
 31
0.0
  0
LINE
  5
5C2
330
567
100
AcDbEntity
  8
0
  6
Continuous
 62
     7
370
    25
100
AcDbLine
 10
222.3924110754
 20
-57.5509644968
 30
0.0
 11
286.0320213676
 21
-1.4261037067
 31
0.0
  0
LINE
  5
5C3
330
567
100
AcDbEntity
  8
0
  6
Continuous
 62
     7
370
    25
100
AcDbLine
 10
-287.7248322287
 20
-13.6376047926
 30
0.0
 11
-287.7248322287
 21
-145.630870618
 31
0.0
  0
LINE
  5
5C4
330
567
100
AcDbEntity
  8
0
  6
Continuous
 62
     7
370
    25
100
AcDbLine
 10
-197.6436737395
 20
68.0635907492
 30
0.0
 11
-286.0320213676
 21
-9.8876047926
 31
0.0
  0
LINE
  5
5C5
330
567
100
AcDbEntity
  8
0
  6
Continuous
 62
     7
370
    25
100
AcDbLine
 10
287.7248322287
 20
2.3238962932
 30
0.0
 11
287.7248322287
 21
4.2095143765
 31
0.0
  0
LINE
  5
5C6
330
567
100
AcDbEntity
  8
0
  6
Continuous
 62
     7
370
    25
100
AcDbLine
 10
283.3498322284
 20
9.1702980847
 30
0.0
 11
-193.7114846009
 21
69.2743744575
 31
0.0
  0
LINE
  5
5C7
330
567
100
AcDbEntity
  8
0
  6
Continuous
 62
     7
370
    25
100
AcDbLine
 10
199.0135563343
 20
-74.330936816
 30
0.0
 11
199.0135563343
 21
-206.3242026415
 31
0.0
  0
LINE
  5
5C8
330
567
100
AcDbEntity
  8
0
  6
Continuous
 62
     7
370
    25
100
AcDbLine
 10
192.5687176481
 20
-207.2939709016
 30
0.0
 11
192.5687176481
 21
-75.3007050762
 31
0.0
  0
LINE
  5
5C9
330
567
100
AcDbEntity
  8
0
  6
Continuous
 62
     7
370
    25
100
AcDbLine
 10
-282.7248322287
 20
-8.9235595845
 30
0.0
 11
194.3364846006
 21
-69.0276359573
 31
0.0
  0
LINE
  5
5CA
330
567
100
AcDbEntity
  8
0
  6
Continuous
 62
     7
370
    25
100
AcDbLine
 10
192.5687176481
 20
-75.3007050762
 30
0.0
 11
-284.4925991812
 21
-15.1966287034
 31
0.0
  0
LINE
  5
5CB
330
567
100
AcDbEntity
  8
0
  6
Continuous
 62
     7
370
    25
100
AcDbLine
 10
-284.4925991812
 20
-147.1898945288
 30
0.0
 11
192.5687176481
 21
-207.2939709016
 31
0.0
  0
LINE
  5
5CC
330
567
100
AcDbEntity
  8
0
  6
Continuous
 62
     7
370
    25
100
AcDbLine
 10
-284.4925991812
 20
-15.1966287034
 30
0.0
 11
-284.4925991812
 21
-147.1898945288
 31
0.0
  0
LINE
  5
5CD
330
567
100
AcDbEntity
  8
0
  6
Continuous
 62
     7
370
    25
100
AcDbLine
 10
194.3364846006
 20
-69.0276359573
 30
0.0
 11
282.7248322287
 21
8.9235595845
 31
0.0
  0
LINE
  5
5CE
330
567
100
AcDbEntity
  8
0
  6
Continuous
 62
     7
370
    25
100
AcDbLine
 10
287.4019039623
 20
3.6202587258
 30
0.0
 11
199.0135563343
 21
-74.330936816
 31
0.0
  0
LINE
  5
5CF
330
567
100
AcDbEntity
  8
0
  6
Continuous
 62
     7
370
    25
100
AcDbLine
 10
220.226759765
 20
-187.6159157114
 30
0.0
 11
220.226759765
 21
-66.9363583853
 31
0.0
  0
LINE
  5
5D0
330
567
100
AcDbEntity
  8
0
  6
Continuous
 62
     7
370
    25
100
AcDbLine
 10
199.0135563343
 20
-206.3242026415
 30
0.0
 11
220.226759765
 21
-187.6159157114
 31
0.0
  0
LINE
  5
5D1
330
567
100
AcDbEntity
  8
0
  6
Continuous
 62
     7
370
    25
100
AcDbLine
 10
287.4019039623
 20
1.7346406425
 30
0.0
 11
287.4019039623
 21
3.6202587258
 31
0.0
  0
LINE
  5
5D2
330
567
100
AcDbEntity
  8
0
  6
Continuous
 62
     7
370
    25
100
AcDbLine
 10
223.7622936701
 20
-54.3902201476
 30
0.0
 11
287.4019039623
 21
1.7346406425
 31
0.0
  0
LINE
  5
5D3
330
567
100
AcDbEntity
  8
0
  6
Continuous
 62
     7
370
    25
100
AcDbLine
 10
282.7248322287
 20
8.9235595845
 30
0.0
 11
-194.3364846006
 21
69.0276359573
 31
0.0
  0
LINE
  5
5D4
330
567
100
AcDbEntity
  8
0
  6
Continuous
 62
     7
370
    25
100
AcDbLine
 10
-194.3364846006
 20
69.0276359573
 30
0.0
 11
-282.7248322287
 21
-8.9235595845
 31
0.0
  0
LINE
  5
5D5
330
567
100
AcDbEntity
  8
0
  6
Continuous
 62
     7
370
    25
100
AcDbLine
 10
-193.0214513511
 20
-10.9419977501
 30
0.0
 11
-123.0537348647
 21
50.7637281267
 31
0.0
  0
LINE
  5
5D6
330
567
100
AcDbEntity
  8
0
  6
Continuous
 62
     7
370
    25
100
AcDbLine
 10
123.0537348647
 20
-50.7637281267
 30
0.0
 11
-193.0214513511
 21
-10.9419977501
 31
0.0
  0
LINE
  5
5D7
330
567
100
AcDbEntity
  8
0
  6
Continuous
 62
     7
370
    25
100
AcDbLine
 10
193.0214513511
 20
10.9419977501
 30
0.0
 11
123.0537348647
 21
-50.7637281267
 31
0.0
  0
LINE
  5
5D8
330
567
100
AcDbEntity
  8
0
  6
Continuous
 62
     7
370
    25
100
AcDbLine
 10
-123.0537348647
 20
50.7637281267
 30
0.0
 11
193.0214513511
 21
10.9419977501
 31
0.0
  0
LINE
  5
5D9
330
567
100
AcDbEntity
  8
0
  6
Continuous
 62
     7
370
    25
100
AcDbLine
 10
-123.6629344484
 20
42.0184365485
 30
0.0
 11
-183.3124828694
 21
-10.5875204325
 31
0.0
  0
LINE
  5
5DA
330
567
100
AcDbEntity
  8
0
  6
Continuous
 62
     7
370
    25
100
AcDbLine
 10
177.6521033265
 20
7.5228887068
 30
0.0
 11
-111.1237761953
 21
43.905229729
 31
0.0
  0
LINE
  5
5DB
330
567
100
AcDbEntity
  8
0
  6
Continuous
 62
     8
370
    25
100
AcDbLine
 10
-183.3124828694
 20
-10.5875204325
 30
0.0
 11
-182.8645621036
 21
-11.8961644147
 31
0.0
  0
LINE
  5
5DC
330
567
100
AcDbEntity
  8
0
  6
Continuous
 62
     8
370
    25
100
AcDbLine
 10
-115.389181093
 20
-20.3972633521
 30
0.0
 11
-123.6629344484
 21
42.0184365485
 31
0.0
  0
LINE
  5
5DD
330
567
100
AcDbEntity
  8
0
  6
Continuous
 62
     8
370
    25
100
AcDbLine
 10
174.1561295651
 20
-3.7430307412
 30
0.0
 11
177.6521033265
 21
7.5228887068
 31
0.0
  0
LINE
  5
5DE
330
567
100
AcDbEntity
  8
0
  6
Continuous
 62
     8
370
    25
100
AcDbLine
 10
-111.1237761953
 20
43.905229729
 30
0.0
 11
-102.3826923521
 21
-22.0359269055
 31
0.0
  0
ARC
  5
5DF
330
567
100
AcDbEntity
  8
0
  6
Continuous
 62
     7
370
    25
100
AcDbCircle
 10
194.3364846006
 20
-205.7349469907
 30
0.0
 40
5.000000000000056
100
AcDbArc
 50
262.8192442221
 51
311.40962211
  0
ARC
  5
5E0
330
567
100
AcDbEntity
  8
0
  6
Continuous
 62
     7
370
    25
100
AcDbCircle
 10
215.5496880314
 20
-187.0266600607
 30
0.0
 40
5.000000000000145
100
AcDbArc
 50
311.40962211
 51
0.0
  0
ARC
  5
5E1
330
567
100
AcDbEntity
  8
0
  6
Continuous
 62
     7
370
    25
100
AcDbCircle
 10
-282.7248322287
 20
-13.6376047926
 30
0.0
 40
5.000000000000291
100
AcDbArc
 50
131.40962211
 51
180.0
  0
ARC
  5
5E2
330
567
100
AcDbEntity
  8
0
  6
Continuous
 62
     7
370
    25
100
AcDbCircle
 10
-282.7248322287
 20
-145.630870618
 30
0.0
 40
4.999999999999984
100
AcDbArc
 50
180.0
 51
262.8192442221
  0
ARC
  5
5E3
330
567
100
AcDbEntity
  8
0
  6
Continuous
 62
     7
370
    25
100
AcDbCircle
 10
282.7248322287
 20
4.2095143765
 30
0.0
 40
4.999999999999944
100
AcDbArc
 50
0.0
 51
82.8192442221
  0
ARC
  5
5E4
330
567
100
AcDbEntity
  8
0
  6
Continuous
 62
     7
370
    25
100
AcDbCircle
 10
282.7248322287
 20
2.3238962932
 30
0.0
 40
5.000000000000061
100
AcDbArc
 50
311.40962211
 51
0.0
  0
ARC
  5
5E5
330
567
100
AcDbEntity
  8
0
  6
Continuous
 62
     7
370
    25
100
AcDbCircle
 10
-194.3364846006
 20
64.3135907492
 30
0.0
 40
5.000000000000147
100
AcDbArc
 50
82.8192442221
 51
131.40962211
  0
ARC
  5
5E6
330
567
100
AcDbEntity
  8
0
  6
Continuous
 62
     7
370
    25
100
AcDbCircle
 10
202.3935851916
 20
-74.6837627383
 30
0.0
 40
9.844218612742779
100
AcDbArc
 50
144.9309440897
 51
183.5931111895
  0
ARC
  5
5E7
330
567
100
AcDbEntity
  8
0
  6
Continuous
 62
     7
370
    25
100
AcDbCircle
 10
193.553928151
 20
-74.4318310829
 30
0.0
 40
5.460560369788553
100
AcDbArc
 50
1.0587090425
 51
81.7605351794
  0
ARC
  5
5E8
330
567
100
AcDbEntity
  8
0
  6
Continuous
 62
     7
370
    25
100
AcDbCircle
 10
194.4089295902
 20
-65.6300142987
 30
0.0
 40
9.844218613218683
100
AcDbArc
 50
259.2261330329
 51
297.8883001309
  0
ARC
  5
5E9
330
567
100
AcDbEntity
  8
0
  6
Continuous
 62
     7
370
    25
100
AcDbCircle
 10
194.4089295902
 20
-197.6232801241
 30
0.0
 40
9.844218613218368
100
AcDbArc
 50
259.2261330329
 51
297.8883001309
  0
ARC
  5
5EA
330
567
100
AcDbEntity
  8
0
  6
Continuous
 62
     7
370
    25
100
AcDbCircle
 10
-274.6677316377
 20
-14.5796863655
 30
0.0
 40
9.844218612743298
100
AcDbArc
 50
144.9309440897
 51
183.5931111895
  0
ARC
  5
5EB
330
567
100
AcDbEntity
  8
0
  6
Continuous
 62
     7
370
    25
100
AcDbCircle
 10
281.9422757791
 20
3.5193644589
 30
0.0
 40
5.46056036978838
100
AcDbArc
 50
1.0587090425
 51
81.7605351794
  0
ARC
  5
5EC
330
567
100
AcDbEntity
  8
0
  6
Continuous
 62
     7
370
    25
100
AcDbCircle
 10
-18.9922872716
 20
39.1209127782
 30
0.0
 40
104.71074455098
100
AcDbArc
 50
173.6160663782
 51
178.414326265
  0
ARC
  5
5ED
330
567
100
AcDbEntity
  8
0
  6
Continuous
 62
     7
370
    25
100
AcDbCircle
 10
-94.5067104104
 20
-109.1371172889
 30
0.0
 40
153.9418294552779
100
AcDbArc
 50
96.1967980752
 51
100.9176350886
  0
ARC
  5
5EE
330
567
100
AcDbEntity
  8
0
  6
Continuous
 62
     8
370
    25
100
AcDbCircle
 10
194.8462888748
 20
-206.3953170364
 30
0.0
 40
4.167874198663047
100
AcDbArc
 50
312.158037431
 51
0.9776572489
  0
ARC
  5
5EF
330
567
100
AcDbEntity
  8
0
  6
Continuous
 62
     8
370
    25
100
AcDbCircle
 10
216.0594923055
 20
-187.6870301064
 30
0.0
 40
4.167874198663055
100
AcDbArc
 50
312.158037431
 51
0.9776572489
  0
ARC
  5
5F0
330
567
100
AcDbEntity
  8
0
  6
Continuous
 62
     8
370
    25
100
AcDbCircle
 10
131.6553827041
 20
-51.1810968701
 30
0.0
 40
8.6117676594164
100
AcDbArc
 50
161.2912282746
 51
177.2220756669
  0
ARC
  5
5F1
330
567
100
AcDbEntity
  8
0
  6
Continuous
 62
     8
370
    25
100
AcDbCircle
 10
114.7273642764
 20
-80.9593658154
 30
0.0
 40
31.32259540020324
100
AcDbArc
 50
74.583940752
 51
82.7002900797
  0
ARC
  5
5F2
330
567
100
AcDbEntity
  8
0
  6
Continuous
 62
     8
370
    25
100
AcDbCircle
 10
-193.578706739
 20
-60.6027186834
 30
0.0
 40
49.66384738599732
100
AcDbArc
 50
82.8947518017
 51
89.3570966905
  0
ARC
  5
5F3
330
567
100
AcDbEntity
  8
0
  6
Continuous
 62
     8
370
    25
100
AcDbCircle
 10
202.3962760969
 20
-12.5134214405
 30
0.0
 40
25.25953341657578
100
AcDbArc
 50
111.7859449206
 51
130.5813633019
  0
ARC
  5
5F4
330
567
100
AcDbEntity
  8
0
  6
Continuous
 62
     8
370
    25
100
AcDbCircle
 10
219.5948234763
 20
-54.4612956255
 30
0.0
 40
4.168076239727454
100
AcDbArc
 50
312.1987895248
 51
0.9770748095
  0
ARC
  5
5F5
330
567
100
AcDbEntity
  8
0
  6
Continuous
 62
     8
370
    25
100
AcDbCircle
 10
283.2346365028
 20
1.6635262476
 30
0.0
 40
4.167874198662624
100
AcDbArc
 50
312.158037431
 51
0.9776572489
  0
ARC
  5
5F6
330
567
100
AcDbEntity
  8
0
  6
Continuous
 62
     8
370
    25
100
AcDbCircle
 10
-283.3162972872
 20
-13.0492527893
 30
0.0
 40
4.167874198619965
100
AcDbArc
 50
81.8415869733
 51
130.6612067915
  0
ARC
  5
5F7
330
567
100
AcDbEntity
  8
0
  6
Continuous
 62
     8
370
    25
100
AcDbCircle
 10
-194.9279496592
 20
64.9019427525
 30
0.0
 40
4.167874198620127
100
AcDbArc
 50
81.8415869733
 51
130.6612067915
  0
ARC
  5
5F8
330
567
100
AcDbEntity
  8
0
  6
Continuous
 62
     8
370
    25
100
AcDbCircle
 10
172.0020183005
 20
-10.1284475953
 30
0.0
 40
18.5335677636293
100
AcDbArc
 50
51.8680519441
 51
72.2504483303
  0
ARC
  5
5F9
330
567
100
AcDbEntity
  8
0
  6
Continuous
 62
     8
370
    25
100
AcDbCircle
 10
32.3723871999
 20
-0.576744173
 30
0.0
 40
10.40733049884185
100
AcDbArc
 50
166.1275767185
 51
259.6335224977
  0
VIEWPORT
  5
608
330
567
100
AcDbEntity
  8
0
100
AcDbViewport
 10
0.0
 20
0.0
 30
0.0
 40
205.6
 41
156.0
 68
     1
 69
     1
 12
0.0
 22
0.0
 13
0.0
 23
0.0
 14
10.0
 24
10.0
 15
10.0
 25
10.0
 16
0.0
 26
0.0
 36
1.0
 17
0.0
 27
0.0
 37
0.0
 42
50.0
 43
0.0
 44
0.0
 45
402.4435797665
 50
0.0
 51
0.0
 72
   100
 90
   557152
  1

281
     0
 71
     1
 74
     0
110
0.0
120
0.0
130
0.0
111
1.0
121
0.0
131
0.0
112
0.0
122
1.0
132
0.0
 79
     0
146
0.0
  0
ENDBLK
  5
56A
330
567
100
AcDbEntity
  8
0
100
AcDbBlockEnd
  0
ENDSEC
  0
SECTION
  2
ENTITIES
  0
SPLINE
  5
73
330
1F
100
AcDbEntity
  8
0
  6
Continuous
 62
     7
370
    25
100
AcDbSpline
210
0.0
220
0.0
230
1.0
 70
     8
 71
     3
 72
    11
 73
     7
 74
     0
 42
0.000000001
 43
0.00000001
 40
0.0
 40
0.0
 40
0.0
 40
0.0
 40
0.097814633415669
 40
0.4528777184647931
 40
0.7840523644374948
 40
1.0
 40
1.0
 40
1.0
 40
1.0
 10
8.966369817611113
 20
89.32987303269441
 30
0.0
 10
9.041569906206908
 20
89.30432115410656
 30
0.0
 10
9.389743214866044
 20
89.18601701010222
 30
0.0
 10
9.746072707382655
 20
88.98662652509643
 30
0.0
 10
10.01902989781145
 20
88.7645364968881
 30
0.0
 10
10.0123174175955
 20
88.77014743549417
 30
0.0
 10
10.00966802041261
 20
88.77236205728195
 30
0.0
  0
SPLINE
  5
74
330
1F
100
AcDbEntity
  8
0
  6
Continuous
 62
     7
370
    25
100
AcDbSpline
210
0.0
220
0.0
230
1.0
 70
     8
 71
     3
 72
    11
 73
     7
 74
     0
 42
0.000000001
 43
0.00000001
 40
0.0
 40
0.0
 40
0.0
 40
0.0
 40
0.1273919157341578
 40
0.4423256091309236
 40
0.759337250122609
 40
1.0
 40
1.0
 40
1.0
 40
1.0
 10
-10.01527452723596
 20
88.7706879934404
 30
0.0
 10
-10.01912649569548
 20
88.76356503224093
 30
0.0
 10
-10.03250116146916
 20
88.73883294360556
 30
0.0
 10
-9.831422329640333
 20
88.93790785560464
 30
0.0
 10
-9.407993275079264
 20
89.17372438397635
 30
0.0
 10
-8.956791498672702
 20
89.3357575340095
 30
0.0
 10
-8.762076693694217
 20
89.40568246528976
 30
0.0
  0
CIRCLE
  5
BA
330
1F
100
AcDbEntity
  8
0
  6
Continuous
 62
     7
370
    25
100
AcDbCircle
 10
0.0
 20
0.0
 30
0.0
 40
34.99999999999976
  0
CIRCLE
  5
BB
330
1F
100
AcDbEntity
  8
0
  6
Continuous
 62
     7
370
    25
100
AcDbCircle
 10
0.0
 20
0.0
 30
0.0
 40
25.00000000000001
  0
LWPOLYLINE
  5
BF
330
1F
100
AcDbEntity
  8
0
  6
Continuous
 62
     8
370
    25
100
AcDbPolyline
 90
       14
 70
   128
 43
0.0
 10
0.0
 20
85.2932429827
 10
-1.9101299543
 20
85.333032201
 10
-3.7622215766
 20
85.4511908806
 10
-5.5
 20
85.6441288299
 10
-7.0706637066
 20
85.9059837269
 10
-8.4264888743
 20
86.228799243
 10
-9.5262794416
 20
86.6027667922
 10
-10.3366188286
 20
87.0165235597
 10
-10.8328852831
 20
87.4574977555
 10
-11.0
 20
87.9122906017
 10
-10.8328852831
 20
88.367083448
 10
-10.3366188286
 20
88.8080576438
 10
-9.5262794416
 20
89.2218144113
 10
-9.0902390887
 20
89.3870893564
  0
LWPOLYLINE
  5
C0
330
1F
100
AcDbEntity
  8
0
  6
Continuous
 62
     8
370
    25
100
AcDbPolyline
 90
       14
 70
   128
 43
0.0
 10
9.3269329702
 20
89.3007823643
 10
9.5262794416
 20
89.2218144113
 10
10.3366188286
 20
88.8080576438
 10
10.8328852831
 20
88.367083448
 10
11.0
 20
87.9122906017
 10
10.8328852831
 20
87.4574977555
 10
10.3366188286
 20
87.0165235597
 10
9.5262794416
 20
86.6027667922
 10
8.4264888743
 20
86.228799243
 10
7.0706637066
 20
85.9059837269
 10
5.5
 20
85.6441288299
 10
3.7622215766
 20
85.4511908806
 10
1.9101299543
 20
85.333032201
 10
0.0
 20
85.2932429827
  0
LWPOLYLINE
  5
C1
330
1F
100
AcDbEntity
  8
0
  6
Continuous
 62
     8
370
    25
100
AcDbPolyline
 90
       10
 70
   128
 43
0.0
 10
0.0
 20
86.2660491974
 10
1.7364817767
 20
86.3058384157
 10
3.4202014333
 20
86.4239970953
 10
5.0
 20
86.6169350446
 10
6.4278760969
 20
86.8787899416
 10
7.6604444312
 20
87.2016054577
 10
8.6602540378
 20
87.5755730069
 10
9.3969262079
 20
87.9893297744
 10
9.8480775301
 20
88.4303039702
 10
9.9997800953
 20
88.8677278783
  0
LWPOLYLINE
  5
C2
330
1F
100
AcDbEntity
  8
0
  6
Continuous
 62
     8
370
    25
100
AcDbPolyline
 90
       10
 70
   128
 43
0.0
 10
-9.9997088979
 20
88.865113025
 10
-9.8480775301
 20
88.4303039702
 10
-9.3969262079
 20
87.9893297744
 10
-8.6602540378
 20
87.5755730069
 10
-7.6604444312
 20
87.2016054577
 10
-6.4278760969
 20
86.8787899416
 10
-5.0
 20
86.6169350446
 10
-3.4202014333
 20
86.4239970953
 10
-1.7364817767
 20
86.3058384157
 10
0.0
 20
86.2660491974
  0
LINE
  5
C3
330
1F
100
AcDbEntity
  8
0
  6
Continuous
 62
     7
370
    25
100
AcDbLine
 10
168.9492936059
 20
98.9492936059
 30
0.0
 11
164.0852625325
 21
84.3572003857
 31
0.0
  0
LINE
  5
C4
330
1F
100
AcDbEntity
  8
0
  6
Continuous
 62
     7
370
    25
100
AcDbLine
 10
168.9492936059
 20
98.9492936059
 30
0.0
 11
168.9492936059
 21
-98.9492936059
 31
0.0
  0
LINE
  5
C5
330
1F
100
AcDbEntity
  8
0
  6
Continuous
 62
     7
370
    25
100
AcDbLine
 10
164.0852625325
 20
-84.3572003857
 30
0.0
 11
168.9492936059
 21
-98.9492936059
 31
0.0
  0
LINE
  5
C6
330
1F
100
AcDbEntity
  8
0
  6
Continuous
 62
     7
370
    25
100
AcDbLine
 10
164.0852625325
 20
-84.3572003857
 30
0.0
 11
164.0852625325
 21
84.3572003857
 31
0.0
  0
LINE
  5
C7
330
1F
100
AcDbEntity
  8
0
  6
Continuous
 62
     7
370
    25
100
AcDbLine
 10
-168.9492936059
 20
-98.9492936059
 30
0.0
 11
-164.0852625325
 21
-84.3572003857
 31
0.0
  0
LINE
  5
C8
330
1F
100
AcDbEntity
  8
0
  6
Continuous
 62
     7
370
    25
100
AcDbLine
 10
-168.9492936059
 20
-98.9492936059
 30
0.0
 11
-168.9492936059
 21
98.9492936059
 31
0.0
  0
LINE
  5
C9
330
1F
100
AcDbEntity
  8
0
  6
Continuous
 62
     7
370
    25
100
AcDbLine
 10
-164.0852625325
 20
84.3572003857
 30
0.0
 11
-168.9492936059
 21
98.9492936059
 31
0.0
  0
LINE
  5
CA
330
1F
100
AcDbEntity
  8
0
  6
Continuous
 62
     7
370
    25
100
AcDbLine
 10
-164.0852625325
 20
84.3572003857
 30
0.0
 11
-164.0852625325
 21
-84.3572003857
 31
0.0
  0
LINE
  5
CB
330
1F
100
AcDbEntity
  8
0
  6
Continuous
 62
     7
370
    25
100
AcDbLine
 10
-154.3572003857
 20
-94.0852625325
 30
0.0
 11
-168.9492936059
 21
-98.9492936059
 31
0.0
  0
LINE
  5
CC
330
1F
100
AcDbEntity
  8
0
  6
Continuous
 62
     7
370
    25
100
AcDbLine
 10
-154.3572003857
 20
-94.0852625325
 30
0.0
 11
154.3572003857
 21
-94.0852625325
 31
0.0
  0
LINE
  5
CD
330
1F
100
AcDbEntity
  8
0
  6
Continuous
 62
     7
370
    25
100
AcDbLine
 10
168.9492936059
 20
-98.9492936059
 30
0.0
 11
154.3572003857
 21
-94.0852625325
 31
0.0
  0
LINE
  5
CE
330
1F
100
AcDbEntity
  8
0
  6
Continuous
 62
     7
370
    25
100
AcDbLine
 10
168.9492936059
 20
-98.9492936059
 30
0.0
 11
-168.9492936059
 21
-98.9492936059
 31
0.0
  0
LINE
  5
CF
330
1F
100
AcDbEntity
  8
0
  6
Continuous
 62
     7
370
    25
100
AcDbLine
 10
-168.9492936059
 20
98.9492936059
 30
0.0
 11
-154.3572003857
 21
94.0852625325
 31
0.0
  0
LINE
  5
D0
330
1F
100
AcDbEntity
  8
0
  6
Continuous
 62
     7
370
    25
100
AcDbLine
 10
-168.9492936059
 20
98.9492936059
 30
0.0
 11
168.9492936059
 21
98.9492936059
 31
0.0
  0
LINE
  5
D1
330
1F
100
AcDbEntity
  8
0
  6
Continuous
 62
     7
370
    25
100
AcDbLine
 10
154.3572003857
 20
94.0852625325
 30
0.0
 11
168.9492936059
 21
98.9492936059
 31
0.0
  0
LINE
  5
D2
330
1F
100
AcDbEntity
  8
0
  6
Continuous
 62
     7
370
    25
100
AcDbLine
 10
154.3572003857
 20
94.0852625325
 30
0.0
 11
-154.3572003857
 21
94.0852625325
 31
0.0
  0
LINE
  5
D3
330
1F
100
AcDbEntity
  8
0
  6
Continuous
 62
     7
370
    25
100
AcDbLine
 10
-260.0
 20
-125.0
 30
0.0
 11
260.0
 21
-125.0
 31
0.0
  0
LINE
  5
D4
330
1F
100
AcDbEntity
  8
0
  6
Continuous
 62
     7
370
    25
100
AcDbLine
 10
255.0
 20
-130.0
 30
0.0
 11
255.0
 21
130.0
 31
0.0
  0
LINE
  5
D5
330
1F
100
AcDbEntity
  8
0
  6
Continuous
 62
     7
370
    25
100
AcDbLine
 10
260.0
 20
125.0
 30
0.0
 11
-260.0
 21
125.0
 31
0.0
  0
LINE
  5
D6
330
1F
100
AcDbEntity
  8
0
  6
Continuous
 62
     7
370
    25
100
AcDbLine
 10
260.0
 20
125.0
 30
0.0
 11
260.0
 21
-125.0
 31
0.0
  0
LINE
  5
D7
330
1F
100
AcDbEntity
  8
0
  6
Continuous
 62
     7
370
    25
100
AcDbLine
 10
-255.0
 20
130.0
 30
0.0
 11
-255.0
 21
-130.0
 31
0.0
  0
LINE
  5
D8
330
1F
100
AcDbEntity
  8
0
  6
Continuous
 62
     7
370
    25
100
AcDbLine
 10
-255.0
 20
130.0
 30
0.0
 11
255.0
 21
130.0
 31
0.0
  0
LINE
  5
D9
330
1F
100
AcDbEntity
  8
0
  6
Continuous
 62
     7
370
    25
100
AcDbLine
 10
-260.0
 20
-125.0
 30
0.0
 11
-260.0
 21
125.0
 31
0.0
  0
LINE
  5
DA
330
1F
100
AcDbEntity
  8
0
  6
Continuous
 62
     7
370
    25
100
AcDbLine
 10
255.0
 20
-130.0
 30
0.0
 11
-255.0
 21
-130.0
 31
0.0
  0
LINE
  5
DB
330
1F
100
AcDbEntity
  8
0
  6
Continuous
 62
     7
370
    25
100
AcDbLine
 10
-164.0852625325
 20
-84.3572003857
 30
0.0
 11
-141.829474935
 21
-62.1014127881
 31
0.0
  0
LINE
  5
DC
330
1F
100
AcDbEntity
  8
0
  6
Continuous
 62
     7
370
    25
100
AcDbLine
 10
-132.1014127881
 20
-71.829474935
 30
0.0
 11
-154.3572003857
 21
-94.0852625325
 31
0.0
  0
LINE
  5
DD
330
1F
100
AcDbEntity
  8
0
  6
Continuous
 62
     7
370
    25
100
AcDbLine
 10
-141.829474935
 20
62.1014127881
 30
0.0
 11
-164.0852625325
 21
84.3572003857
 31
0.0
  0
LINE
  5
DE
330
1F
100
AcDbEntity
  8
0
  6
Continuous
 62
     7
370
    25
100
AcDbLine
 10
-141.829474935
 20
-62.1014127881
 30
0.0
 11
-141.829474935
 21
62.1014127881
 31
0.0
  0
LINE
  5
DF
330
1F
100
AcDbEntity
  8
0
  6
Continuous
 62
     7
370
    25
100
AcDbLine
 10
-154.3572003857
 20
94.0852625325
 30
0.0
 11
-132.1014127881
 21
71.829474935
 31
0.0
  0
LINE
  5
E0
330
1F
100
AcDbEntity
  8
0
  6
Continuous
 62
     7
370
    25
100
AcDbLine
 10
164.0852625325
 20
84.3572003857
 30
0.0
 11
141.829474935
 21
62.1014127881
 31
0.0
  0
LINE
  5
E1
330
1F
100
AcDbEntity
  8
0
  6
Continuous
 62
     7
370
    25
100
AcDbLine
 10
132.1014127881
 20
71.829474935
 30
0.0
 11
154.3572003857
 21
94.0852625325
 31
0.0
  0
LINE
  5
E2
330
1F
100
AcDbEntity
  8
0
  6
Continuous
 62
     7
370
    25
100
AcDbLine
 10
141.829474935
 20
-62.1014127881
 30
0.0
 11
164.0852625325
 21
-84.3572003857
 31
0.0
  0
LINE
  5
E3
330
1F
100
AcDbEntity
  8
0
  6
Continuous
 62
     7
370
    25
100
AcDbLine
 10
141.829474935
 20
62.1014127881
 30
0.0
 11
141.829474935
 21
-62.1014127881
 31
0.0
  0
LINE
  5
E4
330
1F
100
AcDbEntity
  8
0
  6
Continuous
 62
     7
370
    25
100
AcDbLine
 10
154.3572003857
 20
-94.0852625325
 30
0.0
 11
132.1014127881
 21
-71.829474935
 31
0.0
  0
LINE
  5
E5
330
1F
100
AcDbEntity
  8
0
  6
Continuous
 62
     7
370
    25
100
AcDbLine
 10
132.1014127881
 20
-71.829474935
 30
0.0
 11
-132.1014127881
 21
-71.829474935
 31
0.0
  0
LINE
  5
E6
330
1F
100
AcDbEntity
  8
0
  6
Continuous
 62
     7
370
    25
100
AcDbLine
 10
-132.1014127881
 20
71.829474935
 30
0.0
 11
132.1014127881
 21
71.829474935
 31
0.0
  0
LINE
  5
E7
330
1F
100
AcDbEntity
  8
0
  6
Continuous
 62
     7
370
    25
100
AcDbLine
 10
-141.829474935
 20
-62.1014127881
 30
0.0
 11
141.829474935
 21
-62.1014127881
 31
0.0
  0
LINE
  5
E8
330
1F
100
AcDbEntity
  8
0
  6
Continuous
 62
     7
370
    25
100
AcDbLine
 10
132.1014127881
 20
-71.829474935
 30
0.0
 11
132.1014127881
 21
71.829474935
 31
0.0
  0
LINE
  5
E9
330
1F
100
AcDbEntity
  8
0
  6
Continuous
 62
     7
370
    25
100
AcDbLine
 10
141.829474935
 20
62.1014127881
 30
0.0
 11
-141.829474935
 21
62.1014127881
 31
0.0
  0
LINE
  5
EA
330
1F
100
AcDbEntity
  8
0
  6
Continuous
 62
     7
370
    25
100
AcDbLine
 10
-132.1014127881
 20
71.829474935
 30
0.0
 11
-132.1014127881
 21
-71.829474935
 31
0.0
  0
LINE
  5
EB
330
1F
100
AcDbEntity
  8
0
  6
Continuous
 62
     7
370
    25
100
AcDbLine
 10
-15.0
 20
18.0277563773
 30
0.0
 11
-15.0
 21
20.0
 31
0.0
  0
LINE
  5
EC
330
1F
100
AcDbEntity
  8
0
  6
Continuous
 62
     7
370
    25
100
AcDbLine
 10
-21.8759184614
 20
12.1014127881
 30
0.0
 11
21.8759184614
 21
12.1014127881
 31
0.0
  0
LINE
  5
ED
330
1F
100
AcDbEntity
  8
0
  6
Continuous
 62
     7
370
    25
100
AcDbLine
 10
17.3205080757
 20
18.0277563773
 30
0.0
 11
-15.0
 21
18.0277563773
 31
0.0
  0
ARC
  5
EE
330
1F
100
AcDbEntity
  8
0
  6
Continuous
 62
     7
370
    25
100
AcDbCircle
 10
-255.0
 20
125.0
 30
0.0
 40
5.0
100
AcDbArc
 50
90.0
 51
180.0
  0
ARC
  5
EF
330
1F
100
AcDbEntity
  8
0
  6
Continuous
 62
     7
370
    25
100
AcDbCircle
 10
255.0
 20
125.0
 30
0.0
 40
5.0
100
AcDbArc
 50
0.0
 51
90.0
  0
ARC
  5
F0
330
1F
100
AcDbEntity
  8
0
  6
Continuous
 62
     7
370
    25
100
AcDbCircle
 10
255.0
 20
-125.0
 30
0.0
 40
5.0
100
AcDbArc
 50
270.0
 51
0.0
  0
ARC
  5
F1
330
1F
100
AcDbEntity
  8
0
  6
Continuous
 62
     7
370
    25
100
AcDbCircle
 10
-255.0
 20
-125.0
 30
0.0
 40
5.0
100
AcDbArc
 50
180.0
 51
270.0
  0
ARC
  5
F2
330
1F
100
AcDbEntity
  8
0
  6
Continuous
 62
     7
370
    25
100
AcDbCircle
 10
153.7195646167
 20
-83.7195646167
 30
0.0
 40
10.38529116856092
100
AcDbArc
 50
273.5200583715
 51
356.4799416285
  0
ARC
  5
F3
330
1F
100
AcDbEntity
  8
0
  6
Continuous
 62
     7
370
    25
100
AcDbCircle
 10
-153.7195646167
 20
-83.7195646167
 30
0.0
 40
10.38529116856088
100
AcDbArc
 50
183.5200583715
 51
266.4799416285
  0
ARC
  5
F4
330
1F
100
AcDbEntity
  8
0
  6
Continuous
 62
     7
370
    25
100
AcDbCircle
 10
153.7195646167
 20
83.7195646167
 30
0.0
 40
10.3852911685608
100
AcDbArc
 50
3.5200583715
 51
86.4799416285
  0
ARC
  5
F5
330
1F
100
AcDbEntity
  8
0
  6
Continuous
 62
     7
370
    25
100
AcDbCircle
 10
-153.7195646167
 20
83.7195646167
 30
0.0
 40
10.38529116856086
100
AcDbArc
 50
93.5200583715
 51
176.4799416285
  0
ARC
  5
F6
330
1F
100
AcDbEntity
  8
0
  6
Continuous
 62
     7
370
    25
100
AcDbCircle
 10
-131.4637770192
 20
-61.4637770192
 30
0.0
 40
10.38529116856084
100
AcDbArc
 50
183.5200583715
 51
266.4799416285
  0
ARC
  5
F7
330
1F
100
AcDbEntity
  8
0
  6
Continuous
 62
     7
370
    25
100
AcDbCircle
 10
-131.4637770192
 20
61.4637770192
 30
0.0
 40
10.38529116856093
100
AcDbArc
 50
93.5200583715
 51
176.4799416285
  0
ARC
  5
F8
330
1F
100
AcDbEntity
  8
0
  6
Continuous
 62
     7
370
    25
100
AcDbCircle
 10
131.4637770192
 20
61.4637770192
 30
0.0
 40
10.38529116856085
100
AcDbArc
 50
3.5200583715
 51
86.4799416285
  0
ARC
  5
F9
330
1F
100
AcDbEntity
  8
0
  6
Continuous
 62
     7
370
    25
100
AcDbCircle
 10
131.4637770192
 20
-61.4637770192
 30
0.0
 40
10.3852911685609
100
AcDbArc
 50
273.5200583715
 51
356.4799416285
  0
ARC
  5
FA
330
1F
100
AcDbEntity
  8
0
  6
Continuous
 62
     7
370
    25
100
AcDbCircle
 10
-0.037139526
 20
56.164457105
 30
0.0
 40
34.43402249815279
100
AcDbArc
 50
74.2201132102
 51
105.2428890164
  0
LWPOLYLINE
  5
12E
330
1B
100
AcDbEntity
 67
     1
  8
0
  6
Continuous
 62
     7
370
    25
100
AcDbPolyline
 90
       13
 70
   128
 43
0.0
 10
173.5635671867
 20
-15.8418973635
 10
173.4138210651
 20
-15.7127495861
 10
172.9010726045
 20
-15.6041495123
 10
172.03350654
 20
-15.5178306682
 10
170.8249713739
 20
-15.4551709162
 10
169.2947583195
 20
-15.4171704611
 10
167.4672933658
 20
-15.4044358843
 10
165.3717473778
 20
-15.4171704611
 10
163.0415704579
 20
-15.4551709162
 10
160.5139579987
 20
-15.5178306682
 10
157.829256953
 20
-15.6041495123
 10
155.0303217964
 20
-15.7127495861
 10
152.1618304637
 20
-15.8418973635
  0
LWPOLYLINE
  5
131
330
1B
100
AcDbEntity
 67
     1
  8
0
  6
Continuous
 62
     7
370
    25
100
AcDbPolyline
 90
        9
 70
   128
 43
0.0
 10
30.0
 20
-17.0
 10
30.096073598
 20
-16.7740653837
 10
30.3806023374
 20
-16.556813308
 10
30.8426519385
 20
-16.3565926484
 10
31.4644660941
 20
-16.1810977724
 10
32.2221488349
 20
-16.0370728498
 10
33.0865828382
 20
-15.9300526776
 10
34.0245483899
 20
-15.8641499809
 10
35.0
 20
-15.8418973635
  0
LWPOLYLINE
  5
133
330
1B
100
AcDbEntity
 67
     1
  8
0
  6
Continuous
 62
     7
370
    25
100
AcDbPolyline
 90
       13
 70
   128
 43
0.0
 10
-152.1618304637
 20
-15.8418973635
 10
-155.0303217964
 20
-15.7127495861
 10
-157.829256953
 20
-15.6041495123
 10
-160.5139579987
 20
-15.5178306682
 10
-163.0415704579
 20
-15.4551709162
 10
-165.3717473778
 20
-15.4171704611
 10
-167.4672933658
 20
-15.4044358843
 10
-169.2947583195
 20
-15.4171704611
 10
-170.8249713739
 20
-15.4551709162
 10
-172.03350654
 20
-15.5178306682
 10
-172.9010726045
 20
-15.6041495123
 10
-173.4138210651
 20
-15.7127495861
 10
-173.5635671867
 20
-15.8418973635
  0
LWPOLYLINE
  5
136
330
1B
100
AcDbEntity
 67
     1
  8
0
  6
Continuous
 62
     7
370
    25
100
AcDbPolyline
 90
        9
 70
   128
 43
0.0
 10
-30.0
 20
-101.2537542373
 10
-30.096073598
 20
-101.027819621
 10
-30.3806023374
 20
-100.8105675453
 10
-30.8426519385
 20
-100.6103468856
 10
-31.4644660941
 20
-100.4348520097
 10
-32.2221488349
 20
-100.2908270871
 10
-33.0865828382
 20
-100.1838069148
 10
-34.0245483899
 20
-100.1179042182
 10
-35.0
 20
-100.0956516007
  0
LWPOLYLINE
  5
138
330
1B
100
AcDbEntity
 67
     1
  8
0
  6
Continuous
 62
     7
370
    25
100
AcDbPolyline
 90
        9
 70
   128
 43
0.0
 10
-30.0
 20
-17.0
 10
-30.096073598
 20
-16.7740653837
 10
-30.3806023374
 20
-16.556813308
 10
-30.8426519385
 20
-16.3565926484
 10
-31.4644660941
 20
-16.1810977724
 10
-32.2221488349
 20
-16.0370728498
 10
-33.0865828382
 20
-15.9300526776
 10
-34.0245483899
 20
-15.8641499809
 10
-35.0
 20
-15.8418973635
  0
LWPOLYLINE
  5
13C
330
1B
100
AcDbEntity
 67
     1
  8
0
  6
Continuous
 62
     7
370
    25
100
AcDbPolyline
 90
        9
 70
   128
 43
0.0
 10
30.0
 20
-101.2537542373
 10
30.096073598
 20
-101.027819621
 10
30.3806023374
 20
-100.8105675453
 10
30.8426519385
 20
-100.6103468856
 10
31.4644660941
 20
-100.4348520097
 10
32.2221488349
 20
-100.2908270871
 10
33.0865828382
 20
-100.1838069148
 10
34.0245483899
 20
-100.1179042182
 10
35.0
 20
-100.0956516007
  0
LWPOLYLINE
  5
13D
330
1B
100
AcDbEntity
 67
     1
  8
0
  6
Continuous
 62
     7
370
    25
100
AcDbPolyline
 90
       13
 70
   128
 43
0.0
 10
-153.5031495112
 20
-100.0956516007
 10
-153.1873562471
 20
-100.6639018213
 10
-152.5349791203
 20
-101.1417421459
 10
-151.5564316848
 20
-101.52154506
 10
-150.2673339804
 20
-101.7972479687
 10
-148.6882631981
 20
-101.964449971
 10
-146.844425217
 20
-102.020482109
 10
-144.7652522564
 20
-101.964449971
 10
-142.4839330644
 20
-101.7972479687
 10
-140.0368831435
 20
-101.52154506
 10
-137.4631634688
 20
-101.1417421459
 10
-134.8038569785
 20
-100.6639018213
 10
-132.1014127881
 20
-100.0956516007
  0
LWPOLYLINE
  5
140
330
1B
100
AcDbEntity
 67
     1
  8
0
  6
Continuous
 62
     7
370
    25
100
AcDbPolyline
 90
       13
 70
   128
 43
0.0
 10
132.1014127881
 20
-100.0956516007
 10
134.8038569785
 20
-100.6639018213
 10
137.4631634688
 20
-101.1417421459
 10
140.0368831435
 20
-101.52154506
 10
142.4839330644
 20
-101.7972479687
 10
144.7652522564
 20
-101.964449971
 10
146.844425217
 20
-102.020482109
 10
148.6882631981
 20
-101.964449971
 10
150.2673339804
 20
-101.7972479687
 10
151.5564316848
 20
-101.52154506
 10
152.5349791203
 20
-101.1417421459
 10
153.1873562471
 20
-100.6639018213
 10
153.5031495112
 20
-100.0956516007
  0
LWPOLYLINE
  5
14F
330
1B
100
AcDbEntity
 67
     1
  8
0
  6
Continuous
 62
     7
370
    25
100
AcDbPolyline
 90
        9
 70
   128
 43
0.0
 10
25.0
 20
-145.0
 10
24.3903427437
 20
-145.096073598
 10
23.8041142739
 20
-145.3806023374
 10
23.2638430218
 20
-145.8426519385
 10
22.7902913088
 20
-146.4644660941
 10
22.4016574616
 20
-147.2221488349
 10
22.1128764609
 20
-148.0865828382
 10
21.9350459987
 20
-149.0245483899
 10
21.875
 20
-150.0
  0
LWPOLYLINE
  5
151
330
1B
100
AcDbEntity
 67
     1
  8
0
  6
Continuous
 62
     7
370
    25
100
AcDbPolyline
 90
        9
 70
   128
 43
0.0
 10
-25.0
 20
-145.0
 10
-24.3903427437
 20
-145.096073598
 10
-23.8041142739
 20
-145.3806023374
 10
-23.2638430218
 20
-145.8426519385
 10
-22.7902913088
 20
-146.4644660941
 10
-22.4016574616
 20
-147.2221488349
 10
-22.1128764609
 20
-148.0865828382
 10
-21.9350459987
 20
-149.0245483899
 10
-21.875
 20
-150.0
  0
SPLINE
  5
155
330
1B
100
AcDbEntity
 67
     1
  8
0
  6
Continuous
 62
     7
370
    25
100
AcDbSpline
210
0.0
220
0.0
230
1.0
 70
     8
 71
     3
 72
    30
 73
    26
 74
     0
 42
0.000000001
 43
0.00000001
 40
0.0
 40
0.0
 40
0.0
 40
0.0
 40
0.1249999999999996
 40
0.1249999999999996
 40
0.2499999999999993
 40
0.2499999999999993
 40
0.3124999999999989
 40
0.3124999999999989
 40
0.3749999999999986
 40
0.3749999999999986
 40
0.5000000000000002
 40
0.5000000000000002
 40
0.5625000000000012
 40
0.5625000000000012
 40
0.6250000000000023
 40
0.6250000000000023
 40
0.7500000000000017
 40
0.7500000000000017
 40
0.8125000000000012
 40
0.8125000000000012
 40
0.8750000000000008
 40
0.8750000000000008
 40
0.9375000000000004
 40
0.9375000000000004
 40
1.0
 40
1.0
 40
1.0
 40
1.0
 10
21.87499999999999
 20
-149.9999999999999
 30
0.0
 10
22.47888196020016
 20
-150.0
 30
0.0
 10
23.05563188136814
 20
-149.9295108756448
 30
0.0
 10
24.16167817023761
 20
-149.6739960494688
 30
0.0
 10
24.69091584497652
 20
-149.4887273972544
 30
0.0
 10
25.45176960027107
 20
-149.131734866102
 30
0.0
 10
25.69938746561368
 20
-148.9995157531885
 30
0.0
 10
26.17597956626208
 20
-148.7139740205355
 30
0.0
 10
26.40605873678979
 20
-148.5601595141139
 30
0.0
 10
27.07332093386498
 20
-148.0667173892847
 30
0.0
 10
27.48769186053586
 20
-147.6955638146051
 30
0.0
 10
28.06698579086531
 20
-147.0720761308833
 30
0.0
 10
28.2529994691573
 20
-146.8530136089715
 30
0.0
 10
28.61089069841928
 20
-146.3901260235951
 30
0.0
 10
28.782446099334
 20
-146.1465069195178
 30
0.0
 10
29.26751514643738
 20
-145.3865234602478
 30
0.0
 10
29.55484603873479
 20
-144.838605496686
 30
0.0
 10
29.92637478091921
 20
-143.9297456199985
 30
0.0
 10
30.04058465817164
 20
-143.6102600159094
 30
0.0
 10
30.24109799016594
 20
-142.9503242104051
 30
0.0
 10
30.32809121305709
 20
-142.6086285984133
 30
0.0
 10
30.47217147046417
 20
-141.8963951621233
 30
0.0
 10
30.52922480328174
 20
-141.5233555005926
 30
0.0
 10
30.60525532965793
 20
-140.7708716489679
 30
0.0
 10
30.625
 20
-140.3887000319828
 30
0.0
 10
30.625
 20
-139.9999999999999
 30
0.0
  0
SPLINE
  5
156
330
1B
100
AcDbEntity
 67
     1
  8
0
  6
Continuous
 62
     7
370
    25
100
AcDbSpline
210
0.0
220
0.0
230
1.0
 70
     8
 71
     3
 72
    30
 73
    26
 74
     0
 42
0.000000001
 43
0.00000001
 40
0.0
 40
0.0
 40
0.0
 40
0.0
 40
0.0625000000000006
 40
0.0625000000000006
 40
0.1250000000000013
 40
0.1250000000000013
 40
0.1875000000000019
 40
0.1875000000000019
 40
0.2500000000000026
 40
0.2500000000000026
 40
0.3125000000000032
 40
0.3125000000000032
 40
0.3750000000000038
 40
0.3750000000000038
 40
0.4375000000000044
 40
0.4375000000000044
 40
0.5000000000000051
 40
0.5000000000000051
 40
0.6250000000000038
 40
0.6250000000000038
 40
0.7500000000000026
 40
0.7500000000000026
 40
0.8750000000000012
 40
0.8750000000000012
 40
1.0
 40
1.0
 40
1.0
 40
1.0
 10
-30.625
 20
-139.9999999999999
 30
0.0
 10
-30.62500000000001
 20
-140.3874564971711
 30
0.0
 10
-30.60501451674944
 20
-140.7746366409246
 30
0.0
 10
-30.52862031806637
 20
-141.527941131503
 30
0.0
 10
-30.47265933139686
 20
-141.8934969497709
 30
0.0
 10
-30.32877989011875
 20
-142.6057068582455
 30
0.0
 10
-30.24074063900138
 20
-142.9515057741627
 30
0.0
 10
-30.04091258787585
 20
-143.6091752841897
 30
0.0
 10
-29.92858297729857
 20
-143.923830452485
 30
0.0
 10
-29.68124472275634
 20
-144.5299036346366
 30
0.0
 10
-29.54590617640771
 20
-144.8215937647305
 30
0.0
 10
-29.25861992466358
 20
-145.3755643105677
 30
0.0
 10
-29.10611532299491
 20
-145.63930158661
 30
0.0
 10
-28.78400967213244
 20
-146.1441521947189
 30
0.0
 10
-28.61440083221945
 20
-146.385241763625
 30
0.0
 10
-28.25796739167622
 20
-146.8469244716159
 30
0.0
 10
-28.07046097602328
 20
-147.0681846985247
 30
0.0
 10
-27.48759081015239
 20
-147.6959721837643
 30
0.0
 10
-27.07172957269832
 20
-148.0680604302363
 30
0.0
 10
-26.18183679545758
 20
-148.7258053608898
 30
0.0
 10
-25.70784632388623
 20
-149.0114019914821
 30
0.0
 10
-24.69278670555613
 20
-149.4880305092963
 30
0.0
 10
-24.16118994705494
 20
-149.6741824968713
 30
0.0
 10
-23.0541993761032
 20
-149.9297680200848
 30
0.0
 10
-22.47764487811833
 20
-149.9999999999999
 30
0.0
 10
-21.87499999999999
 20
-149.9999999999999
 30
0.0
  0
LINE
  5
186
330
1B
100
AcDbEntity
 67
     1
  8
0
  6
Continuous
 62
     7
370
    25
100
AcDbLine
 10
-35.0
 20
-122.0
 30
0.0
 11
-35.0
 21
-150.0
 31
0.0
  0
LINE
  5
187
330
1B
100
AcDbEntity
 67
     1
  8
0
  6
Continuous
 62
     7
370
    25
100
AcDbLine
 10
35.0
 20
-150.0
 30
0.0
 11
35.0
 21
-122.0
 31
0.0
  0
LINE
  5
188
330
1B
100
AcDbEntity
 67
     1
  8
0
  6
Continuous
 62
     7
370
    25
100
AcDbLine
 10
35.0
 20
-7.0
 30
0.0
 11
260.0
 21
-7.0
 31
0.0
  0
LINE
  5
189
330
1B
100
AcDbEntity
 67
     1
  8
0
  6
Continuous
 62
     7
370
    25
100
AcDbLine
 10
255.0
 20
-12.0
 30
0.0
 11
35.0
 21
-12.0
 31
0.0
  0
LINE
  5
18A
330
1B
100
AcDbEntity
 67
     1
  8
0
  6
Continuous
 62
     7
370
    25
100
AcDbLine
 10
35.0
 20
-7.0
 30
0.0
 11
35.0
 21
-117.0
 31
0.0
  0
LINE
  5
18B
330
1B
100
AcDbEntity
 67
     1
  8
0
  6
Continuous
 62
     7
370
    25
100
AcDbLine
 10
-260.0
 20
-7.0
 30
0.0
 11
-35.0
 21
-7.0
 31
0.0
  0
LINE
  5
18C
330
1B
100
AcDbEntity
 67
     1
  8
0
  6
Continuous
 62
     7
370
    25
100
AcDbLine
 10
-35.0
 20
-12.0
 30
0.0
 11
-255.0
 21
-12.0
 31
0.0
  0
LINE
  5
18D
330
1B
100
AcDbEntity
 67
     1
  8
0
  6
Continuous
 62
     7
370
    25
100
AcDbLine
 10
-255.0
 20
0.0
 30
0.0
 11
-255.0
 21
-150.0
 31
0.0
  0
LINE
  5
18E
330
1B
100
AcDbEntity
 67
     1
  8
0
  6
Continuous
 62
     7
370
    25
100
AcDbLine
 10
260.0
 20
-5.0
 30
0.0
 11
-260.0
 21
-5.0
 31
0.0
  0
LINE
  5
18F
330
1B
100
AcDbEntity
 67
     1
  8
0
  6
Continuous
 62
     7
370
    25
100
AcDbLine
 10
260.0
 20
-5.0
 30
0.0
 11
260.0
 21
-145.0
 31
0.0
  0
LINE
  5
190
330
1B
100
AcDbEntity
 67
     1
  8
0
  6
Continuous
 62
     7
370
    25
100
AcDbLine
 10
-25.0
 20
-17.0
 30
0.0
 11
-30.0
 21
-17.0
 31
0.0
  0
LINE
  5
191
330
1B
100
AcDbEntity
 67
     1
  8
0
  6
Continuous
 62
     7
370
    25
100
AcDbLine
 10
25.0
 20
-145.0
 30
0.0
 11
25.0
 21
-17.0
 31
0.0
  0
LINE
  5
192
330
1B
100
AcDbEntity
 67
     1
  8
0
  6
Continuous
 62
     7
370
    25
100
AcDbLine
 10
30.0
 20
-110.0
 30
0.0
 11
-30.0
 21
-110.0
 31
0.0
  0
LINE
  5
193
330
1B
100
AcDbEntity
 67
     1
  8
0
  6
Continuous
 62
     7
370
    25
100
AcDbLine
 10
-25.0
 20
-17.0
 30
0.0
 11
-25.0
 21
-145.0
 31
0.0
  0
LINE
  5
194
330
1B
100
AcDbEntity
 67
     1
  8
0
  6
Continuous
 62
     7
370
    25
100
AcDbLine
 10
-30.0
 20
-140.0
 30
0.0
 11
-30.0
 21
-17.0
 31
0.0
  0
LINE
  5
195
330
1B
100
AcDbEntity
 67
     1
  8
0
  6
Continuous
 62
     7
370
    25
100
AcDbLine
 10
30.0
 20
-17.0
 30
0.0
 11
30.0
 21
-140.0
 31
0.0
  0
LINE
  5
196
330
1B
100
AcDbEntity
 67
     1
  8
0
  6
Continuous
 62
     7
370
    25
100
AcDbLine
 10
25.0
 20
-17.0
 30
0.0
 11
30.0
 21
-17.0
 31
0.0
  0
LINE
  5
197
330
1B
100
AcDbEntity
 67
     1
  8
0
  6
Continuous
 62
     7
370
    25
100
AcDbLine
 10
-260.0
 20
-145.0
 30
0.0
 11
-260.0
 21
-5.0
 31
0.0
  0
LINE
  5
198
330
1B
100
AcDbEntity
 67
     1
  8
0
  6
Continuous
 62
     7
370
    25
100
AcDbLine
 10
-255.0
 20
0.0
 30
0.0
 11
255.0
 21
0.0
 31
0.0
  0
LINE
  5
199
330
1B
100
AcDbEntity
 67
     1
  8
0
  6
Continuous
 62
     7
370
    25
100
AcDbLine
 10
25.0
 20
-145.0
 30
0.0
 11
-25.0
 21
-145.0
 31
0.0
  0
LINE
  5
19A
330
1B
100
AcDbEntity
 67
     1
  8
0
  6
Continuous
 62
     7
370
    25
100
AcDbLine
 10
152.1618304637
 20
-12.0
 30
0.0
 11
152.1618304637
 21
-15.8418973635
 31
0.0
  0
LINE
  5
19B
330
1B
100
AcDbEntity
 67
     1
  8
0
  6
Continuous
 62
     7
370
    25
100
AcDbLine
 10
-152.1618304637
 20
-12.0
 30
0.0
 11
-152.1618304637
 21
-15.8418973635
 31
0.0
  0
LINE
  5
19C
330
1B
100
AcDbEntity
 67
     1
  8
0
  6
Continuous
 62
     7
370
    25
100
AcDbLine
 10
152.1618304637
 20
-15.8418973635
 30
0.0
 11
35.0
 21
-15.8418973635
 31
0.0
  0
LINE
  5
19D
330
1B
100
AcDbEntity
 67
     1
  8
0
  6
Continuous
 62
     7
370
    25
100
AcDbLine
 10
-35.0
 20
-117.0
 30
0.0
 11
-35.0
 21
-7.0
 31
0.0
  0
LINE
  5
19E
330
1B
100
AcDbEntity
 67
     1
  8
0
  6
Continuous
 62
     7
370
    25
100
AcDbLine
 10
-35.0
 20
-15.8418973635
 30
0.0
 11
-152.1618304637
 21
-15.8418973635
 31
0.0
  0
LINE
  5
19F
330
1B
100
AcDbEntity
 67
     1
  8
0
  6
Continuous
 62
     7
370
    25
100
AcDbLine
 10
-173.5635671867
 20
-15.8418973635
 30
0.0
 11
-153.5031495112
 21
-100.0956516007
 31
0.0
  0
LINE
  5
1A0
330
1B
100
AcDbEntity
 67
     1
  8
0
  6
Continuous
 62
     7
370
    25
100
AcDbLine
 10
-132.1014127881
 20
-100.0956516007
 30
0.0
 11
-152.1618304637
 21
-15.8418973635
 31
0.0
  0
LINE
  5
1A1
330
1B
100
AcDbEntity
 67
     1
  8
0
  6
Continuous
 62
     7
370
    25
100
AcDbLine
 10
152.1618304637
 20
-15.8418973635
 30
0.0
 11
132.1014127881
 21
-100.0956516007
 31
0.0
  0
LINE
  5
1A2
330
1B
100
AcDbEntity
 67
     1
  8
0
  6
Continuous
 62
     7
370
    25
100
AcDbLine
 10
153.5031495112
 20
-100.0956516007
 30
0.0
 11
173.5635671867
 21
-15.8418973635
 31
0.0
  0
LINE
  5
1A3
330
1B
100
AcDbEntity
 67
     1
  8
0
  6
Continuous
 62
     7
370
    25
100
AcDbLine
 10
-35.0
 20
-100.0956516007
 30
0.0
 11
-132.1014127881
 21
-100.0956516007
 31
0.0
  0
LINE
  5
1A4
330
1B
100
AcDbEntity
 67
     1
  8
0
  6
Continuous
 62
     7
370
    25
100
AcDbLine
 10
132.1014127881
 20
-100.0956516007
 30
0.0
 11
35.0
 21
-100.0956516007
 31
0.0
  0
LINE
  5
1A5
330
1B
100
AcDbEntity
 67
     1
  8
0
  6
Continuous
 62
     7
370
    25
100
AcDbLine
 10
132.1014127881
 20
-100.0956516007
 30
0.0
 11
132.1014127881
 21
-122.0
 31
0.0
  0
LINE
  5
1A6
330
1B
100
AcDbEntity
 67
     1
  8
0
  6
Continuous
 62
     7
370
    25
100
AcDbLine
 10
-132.1014127881
 20
-100.0956516007
 30
0.0
 11
-132.1014127881
 21
-122.0
 31
0.0
  0
LINE
  5
1A7
330
1B
100
AcDbEntity
 67
     1
  8
0
  6
Continuous
 62
     7
370
    25
100
AcDbLine
 10
-132.1014127881
 20
-117.0
 30
0.0
 11
-35.0
 21
-117.0
 31
0.0
  0
LINE
  5
1A8
330
1B
100
AcDbEntity
 67
     1
  8
0
  6
Continuous
 62
     7
370
    25
100
AcDbLine
 10
35.0
 20
-117.0
 30
0.0
 11
132.1014127881
 21
-117.0
 31
0.0
  0
LINE
  5
1A9
330
1B
100
AcDbEntity
 67
     1
  8
0
  6
Continuous
 62
     7
370
    25
100
AcDbLine
 10
-30.0
 20
-155.0
 30
0.0
 11
30.0
 21
-155.0
 31
0.0
  0
LINE
  5
1AA
330
1B
100
AcDbEntity
 67
     1
  8
0
  6
Continuous
 62
     7
370
    25
100
AcDbLine
 10
30.625
 20
-140.0
 30
0.0
 11
30.0
 21
-140.0
 31
0.0
  0
LINE
  5
1AB
330
1B
100
AcDbEntity
 67
     1
  8
0
  6
Continuous
 62
     7
370
    25
100
AcDbLine
 10
-30.0
 20
-140.0
 30
0.0
 11
-30.625
 21
-140.0
 31
0.0
  0
LINE
  5
1AC
330
1B
100
AcDbEntity
 67
     1
  8
0
  6
Continuous
 62
     7
370
    25
100
AcDbLine
 10
-30.625
 20
-140.0
 30
0.0
 11
-30.625
 21
-122.0
 31
0.0
  0
LINE
  5
1AD
330
1B
100
AcDbEntity
 67
     1
  8
0
  6
Continuous
 62
     7
370
    25
100
AcDbLine
 10
30.625
 20
-122.0
 30
0.0
 11
30.625
 21
-140.0
 31
0.0
  0
LINE
  5
1AE
330
1B
100
AcDbEntity
 67
     1
  8
0
  6
Continuous
 62
     7
370
    25
100
AcDbLine
 10
-30.0
 20
-122.0
 30
0.0
 11
-132.1014127881
 21
-122.0
 31
0.0
  0
LINE
  5
1AF
330
1B
100
AcDbEntity
 67
     1
  8
0
  6
Continuous
 62
     7
370
    25
100
AcDbLine
 10
132.1014127881
 20
-122.0
 30
0.0
 11
30.0
 21
-122.0
 31
0.0
  0
LINE
  5
1B0
330
1B
100
AcDbEntity
 67
     1
  8
0
  6
Continuous
 62
     7
370
    25
100
AcDbLine
 10
178.4275982602
 20
-12.0
 30
0.0
 11
178.4275982602
 21
-17.0
 31
0.0
  0
LINE
  5
1B1
330
1B
100
AcDbEntity
 67
     1
  8
0
  6
Continuous
 62
     7
370
    25
100
AcDbLine
 10
173.5635671867
 20
-15.8418973635
 30
0.0
 11
178.4275982602
 21
-17.0
 31
0.0
  0
LINE
  5
1B2
330
1B
100
AcDbEntity
 67
     1
  8
0
  6
Continuous
 62
     7
370
    25
100
AcDbLine
 10
-178.4275982602
 20
-17.0
 30
0.0
 11
-260.0
 21
-17.0
 31
0.0
  0
LINE
  5
1B3
330
1B
100
AcDbEntity
 67
     1
  8
0
  6
Continuous
 62
     7
370
    25
100
AcDbLine
 10
-153.5031495112
 20
-100.0956516007
 30
0.0
 11
-158.3671805846
 21
-101.2537542373
 31
0.0
  0
LINE
  5
1B4
330
1B
100
AcDbEntity
 67
     1
  8
0
  6
Continuous
 62
     7
370
    25
100
AcDbLine
 10
260.0
 20
-17.0
 30
0.0
 11
178.4275982602
 21
-17.0
 31
0.0
  0
LINE
  5
1B5
330
1B
100
AcDbEntity
 67
     1
  8
0
  6
Continuous
 62
     7
370
    25
100
AcDbLine
 10
-158.3671805846
 20
-101.2537542373
 30
0.0
 11
-178.4275982602
 21
-17.0
 31
0.0
  0
LINE
  5
1B6
330
1B
100
AcDbEntity
 67
     1
  8
0
  6
Continuous
 62
     7
370
    25
100
AcDbLine
 10
-173.5635671867
 20
-15.8418973635
 30
0.0
 11
-178.4275982602
 21
-17.0
 31
0.0
  0
LINE
  5
1B7
330
1B
100
AcDbEntity
 67
     1
  8
0
  6
Continuous
 62
     7
370
    25
100
AcDbLine
 10
178.4275982602
 20
-17.0
 30
0.0
 11
158.3671805846
 21
-101.2537542373
 31
0.0
  0
LINE
  5
1B8
330
1B
100
AcDbEntity
 67
     1
  8
0
  6
Continuous
 62
     7
370
    25
100
AcDbLine
 10
153.5031495112
 20
-100.0956516007
 30
0.0
 11
158.3671805846
 21
-101.2537542373
 31
0.0
  0
LINE
  5
1B9
330
1B
100
AcDbEntity
 67
     1
  8
0
  6
Continuous
 62
     7
370
    25
100
AcDbLine
 10
-178.4275982602
 20
-17.0
 30
0.0
 11
-178.4275982602
 21
-12.0
 31
0.0
  0
LINE
  5
1BA
330
1B
100
AcDbEntity
 67
     1
  8
0
  6
Continuous
 62
     7
370
    25
100
AcDbLine
 10
35.0
 20
-145.0
 30
0.0
 11
260.0
 21
-145.0
 31
0.0
  0
LINE
  5
1BB
330
1B
100
AcDbEntity
 67
     1
  8
0
  6
Continuous
 62
     7
370
    25
100
AcDbLine
 10
255.0
 20
-150.0
 30
0.0
 11
255.0
 21
0.0
 31
0.0
  0
LINE
  5
1BC
330
1B
100
AcDbEntity
 67
     1
  8
0
  6
Continuous
 62
     7
370
    25
100
AcDbLine
 10
-260.0
 20
-145.0
 30
0.0
 11
-35.0
 21
-145.0
 31
0.0
  0
LINE
  5
1BD
330
1B
100
AcDbEntity
 67
     1
  8
0
  6
Continuous
 62
     7
370
    25
100
AcDbLine
 10
255.0
 20
-150.0
 30
0.0
 11
-255.0
 21
-150.0
 31
0.0
  0
ARC
  5
1BE
330
1B
100
AcDbEntity
 67
     1
  8
0
  6
Continuous
 62
     7
370
    25
100
AcDbCircle
 10
30.0
 20
-150.0
 30
0.0
 40
4.999999999999972
100
AcDbArc
 50
270.0
 51
0.0
  0
ARC
  5
1BF
330
1B
100
AcDbEntity
 67
     1
  8
0
  6
Continuous
 62
     7
370
    25
100
AcDbCircle
 10
-30.0
 20
-150.0
 30
0.0
 40
5.000000000000028
100
AcDbArc
 50
180.0
 51
270.0
  0
ARC
  5
1C0
330
1B
100
AcDbEntity
 67
     1
  8
0
  6
Continuous
 62
     7
370
    25
100
AcDbCircle
 10
40.0
 20
-122.0
 30
0.0
 40
5.000000000000021
100
AcDbArc
 50
90.0
 51
180.0
  0
ARC
  5
1C1
330
1B
100
AcDbEntity
 67
     1
  8
0
  6
Continuous
 62
     7
370
    25
100
AcDbCircle
 10
-40.0
 20
-122.0
 30
0.0
 40
5.0
100
AcDbArc
 50
0.0
 51
90.0
  0
ARC
  5
1C2
330
1B
100
AcDbEntity
 67
     1
  8
0
  6
Continuous
 62
     7
370
    25
100
AcDbCircle
 10
-35.0
 20
-17.0
 30
0.0
 40
9.999999999999996
100
AcDbArc
 50
0.0
 51
90.0
  0
ARC
  5
1C3
330
1B
100
AcDbEntity
 67
     1
  8
0
  6
Continuous
 62
     7
370
    25
100
AcDbCircle
 10
-35.0
 20
-17.0
 30
0.0
 40
5.0
100
AcDbArc
 50
0.0
 51
90.0
  0
ARC
  5
1C4
330
1B
100
AcDbEntity
 67
     1
  8
0
  6
Continuous
 62
     7
370
    25
100
AcDbCircle
 10
35.0
 20
-17.0
 30
0.0
 40
9.999999999999993
100
AcDbArc
 50
90.0
 51
180.0
  0
ARC
  5
1C5
330
1B
100
AcDbEntity
 67
     1
  8
0
  6
Continuous
 62
     7
370
    25
100
AcDbCircle
 10
25.0
 20
-140.0
 30
0.0
 40
5.000000000000032
100
AcDbArc
 50
270.0
 51
0.0
  0
ARC
  5
1C6
330
1B
100
AcDbEntity
 67
     1
  8
0
  6
Continuous
 62
     7
370
    25
100
AcDbCircle
 10
-25.0
 20
-140.0
 30
0.0
 40
5.000000000000028
100
AcDbArc
 50
180.0
 51
270.0
  0
ARC
  5
1C7
330
1B
100
AcDbEntity
 67
     1
  8
0
  6
Continuous
 62
     7
370
    25
100
AcDbCircle
 10
35.0
 20
-17.0
 30
0.0
 40
5.000000000000021
100
AcDbArc
 50
90.0
 51
180.0
  0
ARC
  5
1C8
330
1B
100
AcDbEntity
 67
     1
  8
0
  6
Continuous
 62
     7
370
    25
100
AcDbCircle
 10
-255.0
 20
-7.0
 30
0.0
 40
5.0
100
AcDbArc
 50
180.0
 51
270.0
  0
ARC
  5
1C9
330
1B
100
AcDbEntity
 67
     1
  8
0
  6
Continuous
 62
     7
370
    25
100
AcDbCircle
 10
255.0
 20
-7.0
 30
0.0
 40
4.999999999999972
100
AcDbArc
 50
270.0
 51
0.0
  0
ARC
  5
1CA
330
1B
100
AcDbEntity
 67
     1
  8
0
  6
Continuous
 62
     7
370
    25
100
AcDbCircle
 10
255.0
 20
-5.0
 30
0.0
 40
4.999999999999989
100
AcDbArc
 50
0.0
 51
90.0
  0
ARC
  5
1CB
330
1B
100
AcDbEntity
 67
     1
  8
0
  6
Continuous
 62
     7
370
    25
100
AcDbCircle
 10
-255.0
 20
-5.0
 30
0.0
 40
5.0
100
AcDbArc
 50
90.0
 51
180.0
  0
ARC
  5
1CC
330
1B
100
AcDbEntity
 67
     1
  8
0
  6
Continuous
 62
     7
370
    25
100
AcDbCircle
 10
178.4275982602
 20
-17.0
 30
0.0
 40
5.000000000000007
100
AcDbArc
 50
90.0
 51
166.6075022462
  0
ARC
  5
1CD
330
1B
100
AcDbEntity
 67
     1
  8
0
  6
Continuous
 62
     7
370
    25
100
AcDbCircle
 10
-178.4275982602
 20
-17.0
 30
0.0
 40
4.99999999999993
100
AcDbArc
 50
13.3924977538
 51
90.0
  0
ARC
  5
1CE
330
1B
100
AcDbEntity
 67
     1
  8
0
  6
Continuous
 62
     7
370
    25
100
AcDbCircle
 10
-35.0
 20
-122.0
 30
0.0
 40
5.000000000000007
100
AcDbArc
 50
0.0
 51
90.0
  0
ARC
  5
1CF
330
1B
100
AcDbEntity
 67
     1
  8
0
  6
Continuous
 62
     7
370
    25
100
AcDbCircle
 10
35.0
 20
-122.0
 30
0.0
 40
5.000000000000007
100
AcDbArc
 50
90.0
 51
180.0
  0
ARC
  5
1D0
330
1B
100
AcDbEntity
 67
     1
  8
0
  6
Continuous
 62
     7
370
    25
100
AcDbCircle
 10
132.1014127881
 20
-95.0
 30
0.0
 40
22.00000000000009
100
AcDbArc
 50
270.0
 51
346.6075022463
  0
ARC
  5
1D1
330
1B
100
AcDbEntity
 67
     1
  8
0
  6
Continuous
 62
     7
370
    25
100
AcDbCircle
 10
-132.1014127881
 20
-95.0
 30
0.0
 40
21.99999999999988
100
AcDbArc
 50
193.3924977538
 51
270.0
  0
ARC
  5
1D2
330
1B
100
AcDbEntity
 67
     1
  8
0
  6
Continuous
 62
     7
370
    25
100
AcDbCircle
 10
-35.3348214286
 20
-121.70703125
 30
0.0
 40
4.718924514919392
100
AcDbArc
 50
356.440571398
 51
85.9312789334
  0
ARC
  5
1D3
330
1B
100
AcDbEntity
 67
     1
  8
0
  6
Continuous
 62
     7
370
    25
100
AcDbCircle
 10
35.3348214286
 20
-121.70703125
 30
0.0
 40
4.71892451491938
100
AcDbArc
 50
94.0687210666
 51
183.559428602
  0
ARC
  5
1D4
330
1B
100
AcDbEntity
 67
     1
  8
0
  6
Continuous
 62
     7
370
    25
100
AcDbCircle
 10
-132.1014127881
 20
-95.0
 30
0.0
 40
27.00000000000006
100
AcDbArc
 50
193.3924977538
 51
270.0
  0
ARC
  5
1D5
330
1B
100
AcDbEntity
 67
     1
  8
0
  6
Continuous
 62
     7
370
    25
100
AcDbCircle
 10
132.1014127881
 20
-95.0
 30
0.0
 40
26.99999999999999
100
AcDbArc
 50
270.0
 51
346.6075022463
  0
ARC
  5
1D6
330
1B
100
AcDbEntity
 67
     1
  8
0
  6
Continuous
 62
     7
370
    25
100
AcDbCircle
 10
255.0
 20
-145.0
 30
0.0
 40
5.0
100
AcDbArc
 50
270.0
 51
0.0
  0
ARC
  5
1D7
330
1B
100
AcDbEntity
 67
     1
  8
0
  6
Continuous
 62
     7
370
    25
100
AcDbCircle
 10
-255.0
 20
-145.0
 30
0.0
 40
5.0
100
AcDbArc
 50
180.0
 51
270.0
  0
VIEWPORT
  5
5FA
330
1B
100
AcDbEntity
 67
     1
  8
0
100
AcDbViewport
 10
0.0
 20
0.0
 30
0.0
 40
205.6
 41
156.0
 68
     1
 69
     1
 12
0.0
 22
0.0
 13
0.0
 23
0.0
 14
10.0
 24
10.0
 15
10.0
 25
10.0
 16
0.0
 26
0.0
 36
1.0
 17
0.0
 27
0.0
 37
0.0
 42
50.0
 43
0.0
 44
0.0
 45
402.4435797665
 50
0.0
 51
0.0
 72
   100
 90
   557152
  1

281
     0
 71
     1
 74
     0
110
0.0
120
0.0
130
0.0
111
1.0
121
0.0
131
0.0
112
0.0
122
1.0
132
0.0
 79
     0
146
0.0
  0
ENDSEC
  0
SECTION
  2
OBJECTS
  0
DICTIONARY
  5
C
330
0
100
AcDbDictionary
281
     1
  3
ACAD_GROUP
350
D
  3
ACAD_LAYOUT
350
1A
  3
ACAD_MLINESTYLE
350
17
  3
ACAD_PLOTSETTINGS
350
19
  3
ACAD_PLOTSTYLENAME
350
E
  3
ACAD_SCALELIST
350
47
  0
DICTIONARY
  5
D
102
{ACAD_REACTORS
330
C
102
}
330
C
100
AcDbDictionary
281
     1
  0
DICTIONARY
  5
1A
102
{ACAD_REACTORS
330
C
102
}
330
C
100
AcDbDictionary
281
     1
  3
_Back
350
1E
  3
_Bottom
350
31D
  3
_Dimetric
350
568
  3
_Front
350
264
  3
_Isometric
350
400
  3
_Left
350
26
  3
_Right
350
28E
  3
_Trimetric
350
4BB
  3
Model
350
22
  0
DICTIONARY
  5
17
102
{ACAD_REACTORS
330
C
102
}
330
C
100
AcDbDictionary
281
     1
  3
Standard
350
18
  0
DICTIONARY
  5
19
102
{ACAD_REACTORS
330
C
102
}
330
C
100
AcDbDictionary
281
     1
  0
ACDBDICTIONARYWDFLT
  5
E
102
{ACAD_REACTORS
330
C
102
}
330
C
100
AcDbDictionary
281
     1
  3
Normal
350
F
100
AcDbDictionaryWithDefault
340
F
  0
DICTIONARY
  5
47
102
{ACAD_REACTORS
330
C
102
}
330
C
100
AcDbDictionary
281
     1
  3
A0
350
48
  3
A1
350
49
  3
A2
350
4A
  3
A3
350
4B
  3
A4
350
4C
  3
A5
350
4D
  3
A6
350
4E
  3
A7
350
4F
  3
A8
350
50
  3
A9
350
51
  3
B0
350
52
  3
B1
350
53
  3
B2
350
54
  3
B3
350
55
  3
B4
350
56
  3
B5
350
57
  3
B6
350
58
  3
B7
350
59
  3
B8
350
5A
  3
B9
350
5B
  3
C0
350
5C
  3
C1
350
5D
  3
C2
350
5E
  3
C3
350
5F
  3
C4
350
60
  3
C5
350
61
  3
C6
350
62
  3
C7
350
63
  3
C8
350
64
  3
C9
350
65
  3
D0
350
66
  3
D1
350
67
  3
D2
350
68
  0
LAYOUT
  5
1E
102
{ACAD_REACTORS
330
1A
102
}
330
1A
100
AcDbPlotSettings
  1

  2
none_device
  4
ISO_A4_(210.00_x_297.00_MM)
  6

 40
7.5
 41
20.0
 42
7.5
 43
20.0
 44
210.0
 45
297.0
 46
0.0
 47
0.0
 48
0.0
 49
0.0
140
0.0
141
0.0
142
1.0
143
2.0233463035
 70
   688
 72
     1
 73
     1
 74
     1
  7

 75
     0
147
0.4942307692
148
260.0
149
155.0
100
AcDbLayout
  1
_Back
 70
     1
 71
     1
 10
-300.46692607
 20
-170.1750972763
 11
300.46692607
 21
254.7276264591
 12
0.0
 22
0.0
 32
0.0
 14
-260.0
 24
-155.0
 34
0.0
 15
260.0
 25
0.0
 35
0.0
146
0.0
 13
0.0
 23
0.0
 33
0.0
 16
1.0
 26
0.0
 36
0.0
 17
0.0
 27
1.0
 37
0.0
 76
     0
330
1B
331
5FA
  0
LAYOUT
  5
31D
102
{ACAD_REACTORS
330
1A
102
}
330
1A
100
AcDbPlotSettings
  1

  2
none_device
  4
ISO_A4_(210.00_x_297.00_MM)
  6

 40
7.5
 41
20.0
 42
7.5
 43
20.0
 44
210.0
 45
297.0
 46
0.0
 47
0.0
 48
0.0
 49
0.0
140
0.0
141
0.0
142
1.0
143
2.0233463035
 70
   688
 72
     1
 73
     1
 74
     1
  7

 75
     0
147
0.4942307692
148
260.0
149
155.0
100
AcDbLayout
  1
_Bottom
 70
     1
 71
     5
 10
0.0
 20
0.0
 11
0.0
 21
0.0
 12
0.0
 22
0.0
 32
0.0
 14
0.0
 24
0.0
 34
0.0
 15
0.0
 25
0.0
 35
0.0
146
0.0
 13
0.0
 23
0.0
 33
0.0
 16
1.0
 26
0.0
 36
0.0
 17
0.0
 27
1.0
 37
0.0
 76
     0
330
31C
331
602
  0
LAYOUT
  5
568
102
{ACAD_REACTORS
330
1A
102
}
330
1A
100
AcDbPlotSettings
  1

  2
none_device
  4
ISO_A4_(210.00_x_297.00_MM)
  6

 40
7.5
 41
20.0
 42
7.5
 43
20.0
 44
210.0
 45
297.0
 46
0.0
 47
0.0
 48
0.0
 49
0.0
140
0.0
141
0.0
142
1.0
143
2.0233463035
 70
   688
 72
     1
 73
     1
 74
     1
  7

 75
     0
147
0.4942307692
148
260.0
149
155.0
100
AcDbLayout
  1
_Dimetric
 70
     1
 71
     8
 10
0.0
 20
0.0
 11
0.0
 21
0.0
 12
0.0
 22
0.0
 32
0.0
 14
0.0
 24
0.0
 34
0.0
 15
0.0
 25
0.0
 35
0.0
146
0.0
 13
0.0
 23
0.0
 33
0.0
 16
1.0
 26
0.0
 36
0.0
 17
0.0
 27
1.0
 37
0.0
 76
     0
330
567
331
608
  0
LAYOUT
  5
264
102
{ACAD_REACTORS
330
1A
102
}
330
1A
100
AcDbPlotSettings
  1

  2
none_device
  4
ISO_A4_(210.00_x_297.00_MM)
  6

 40
7.5
 41
20.0
 42
7.5
 43
20.0
 44
210.0
 45
297.0
 46
0.0
 47
0.0
 48
0.0
 49
0.0
140
0.0
141
0.0
142
1.0
143
2.0233463035
 70
   688
 72
     1
 73
     1
 74
     1
  7

 75
     0
147
0.4942307692
148
260.0
149
155.0
100
AcDbLayout
  1
_Front
 70
     1
 71
     3
 10
0.0
 20
0.0
 11
0.0
 21
0.0
 12
0.0
 22
0.0
 32
0.0
 14
0.0
 24
0.0
 34
0.0
 15
0.0
 25
0.0
 35
0.0
146
0.0
 13
0.0
 23
0.0
 33
0.0
 16
1.0
 26
0.0
 36
0.0
 17
0.0
 27
1.0
 37
0.0
 76
     0
330
263
331
5FE
  0
LAYOUT
  5
400
102
{ACAD_REACTORS
330
1A
102
}
330
1A
100
AcDbPlotSettings
  1

  2
none_device
  4
ISO_A4_(210.00_x_297.00_MM)
  6

 40
7.5
 41
20.0
 42
7.5
 43
20.0
 44
210.0
 45
297.0
 46
0.0
 47
0.0
 48
0.0
 49
0.0
140
0.0
141
0.0
142
1.0
143
2.0233463035
 70
   688
 72
     1
 73
     1
 74
     1
  7

 75
     0
147
0.4942307692
148
260.0
149
155.0
100
AcDbLayout
  1
_Isometric
 70
     1
 71
     6
 10
0.0
 20
0.0
 11
0.0
 21
0.0
 12
0.0
 22
0.0
 32
0.0
 14
0.0
 24
0.0
 34
0.0
 15
0.0
 25
0.0
 35
0.0
146
0.0
 13
0.0
 23
0.0
 33
0.0
 16
1.0
 26
0.0
 36
0.0
 17
0.0
 27
1.0
 37
0.0
 76
     0
330
3FF
331
604
  0
LAYOUT
  5
26
102
{ACAD_REACTORS
330
1A
102
}
330
1A
100
AcDbPlotSettings
  1

  2
none_device
  4
ISO_A4_(210.00_x_297.00_MM)
  6

 40
7.5
 41
20.0
 42
7.5
 43
20.0
 44
210.0
 45
297.0
 46
0.0
 47
0.0
 48
0.0
 49
0.0
140
0.0
141
0.0
142
1.0
143
2.0233463035
 70
   688
 72
     1
 73
     1
 74
     1
  7

 75
     0
147
0.4942307692
148
260.0
149
155.0
100
AcDbLayout
  1
_Left
 70
     1
 71
     2
 10
0.0
 20
0.0
 11
0.0
 21
0.0
 12
0.0
 22
0.0
 32
0.0
 14
0.0
 24
0.0
 34
0.0
 15
0.0
 25
0.0
 35
0.0
146
0.0
 13
0.0
 23
0.0
 33
0.0
 16
1.0
 26
0.0
 36
0.0
 17
0.0
 27
1.0
 37
0.0
 76
     0
330
23
331
5FC
  0
LAYOUT
  5
28E
102
{ACAD_REACTORS
330
1A
102
}
330
1A
100
AcDbPlotSettings
  1

  2
none_device
  4
ISO_A4_(210.00_x_297.00_MM)
  6

 40
7.5
 41
20.0
 42
7.5
 43
20.0
 44
210.0
 45
297.0
 46
0.0
 47
0.0
 48
0.0
 49
0.0
140
0.0
141
0.0
142
1.0
143
2.0233463035
 70
   688
 72
     1
 73
     1
 74
     1
  7

 75
     0
147
0.4942307692
148
260.0
149
155.0
100
AcDbLayout
  1
_Right
 70
     1
 71
     4
 10
0.0
 20
0.0
 11
0.0
 21
0.0
 12
0.0
 22
0.0
 32
0.0
 14
0.0
 24
0.0
 34
0.0
 15
0.0
 25
0.0
 35
0.0
146
0.0
 13
0.0
 23
0.0
 33
0.0
 16
1.0
 26
0.0
 36
0.0
 17
0.0
 27
1.0
 37
0.0
 76
     0
330
28D
331
600
  0
LAYOUT
  5
4BB
102
{ACAD_REACTORS
330
1A
102
}
330
1A
100
AcDbPlotSettings
  1

  2
none_device
  4
ISO_A4_(210.00_x_297.00_MM)
  6

 40
7.5
 41
20.0
 42
7.5
 43
20.0
 44
210.0
 45
297.0
 46
0.0
 47
0.0
 48
0.0
 49
0.0
140
0.0
141
0.0
142
1.0
143
2.0233463035
 70
   688
 72
     1
 73
     1
 74
     1
  7

 75
     0
147
0.4942307692
148
260.0
149
155.0
100
AcDbLayout
  1
_Trimetric
 70
     1
 71
     7
 10
0.0
 20
0.0
 11
0.0
 21
0.0
 12
0.0
 22
0.0
 32
0.0
 14
0.0
 24
0.0
 34
0.0
 15
0.0
 25
0.0
 35
0.0
146
0.0
 13
0.0
 23
0.0
 33
0.0
 16
1.0
 26
0.0
 36
0.0
 17
0.0
 27
1.0
 37
0.0
 76
     0
330
4BA
331
606
  0
LAYOUT
  5
22
102
{ACAD_REACTORS
330
1A
102
}
330
1A
100
AcDbPlotSettings
  1

  2
none_device
  4
ANSI_A_(11.00_x_8.50_Inches)
  6

 40
6.35
 41
19.05
 42
6.35000508
 43
19.05000254
 44
279.4
 45
215.9
 46
133.34999746
 47
88.89999873
 48
0.0
 49
0.0
140
0.0
141
0.0
142
0.0209423077
143
1.0
 70
  1696
 72
     0
 73
     0
 74
     0
  7

 75
     0
147
0.0179189148
148
-1300.4909072572
149
0.0
100
AcDbLayout
  1
Model
 70
     1
 71
     0
 10
0.0
 20
0.0
 11
420.0
 21
297.0
 12
0.0
 22
0.0
 32
0.0
 14
-260.0
 24
-130.0
 34
0.0
 15
260.0
 25
130.0
 35
0.0
146
0.0
 13
0.0
 23
0.0
 33
0.0
 16
1.0
 26
0.0
 36
0.0
 17
0.0
 27
1.0
 37
0.0
 76
     0
330
1F
331
29
  0
MLINESTYLE
  5
18
102
{ACAD_REACTORS
330
17
102
}
330
17
100
AcDbMlineStyle
  2
Standard
 70
     0
  3

 62
   256
 51
90.0
 52
90.0
 71
     2
 49
0.5
 62
   256
  6
BYLAYER
 49
-0.5
 62
   256
  6
BYLAYER
  0
ACDBPLACEHOLDER
  5
F
102
{ACAD_REACTORS
330
E
102
}
330
E
  0
SCALE
  5
48
102
{ACAD_REACTORS
330
47
102
}
330
47
100
AcDbScale
 70
     0
300
1:1
140
1.0
141
1.0
290
     1
  0
SCALE
  5
49
102
{ACAD_REACTORS
330
47
102
}
330
47
100
AcDbScale
 70
     0
300
1:2
140
1.0
141
2.0
290
     0
  0
SCALE
  5
4A
102
{ACAD_REACTORS
330
47
102
}
330
47
100
AcDbScale
 70
     0
300
1:4
140
1.0
141
4.0
290
     0
  0
SCALE
  5
4B
102
{ACAD_REACTORS
330
47
102
}
330
47
100
AcDbScale
 70
     0
300
1:5
140
1.0
141
5.0
290
     0
  0
SCALE
  5
4C
102
{ACAD_REACTORS
330
47
102
}
330
47
100
AcDbScale
 70
     0
300
1:8
140
1.0
141
8.0
290
     0
  0
SCALE
  5
4D
102
{ACAD_REACTORS
330
47
102
}
330
47
100
AcDbScale
 70
     0
300
1:10
140
1.0
141
10.0
290
     0
  0
SCALE
  5
4E
102
{ACAD_REACTORS
330
47
102
}
330
47
100
AcDbScale
 70
     0
300
1:16
140
1.0
141
16.0
290
     0
  0
SCALE
  5
4F
102
{ACAD_REACTORS
330
47
102
}
330
47
100
AcDbScale
 70
     0
300
1:20
140
1.0
141
20.0
290
     0
  0
SCALE
  5
50
102
{ACAD_REACTORS
330
47
102
}
330
47
100
AcDbScale
 70
     0
300
1:30
140
1.0
141
30.0
290
     0
  0
SCALE
  5
51
102
{ACAD_REACTORS
330
47
102
}
330
47
100
AcDbScale
 70
     0
300
1:40
140
1.0
141
40.0
290
     0
  0
SCALE
  5
52
102
{ACAD_REACTORS
330
47
102
}
330
47
100
AcDbScale
 70
     0
300
1:50
140
1.0
141
50.0
290
     0
  0
SCALE
  5
53
102
{ACAD_REACTORS
330
47
102
}
330
47
100
AcDbScale
 70
     0
300
1:100
140
1.0
141
100.0
290
     0
  0
SCALE
  5
54
102
{ACAD_REACTORS
330
47
102
}
330
47
100
AcDbScale
 70
     0
300
2:1
140
2.0
141
1.0
290
     0
  0
SCALE
  5
55
102
{ACAD_REACTORS
330
47
102
}
330
47
100
AcDbScale
 70
     0
300
4:1
140
4.0
141
1.0
290
     0
  0
SCALE
  5
56
102
{ACAD_REACTORS
330
47
102
}
330
47
100
AcDbScale
 70
     0
300
8:1
140
8.0
141
1.0
290
     0
  0
SCALE
  5
57
102
{ACAD_REACTORS
330
47
102
}
330
47
100
AcDbScale
 70
     0
300
10:1
140
10.0
141
1.0
290
     0
  0
SCALE
  5
58
102
{ACAD_REACTORS
330
47
102
}
330
47
100
AcDbScale
 70
     0
300
100:1
140
100.0
141
1.0
290
     0
  0
SCALE
  5
59
102
{ACAD_REACTORS
330
47
102
}
330
47
100
AcDbScale
 70
     0
300
1/128" = 1'-0"
140
0.0078125
141
12.0
290
     0
  0
SCALE
  5
5A
102
{ACAD_REACTORS
330
47
102
}
330
47
100
AcDbScale
 70
     0
300
1/64" = 1'-0"
140
0.015625
141
12.0
290
     0
  0
SCALE
  5
5B
102
{ACAD_REACTORS
330
47
102
}
330
47
100
AcDbScale
 70
     0
300
1/32" = 1'-0"
140
0.03125
141
12.0
290
     0
  0
SCALE
  5
5C
102
{ACAD_REACTORS
330
47
102
}
330
47
100
AcDbScale
 70
     0
300
1/16" = 1'-0"
140
0.0625
141
12.0
290
     0
  0
SCALE
  5
5D
102
{ACAD_REACTORS
330
47
102
}
330
47
100
AcDbScale
 70
     0
300
3/32" = 1'-0"
140
0.09375
141
12.0
290
     0
  0
SCALE
  5
5E
102
{ACAD_REACTORS
330
47
102
}
330
47
100
AcDbScale
 70
     0
300
1/8" = 1'-0"
140
0.125
141
12.0
290
     0
  0
SCALE
  5
5F
102
{ACAD_REACTORS
330
47
102
}
330
47
100
AcDbScale
 70
     0
300
3/16" = 1'-0"
140
0.1875
141
12.0
290
     0
  0
SCALE
  5
60
102
{ACAD_REACTORS
330
47
102
}
330
47
100
AcDbScale
 70
     0
300
1/4" = 1'-0"
140
0.25
141
12.0
290
     0
  0
SCALE
  5
61
102
{ACAD_REACTORS
330
47
102
}
330
47
100
AcDbScale
 70
     0
300
3/8" = 1'-0"
140
0.375
141
12.0
290
     0
  0
SCALE
  5
62
102
{ACAD_REACTORS
330
47
102
}
330
47
100
AcDbScale
 70
     0
300
1/2" = 1'-0"
140
0.5
141
12.0
290
     0
  0
SCALE
  5
63
102
{ACAD_REACTORS
330
47
102
}
330
47
100
AcDbScale
 70
     0
300
3/4" = 1'-0"
140
0.75
141
12.0
290
     0
  0
SCALE
  5
64
102
{ACAD_REACTORS
330
47
102
}
330
47
100
AcDbScale
 70
     0
300
1" = 1'-0"
140
1.0
141
12.0
290
     0
  0
SCALE
  5
65
102
{ACAD_REACTORS
330
47
102
}
330
47
100
AcDbScale
 70
     0
300
1-1/2" = 1'-0"
140
1.5
141
12.0
290
     0
  0
SCALE
  5
66
102
{ACAD_REACTORS
330
47
102
}
330
47
100
AcDbScale
 70
     0
300
3" = 1'-0"
140
3.0
141
12.0
290
     0
  0
SCALE
  5
67
102
{ACAD_REACTORS
330
47
102
}
330
47
100
AcDbScale
 70
     0
300
6" = 1'-0"
140
6.0
141
12.0
290
     0
  0
SCALE
  5
68
102
{ACAD_REACTORS
330
47
102
}
330
47
100
AcDbScale
 70
     0
300
1'-0" = 1'-0"
140
12.0
141
12.0
290
     0
  0
ENDSEC
  0
EOF
